   0
SECTION
   2
HEADER
   9
$LIMMIN
  10
0.0
  20
0.0
   9
$LIMMAX
  10
 1782.00
  20
 1260.00
   9
$EXTMIN
  10
0.0
  20
0.0
   9
$EXTMAX
  10
 1782.00
  20
 1260.00
   9
$LTSCALE
  40
 35.6400
   0
ENDSEC
   0
SECTION
   2
TABLES
  0
TABLE
  2
LTYPE
 70
    25
  0
LTYPE
  2
CONTINUOUS
 70
    64
  3
Solid line
 72
    65
 73
     0
 40
0.0
  0
LTYPE
  2
BORDER
 70
    64
  3
__ __ . __ __ . __ __ . __ __ . __ __ . __ __ .
 72
    65
 73
     6
 40
1.75
 49
0.5
 49
-0.25
 49
0.5
 49
-0.25
 49
0.0
 49
-0.25
  0
LTYPE
  2
BORDER2
 70
    64
  3
__.__.__.__.__.__.__.__.__.__.__.__.__.__.__.__
 72
    65
 73
     6
 40
0.875
 49
0.25
 49
-0.125
 49
0.25
 49
-0.125
 49
0.0
 49
-0.125
  0
LTYPE
  2
BORDERX2
 70
    64
  3
____  ____  .  ____  ____  .  ____  ____  .  __
 72
    65
 73
     6
 40
3.5
 49
1.0
 49
-0.5
 49
1.0
 49
-0.5
 49
0.0
 49
-0.5
  0
LTYPE
  2
CENTER
 70
    64
  3
____ _ ____ _ ____ _ ____ _ ____ _ ____ _ ____ 
 72
    65
 73
     4
 40
2.0
 49
1.25
 49
-0.25
 49
0.25
 49
-0.25
  0
LTYPE
  2
CENTER2
 70
    64
  3
___ _ ___ _ ___ _ ___ _ ___ _ ___ _ ___ _ ___ _
 72
    65
 73
     4
 40
1.125
 49
0.75
 49
-0.125
 49
0.125
 49
-0.125
  0
LTYPE
  2
CENTERX2
 70
    64
  3
________  __  ________  __  ________  __  _____
 72
    65
 73
     4
 40
4.0
 49
2.5
 49
-0.5
 49
0.5
 49
-0.5
  0
LTYPE
  2
DASHDOT
 70
    64
  3
__ . __ . __ . __ . __ . __ . __ . __ . __ . __
 72
    65
 73
     4
 40
1.0
 49
0.5
 49
-0.25
 49
0.0
 49
-0.25
  0
LTYPE
  2
DASHDOT2
 70
    64
  3
_._._._._._._._._._._._._._._._._._._._._._._._
 72
    65
 73
     4
 40
0.5
 49
0.25
 49
-0.125
 49
0.0
 49
-0.125
  0
LTYPE
  2
DASHDOTX2
 70
    64
  3
____  .  ____  .  ____  .  ____  .  ____  .  __
 72
    65
 73
     4
 40
2.0
 49
1.0
 49
-0.5
 49
0.0
 49
-0.5
  0
LTYPE
  2
DASHED
 70
    64
  3
__ __ __ __ __ __ __ __ __ __ __ __ __ __ __ __
 72
    65
 73
     2
 40
0.75
 49
0.5
 49
-0.25
  0
LTYPE
  2
DASHED2
 70
    64
  3
_ _ _ _ _ _ _ _ _ _ _ _ _ _ _ _ _ _ _ _ _ _ _ _
 72
    65
 73
     2
 40
0.375
 49
0.25
 49
-0.125
  0
LTYPE
  2
DASHEDX2
 70
    64
  3
____  ____  ____  ____  ____  ____  ____  ____ 
 72
    65
 73
     2
 40
1.5
 49
1.0
 49
-0.5
  0
LTYPE
  2
DIVIDE
 70
    64
  3
____ . . ____ . . ____ . . ____ . . ____ . . __
 72
    65
 73
     6
 40
1.25
 49
0.5
 49
-0.25
 49
0.0
 49
-0.25
 49
0.0
 49
-0.25
  0
LTYPE
  2
DIVIDE2
 70
    64
  3
__..__..__..__..__..__..__..__..__..__..__..__.
 72
    65
 73
     6
 40
0.625
 49
0.25
 49
-0.125
 49
0.0
 49
-0.125
 49
0.0
 49
-0.125
  0
LTYPE
  2
DIVIDEX2
 70
    64
  3
________  .  .  ________  .  .  ________  .  . 
 72
    65
 73
     6
 40
2.5
 49
1.0
 49
-0.5
 49
0.0
 49
-0.5
 49
0.0
 49
-0.5
  0
LTYPE
  2
DOT
 70
    64
  3
. . . . . . . . . . . . . . . . . . . . . . . .
 72
    65
 73
     2
 40
0.25
 49
0.0
 49
-0.25
  0
LTYPE
  2
DOT2
 70
    64
  3
...............................................
 72
    65
 73
     2
 40
0.125
 49
0.0
 49
-0.125
  0
LTYPE
  2
DOTX2
 70
    64
  3
.  .  .  .  .  .  .  .  .  .  .  .  .  .  .  . 
 72
    65
 73
     2
 40
0.5
 49
0.0
 49
-0.5
  0
LTYPE
  2
HIDDEN
 70
    64
  3
__ __ __ __ __ __ __ __ __ __ __ __ __ __ __ __
 72
    65
 73
     2
 40
0.375
 49
0.25
 49
-0.125
  0
LTYPE
  2
HIDDEN2
 70
    64
  3
_ _ _ _ _ _ _ _ _ _ _ _ _ _ _ _ _ _ _ _ _ _ _ _
 72
    65
 73
     2
 40
0.1875
 49
0.125
 49
-0.0625
  0
LTYPE
  2
HIDDENX2
 70
    64
  3
____ ____ ____ ____ ____ ____ ____ ____ ____ __
 72
    65
 73
     2
 40
0.75
 49
0.5
 49
-0.25
  0
LTYPE
  2
PHANTOM
 70
    64
  3
______  __  __  ______  __  __  ______  __  __ 
 72
    65
 73
     6
 40
2.5
 49
1.25
 49
-0.25
 49
0.25
 49
-0.25
 49
0.25
 49
-0.25
  0
LTYPE
  2
PHANTOM2
 70
    64
  3
___ _ _ ___ _ _ ___ _ _ ___ _ _ ___ _ _ ___ _ _
 72
    65
 73
     6
 40
1.25
 49
0.625
 49
-0.125
 49
0.125
 49
-0.125
 49
0.125
 49
-0.125
  0
LTYPE
  2
PHANTOMX2
 70
    64
  3
____________    ____    ____    ____________   
 72
    65
 73
     6
 40
5.0
 49
2.5
 49
-0.5
 49
0.5
 49
-0.5
 49
0.5
 49
-0.5
  0
ENDTAB
  0
TABLE
  2
STYLE
 70
     2
  0
STYLE
  2
STANDARD
 70
0
 40
0.0
 41
1.0
 50
0.0
 71
0
 42
0.2
  3
TXT
  4
BIGFONT
  0
STYLE
  2
STANDARD1
 70
     4
 40
0.0
 41
1.0
 50
0.0
 71
     0
 42
0.2
  3
TXT
  4
BIGFONT
  0
ENDTAB
   0
TABLE
   2
LAYER
  70
4
   0
LAYER
   2
0
  70
0
  62
7
   6
CONTINUOUS
   0
LAYER
   2
LEVEL001
  70
0
  62
7
   6
CONTINUOUS
   0
LAYER
   2
LEVEL003
  70
0
  62
7
   6
CONTINUOUS
   0
LAYER
   2
LEVEL004
  70
0
  62
7
   6
CONTINUOUS
   0
ENDTAB
   0
ENDSEC
   0
SECTION
   2
ENTITIES
   0
TEXT
   8
LEVEL003
  62
7
  10
 1085.32
  20
 38.6256
  30
0.0
  40
 30.0000
   1
ＯＳＡＫＡ ＪＡＣＫ
   7
STANDARD
   0
CIRCLE
   8
LEVEL003
   6
CONTINUOUS
  62
7
  10
 1049.41
  20
 59.7777
  30
0.0
  40
 9.00000
   0
LINE
   8
LEVEL003
   6
CONTINUOUS
  62
7
  10
 1067.07
  20
 68.7777
  30
0.0
  11
 1055.63
  21
 48.9777
  31
0.0
   0
LINE
   8
LEVEL003
   6
CONTINUOUS
  62
7
  10
 1055.63
  20
 48.9777
  30
0.0
  11
 1032.77
  21
 48.9777
  31
0.0
   0
LINE
   8
LEVEL003
   6
CONTINUOUS
  62
7
  10
 1030.18
  20
 44.4777
  30
0.0
  11
 1071.04
  21
 44.4777
  31
0.0
   0
LINE
   8
LEVEL003
   6
CONTINUOUS
  62
7
  10
 1071.04
  20
 44.4777
  30
0.0
  11
 1085.07
  21
 68.7777
  31
0.0
   0
LINE
   8
LEVEL003
   6
CONTINUOUS
  62
7
  10
 1085.07
  20
 68.7777
  30
0.0
  11
 1067.07
  21
 68.7777
  31
0.0
   0
LINE
   8
LEVEL003
   6
CONTINUOUS
  62
7
  10
 1032.77
  20
 48.9777
  30
0.0
  11
 1030.18
  21
 44.4777
  31
0.0
   0
TEXT
   8
LEVEL003
  62
7
  10
 1094.05
  20
 89.3058
  30
0.0
  40
 18.0000
   1
Model : ＰＲ２０Ｄ
   7
STANDARD
   0
LINE
   8
LEVEL001
   6
CONTINUOUS
  62
7
  10
 187.500
  20
 61.0000
  30
0.0
  11
 252.500
  21
 61.0000
  31
0.0
   0
LINE
   8
LEVEL001
   6
CONTINUOUS
  62
7
  10
 252.500
  20
 61.0000
  30
0.0
  11
 252.500
  21
 122.000
  31
0.0
   0
LINE
   8
LEVEL001
   6
CONTINUOUS
  62
7
  10
 251.500
  20
 60.0000
  30
0.0
  11
 251.500
  21
 123.000
  31
0.0
   0
LINE
   8
LEVEL001
   6
CONTINUOUS
  62
7
  10
 188.500
  20
 60.0000
  30
0.0
  11
 251.500
  21
 60.0000
  31
0.0
   0
LINE
   8
LEVEL001
   6
CONTINUOUS
  62
7
  10
 187.500
  20
 122.000
  30
0.0
  11
 252.500
  21
 122.000
  31
0.0
   0
LINE
   8
LEVEL001
   6
CONTINUOUS
  62
7
  10
 170.356
  20
 160.000
  30
0.0
  11
 269.500
  21
 160.000
  31
0.0
   0
LINE
   8
LEVEL001
   6
CONTINUOUS
  62
7
  10
 255.000
  20
 126.000
  30
0.0
  11
 255.000
  21
 157.000
  31
0.0
   0
LINE
   8
LEVEL001
   6
CONTINUOUS
  62
7
  10
 255.000
  20
 157.000
  30
0.0
  11
 185.250
  21
 157.000
  31
0.0
   0
ARC
   8
LEVEL001
   6
CONTINUOUS
  62
7
  10
 291.000
  20
 355.000
  30
0.0
  40
 30.0000
  50
 0.108563E-12
  51
 90.0000
   0
LINE
   8
LEVEL001
   6
CONTINUOUS
  62
7
  10
 264.550
  20
 409.732
  30
0.0
  11
 264.550
  21
 790.500
  31
0.0
   0
LINE
   8
LEVEL001
   6
CONTINUOUS
  62
7
  10
 175.450
  20
 409.732
  30
0.0
  11
 175.450
  21
 790.500
  31
0.0
   0
ARC
   8
LEVEL001
   6
CONTINUOUS
  62
7
  10
 160.000
  20
 206.000
  30
0.0
  40
 5.00000
  50
 0.488533E-11
  51
 53.1300
   0
ARC
   8
LEVEL001
   6
CONTINUOUS
  62
7
  10
 280.000
  20
 206.000
  30
0.0
  40
 5.00000
  50
 126.870
  51
 180.000
   0
LINE
   8
LEVEL001
   6
CONTINUOUS
  62
7
  10
 275.000
  20
 185.000
  30
0.0
  11
 165.000
  21
 185.000
  31
0.0
   0
LINE
   8
LEVEL001
   6
CONTINUOUS
  62
7
  10
 272.500
  20
 180.670
  30
0.0
  11
 272.500
  21
 163.000
  31
0.0
   0
ARC
   8
LEVEL001
   6
CONTINUOUS
  62
7
  10
 277.500
  20
 180.670
  30
0.0
  40
 5.00000
  50
 120.000
  51
 180.000
   0
LINE
   8
LEVEL001
   6
CONTINUOUS
  62
7
  10
 167.500
  20
 180.670
  30
0.0
  11
 167.500
  21
 163.000
  31
0.0
   0
ARC
   8
LEVEL001
   6
CONTINUOUS
  62
7
  10
 162.500
  20
 180.670
  30
0.0
  40
 5.00000
  50
 0.390827E-11
  51
 60.0000
   0
LINE
   8
LEVEL001
   6
CONTINUOUS
  62
7
  10
 165.000
  20
 206.000
  30
0.0
  11
 165.000
  21
 185.000
  31
0.0
   0
LINE
   8
LEVEL001
   6
CONTINUOUS
  62
7
  10
 275.000
  20
 206.000
  30
0.0
  11
 275.000
  21
 185.000
  31
0.0
   0
LINE
   8
LEVEL001
   6
CONTINUOUS
  62
7
  10
 177.000
  20
 405.000
  30
0.0
  11
 177.000
  21
 406.000
  31
0.0
   0
LINE
   8
LEVEL001
   6
CONTINUOUS
  62
7
  10
 176.000
  20
 405.000
  30
0.0
  11
 176.000
  21
 409.732
  31
0.0
   0
LINE
   8
LEVEL001
   6
CONTINUOUS
  62
7
  10
 263.000
  20
 405.000
  30
0.0
  11
 263.000
  21
 406.000
  31
0.0
   0
LINE
   8
LEVEL001
   6
CONTINUOUS
  62
7
  10
 264.000
  20
 405.000
  30
0.0
  11
 264.000
  21
 409.732
  31
0.0
   0
LINE
   8
LEVEL001
   6
CONTINUOUS
  62
7
  10
 160.000
  20
 402.000
  30
0.0
  11
 160.000
  21
 395.000
  31
0.0
   0
ARC
   8
LEVEL001
   6
CONTINUOUS
  62
7
  10
 150.000
  20
 395.000
  30
0.0
  40
 10.0000
  50
 270.000
  51
0.0
   0
ARC
   8
LEVEL001
   6
CONTINUOUS
  62
7
  10
 163.000
  20
 402.000
  30
0.0
  40
 3.00000
  50
 90.0000
  51
 180.000
   0
ARC
   8
LEVEL001
   6
CONTINUOUS
  62
7
  10
 170.500
  20
 163.000
  30
0.0
  40
 3.00000
  50
 180.000
  51
 270.000
   0
LINE
   8
LEVEL001
   6
CONTINUOUS
  62
7
  10
 280.000
  20
 402.000
  30
0.0
  11
 280.000
  21
 395.000
  31
0.0
   0
ARC
   8
LEVEL001
   6
CONTINUOUS
  62
7
  10
 290.000
  20
 395.000
  30
0.0
  40
 10.0000
  50
 180.000
  51
 270.000
   0
ARC
   8
LEVEL001
   6
CONTINUOUS
  62
7
  10
 277.000
  20
 402.000
  30
0.0
  40
 3.00000
  50
0.0
  51
 90.0000
   0
ARC
   8
LEVEL001
   6
CONTINUOUS
  62
7
  10
 269.500
  20
 163.000
  30
0.0
  40
 3.00000
  50
 270.000
  51
0.0
   0
LINE
   8
LEVEL001
   6
CONTINUOUS
  62
7
  10
 185.000
  20
 126.000
  30
0.0
  11
 185.000
  21
 157.000
  31
0.0
   0
ARC
   8
LEVEL001
   6
CONTINUOUS
  62
7
  10
 186.000
  20
 126.000
  30
0.0
  40
 1.00000
  50
 180.000
  51
 270.000
   0
LINE
   8
LEVEL001
   6
CONTINUOUS
  62
7
  10
 188.500
  20
 60.0000
  30
0.0
  11
 188.500
  21
 123.000
  31
0.0
   0
LINE
   8
LEVEL001
   6
CONTINUOUS
  62
7
  10
 188.500
  20
 123.000
  30
0.0
  11
 188.500
  21
 124.000
  31
0.0
   0
ARC
   8
LEVEL001
   6
CONTINUOUS
  62
7
  10
 187.500
  20
 124.000
  30
0.0
  40
 1.00000
  50
0.0
  51
 90.0000
   0
ARC
   8
LEVEL001
   6
CONTINUOUS
  62
7
  10
 187.500
  20
 123.000
  30
0.0
  40
 1.00000
  50
 270.000
  51
0.0
   0
LINE
   8
LEVEL001
   6
CONTINUOUS
  62
7
  10
 187.500
  20
 61.0000
  30
0.0
  11
 187.500
  21
 122.000
  31
0.0
   0
LINE
   8
LEVEL001
   6
CONTINUOUS
  62
7
  10
 188.500
  20
 60.0000
  30
0.0
  11
 187.500
  21
 61.0000
  31
0.0
   0
LINE
   8
LEVEL001
   6
CONTINUOUS
  62
7
  10
 185.250
  20
 157.000
  30
0.0
  11
 185.250
  21
 160.000
  31
0.0
   0
LINE
   8
LEVEL001
   6
CONTINUOUS
  62
7
  10
 185.000
  20
 157.000
  30
0.0
  11
 185.250
  21
 157.000
  31
0.0
   0
LINE
   8
LEVEL001
   6
CONTINUOUS
  62
7
  10
 251.500
  20
 123.000
  30
0.0
  11
 251.500
  21
 124.000
  31
0.0
   0
ARC
   8
LEVEL001
   6
CONTINUOUS
  62
7
  10
 252.500
  20
 124.000
  30
0.0
  40
 1.00000
  50
 90.0000
  51
 180.000
   0
ARC
   8
LEVEL001
   6
CONTINUOUS
  62
7
  10
 252.500
  20
 123.000
  30
0.0
  40
 1.00000
  50
 180.000
  51
 270.000
   0
LINE
   8
LEVEL001
   6
CONTINUOUS
  62
7
  10
 251.500
  20
 60.0000
  30
0.0
  11
 252.500
  21
 61.0000
  31
0.0
   0
LINE
   8
LEVEL001
   6
CONTINUOUS
  62
7
  10
 254.750
  20
 157.000
  30
0.0
  11
 254.750
  21
 160.000
  31
0.0
   0
LINE
   8
LEVEL001
   6
CONTINUOUS
  62
7
  10
 177.000
  20
 406.000
  30
0.0
  11
 176.000
  21
 406.000
  31
0.0
   0
LINE
   8
LEVEL001
   6
CONTINUOUS
  62
7
  10
 177.000
  20
 406.000
  30
0.0
  11
 176.000
  21
 409.732
  31
0.0
   0
LINE
   8
LEVEL001
   6
CONTINUOUS
  62
7
  10
 263.000
  20
 406.000
  30
0.0
  11
 264.000
  21
 406.000
  31
0.0
   0
LINE
   8
LEVEL001
   6
CONTINUOUS
  62
7
  10
 263.000
  20
 406.000
  30
0.0
  11
 264.000
  21
 409.732
  31
0.0
   0
LINE
   8
LEVEL001
   6
CONTINUOUS
  62
7
  10
 175.450
  20
 790.500
  30
0.0
  11
 264.550
  21
 790.500
  31
0.0
   0
LINE
   8
LEVEL001
   6
CONTINUOUS
  62
7
  10
 177.500
  20
 795.000
  30
0.0
  11
 175.450
  21
 790.500
  31
0.0
   0
LINE
   8
LEVEL001
   6
CONTINUOUS
  62
7
  10
 262.500
  20
 795.000
  30
0.0
  11
 264.550
  21
 790.500
  31
0.0
   0
LINE
   8
LEVEL001
   6
CONTINUOUS
  62
7
  10
 177.500
  20
 795.000
  30
0.0
  11
 262.500
  21
 795.000
  31
0.0
   0
LINE
   8
LEVEL001
   6
CONTINUOUS
  62
7
  10
 687.500
  20
 61.0000
  30
0.0
  11
 752.500
  21
 61.0000
  31
0.0
   0
LINE
   8
LEVEL001
   6
CONTINUOUS
  62
7
  10
 752.500
  20
 61.0000
  30
0.0
  11
 752.500
  21
 122.000
  31
0.0
   0
LINE
   8
LEVEL001
   6
CONTINUOUS
  62
7
  10
 751.500
  20
 60.0000
  30
0.0
  11
 751.500
  21
 123.000
  31
0.0
   0
LINE
   8
LEVEL001
   6
CONTINUOUS
  62
7
  10
 688.500
  20
 60.0000
  30
0.0
  11
 751.500
  21
 60.0000
  31
0.0
   0
LINE
   8
LEVEL001
   6
CONTINUOUS
  62
7
  10
 687.500
  20
 122.000
  30
0.0
  11
 752.500
  21
 122.000
  31
0.0
   0
LINE
   8
LEVEL001
   6
CONTINUOUS
  62
7
  10
 670.356
  20
 160.000
  30
0.0
  11
 769.500
  21
 160.000
  31
0.0
   0
LINE
   8
LEVEL001
   6
CONTINUOUS
  62
7
  10
 522.000
  20
 235.000
  30
0.0
  11
 863.000
  21
 235.000
  31
0.0
   0
LINE
   8
LEVEL001
   6
CONTINUOUS
  62
7
  10
 865.000
  20
 233.217
  30
0.0
  11
 865.000
  21
 210.000
  31
0.0
   0
LINE
   8
LEVEL001
   6
CONTINUOUS
  62
7
  10
 755.000
  20
 126.000
  30
0.0
  11
 755.000
  21
 157.000
  31
0.0
   0
LINE
   8
LEVEL001
   6
CONTINUOUS
  62
7
  10
 865.000
  20
 210.000
  30
0.0
  11
 520.000
  21
 210.000
  31
0.0
   0
LINE
   8
LEVEL001
   6
CONTINUOUS
  62
7
  10
 663.000
  20
 405.000
  30
0.0
  11
 777.000
  21
 405.000
  31
0.0
   0
ARC
   8
LEVEL001
   6
CONTINUOUS
  62
7
  10
 791.000
  20
 355.000
  30
0.0
  40
 30.0000
  50
 0.108563E-12
  51
 90.0000
   0
LINE
   8
LEVEL001
   6
CONTINUOUS
  62
7
  10
 791.000
  20
 385.000
  30
0.0
  11
 646.000
  21
 385.000
  31
0.0
   0
LINE
   8
LEVEL001
   6
CONTINUOUS
  62
7
  10
 764.550
  20
 409.732
  30
0.0
  11
 764.550
  21
 790.500
  31
0.0
   0
LINE
   8
LEVEL001
   6
CONTINUOUS
  62
7
  10
 675.450
  20
 409.732
  30
0.0
  11
 764.550
  21
 409.732
  31
0.0
   0
LINE
   8
LEVEL001
   6
CONTINUOUS
  62
7
  10
 675.450
  20
 409.732
  30
0.0
  11
 675.450
  21
 790.500
  31
0.0
   0
ARC
   8
LEVEL001
   6
CONTINUOUS
  62
7
  10
 624.000
  20
 295.000
  30
0.0
  40
 54.0000
  50
 108.916
  51
 214.880
   0
LINE
   8
LEVEL001
   6
CONTINUOUS
  62
7
  10
 569.871
  20
 301.583
  30
0.0
  11
 571.818
  21
 308.895
  31
0.0
   0
LINE
   8
LEVEL001
   6
CONTINUOUS
  62
7
  10
 561.092
  20
 268.613
  30
0.0
  11
 566.255
  21
 288.000
  31
0.0
   0
LINE
   8
LEVEL001
   6
CONTINUOUS
  62
7
  10
 522.000
  20
 235.000
  30
0.0
  11
 547.746
  21
 250.734
  31
0.0
   0
ARC
   8
LEVEL001
   6
CONTINUOUS
  62
7
  10
 532.102
  20
 276.332
  30
0.0
  40
 30.0000
  50
 301.430
  51
 345.090
   0
LINE
   8
LEVEL001
   6
CONTINUOUS
  62
7
  10
 815.913
  20
 245.000
  30
0.0
  11
 660.000
  21
 245.000
  31
0.0
   0
LINE
   8
LEVEL001
   6
CONTINUOUS
  62
7
  10
 821.000
  20
 261.000
  30
0.0
  11
 675.000
  21
 261.000
  31
0.0
   0
ARC
   8
LEVEL001
   6
CONTINUOUS
  62
7
  10
 660.000
  20
 206.000
  30
0.0
  40
 5.00000
  50
 0.521102E-11
  51
 53.1300
   0
ARC
   8
LEVEL001
   6
CONTINUOUS
  62
7
  10
 780.000
  20
 206.000
  30
0.0
  40
 5.00000
  50
 126.870
  51
 180.000
   0
LINE
   8
LEVEL001
   6
CONTINUOUS
  62
7
  10
 570.000
  20
 289.277
  30
0.0
  11
 570.303
  21
 289.287
  31
0.0
   0
LINE
   8
LEVEL001
   6
CONTINUOUS
  62
7
  10
 569.116
  20
 288.394
  30
0.0
  11
 570.000
  21
 289.277
  31
0.0
   0
LINE
   8
LEVEL001
   6
CONTINUOUS
  62
7
  10
 570.000
  20
 300.723
  30
0.0
  11
 570.303
  21
 300.713
  31
0.0
   0
LINE
   8
LEVEL001
   6
CONTINUOUS
  62
7
  10
 569.116
  20
 301.606
  30
0.0
  11
 570.000
  21
 300.723
  31
0.0
   0
LINE
   8
LEVEL001
   6
CONTINUOUS
  62
7
  10
 570.401
  20
 301.566
  30
0.0
  11
 569.116
  21
 301.606
  31
0.0
   0
LINE
   8
LEVEL001
   6
CONTINUOUS
  62
7
  10
 569.116
  20
 288.394
  30
0.0
  11
 570.401
  21
 288.434
  31
0.0
   0
ARC
   8
LEVEL001
   6
CONTINUOUS
  62
7
  10
 559.007
  20
 291.500
  30
0.0
  40
 10.1093
  50
 339.744
  51
 20.2560
   0
ARC
   8
LEVEL001
   6
CONTINUOUS
  62
7
  10
 559.007
  20
 298.500
  30
0.0
  40
 10.1093
  50
 339.744
  51
 20.2560
   0
ARC
   8
LEVEL001
   6
CONTINUOUS
  62
7
  10
 554.614
  20
 304.985
  30
0.0
  40
 3.30000
  50
 202.500
  51
 228.418
   0
ARC
   8
LEVEL001
   6
CONTINUOUS
  62
7
  10
 551.893
  20
 301.918
  30
0.0
  40
 0.800000
  50
 357.576
  51
 48.4260
   0
LINE
   8
LEVEL001
   6
CONTINUOUS
  62
7
  10
 559.914
  20
 301.335
  30
0.0
  11
 564.366
  21
 301.335
  31
0.0
   0
LINE
   8
LEVEL001
   6
CONTINUOUS
  62
7
  10
 557.965
  20
 304.440
  30
0.0
  11
 552.641
  21
 302.235
  31
0.0
   0
LINE
   8
LEVEL001
   6
CONTINUOUS
  62
7
  10
 551.364
  20
 306.561
  30
0.0
  11
 553.581
  21
 307.479
  31
0.0
   0
LINE
   8
LEVEL001
   6
CONTINUOUS
  62
7
  10
 551.565
  20
 303.722
  30
0.0
  11
 551.364
  21
 306.561
  31
0.0
   0
LINE
   8
LEVEL001
   6
CONTINUOUS
  62
7
  10
 554.614
  20
 304.985
  30
0.0
  11
 551.565
  21
 303.722
  31
0.0
   0
LINE
   8
LEVEL001
   6
CONTINUOUS
  62
7
  10
 557.663
  20
 306.248
  30
0.0
  11
 554.614
  21
 304.985
  31
0.0
   0
LINE
   8
LEVEL001
   6
CONTINUOUS
  62
7
  10
 555.798
  20
 308.398
  30
0.0
  11
 557.663
  21
 306.248
  31
0.0
   0
LINE
   8
LEVEL001
   6
CONTINUOUS
  62
7
  10
 553.581
  20
 307.479
  30
0.0
  11
 555.798
  21
 308.398
  31
0.0
   0
ARC
   8
LEVEL001
   6
CONTINUOUS
  62
7
  10
 562.225
  20
 308.570
  30
0.0
  40
 6.00000
  50
 227.431
  51
 237.017
   0
ARC
   8
LEVEL001
   6
CONTINUOUS
  62
7
  10
 554.614
  20
 304.985
  30
0.0
  40
 3.30000
  50
 356.582
  51
 22.5000
   0
ARC
   8
LEVEL001
   6
CONTINUOUS
  62
7
  10
 558.321
  20
 296.035
  30
0.0
  40
 6.68738
  50
 94.9120
  51
 130.088
   0
ARC
   8
LEVEL001
   6
CONTINUOUS
  62
7
  10
 560.131
  20
 300.560
  30
0.0
  40
 3.20000
  50
 110.768
  51
 138.098
   0
ARC
   8
LEVEL001
   6
CONTINUOUS
  62
7
  10
 553.677
  20
 307.248
  30
0.0
  40
 1.00000
  50
 36.9770
  51
 188.021
   0
ARC
   8
LEVEL001
   6
CONTINUOUS
  62
7
  10
 558.707
  20
 304.740
  30
0.0
  40
 0.800000
  50
 176.573
  51
 227.428
   0
ARC
   8
LEVEL001
   6
CONTINUOUS
  62
7
  10
 546.698
  20
 302.139
  30
0.0
  40
 6.00000
  50
 347.981
  51
 357.567
   0
LINE
   8
LEVEL001
   6
CONTINUOUS
  62
7
  10
 556.604
  20
 288.665
  30
0.0
  11
 564.366
  21
 288.665
  31
0.0
   0
LINE
   8
LEVEL001
   6
CONTINUOUS
  62
7
  10
 554.694
  20
 299.511
  30
0.0
  11
 554.015
  21
 301.151
  31
0.0
   0
LINE
   8
LEVEL001
   6
CONTINUOUS
  62
7
  10
 558.428
  20
 301.058
  30
0.0
  11
 557.749
  21
 302.698
  31
0.0
   0
LINE
   8
LEVEL001
   6
CONTINUOUS
  62
7
  10
 559.616
  20
 303.471
  30
0.0
  11
 560.295
  21
 301.831
  31
0.0
   0
LINE
   8
LEVEL001
   6
CONTINUOUS
  62
7
  10
 558.996
  20
 303.553
  30
0.0
  11
 559.616
  21
 303.471
  31
0.0
   0
LINE
   8
LEVEL001
   6
CONTINUOUS
  62
7
  10
 552.529
  20
 300.874
  30
0.0
  11
 558.996
  21
 303.553
  31
0.0
   0
LINE
   8
LEVEL001
   6
CONTINUOUS
  62
7
  10
 552.148
  20
 300.378
  30
0.0
  11
 552.529
  21
 300.874
  31
0.0
   0
LINE
   8
LEVEL001
   6
CONTINUOUS
  62
7
  10
 552.827
  20
 298.738
  30
0.0
  11
 552.148
  21
 300.378
  31
0.0
   0
LINE
   8
LEVEL001
   6
CONTINUOUS
  62
7
  10
 553.447
  20
 298.656
  30
0.0
  11
 552.827
  21
 298.738
  31
0.0
   0
LINE
   8
LEVEL001
   6
CONTINUOUS
  62
7
  10
 559.914
  20
 301.335
  30
0.0
  11
 553.447
  21
 298.656
  31
0.0
   0
LINE
   8
LEVEL001
   6
CONTINUOUS
  62
7
  10
 560.295
  20
 301.831
  30
0.0
  11
 559.914
  21
 301.335
  31
0.0
   0
ARC
   8
LEVEL001
   6
CONTINUOUS
  62
7
  10
 562.688
  20
 295.000
  30
0.0
  40
 9.93811
  50
 158.413
  51
 208.731
   0
ARC
   8
LEVEL001
   6
CONTINUOUS
  62
7
  10
 556.604
  20
 291.665
  30
0.0
  40
 3.00000
  50
 208.731
  51
 270.000
   0
ARC
   8
LEVEL001
   6
CONTINUOUS
  62
7
  10
 554.614
  20
 304.985
  30
0.0
  40
 6.43506
  50
 259.551
  51
 325.449
   0
ARC
   8
LEVEL001
   6
CONTINUOUS
  62
7
  10
 554.122
  20
 306.174
  30
0.0
  40
 6.68738
  50
 274.912
  51
 310.088
   0
ARC
   8
LEVEL001
   6
CONTINUOUS
  62
7
  10
 553.842
  20
 297.956
  30
0.0
  40
 3.20000
  50
 86.9030
  51
 114.232
   0
ARC
   8
LEVEL001
   6
CONTINUOUS
  62
7
  10
 552.312
  20
 301.648
  30
0.0
  40
 3.20000
  50
 290.768
  51
 318.098
   0
ARC
   8
LEVEL001
   6
CONTINUOUS
  62
7
  10
 558.601
  20
 304.253
  30
0.0
  40
 3.20000
  50
 266.903
  51
 294.232
   0
LINE
   8
LEVEL001
   6
CONTINUOUS
  62
7
  10
 570.000
  20
 289.277
  30
0.0
  11
 570.000
  21
 300.723
  31
0.0
   0
LINE
   8
LEVEL001
   6
CONTINUOUS
  62
7
  10
 564.750
  20
 302.000
  30
0.0
  11
 564.366
  21
 301.335
  31
0.0
   0
LINE
   8
LEVEL001
   6
CONTINUOUS
  62
7
  10
 569.116
  20
 302.000
  30
0.0
  11
 564.750
  21
 302.000
  31
0.0
   0
LINE
   8
LEVEL001
   6
CONTINUOUS
  62
7
  10
 569.116
  20
 288.000
  30
0.0
  11
 569.116
  21
 302.000
  31
0.0
   0
LINE
   8
LEVEL001
   6
CONTINUOUS
  62
7
  10
 564.750
  20
 288.000
  30
0.0
  11
 569.116
  21
 288.000
  31
0.0
   0
LINE
   8
LEVEL001
   6
CONTINUOUS
  62
7
  10
 568.491
  20
 295.000
  30
0.0
  11
 565.342
  21
 295.000
  31
0.0
   0
LINE
   8
LEVEL001
   6
CONTINUOUS
  62
7
  10
 564.366
  20
 288.665
  30
0.0
  11
 564.366
  21
 301.335
  31
0.0
   0
LINE
   8
LEVEL001
   6
CONTINUOUS
  62
7
  10
 564.750
  20
 302.000
  30
0.0
  11
 564.750
  21
 288.000
  31
0.0
   0
LINE
   8
LEVEL001
   6
CONTINUOUS
  62
7
  10
 564.750
  20
 288.000
  30
0.0
  11
 564.366
  21
 288.665
  31
0.0
   0
ARC
   8
LEVEL001
   6
CONTINUOUS
  62
7
  10
 574.826
  20
 298.500
  30
0.0
  40
 10.1093
  50
 159.744
  51
 200.256
   0
ARC
   8
LEVEL001
   6
CONTINUOUS
  62
7
  10
 574.826
  20
 291.500
  30
0.0
  40
 10.1093
  50
 159.744
  51
 200.256
   0
CIRCLE
   8
LEVEL001
   6
CONTINUOUS
  62
7
  10
 580.000
  20
 295.000
  30
0.0
  40
 4.00000
   0
CIRCLE
   8
LEVEL001
   6
CONTINUOUS
  62
7
  10
 668.000
  20
 295.000
  30
0.0
  40
 4.00000
   0
CIRCLE
   8
LEVEL001
   6
CONTINUOUS
  62
7
  10
 580.000
  20
 295.000
  30
0.0
  40
 3.37500
   0
CIRCLE
   8
LEVEL001
   6
CONTINUOUS
  62
7
  10
 668.000
  20
 295.000
  30
0.0
  40
 3.37500
   0
CIRCLE
   8
LEVEL001
   6
CONTINUOUS
  62
7
  10
 624.000
  20
 295.000
  30
0.0
  40
 25.0000
   0
ARC
   8
LEVEL001
   6
CONTINUOUS
  62
7
  10
 624.000
  20
 295.000
  30
0.0
  40
 17.5000
  50
 106.602
  51
 73.3980
   0
LINE
   8
LEVEL001
   6
CONTINUOUS
  62
7
  10
 619.000
  20
 306.000
  30
0.0
  11
 619.000
  21
 314.000
  31
0.0
   0
LINE
   8
LEVEL001
   6
CONTINUOUS
  62
7
  10
 629.000
  20
 314.000
  30
0.0
  11
 629.000
  21
 306.000
  31
0.0
   0
ARC
   8
LEVEL001
   6
CONTINUOUS
  62
7
  10
 624.000
  20
 295.000
  30
0.0
  40
 16.0000
  50
 108.210
  51
 71.7900
   0
LINE
   8
LEVEL001
   6
CONTINUOUS
  62
7
  10
 629.000
  20
 306.000
  30
0.0
  11
 619.000
  21
 306.000
  31
0.0
   0
LINE
   8
LEVEL001
   6
CONTINUOUS
  62
7
  10
 629.000
  20
 314.000
  30
0.0
  11
 619.000
  21
 314.000
  31
0.0
   0
LINE
   8
LEVEL001
   6
CONTINUOUS
  62
7
  10
 654.216
  20
 260.541
  30
0.0
  11
 657.562
  21
 261.438
  31
0.0
   0
LINE
   8
LEVEL001
   6
CONTINUOUS
  62
7
  10
 651.767
  20
 262.991
  30
0.0
  11
 654.216
  21
 260.541
  31
0.0
   0
LINE
   8
LEVEL001
   6
CONTINUOUS
  62
7
  10
 652.663
  20
 266.337
  30
0.0
  11
 651.767
  21
 262.991
  31
0.0
   0
LINE
   8
LEVEL001
   6
CONTINUOUS
  62
7
  10
 656.009
  20
 267.233
  30
0.0
  11
 652.663
  21
 266.337
  31
0.0
   0
LINE
   8
LEVEL001
   6
CONTINUOUS
  62
7
  10
 658.459
  20
 264.784
  30
0.0
  11
 656.009
  21
 267.233
  31
0.0
   0
LINE
   8
LEVEL001
   6
CONTINUOUS
  62
7
  10
 657.562
  20
 261.438
  30
0.0
  11
 658.459
  21
 264.784
  31
0.0
   0
CIRCLE
   8
LEVEL001
   6
CONTINUOUS
  62
7
  10
 655.113
  20
 263.887
  30
0.0
  40
 5.80718
   0
CIRCLE
   8
LEVEL001
   6
CONTINUOUS
  62
7
  10
 655.113
  20
 263.887
  30
0.0
  40
 6.50000
   0
LINE
   8
LEVEL001
   6
CONTINUOUS
  62
7
  10
 589.541
  20
 264.784
  30
0.0
  11
 590.438
  21
 261.438
  31
0.0
   0
LINE
   8
LEVEL001
   6
CONTINUOUS
  62
7
  10
 591.991
  20
 267.233
  30
0.0
  11
 589.541
  21
 264.784
  31
0.0
   0
LINE
   8
LEVEL001
   6
CONTINUOUS
  62
7
  10
 595.337
  20
 266.337
  30
0.0
  11
 591.991
  21
 267.233
  31
0.0
   0
LINE
   8
LEVEL001
   6
CONTINUOUS
  62
7
  10
 596.233
  20
 262.991
  30
0.0
  11
 595.337
  21
 266.337
  31
0.0
   0
LINE
   8
LEVEL001
   6
CONTINUOUS
  62
7
  10
 593.784
  20
 260.541
  30
0.0
  11
 596.233
  21
 262.991
  31
0.0
   0
LINE
   8
LEVEL001
   6
CONTINUOUS
  62
7
  10
 590.438
  20
 261.438
  30
0.0
  11
 593.784
  21
 260.541
  31
0.0
   0
CIRCLE
   8
LEVEL001
   6
CONTINUOUS
  62
7
  10
 592.887
  20
 263.887
  30
0.0
  40
 5.80718
   0
CIRCLE
   8
LEVEL001
   6
CONTINUOUS
  62
7
  10
 592.887
  20
 263.887
  30
0.0
  40
 6.50000
   0
LINE
   8
LEVEL001
   6
CONTINUOUS
  62
7
  10
 593.784
  20
 329.459
  30
0.0
  11
 590.438
  21
 328.562
  31
0.0
   0
LINE
   8
LEVEL001
   6
CONTINUOUS
  62
7
  10
 596.233
  20
 327.009
  30
0.0
  11
 593.784
  21
 329.459
  31
0.0
   0
LINE
   8
LEVEL001
   6
CONTINUOUS
  62
7
  10
 595.337
  20
 323.663
  30
0.0
  11
 596.233
  21
 327.009
  31
0.0
   0
LINE
   8
LEVEL001
   6
CONTINUOUS
  62
7
  10
 591.991
  20
 322.767
  30
0.0
  11
 595.337
  21
 323.663
  31
0.0
   0
LINE
   8
LEVEL001
   6
CONTINUOUS
  62
7
  10
 589.541
  20
 325.216
  30
0.0
  11
 591.991
  21
 322.767
  31
0.0
   0
LINE
   8
LEVEL001
   6
CONTINUOUS
  62
7
  10
 590.438
  20
 328.562
  30
0.0
  11
 589.541
  21
 325.216
  31
0.0
   0
CIRCLE
   8
LEVEL001
   6
CONTINUOUS
  62
7
  10
 592.887
  20
 326.113
  30
0.0
  40
 5.80718
   0
CIRCLE
   8
LEVEL001
   6
CONTINUOUS
  62
7
  10
 592.887
  20
 326.113
  30
0.0
  40
 6.50000
   0
LINE
   8
LEVEL001
   6
CONTINUOUS
  62
7
  10
 658.459
  20
 325.216
  30
0.0
  11
 657.562
  21
 328.562
  31
0.0
   0
LINE
   8
LEVEL001
   6
CONTINUOUS
  62
7
  10
 656.009
  20
 322.767
  30
0.0
  11
 658.459
  21
 325.216
  31
0.0
   0
LINE
   8
LEVEL001
   6
CONTINUOUS
  62
7
  10
 652.663
  20
 323.663
  30
0.0
  11
 656.009
  21
 322.767
  31
0.0
   0
LINE
   8
LEVEL001
   6
CONTINUOUS
  62
7
  10
 651.767
  20
 327.009
  30
0.0
  11
 652.663
  21
 323.663
  31
0.0
   0
LINE
   8
LEVEL001
   6
CONTINUOUS
  62
7
  10
 654.216
  20
 329.459
  30
0.0
  11
 651.767
  21
 327.009
  31
0.0
   0
LINE
   8
LEVEL001
   6
CONTINUOUS
  62
7
  10
 657.562
  20
 328.562
  30
0.0
  11
 654.216
  21
 329.459
  31
0.0
   0
CIRCLE
   8
LEVEL001
   6
CONTINUOUS
  62
7
  10
 655.113
  20
 326.113
  30
0.0
  40
 5.80718
   0
CIRCLE
   8
LEVEL001
   6
CONTINUOUS
  62
7
  10
 655.113
  20
 326.113
  30
0.0
  40
 6.50000
   0
CIRCLE
   8
LEVEL001
   6
CONTINUOUS
  62
7
  10
 624.000
  20
 295.000
  30
0.0
  40
 53.5000
   0
LINE
   8
LEVEL001
   6
CONTINUOUS
  62
7
  10
 775.000
  20
 185.000
  30
0.0
  11
 665.000
  21
 185.000
  31
0.0
   0
LINE
   8
LEVEL001
   6
CONTINUOUS
  62
7
  10
 772.500
  20
 180.670
  30
0.0
  11
 772.500
  21
 163.000
  31
0.0
   0
ARC
   8
LEVEL001
   6
CONTINUOUS
  62
7
  10
 777.500
  20
 180.670
  30
0.0
  40
 5.00000
  50
 120.000
  51
 180.000
   0
LINE
   8
LEVEL001
   6
CONTINUOUS
  62
7
  10
 667.500
  20
 180.670
  30
0.0
  11
 667.500
  21
 163.000
  31
0.0
   0
ARC
   8
LEVEL001
   6
CONTINUOUS
  62
7
  10
 662.500
  20
 180.670
  30
0.0
  40
 5.00000
  50
 0.390827E-11
  51
 60.0000
   0
LINE
   8
LEVEL001
   6
CONTINUOUS
  62
7
  10
 665.000
  20
 206.000
  30
0.0
  11
 665.000
  21
 185.000
  31
0.0
   0
LINE
   8
LEVEL001
   6
CONTINUOUS
  62
7
  10
 775.000
  20
 206.000
  30
0.0
  11
 775.000
  21
 185.000
  31
0.0
   0
LINE
   8
LEVEL001
   6
CONTINUOUS
  62
7
  10
 677.000
  20
 405.000
  30
0.0
  11
 677.000
  21
 406.000
  31
0.0
   0
LINE
   8
LEVEL001
   6
CONTINUOUS
  62
7
  10
 676.000
  20
 405.000
  30
0.0
  11
 676.000
  21
 409.732
  31
0.0
   0
LINE
   8
LEVEL001
   6
CONTINUOUS
  62
7
  10
 763.000
  20
 405.000
  30
0.0
  11
 763.000
  21
 406.000
  31
0.0
   0
LINE
   8
LEVEL001
   6
CONTINUOUS
  62
7
  10
 764.000
  20
 405.000
  30
0.0
  11
 764.000
  21
 409.732
  31
0.0
   0
LINE
   8
LEVEL001
   6
CONTINUOUS
  62
7
  10
 619.000
  20
 389.000
  30
0.0
  11
 619.000
  21
 358.725
  31
0.0
   0
ARC
   8
LEVEL001
   6
CONTINUOUS
  62
7
  10
 649.000
  20
 355.000
  30
0.0
  40
 30.0000
  50
 90.0000
  51
 168.459
   0
ARC
   8
LEVEL001
   6
CONTINUOUS
  62
7
  10
 600.011
  20
 365.004
  30
0.0
  40
 20.0000
  50
 288.916
  51
 348.459
   0
LINE
   8
LEVEL001
   6
CONTINUOUS
  62
7
  10
 810.000
  20
 398.500
  30
0.0
  11
 803.410
  21
 397.000
  31
0.0
   0
LINE
   8
LEVEL001
   6
CONTINUOUS
  62
7
  10
 816.590
  20
 397.000
  30
0.0
  11
 810.000
  21
 398.500
  31
0.0
   0
LINE
   8
LEVEL001
   6
CONTINUOUS
  62
7
  10
 816.590
  20
 397.000
  30
0.0
  11
 803.410
  21
 397.000
  31
0.0
   0
LINE
   8
LEVEL001
   6
CONTINUOUS
  62
7
  10
 800.000
  20
 390.000
  30
0.0
  11
 801.478
  21
 395.518
  31
0.0
   0
ARC
   8
LEVEL001
   6
CONTINUOUS
  62
7
  10
 803.410
  20
 395.000
  30
0.0
  40
 2.00000
  50
 90.0010
  51
 165.000
   0
LINE
   8
LEVEL001
   6
CONTINUOUS
  62
7
  10
 820.000
  20
 390.000
  30
0.0
  11
 818.522
  21
 395.518
  31
0.0
   0
ARC
   8
LEVEL001
   6
CONTINUOUS
  62
7
  10
 816.590
  20
 395.000
  30
0.0
  40
 2.00000
  50
 15.0000
  51
 89.9990
   0
ARC
   8
LEVEL001
   6
CONTINUOUS
  62
7
  10
 810.000
  20
 411.000
  30
0.0
  40
 20.5000
  50
 302.903
  51
 237.097
   0
ARC
   8
LEVEL001
   6
CONTINUOUS
  62
7
  10
 797.234
  20
 391.270
  30
0.0
  40
 3.00000
  50
 345.000
  51
 57.0970
   0
LINE
   8
LEVEL001
   6
CONTINUOUS
  62
7
  10
 820.000
  20
 390.000
  30
0.0
  11
 800.000
  21
 390.000
  31
0.0
   0
ARC
   8
LEVEL001
   6
CONTINUOUS
  62
7
  10
 822.766
  20
 391.270
  30
0.0
  40
 3.00000
  50
 122.903
  51
 195.000
   0
CIRCLE
   8
LEVEL001
   6
CONTINUOUS
  62
7
  10
 810.000
  20
 411.000
  30
0.0
  40
 12.5000
   0
LINE
   8
LEVEL001
   6
CONTINUOUS
  62
7
  10
 630.000
  20
 398.500
  30
0.0
  11
 636.590
  21
 397.000
  31
0.0
   0
LINE
   8
LEVEL001
   6
CONTINUOUS
  62
7
  10
 623.410
  20
 397.000
  30
0.0
  11
 630.000
  21
 398.500
  31
0.0
   0
LINE
   8
LEVEL001
   6
CONTINUOUS
  62
7
  10
 623.410
  20
 397.000
  30
0.0
  11
 636.590
  21
 397.000
  31
0.0
   0
LINE
   8
LEVEL001
   6
CONTINUOUS
  62
7
  10
 640.000
  20
 390.000
  30
0.0
  11
 638.522
  21
 395.518
  31
0.0
   0
ARC
   8
LEVEL001
   6
CONTINUOUS
  62
7
  10
 636.590
  20
 395.000
  30
0.0
  40
 2.00000
  50
 15.0000
  51
 89.9990
   0
LINE
   8
LEVEL001
   6
CONTINUOUS
  62
7
  10
 620.000
  20
 390.000
  30
0.0
  11
 621.478
  21
 395.518
  31
0.0
   0
ARC
   8
LEVEL001
   6
CONTINUOUS
  62
7
  10
 623.410
  20
 395.000
  30
0.0
  40
 2.00000
  50
 90.0010
  51
 165.000
   0
ARC
   8
LEVEL001
   6
CONTINUOUS
  62
7
  10
 630.000
  20
 411.000
  30
0.0
  40
 20.5000
  50
 302.903
  51
 237.097
   0
ARC
   8
LEVEL001
   6
CONTINUOUS
  62
7
  10
 642.766
  20
 391.270
  30
0.0
  40
 3.00000
  50
 122.903
  51
 195.000
   0
LINE
   8
LEVEL001
   6
CONTINUOUS
  62
7
  10
 620.000
  20
 390.000
  30
0.0
  11
 640.000
  21
 390.000
  31
0.0
   0
ARC
   8
LEVEL001
   6
CONTINUOUS
  62
7
  10
 617.234
  20
 391.270
  30
0.0
  40
 3.00000
  50
 345.000
  51
 57.0970
   0
CIRCLE
   8
LEVEL001
   6
CONTINUOUS
  62
7
  10
 630.000
  20
 411.000
  30
0.0
  40
 12.5000
   0
LINE
   8
LEVEL001
   6
CONTINUOUS
  62
7
  10
 589.043
  20
 250.719
  30
0.0
  11
 579.701
  21
 264.120
  31
0.0
   0
ARC
   8
LEVEL001
   6
CONTINUOUS
  62
7
  10
 580.839
  20
 245.000
  30
0.0
  40
 10.0000
  50
 270.000
  51
 34.8800
   0
LINE
   8
LEVEL001
   6
CONTINUOUS
  62
7
  10
 520.000
  20
 233.000
  30
0.0
  11
 520.000
  21
 210.000
  31
0.0
   0
ARC
   8
LEVEL001
   6
CONTINUOUS
  62
7
  10
 522.000
  20
 233.000
  30
0.0
  40
 2.00000
  50
 90.0000
  51
 180.000
   0
ARC
   8
LEVEL001
   6
CONTINUOUS
  62
7
  10
 646.000
  20
 390.000
  30
0.0
  40
 5.00000
  50
 189.594
  51
 270.000
   0
LINE
   8
LEVEL001
   6
CONTINUOUS
  62
7
  10
 640.084
  20
 390.000
  30
0.0
  11
 620.000
  21
 390.000
  31
0.0
   0
ARC
   8
LEVEL001
   6
CONTINUOUS
  62
7
  10
 640.084
  20
 389.000
  30
0.0
  40
 1.00000
  50
 9.59530
  51
 90.0010
   0
ARC
   8
LEVEL001
   6
CONTINUOUS
  62
7
  10
 620.000
  20
 389.000
  30
0.0
  40
 1.00000
  50
 90.0000
  51
 180.000
   0
LINE
   8
LEVEL001
   6
CONTINUOUS
  62
7
  10
 660.000
  20
 402.000
  30
0.0
  11
 660.000
  21
 395.000
  31
0.0
   0
ARC
   8
LEVEL001
   6
CONTINUOUS
  62
7
  10
 650.000
  20
 395.000
  30
0.0
  40
 10.0000
  50
 270.000
  51
 0.651378E-12
   0
ARC
   8
LEVEL001
   6
CONTINUOUS
  62
7
  10
 663.000
  20
 402.000
  30
0.0
  40
 3.00000
  50
 90.0000
  51
 180.000
   0
ARC
   8
LEVEL001
   6
CONTINUOUS
  62
7
  10
 670.500
  20
 163.000
  30
0.0
  40
 3.00000
  50
 180.000
  51
 270.000
   0
ARC
   8
LEVEL001
   6
CONTINUOUS
  62
7
  10
 794.000
  20
 390.000
  30
0.0
  40
 5.00000
  50
 270.000
  51
 350.406
   0
LINE
   8
LEVEL001
   6
CONTINUOUS
  62
7
  10
 799.916
  20
 390.000
  30
0.0
  11
 820.000
  21
 390.000
  31
0.0
   0
ARC
   8
LEVEL001
   6
CONTINUOUS
  62
7
  10
 799.916
  20
 389.000
  30
0.0
  40
 1.00000
  50
 89.9990
  51
 170.405
   0
LINE
   8
LEVEL001
   6
CONTINUOUS
  62
7
  10
 821.000
  20
 389.000
  30
0.0
  11
 821.000
  21
 261.000
  31
0.0
   0
ARC
   8
LEVEL001
   6
CONTINUOUS
  62
7
  10
 820.000
  20
 389.000
  30
0.0
  40
 1.00000
  50
0.0
  51
 90.0000
   0
LINE
   8
LEVEL001
   6
CONTINUOUS
  62
7
  10
 780.000
  20
 402.000
  30
0.0
  11
 780.000
  21
 395.000
  31
0.0
   0
ARC
   8
LEVEL001
   6
CONTINUOUS
  62
7
  10
 790.000
  20
 395.000
  30
0.0
  40
 10.0000
  50
 180.000
  51
 270.000
   0
ARC
   8
LEVEL001
   6
CONTINUOUS
  62
7
  10
 777.000
  20
 402.000
  30
0.0
  40
 3.00000
  50
0.0
  51
 90.0000
   0
LINE
   8
LEVEL001
   6
CONTINUOUS
  62
7
  10
 821.516
  20
 332.772
  30
0.0
  11
 837.962
  21
 261.794
  31
0.0
   0
ARC
   8
LEVEL001
   6
CONTINUOUS
  62
7
  10
 841.000
  20
 337.287
  30
0.0
  40
 20.0000
  50
 180.000
  51
 193.045
   0
LINE
   8
LEVEL001
   6
CONTINUOUS
  62
7
  10
 847.186
  20
 247.536
  30
0.0
  11
 864.210
  21
 234.592
  31
0.0
   0
ARC
   8
LEVEL001
   6
CONTINUOUS
  62
7
  10
 862.317
  20
 267.437
  30
0.0
  40
 25.0000
  50
 193.046
  51
 232.753
   0
LINE
   8
LEVEL001
   6
CONTINUOUS
  62
7
  10
 821.000
  20
 261.000
  30
0.0
  11
 817.827
  21
 247.249
  31
0.0
   0
ARC
   8
LEVEL001
   6
CONTINUOUS
  62
7
  10
 827.571
  20
 245.000
  30
0.0
  40
 10.0000
  50
 167.005
  51
 270.000
   0
ARC
   8
LEVEL001
   6
CONTINUOUS
  62
7
  10
 863.000
  20
 233.000
  30
0.0
  40
 2.00000
  50
0.0
  51
 90.0000
   0
ARC
   8
LEVEL001
   6
CONTINUOUS
  62
7
  10
 769.500
  20
 163.000
  30
0.0
  40
 3.00000
  50
 270.000
  51
0.0
   0
LINE
   8
LEVEL001
   6
CONTINUOUS
  62
7
  10
 712.000
  20
 125.000
  30
0.0
  11
 687.500
  21
 125.000
  31
0.0
   0
LINE
   8
LEVEL001
   6
CONTINUOUS
  62
7
  10
 728.000
  20
 125.000
  30
0.0
  11
 752.500
  21
 125.000
  31
0.0
   0
LINE
   8
LEVEL001
   6
CONTINUOUS
  62
7
  10
 687.500
  20
 125.000
  30
0.0
  11
 686.000
  21
 125.000
  31
0.0
   0
LINE
   8
LEVEL001
   6
CONTINUOUS
  62
7
  10
 685.000
  20
 126.000
  30
0.0
  11
 685.000
  21
 157.000
  31
0.0
   0
ARC
   8
LEVEL001
   6
CONTINUOUS
  62
7
  10
 686.000
  20
 126.000
  30
0.0
  40
 1.00000
  50
 180.000
  51
 270.000
   0
LINE
   8
LEVEL001
   6
CONTINUOUS
  62
7
  10
 688.500
  20
 60.0000
  30
0.0
  11
 688.500
  21
 123.000
  31
0.0
   0
LINE
   8
LEVEL001
   6
CONTINUOUS
  62
7
  10
 688.500
  20
 123.000
  30
0.0
  11
 688.500
  21
 124.000
  31
0.0
   0
ARC
   8
LEVEL001
   6
CONTINUOUS
  62
7
  10
 687.500
  20
 124.000
  30
0.0
  40
 1.00000
  50
0.0
  51
 90.0000
   0
ARC
   8
LEVEL001
   6
CONTINUOUS
  62
7
  10
 687.500
  20
 123.000
  30
0.0
  40
 1.00000
  50
 270.000
  51
0.0
   0
LINE
   8
LEVEL001
   6
CONTINUOUS
  62
7
  10
 687.500
  20
 61.0000
  30
0.0
  11
 687.500
  21
 122.000
  31
0.0
   0
LINE
   8
LEVEL001
   6
CONTINUOUS
  62
7
  10
 688.500
  20
 60.0000
  30
0.0
  11
 687.500
  21
 61.0000
  31
0.0
   0
LINE
   8
LEVEL001
   6
CONTINUOUS
  62
7
  10
 685.250
  20
 157.000
  30
0.0
  11
 685.250
  21
 160.000
  31
0.0
   0
LINE
   8
LEVEL001
   6
CONTINUOUS
  62
7
  10
 685.000
  20
 157.000
  30
0.0
  11
 685.250
  21
 157.000
  31
0.0
   0
LINE
   8
LEVEL001
   6
CONTINUOUS
  62
7
  10
 752.500
  20
 125.000
  30
0.0
  11
 754.000
  21
 125.000
  31
0.0
   0
ARC
   8
LEVEL001
   6
CONTINUOUS
  62
7
  10
 754.000
  20
 126.000
  30
0.0
  40
 1.00000
  50
 270.000
  51
 0.977066E-11
   0
LINE
   8
LEVEL001
   6
CONTINUOUS
  62
7
  10
 751.500
  20
 123.000
  30
0.0
  11
 751.500
  21
 124.000
  31
0.0
   0
ARC
   8
LEVEL001
   6
CONTINUOUS
  62
7
  10
 752.500
  20
 124.000
  30
0.0
  40
 1.00000
  50
 90.0000
  51
 180.000
   0
ARC
   8
LEVEL001
   6
CONTINUOUS
  62
7
  10
 752.500
  20
 123.000
  30
0.0
  40
 1.00000
  50
 180.000
  51
 270.000
   0
LINE
   8
LEVEL001
   6
CONTINUOUS
  62
7
  10
 751.500
  20
 60.0000
  30
0.0
  11
 752.500
  21
 61.0000
  31
0.0
   0
LINE
   8
LEVEL001
   6
CONTINUOUS
  62
7
  10
 754.750
  20
 157.000
  30
0.0
  11
 754.750
  21
 160.000
  31
0.0
   0
LINE
   8
LEVEL001
   6
CONTINUOUS
  62
7
  10
 677.000
  20
 406.000
  30
0.0
  11
 676.000
  21
 406.000
  31
0.0
   0
LINE
   8
LEVEL001
   6
CONTINUOUS
  62
7
  10
 677.000
  20
 406.000
  30
0.0
  11
 676.000
  21
 409.732
  31
0.0
   0
LINE
   8
LEVEL001
   6
CONTINUOUS
  62
7
  10
 763.000
  20
 406.000
  30
0.0
  11
 764.000
  21
 406.000
  31
0.0
   0
LINE
   8
LEVEL001
   6
CONTINUOUS
  62
7
  10
 763.000
  20
 406.000
  30
0.0
  11
 764.000
  21
 409.732
  31
0.0
   0
LINE
   8
LEVEL001
   6
CONTINUOUS
  62
7
  10
 675.450
  20
 790.500
  30
0.0
  11
 764.550
  21
 790.500
  31
0.0
   0
LINE
   8
LEVEL001
   6
CONTINUOUS
  62
7
  10
 677.500
  20
 795.000
  30
0.0
  11
 675.450
  21
 790.500
  31
0.0
   0
LINE
   8
LEVEL001
   6
CONTINUOUS
  62
7
  10
 762.500
  20
 795.000
  30
0.0
  11
 764.550
  21
 790.500
  31
0.0
   0
LINE
   8
LEVEL001
   6
CONTINUOUS
  62
7
  10
 677.500
  20
 795.000
  30
0.0
  11
 762.500
  21
 795.000
  31
0.0
   0
LINE
   8
LEVEL001
   6
CONTINUOUS
  62
7
  10
 315.000
  20
 235.000
  30
0.0
  11
 315.000
  21
 210.000
  31
0.0
   0
LINE
   8
LEVEL001
   6
CONTINUOUS
  62
7
  10
 125.000
  20
 235.000
  30
0.0
  11
 125.000
  21
 210.000
  31
0.0
   0
LINE
   8
LEVEL001
   6
CONTINUOUS
  62
7
  10
 315.000
  20
 210.000
  30
0.0
  11
 125.000
  21
 210.000
  31
0.0
   0
LINE
   8
LEVEL001
   6
CONTINUOUS
  62
7
  10
 120.750
  20
 348.500
  30
0.0
  11
 109.750
  21
 348.500
  31
0.0
   0
ARC
   8
LEVEL001
   6
CONTINUOUS
  62
7
  10
 109.750
  20
 346.500
  30
0.0
  40
 2.00000
  50
 90.0000
  51
 180.000
   0
LINE
   8
LEVEL001
   6
CONTINUOUS
  62
7
  10
 121.000
  20
 242.500
  30
0.0
  11
 121.000
  21
 347.500
  31
0.0
   0
LINE
   8
LEVEL001
   6
CONTINUOUS
  62
7
  10
 120.750
  20
 348.500
  30
0.0
  11
 120.750
  21
 241.500
  31
0.0
   0
LINE
   8
LEVEL001
   6
CONTINUOUS
  62
7
  10
 120.750
  20
 241.500
  30
0.0
  11
 109.750
  21
 241.500
  31
0.0
   0
ARC
   8
LEVEL001
   6
CONTINUOUS
  62
7
  10
 109.750
  20
 243.500
  30
0.0
  40
 2.00000
  50
 180.000
  51
 270.000
   0
LINE
   8
LEVEL001
   6
CONTINUOUS
  62
7
  10
 105.000
  20
 277.500
  30
0.0
  11
 107.750
  21
 277.500
  31
0.0
   0
LINE
   8
LEVEL001
   6
CONTINUOUS
  62
7
  10
 40.0000
  20
 280.000
  30
0.0
  11
 41.0000
  21
 279.000
  31
0.0
   0
LINE
   8
LEVEL001
   6
CONTINUOUS
  62
7
  10
 319.000
  20
 242.500
  30
0.0
  11
 319.000
  21
 347.500
  31
0.0
   0
LINE
   8
LEVEL001
   6
CONTINUOUS
  62
7
  10
 319.250
  20
 241.500
  30
0.0
  11
 330.250
  21
 241.500
  31
0.0
   0
ARC
   8
LEVEL001
   6
CONTINUOUS
  62
7
  10
 330.250
  20
 243.500
  30
0.0
  40
 2.00000
  50
 270.000
  51
0.0
   0
LINE
   8
LEVEL001
   6
CONTINUOUS
  62
7
  10
 319.250
  20
 348.500
  30
0.0
  11
 319.250
  21
 241.500
  31
0.0
   0
LINE
   8
LEVEL001
   6
CONTINUOUS
  62
7
  10
 319.250
  20
 348.500
  30
0.0
  11
 330.250
  21
 348.500
  31
0.0
   0
ARC
   8
LEVEL001
   6
CONTINUOUS
  62
7
  10
 330.250
  20
 346.500
  30
0.0
  40
 2.00000
  50
0.0
  51
 90.0000
   0
LINE
   8
LEVEL001
   6
CONTINUOUS
  62
7
  10
 121.000
  20
 347.500
  30
0.0
  11
 220.000
  21
 349.000
  31
0.0
   0
LINE
   8
LEVEL001
   6
CONTINUOUS
  62
7
  10
 319.000
  20
 347.500
  30
0.0
  11
 220.000
  21
 349.000
  31
0.0
   0
ARC
   8
LEVEL001
   6
CONTINUOUS
  62
7
  10
 624.000
  20
 295.000
  30
0.0
  40
 15.0000
  50
 109.471
  51
 70.5288
   0
LINE
   8
LEVEL001
   6
CONTINUOUS
  62
7
  10
 40.0000
  20
 309.142
  30
0.0
  11
 41.0000
  21
 310.199
  31
0.0
   0
LINE
   8
LEVEL001
   6
CONTINUOUS
  62
7
  10
 40.0000
  20
 314.000
  30
0.0
  11
 40.0000
  21
 309.142
  31
0.0
   0
LINE
   8
LEVEL001
   6
CONTINUOUS
  62
7
  10
 40.0000
  20
 314.000
  30
0.0
  11
 90.0000
  21
 314.000
  31
0.0
   0
LINE
   8
LEVEL001
   6
CONTINUOUS
  62
7
  10
 90.0000
  20
 314.000
  30
0.0
  11
 90.0000
  21
 310.199
  31
0.0
   0
LINE
   8
LEVEL001
   6
CONTINUOUS
  62
7
  10
 40.0000
  20
 280.000
  30
0.0
  11
 40.0000
  21
 309.142
  31
0.0
   0
LINE
   8
LEVEL001
   6
CONTINUOUS
  62
7
  10
 41.0000
  20
 279.000
  30
0.0
  11
 41.0000
  21
 310.199
  31
0.0
   0
LINE
   8
LEVEL001
   6
CONTINUOUS
  62
7
  10
 97.8960
  20
 279.000
  30
0.0
  11
 97.8960
  21
 310.199
  31
0.0
   0
LINE
   8
LEVEL001
   6
CONTINUOUS
  62
7
  10
 97.8960
  20
 310.199
  30
0.0
  11
 41.0000
  21
 310.199
  31
0.0
   0
LINE
   8
LEVEL001
   6
CONTINUOUS
  62
7
  10
 105.000
  20
 277.500
  30
0.0
  11
 105.000
  21
 312.500
  31
0.0
   0
LINE
   8
LEVEL001
   6
CONTINUOUS
  62
7
  10
 105.000
  20
 312.500
  30
0.0
  11
 107.750
  21
 312.500
  31
0.0
   0
LINE
   8
LEVEL001
   6
CONTINUOUS
  62
7
  10
 107.750
  20
 346.500
  30
0.0
  11
 107.750
  21
 243.500
  31
0.0
   0
LINE
   8
LEVEL001
   6
CONTINUOUS
  62
7
  10
 335.000
  20
 277.500
  30
0.0
  11
 332.250
  21
 277.500
  31
0.0
   0
LINE
   8
LEVEL001
   6
CONTINUOUS
  62
7
  10
 400.000
  20
 280.000
  30
0.0
  11
 399.000
  21
 279.000
  31
0.0
   0
LINE
   8
LEVEL001
   6
CONTINUOUS
  62
7
  10
 400.000
  20
 309.142
  30
0.0
  11
 399.000
  21
 310.199
  31
0.0
   0
LINE
   8
LEVEL001
   6
CONTINUOUS
  62
7
  10
 400.000
  20
 314.000
  30
0.0
  11
 400.000
  21
 309.142
  31
0.0
   0
LINE
   8
LEVEL001
   6
CONTINUOUS
  62
7
  10
 400.000
  20
 314.000
  30
0.0
  11
 350.000
  21
 314.000
  31
0.0
   0
LINE
   8
LEVEL001
   6
CONTINUOUS
  62
7
  10
 350.000
  20
 314.000
  30
0.0
  11
 350.000
  21
 310.199
  31
0.0
   0
LINE
   8
LEVEL001
   6
CONTINUOUS
  62
7
  10
 400.000
  20
 280.000
  30
0.0
  11
 400.000
  21
 309.142
  31
0.0
   0
LINE
   8
LEVEL001
   6
CONTINUOUS
  62
7
  10
 399.000
  20
 279.000
  30
0.0
  11
 399.000
  21
 310.199
  31
0.0
   0
LINE
   8
LEVEL001
   6
CONTINUOUS
  62
7
  10
 335.000
  20
 277.500
  30
0.0
  11
 335.000
  21
 312.500
  31
0.0
   0
LINE
   8
LEVEL001
   6
CONTINUOUS
  62
7
  10
 335.000
  20
 312.500
  30
0.0
  11
 332.250
  21
 312.500
  31
0.0
   0
LINE
   8
LEVEL001
   6
CONTINUOUS
  62
7
  10
 332.250
  20
 346.500
  30
0.0
  11
 332.250
  21
 243.500
  31
0.0
   0
ARC
   8
LEVEL001
   6
CONTINUOUS
  62
7
  10
 325.135
  20
 234.603
  30
0.0
  40
 10.0000
  50
 127.844
  51
 177.757
   0
LINE
   8
LEVEL001
   6
CONTINUOUS
  62
7
  10
 210.000
  20
 390.000
  30
0.0
  11
 211.478
  21
 395.518
  31
0.0
   0
ARC
   8
LEVEL001
   6
CONTINUOUS
  62
7
  10
 213.410
  20
 395.000
  30
0.0
  40
 2.00000
  50
 90.0010
  51
 165.000
   0
LINE
   8
LEVEL001
   6
CONTINUOUS
  62
7
  10
 230.000
  20
 390.000
  30
0.0
  11
 228.522
  21
 395.518
  31
0.0
   0
ARC
   8
LEVEL001
   6
CONTINUOUS
  62
7
  10
 226.590
  20
 395.000
  30
0.0
  40
 2.00000
  50
 15.0000
  51
 89.9990
   0
LINE
   8
LEVEL001
   6
CONTINUOUS
  62
7
  10
 216.000
  20
 427.500
  30
0.0
  11
 216.000
  21
 397.000
  31
0.0
   0
LINE
   8
LEVEL001
   6
CONTINUOUS
  62
7
  10
 224.000
  20
 427.500
  30
0.0
  11
 224.000
  21
 397.000
  31
0.0
   0
ARC
   8
LEVEL001
   6
CONTINUOUS
  62
7
  10
 220.000
  20
 427.500
  30
0.0
  40
 4.00000
  50
0.0
  51
 180.000
   0
LINE
   8
LEVEL001
   6
CONTINUOUS
  62
7
  10
 224.000
  20
 397.000
  30
0.0
  11
 221.950
  21
 391.711
  31
0.0
   0
LINE
   8
LEVEL001
   6
CONTINUOUS
  62
7
  10
 218.038
  20
 391.805
  30
0.0
  11
 218.054
  21
 391.769
  31
0.0
   0
LINE
   8
LEVEL001
   6
CONTINUOUS
  62
7
  10
 218.054
  20
 391.769
  30
0.0
  11
 218.072
  21
 391.734
  31
0.0
   0
LINE
   8
LEVEL001
   6
CONTINUOUS
  62
7
  10
 218.072
  20
 391.734
  30
0.0
  11
 218.094
  21
 391.698
  31
0.0
   0
LINE
   8
LEVEL001
   6
CONTINUOUS
  62
7
  10
 218.094
  20
 391.698
  30
0.0
  11
 218.118
  21
 391.664
  31
0.0
   0
LINE
   8
LEVEL001
   6
CONTINUOUS
  62
7
  10
 218.118
  20
 391.664
  30
0.0
  11
 218.145
  21
 391.630
  31
0.0
   0
LINE
   8
LEVEL001
   6
CONTINUOUS
  62
7
  10
 218.145
  20
 391.630
  30
0.0
  11
 218.175
  21
 391.596
  31
0.0
   0
LINE
   8
LEVEL001
   6
CONTINUOUS
  62
7
  10
 218.175
  20
 391.596
  30
0.0
  11
 218.207
  21
 391.562
  31
0.0
   0
LINE
   8
LEVEL001
   6
CONTINUOUS
  62
7
  10
 218.207
  20
 391.562
  30
0.0
  11
 218.242
  21
 391.530
  31
0.0
   0
LINE
   8
LEVEL001
   6
CONTINUOUS
  62
7
  10
 218.242
  20
 391.530
  30
0.0
  11
 218.279
  21
 391.498
  31
0.0
   0
LINE
   8
LEVEL001
   6
CONTINUOUS
  62
7
  10
 218.279
  20
 391.498
  30
0.0
  11
 218.319
  21
 391.466
  31
0.0
   0
LINE
   8
LEVEL001
   6
CONTINUOUS
  62
7
  10
 218.319
  20
 391.466
  30
0.0
  11
 218.361
  21
 391.435
  31
0.0
   0
LINE
   8
LEVEL001
   6
CONTINUOUS
  62
7
  10
 218.361
  20
 391.435
  30
0.0
  11
 218.405
  21
 391.405
  31
0.0
   0
LINE
   8
LEVEL001
   6
CONTINUOUS
  62
7
  10
 218.405
  20
 391.405
  30
0.0
  11
 218.452
  21
 391.376
  31
0.0
   0
LINE
   8
LEVEL001
   6
CONTINUOUS
  62
7
  10
 218.452
  20
 391.376
  30
0.0
  11
 218.501
  21
 391.348
  31
0.0
   0
LINE
   8
LEVEL001
   6
CONTINUOUS
  62
7
  10
 218.501
  20
 391.348
  30
0.0
  11
 218.552
  21
 391.320
  31
0.0
   0
LINE
   8
LEVEL001
   6
CONTINUOUS
  62
7
  10
 218.552
  20
 391.320
  30
0.0
  11
 218.605
  21
 391.294
  31
0.0
   0
LINE
   8
LEVEL001
   6
CONTINUOUS
  62
7
  10
 218.605
  20
 391.294
  30
0.0
  11
 218.660
  21
 391.268
  31
0.0
   0
LINE
   8
LEVEL001
   6
CONTINUOUS
  62
7
  10
 218.660
  20
 391.268
  30
0.0
  11
 218.717
  21
 391.244
  31
0.0
   0
LINE
   8
LEVEL001
   6
CONTINUOUS
  62
7
  10
 218.717
  20
 391.244
  30
0.0
  11
 218.776
  21
 391.220
  31
0.0
   0
LINE
   8
LEVEL001
   6
CONTINUOUS
  62
7
  10
 218.776
  20
 391.220
  30
0.0
  11
 218.836
  21
 391.197
  31
0.0
   0
LINE
   8
LEVEL001
   6
CONTINUOUS
  62
7
  10
 218.836
  20
 391.197
  30
0.0
  11
 218.899
  21
 391.176
  31
0.0
   0
LINE
   8
LEVEL001
   6
CONTINUOUS
  62
7
  10
 218.899
  20
 391.176
  30
0.0
  11
 218.962
  21
 391.155
  31
0.0
   0
LINE
   8
LEVEL001
   6
CONTINUOUS
  62
7
  10
 218.962
  20
 391.155
  30
0.0
  11
 219.028
  21
 391.136
  31
0.0
   0
LINE
   8
LEVEL001
   6
CONTINUOUS
  62
7
  10
 219.028
  20
 391.136
  30
0.0
  11
 219.094
  21
 391.118
  31
0.0
   0
LINE
   8
LEVEL001
   6
CONTINUOUS
  62
7
  10
 219.094
  20
 391.118
  30
0.0
  11
 219.162
  21
 391.101
  31
0.0
   0
LINE
   8
LEVEL001
   6
CONTINUOUS
  62
7
  10
 219.162
  20
 391.101
  30
0.0
  11
 219.232
  21
 391.086
  31
0.0
   0
LINE
   8
LEVEL001
   6
CONTINUOUS
  62
7
  10
 219.232
  20
 391.086
  30
0.0
  11
 219.302
  21
 391.071
  31
0.0
   0
LINE
   8
LEVEL001
   6
CONTINUOUS
  62
7
  10
 219.302
  20
 391.071
  30
0.0
  11
 219.373
  21
 391.058
  31
0.0
   0
LINE
   8
LEVEL001
   6
CONTINUOUS
  62
7
  10
 219.373
  20
 391.058
  30
0.0
  11
 219.445
  21
 391.046
  31
0.0
   0
LINE
   8
LEVEL001
   6
CONTINUOUS
  62
7
  10
 219.445
  20
 391.046
  30
0.0
  11
 219.518
  21
 391.036
  31
0.0
   0
LINE
   8
LEVEL001
   6
CONTINUOUS
  62
7
  10
 219.518
  20
 391.036
  30
0.0
  11
 219.592
  21
 391.027
  31
0.0
   0
LINE
   8
LEVEL001
   6
CONTINUOUS
  62
7
  10
 219.592
  20
 391.027
  30
0.0
  11
 219.666
  21
 391.019
  31
0.0
   0
LINE
   8
LEVEL001
   6
CONTINUOUS
  62
7
  10
 219.666
  20
 391.019
  30
0.0
  11
 219.741
  21
 391.012
  31
0.0
   0
LINE
   8
LEVEL001
   6
CONTINUOUS
  62
7
  10
 219.741
  20
 391.012
  30
0.0
  11
 219.816
  21
 391.007
  31
0.0
   0
LINE
   8
LEVEL001
   6
CONTINUOUS
  62
7
  10
 219.816
  20
 391.007
  30
0.0
  11
 219.891
  21
 391.003
  31
0.0
   0
LINE
   8
LEVEL001
   6
CONTINUOUS
  62
7
  10
 219.891
  20
 391.003
  30
0.0
  11
 219.967
  21
 391.001
  31
0.0
   0
LINE
   8
LEVEL001
   6
CONTINUOUS
  62
7
  10
 219.967
  20
 391.001
  30
0.0
  11
 220.042
  21
 391.000
  31
0.0
   0
LINE
   8
LEVEL001
   6
CONTINUOUS
  62
7
  10
 220.042
  20
 391.000
  30
0.0
  11
 220.118
  21
 391.000
  31
0.0
   0
LINE
   8
LEVEL001
   6
CONTINUOUS
  62
7
  10
 220.118
  20
 391.000
  30
0.0
  11
 220.193
  21
 391.001
  31
0.0
   0
LINE
   8
LEVEL001
   6
CONTINUOUS
  62
7
  10
 220.193
  20
 391.001
  30
0.0
  11
 220.268
  21
 391.005
  31
0.0
   0
LINE
   8
LEVEL001
   6
CONTINUOUS
  62
7
  10
 220.268
  20
 391.005
  30
0.0
  11
 220.343
  21
 391.009
  31
0.0
   0
LINE
   8
LEVEL001
   6
CONTINUOUS
  62
7
  10
 220.343
  20
 391.009
  30
0.0
  11
 220.417
  21
 391.015
  31
0.0
   0
LINE
   8
LEVEL001
   6
CONTINUOUS
  62
7
  10
 220.417
  20
 391.015
  30
0.0
  11
 220.490
  21
 391.022
  31
0.0
   0
LINE
   8
LEVEL001
   6
CONTINUOUS
  62
7
  10
 220.490
  20
 391.022
  30
0.0
  11
 220.563
  21
 391.030
  31
0.0
   0
LINE
   8
LEVEL001
   6
CONTINUOUS
  62
7
  10
 220.563
  20
 391.030
  30
0.0
  11
 220.635
  21
 391.040
  31
0.0
   0
LINE
   8
LEVEL001
   6
CONTINUOUS
  62
7
  10
 220.635
  20
 391.040
  30
0.0
  11
 220.706
  21
 391.051
  31
0.0
   0
LINE
   8
LEVEL001
   6
CONTINUOUS
  62
7
  10
 220.706
  20
 391.051
  30
0.0
  11
 220.777
  21
 391.063
  31
0.0
   0
LINE
   8
LEVEL001
   6
CONTINUOUS
  62
7
  10
 220.777
  20
 391.063
  30
0.0
  11
 220.846
  21
 391.077
  31
0.0
   0
LINE
   8
LEVEL001
   6
CONTINUOUS
  62
7
  10
 220.846
  20
 391.077
  30
0.0
  11
 220.913
  21
 391.092
  31
0.0
   0
LINE
   8
LEVEL001
   6
CONTINUOUS
  62
7
  10
 220.913
  20
 391.092
  30
0.0
  11
 220.980
  21
 391.108
  31
0.0
   0
LINE
   8
LEVEL001
   6
CONTINUOUS
  62
7
  10
 220.980
  20
 391.108
  30
0.0
  11
 221.045
  21
 391.125
  31
0.0
   0
LINE
   8
LEVEL001
   6
CONTINUOUS
  62
7
  10
 221.045
  20
 391.125
  30
0.0
  11
 221.109
  21
 391.144
  31
0.0
   0
LINE
   8
LEVEL001
   6
CONTINUOUS
  62
7
  10
 221.109
  20
 391.144
  30
0.0
  11
 221.171
  21
 391.163
  31
0.0
   0
LINE
   8
LEVEL001
   6
CONTINUOUS
  62
7
  10
 221.171
  20
 391.163
  30
0.0
  11
 221.231
  21
 391.184
  31
0.0
   0
LINE
   8
LEVEL001
   6
CONTINUOUS
  62
7
  10
 221.231
  20
 391.184
  30
0.0
  11
 221.290
  21
 391.206
  31
0.0
   0
LINE
   8
LEVEL001
   6
CONTINUOUS
  62
7
  10
 221.290
  20
 391.206
  30
0.0
  11
 221.347
  21
 391.229
  31
0.0
   0
LINE
   8
LEVEL001
   6
CONTINUOUS
  62
7
  10
 221.347
  20
 391.229
  30
0.0
  11
 221.402
  21
 391.253
  31
0.0
   0
LINE
   8
LEVEL001
   6
CONTINUOUS
  62
7
  10
 221.402
  20
 391.253
  30
0.0
  11
 221.454
  21
 391.278
  31
0.0
   0
LINE
   8
LEVEL001
   6
CONTINUOUS
  62
7
  10
 221.454
  20
 391.278
  30
0.0
  11
 221.505
  21
 391.304
  31
0.0
   0
LINE
   8
LEVEL001
   6
CONTINUOUS
  62
7
  10
 221.505
  20
 391.304
  30
0.0
  11
 221.554
  21
 391.331
  31
0.0
   0
LINE
   8
LEVEL001
   6
CONTINUOUS
  62
7
  10
 221.554
  20
 391.331
  30
0.0
  11
 221.600
  21
 391.359
  31
0.0
   0
LINE
   8
LEVEL001
   6
CONTINUOUS
  62
7
  10
 221.600
  20
 391.359
  30
0.0
  11
 221.644
  21
 391.388
  31
0.0
   0
LINE
   8
LEVEL001
   6
CONTINUOUS
  62
7
  10
 221.644
  20
 391.388
  30
0.0
  11
 221.686
  21
 391.417
  31
0.0
   0
LINE
   8
LEVEL001
   6
CONTINUOUS
  62
7
  10
 221.686
  20
 391.417
  30
0.0
  11
 221.726
  21
 391.447
  31
0.0
   0
LINE
   8
LEVEL001
   6
CONTINUOUS
  62
7
  10
 221.726
  20
 391.447
  30
0.0
  11
 221.763
  21
 391.478
  31
0.0
   0
LINE
   8
LEVEL001
   6
CONTINUOUS
  62
7
  10
 221.763
  20
 391.478
  30
0.0
  11
 221.797
  21
 391.510
  31
0.0
   0
LINE
   8
LEVEL001
   6
CONTINUOUS
  62
7
  10
 221.797
  20
 391.510
  30
0.0
  11
 221.829
  21
 391.542
  31
0.0
   0
LINE
   8
LEVEL001
   6
CONTINUOUS
  62
7
  10
 221.829
  20
 391.542
  30
0.0
  11
 221.858
  21
 391.575
  31
0.0
   0
LINE
   8
LEVEL001
   6
CONTINUOUS
  62
7
  10
 221.858
  20
 391.575
  30
0.0
  11
 221.885
  21
 391.609
  31
0.0
   0
LINE
   8
LEVEL001
   6
CONTINUOUS
  62
7
  10
 221.885
  20
 391.609
  30
0.0
  11
 221.909
  21
 391.643
  31
0.0
   0
LINE
   8
LEVEL001
   6
CONTINUOUS
  62
7
  10
 221.909
  20
 391.643
  30
0.0
  11
 221.930
  21
 391.677
  31
0.0
   0
LINE
   8
LEVEL001
   6
CONTINUOUS
  62
7
  10
 221.930
  20
 391.677
  30
0.0
  11
 221.948
  21
 391.712
  31
0.0
   0
LINE
   8
LEVEL001
   6
CONTINUOUS
  62
7
  10
 216.000
  20
 397.000
  30
0.0
  11
 218.038
  21
 391.805
  31
0.0
   0
LINE
   8
LEVEL001
   6
CONTINUOUS
  62
7
  10
 226.590
  20
 397.000
  30
0.0
  11
 224.000
  21
 397.000
  31
0.0
   0
LINE
   8
LEVEL001
   6
CONTINUOUS
  62
7
  10
 216.000
  20
 397.000
  30
0.0
  11
 213.410
  21
 397.000
  31
0.0
   0
LINE
   8
LEVEL001
   6
CONTINUOUS
  62
7
  10
 226.590
  20
 397.000
  30
0.0
  11
 224.000
  21
 397.590
  31
0.0
   0
LINE
   8
LEVEL001
   6
CONTINUOUS
  62
7
  10
 216.000
  20
 397.590
  30
0.0
  11
 213.410
  21
 397.000
  31
0.0
   0
LINE
   8
LEVEL001
   6
CONTINUOUS
  62
7
  10
 175.450
  20
 409.732
  30
0.0
  11
 216.000
  21
 409.732
  31
0.0
   0
LINE
   8
LEVEL001
   6
CONTINUOUS
  62
7
  10
 224.000
  20
 409.732
  30
0.0
  11
 264.550
  21
 409.732
  31
0.0
   0
LINE
   8
LEVEL001
   6
CONTINUOUS
  62
7
  10
 163.000
  20
 405.000
  30
0.0
  11
 216.000
  21
 405.000
  31
0.0
   0
LINE
   8
LEVEL001
   6
CONTINUOUS
  62
7
  10
 224.000
  20
 405.000
  30
0.0
  11
 277.000
  21
 405.000
  31
0.0
   0
LINE
   8
LEVEL001
   6
CONTINUOUS
  62
7
  10
 209.000
  20
 390.000
  30
0.0
  11
 209.000
  21
 378.216
  31
0.0
   0
LINE
   8
LEVEL001
   6
CONTINUOUS
  62
7
  10
 209.000
  20
 390.000
  30
0.0
  11
 231.000
  21
 390.000
  31
0.0
   0
LINE
   8
LEVEL001
   6
CONTINUOUS
  62
7
  10
 231.000
  20
 390.000
  30
0.0
  11
 231.000
  21
 378.216
  31
0.0
   0
LINE
   8
LEVEL001
   6
CONTINUOUS
  62
7
  10
 291.000
  20
 385.000
  30
0.0
  11
 231.000
  21
 385.000
  31
0.0
   0
LINE
   8
LEVEL001
   6
CONTINUOUS
  62
7
  10
 209.000
  20
 385.000
  30
0.0
  11
 146.000
  21
 385.000
  31
0.0
   0
LINE
   8
LEVEL001
   6
CONTINUOUS
  62
7
  10
 209.000
  20
 378.216
  30
0.0
  11
 215.068
  21
 359.552
  31
0.0
   0
LINE
   8
LEVEL001
   6
CONTINUOUS
  62
7
  10
 215.068
  20
 359.552
  30
0.0
  11
 215.104
  21
 359.453
  31
0.0
   0
LINE
   8
LEVEL001
   6
CONTINUOUS
  62
7
  10
 215.104
  20
 359.453
  30
0.0
  11
 215.147
  21
 359.354
  31
0.0
   0
LINE
   8
LEVEL001
   6
CONTINUOUS
  62
7
  10
 215.147
  20
 359.354
  30
0.0
  11
 215.198
  21
 359.256
  31
0.0
   0
LINE
   8
LEVEL001
   6
CONTINUOUS
  62
7
  10
 215.198
  20
 359.256
  30
0.0
  11
 215.255
  21
 359.160
  31
0.0
   0
LINE
   8
LEVEL001
   6
CONTINUOUS
  62
7
  10
 215.255
  20
 359.160
  30
0.0
  11
 215.321
  21
 359.064
  31
0.0
   0
LINE
   8
LEVEL001
   6
CONTINUOUS
  62
7
  10
 215.321
  20
 359.064
  30
0.0
  11
 215.393
  21
 358.970
  31
0.0
   0
LINE
   8
LEVEL001
   6
CONTINUOUS
  62
7
  10
 215.393
  20
 358.970
  30
0.0
  11
 215.472
  21
 358.877
  31
0.0
   0
LINE
   8
LEVEL001
   6
CONTINUOUS
  62
7
  10
 215.472
  20
 358.877
  30
0.0
  11
 215.559
  21
 358.786
  31
0.0
   0
LINE
   8
LEVEL001
   6
CONTINUOUS
  62
7
  10
 215.559
  20
 358.786
  30
0.0
  11
 215.652
  21
 358.696
  31
0.0
   0
LINE
   8
LEVEL001
   6
CONTINUOUS
  62
7
  10
 215.652
  20
 358.696
  30
0.0
  11
 215.751
  21
 358.608
  31
0.0
   0
LINE
   8
LEVEL001
   6
CONTINUOUS
  62
7
  10
 215.751
  20
 358.608
  30
0.0
  11
 215.857
  21
 358.523
  31
0.0
   0
LINE
   8
LEVEL001
   6
CONTINUOUS
  62
7
  10
 215.857
  20
 358.523
  30
0.0
  11
 215.970
  21
 358.439
  31
0.0
   0
LINE
   8
LEVEL001
   6
CONTINUOUS
  62
7
  10
 215.970
  20
 358.439
  30
0.0
  11
 216.088
  21
 358.358
  31
0.0
   0
LINE
   8
LEVEL001
   6
CONTINUOUS
  62
7
  10
 216.088
  20
 358.358
  30
0.0
  11
 216.213
  21
 358.279
  31
0.0
   0
LINE
   8
LEVEL001
   6
CONTINUOUS
  62
7
  10
 216.213
  20
 358.279
  30
0.0
  11
 216.343
  21
 358.202
  31
0.0
   0
LINE
   8
LEVEL001
   6
CONTINUOUS
  62
7
  10
 216.343
  20
 358.202
  30
0.0
  11
 216.479
  21
 358.128
  31
0.0
   0
LINE
   8
LEVEL001
   6
CONTINUOUS
  62
7
  10
 216.479
  20
 358.128
  30
0.0
  11
 216.620
  21
 358.057
  31
0.0
   0
LINE
   8
LEVEL001
   6
CONTINUOUS
  62
7
  10
 216.620
  20
 358.057
  30
0.0
  11
 216.766
  21
 357.989
  31
0.0
   0
LINE
   8
LEVEL001
   6
CONTINUOUS
  62
7
  10
 216.766
  20
 357.989
  30
0.0
  11
 216.918
  21
 357.923
  31
0.0
   0
LINE
   8
LEVEL001
   6
CONTINUOUS
  62
7
  10
 216.918
  20
 357.923
  30
0.0
  11
 217.074
  21
 357.861
  31
0.0
   0
LINE
   8
LEVEL001
   6
CONTINUOUS
  62
7
  10
 217.074
  20
 357.861
  30
0.0
  11
 217.234
  21
 357.801
  31
0.0
   0
LINE
   8
LEVEL001
   6
CONTINUOUS
  62
7
  10
 217.234
  20
 357.801
  30
0.0
  11
 217.399
  21
 357.745
  31
0.0
   0
LINE
   8
LEVEL001
   6
CONTINUOUS
  62
7
  10
 217.399
  20
 357.745
  30
0.0
  11
 217.567
  21
 357.692
  31
0.0
   0
LINE
   8
LEVEL001
   6
CONTINUOUS
  62
7
  10
 217.567
  20
 357.692
  30
0.0
  11
 217.739
  21
 357.643
  31
0.0
   0
LINE
   8
LEVEL001
   6
CONTINUOUS
  62
7
  10
 217.739
  20
 357.643
  30
0.0
  11
 217.915
  21
 357.597
  31
0.0
   0
LINE
   8
LEVEL001
   6
CONTINUOUS
  62
7
  10
 217.915
  20
 357.597
  30
0.0
  11
 218.094
  21
 357.554
  31
0.0
   0
LINE
   8
LEVEL001
   6
CONTINUOUS
  62
7
  10
 218.094
  20
 357.554
  30
0.0
  11
 218.276
  21
 357.515
  31
0.0
   0
LINE
   8
LEVEL001
   6
CONTINUOUS
  62
7
  10
 218.276
  20
 357.515
  30
0.0
  11
 218.460
  21
 357.480
  31
0.0
   0
LINE
   8
LEVEL001
   6
CONTINUOUS
  62
7
  10
 218.460
  20
 357.480
  30
0.0
  11
 218.647
  21
 357.448
  31
0.0
   0
LINE
   8
LEVEL001
   6
CONTINUOUS
  62
7
  10
 218.647
  20
 357.448
  30
0.0
  11
 218.836
  21
 357.421
  31
0.0
   0
LINE
   8
LEVEL001
   6
CONTINUOUS
  62
7
  10
 218.836
  20
 357.421
  30
0.0
  11
 219.027
  21
 357.397
  31
0.0
   0
LINE
   8
LEVEL001
   6
CONTINUOUS
  62
7
  10
 219.027
  20
 357.397
  30
0.0
  11
 219.219
  21
 357.376
  31
0.0
   0
LINE
   8
LEVEL001
   6
CONTINUOUS
  62
7
  10
 219.219
  20
 357.376
  30
0.0
  11
 219.412
  21
 357.360
  31
0.0
   0
LINE
   8
LEVEL001
   6
CONTINUOUS
  62
7
  10
 219.412
  20
 357.360
  30
0.0
  11
 219.606
  21
 357.347
  31
0.0
   0
LINE
   8
LEVEL001
   6
CONTINUOUS
  62
7
  10
 219.606
  20
 357.347
  30
0.0
  11
 219.801
  21
 357.339
  31
0.0
   0
LINE
   8
LEVEL001
   6
CONTINUOUS
  62
7
  10
 219.801
  20
 357.339
  30
0.0
  11
 219.996
  21
 357.334
  31
0.0
   0
LINE
   8
LEVEL001
   6
CONTINUOUS
  62
7
  10
 219.996
  20
 357.334
  30
0.0
  11
 220.191
  21
 357.333
  31
0.0
   0
LINE
   8
LEVEL001
   6
CONTINUOUS
  62
7
  10
 220.191
  20
 357.333
  30
0.0
  11
 220.386
  21
 357.337
  31
0.0
   0
LINE
   8
LEVEL001
   6
CONTINUOUS
  62
7
  10
 220.386
  20
 357.337
  30
0.0
  11
 220.580
  21
 357.344
  31
0.0
   0
LINE
   8
LEVEL001
   6
CONTINUOUS
  62
7
  10
 220.580
  20
 357.344
  30
0.0
  11
 220.773
  21
 357.355
  31
0.0
   0
LINE
   8
LEVEL001
   6
CONTINUOUS
  62
7
  10
 220.773
  20
 357.355
  30
0.0
  11
 220.966
  21
 357.370
  31
0.0
   0
LINE
   8
LEVEL001
   6
CONTINUOUS
  62
7
  10
 220.966
  20
 357.370
  30
0.0
  11
 221.156
  21
 357.388
  31
0.0
   0
LINE
   8
LEVEL001
   6
CONTINUOUS
  62
7
  10
 221.156
  20
 357.388
  30
0.0
  11
 221.345
  21
 357.411
  31
0.0
   0
LINE
   8
LEVEL001
   6
CONTINUOUS
  62
7
  10
 221.345
  20
 357.411
  30
0.0
  11
 221.532
  21
 357.437
  31
0.0
   0
LINE
   8
LEVEL001
   6
CONTINUOUS
  62
7
  10
 221.532
  20
 357.437
  30
0.0
  11
 221.716
  21
 357.467
  31
0.0
   0
LINE
   8
LEVEL001
   6
CONTINUOUS
  62
7
  10
 221.716
  20
 357.467
  30
0.0
  11
 221.898
  21
 357.501
  31
0.0
   0
LINE
   8
LEVEL001
   6
CONTINUOUS
  62
7
  10
 221.898
  20
 357.501
  30
0.0
  11
 222.077
  21
 357.539
  31
0.0
   0
LINE
   8
LEVEL001
   6
CONTINUOUS
  62
7
  10
 222.077
  20
 357.539
  30
0.0
  11
 222.253
  21
 357.580
  31
0.0
   0
LINE
   8
LEVEL001
   6
CONTINUOUS
  62
7
  10
 222.253
  20
 357.580
  30
0.0
  11
 222.426
  21
 357.625
  31
0.0
   0
LINE
   8
LEVEL001
   6
CONTINUOUS
  62
7
  10
 222.426
  20
 357.625
  30
0.0
  11
 222.594
  21
 357.673
  31
0.0
   0
LINE
   8
LEVEL001
   6
CONTINUOUS
  62
7
  10
 222.594
  20
 357.673
  30
0.0
  11
 222.759
  21
 357.724
  31
0.0
   0
LINE
   8
LEVEL001
   6
CONTINUOUS
  62
7
  10
 222.759
  20
 357.724
  30
0.0
  11
 222.920
  21
 357.779
  31
0.0
   0
LINE
   8
LEVEL001
   6
CONTINUOUS
  62
7
  10
 222.920
  20
 357.779
  30
0.0
  11
 223.076
  21
 357.837
  31
0.0
   0
LINE
   8
LEVEL001
   6
CONTINUOUS
  62
7
  10
 223.076
  20
 357.837
  30
0.0
  11
 223.227
  21
 357.899
  31
0.0
   0
LINE
   8
LEVEL001
   6
CONTINUOUS
  62
7
  10
 223.227
  20
 357.899
  30
0.0
  11
 223.374
  21
 357.963
  31
0.0
   0
LINE
   8
LEVEL001
   6
CONTINUOUS
  62
7
  10
 223.374
  20
 357.963
  30
0.0
  11
 223.515
  21
 358.030
  31
0.0
   0
LINE
   8
LEVEL001
   6
CONTINUOUS
  62
7
  10
 223.515
  20
 358.030
  30
0.0
  11
 223.651
  21
 358.101
  31
0.0
   0
LINE
   8
LEVEL001
   6
CONTINUOUS
  62
7
  10
 223.651
  20
 358.101
  30
0.0
  11
 223.782
  21
 358.173
  31
0.0
   0
LINE
   8
LEVEL001
   6
CONTINUOUS
  62
7
  10
 223.782
  20
 358.173
  30
0.0
  11
 223.907
  21
 358.249
  31
0.0
   0
LINE
   8
LEVEL001
   6
CONTINUOUS
  62
7
  10
 223.907
  20
 358.249
  30
0.0
  11
 224.025
  21
 358.327
  31
0.0
   0
LINE
   8
LEVEL001
   6
CONTINUOUS
  62
7
  10
 224.025
  20
 358.327
  30
0.0
  11
 224.138
  21
 358.408
  31
0.0
   0
LINE
   8
LEVEL001
   6
CONTINUOUS
  62
7
  10
 224.138
  20
 358.408
  30
0.0
  11
 224.245
  21
 358.490
  31
0.0
   0
LINE
   8
LEVEL001
   6
CONTINUOUS
  62
7
  10
 224.245
  20
 358.490
  30
0.0
  11
 224.344
  21
 358.575
  31
0.0
   0
LINE
   8
LEVEL001
   6
CONTINUOUS
  62
7
  10
 224.344
  20
 358.575
  30
0.0
  11
 224.438
  21
 358.662
  31
0.0
   0
LINE
   8
LEVEL001
   6
CONTINUOUS
  62
7
  10
 224.438
  20
 358.662
  30
0.0
  11
 224.524
  21
 358.751
  31
0.0
   0
LINE
   8
LEVEL001
   6
CONTINUOUS
  62
7
  10
 224.524
  20
 358.751
  30
0.0
  11
 224.604
  21
 358.842
  31
0.0
   0
LINE
   8
LEVEL001
   6
CONTINUOUS
  62
7
  10
 224.604
  20
 358.842
  30
0.0
  11
 224.676
  21
 358.934
  31
0.0
   0
LINE
   8
LEVEL001
   6
CONTINUOUS
  62
7
  10
 224.676
  20
 358.934
  30
0.0
  11
 224.742
  21
 359.028
  31
0.0
   0
LINE
   8
LEVEL001
   6
CONTINUOUS
  62
7
  10
 224.742
  20
 359.028
  30
0.0
  11
 224.800
  21
 359.123
  31
0.0
   0
LINE
   8
LEVEL001
   6
CONTINUOUS
  62
7
  10
 224.800
  20
 359.123
  30
0.0
  11
 224.851
  21
 359.219
  31
0.0
   0
LINE
   8
LEVEL001
   6
CONTINUOUS
  62
7
  10
 224.851
  20
 359.219
  30
0.0
  11
 224.895
  21
 359.316
  31
0.0
   0
LINE
   8
LEVEL001
   6
CONTINUOUS
  62
7
  10
 224.895
  20
 359.316
  30
0.0
  11
 224.931
  21
 359.415
  31
0.0
   0
LINE
   8
LEVEL001
   6
CONTINUOUS
  62
7
  10
 231.000
  20
 378.216
  30
0.0
  11
 224.931
  21
 359.415
  31
0.0
   0
LINE
   8
LEVEL001
   6
CONTINUOUS
  62
7
  10
 321.000
  20
 357.334
  30
0.0
  11
 321.000
  21
 348.500
  31
0.0
   0
LINE
   8
LEVEL001
   6
CONTINUOUS
  62
7
  10
 119.000
  20
 355.000
  30
0.0
  11
 119.000
  21
 348.500
  31
0.0
   0
ARC
   8
LEVEL001
   6
CONTINUOUS
  62
7
  10
 149.000
  20
 355.000
  30
0.0
  40
 30.0000
  50
 90.0000
  51
 180.000
   0
LINE
   8
LEVEL001
   6
CONTINUOUS
  62
7
  10
 254.000
  20
 125.000
  30
0.0
  11
 186.000
  21
 125.000
  31
0.0
   0
ARC
   8
LEVEL001
   6
CONTINUOUS
  62
7
  10
 254.000
  20
 126.000
  30
0.0
  40
 1.00000
  50
 270.000
  51
0.0
   0
ARC
   8
LEVEL001
   6
CONTINUOUS
  62
7
  10
 114.865
  20
 234.603
  30
0.0
  40
 10.0000
  50
 2.24320
  51
 52.1560
   0
LINE
   8
LEVEL001
   6
CONTINUOUS
  62
7
  10
 712.000
  20
 122.000
  30
0.0
  11
 712.000
  21
 160.000
  31
0.0
   0
LINE
   8
LEVEL001
   6
CONTINUOUS
  62
7
  10
 728.000
  20
 122.000
  30
0.0
  11
 728.000
  21
 160.000
  31
0.0
   0
LINE
   8
LEVEL001
   6
CONTINUOUS
  62
7
  10
 755.000
  20
 157.000
  30
0.0
  11
 728.000
  21
 157.000
  31
0.0
   0
LINE
   8
LEVEL001
   6
CONTINUOUS
  62
7
  10
 712.000
  20
 157.000
  30
0.0
  11
 685.250
  21
 157.000
  31
0.0
   0
LINE
   8
LEVEL001
   6
CONTINUOUS
  62
7
  10
 720.000
  20
 175.464
  30
0.0
  11
 723.000
  21
 173.732
  31
0.0
   0
LINE
   8
LEVEL001
   6
CONTINUOUS
  62
7
  10
 723.000
  20
 173.732
  30
0.0
  11
 723.000
  21
 170.268
  31
0.0
   0
LINE
   8
LEVEL001
   6
CONTINUOUS
  62
7
  10
 723.000
  20
 170.268
  30
0.0
  11
 720.000
  21
 168.536
  31
0.0
   0
LINE
   8
LEVEL001
   6
CONTINUOUS
  62
7
  10
 720.000
  20
 168.536
  30
0.0
  11
 717.000
  21
 170.268
  31
0.0
   0
LINE
   8
LEVEL001
   6
CONTINUOUS
  62
7
  10
 717.000
  20
 170.268
  30
0.0
  11
 717.000
  21
 173.732
  31
0.0
   0
LINE
   8
LEVEL001
   6
CONTINUOUS
  62
7
  10
 717.000
  20
 173.732
  30
0.0
  11
 720.000
  21
 175.464
  31
0.0
   0
LINE
   8
LEVEL001
   6
CONTINUOUS
  62
7
  10
 720.000
  20
 195.464
  30
0.0
  11
 723.000
  21
 193.732
  31
0.0
   0
LINE
   8
LEVEL001
   6
CONTINUOUS
  62
7
  10
 723.000
  20
 193.732
  30
0.0
  11
 723.000
  21
 190.268
  31
0.0
   0
LINE
   8
LEVEL001
   6
CONTINUOUS
  62
7
  10
 723.000
  20
 190.268
  30
0.0
  11
 720.000
  21
 188.536
  31
0.0
   0
LINE
   8
LEVEL001
   6
CONTINUOUS
  62
7
  10
 720.000
  20
 188.536
  30
0.0
  11
 717.000
  21
 190.268
  31
0.0
   0
LINE
   8
LEVEL001
   6
CONTINUOUS
  62
7
  10
 717.000
  20
 190.268
  30
0.0
  11
 717.000
  21
 193.732
  31
0.0
   0
LINE
   8
LEVEL001
   6
CONTINUOUS
  62
7
  10
 717.000
  20
 193.732
  30
0.0
  11
 720.000
  21
 195.464
  31
0.0
   0
CIRCLE
   8
LEVEL001
   6
CONTINUOUS
  62
7
  10
 720.000
  20
 172.000
  30
0.0
  40
 6.50000
   0
CIRCLE
   8
LEVEL001
   6
CONTINUOUS
  62
7
  10
 720.000
  20
 172.000
  30
0.0
  40
 5.80718
   0
CIRCLE
   8
LEVEL001
   6
CONTINUOUS
  62
7
  10
 720.000
  20
 192.000
  30
0.0
  40
 6.50000
   0
CIRCLE
   8
LEVEL001
   6
CONTINUOUS
  62
7
  10
 720.000
  20
 192.000
  30
0.0
  40
 5.80718
   0
CIRCLE
   8
LEVEL001
   6
CONTINUOUS
  62
7
  10
 720.000
  20
 192.000
  30
0.0
  40
 7.00000
   0
CIRCLE
   8
LEVEL001
   6
CONTINUOUS
  62
7
  10
 720.000
  20
 172.000
  30
0.0
  40
 7.00000
   0
ARC
   8
LEVEL001
   6
CONTINUOUS
  62
7
  10
 235.500
  20
 243.000
  30
0.0
  40
 8.00000
  50
 180.000
  51
 270.000
   0
ARC
   8
LEVEL001
   6
CONTINUOUS
  62
7
  10
 204.500
  20
 243.000
  30
0.0
  40
 8.00000
  50
 270.000
  51
0.0
   0
LINE
   8
LEVEL001
   6
CONTINUOUS
  62
7
  10
 125.000
  20
 235.000
  30
0.0
  11
 204.500
  21
 235.000
  31
0.0
   0
LINE
   8
LEVEL001
   6
CONTINUOUS
  62
7
  10
 235.500
  20
 235.000
  30
0.0
  11
 315.000
  21
 235.000
  31
0.0
   0
LINE
   8
LEVEL001
   6
CONTINUOUS
  62
7
  10
 227.500
  20
 290.996
  30
0.0
  11
 227.500
  21
 243.000
  31
0.0
   0
ARC
   8
LEVEL001
   6
CONTINUOUS
  62
7
  10
 235.500
  20
 290.996
  30
0.0
  40
 8.00000
  50
 90.0000
  51
 180.000
   0
LINE
   8
LEVEL001
   6
CONTINUOUS
  62
7
  10
 212.500
  20
 290.996
  30
0.0
  11
 212.500
  21
 243.000
  31
0.0
   0
ARC
   8
LEVEL001
   6
CONTINUOUS
  62
7
  10
 204.500
  20
 290.996
  30
0.0
  40
 8.00000
  50
0.0
  51
 90.0000
   0
LINE
   8
LEVEL001
   6
CONTINUOUS
  62
7
  10
 247.400
  20
 307.477
  30
0.0
  11
 247.391
  21
 307.557
  31
0.0
   0
LINE
   8
LEVEL001
   6
CONTINUOUS
  62
7
  10
 247.391
  20
 307.557
  30
0.0
  11
 247.364
  21
 307.637
  31
0.0
   0
LINE
   8
LEVEL001
   6
CONTINUOUS
  62
7
  10
 247.364
  20
 307.637
  30
0.0
  11
 247.318
  21
 307.715
  31
0.0
   0
LINE
   8
LEVEL001
   6
CONTINUOUS
  62
7
  10
 247.318
  20
 307.715
  30
0.0
  11
 247.255
  21
 307.792
  31
0.0
   0
LINE
   8
LEVEL001
   6
CONTINUOUS
  62
7
  10
 247.255
  20
 307.792
  30
0.0
  11
 247.175
  21
 307.866
  31
0.0
   0
LINE
   8
LEVEL001
   6
CONTINUOUS
  62
7
  10
 247.175
  20
 307.866
  30
0.0
  11
 247.078
  21
 307.937
  31
0.0
   0
LINE
   8
LEVEL001
   6
CONTINUOUS
  62
7
  10
 247.078
  20
 307.937
  30
0.0
  11
 246.966
  21
 308.004
  31
0.0
   0
LINE
   8
LEVEL001
   6
CONTINUOUS
  62
7
  10
 246.966
  20
 308.004
  30
0.0
  11
 246.839
  21
 308.068
  31
0.0
   0
LINE
   8
LEVEL001
   6
CONTINUOUS
  62
7
  10
 246.839
  20
 308.068
  30
0.0
  11
 246.697
  21
 308.127
  31
0.0
   0
LINE
   8
LEVEL001
   6
CONTINUOUS
  62
7
  10
 246.697
  20
 308.127
  30
0.0
  11
 246.543
  21
 308.181
  31
0.0
   0
LINE
   8
LEVEL001
   6
CONTINUOUS
  62
7
  10
 246.543
  20
 308.181
  30
0.0
  11
 246.377
  21
 308.230
  31
0.0
   0
LINE
   8
LEVEL001
   6
CONTINUOUS
  62
7
  10
 246.377
  20
 308.230
  30
0.0
  11
 246.200
  21
 308.273
  31
0.0
   0
LINE
   8
LEVEL001
   6
CONTINUOUS
  62
7
  10
 246.200
  20
 308.273
  30
0.0
  11
 246.014
  21
 308.310
  31
0.0
   0
LINE
   8
LEVEL001
   6
CONTINUOUS
  62
7
  10
 246.014
  20
 308.310
  30
0.0
  11
 245.821
  21
 308.340
  31
0.0
   0
LINE
   8
LEVEL001
   6
CONTINUOUS
  62
7
  10
 245.821
  20
 308.340
  30
0.0
  11
 245.621
  21
 308.365
  31
0.0
   0
LINE
   8
LEVEL001
   6
CONTINUOUS
  62
7
  10
 245.621
  20
 308.365
  30
0.0
  11
 245.417
  21
 308.382
  31
0.0
   0
LINE
   8
LEVEL001
   6
CONTINUOUS
  62
7
  10
 245.417
  20
 308.382
  30
0.0
  11
 245.209
  21
 308.392
  31
0.0
   0
LINE
   8
LEVEL001
   6
CONTINUOUS
  62
7
  10
 245.209
  20
 308.392
  30
0.0
  11
 245.000
  21
 308.396
  31
0.0
   0
LINE
   8
LEVEL001
   6
CONTINUOUS
  62
7
  10
 245.000
  20
 308.396
  30
0.0
  11
 244.791
  21
 308.392
  31
0.0
   0
LINE
   8
LEVEL001
   6
CONTINUOUS
  62
7
  10
 244.791
  20
 308.392
  30
0.0
  11
 244.583
  21
 308.382
  31
0.0
   0
LINE
   8
LEVEL001
   6
CONTINUOUS
  62
7
  10
 244.583
  20
 308.382
  30
0.0
  11
 244.379
  21
 308.365
  31
0.0
   0
LINE
   8
LEVEL001
   6
CONTINUOUS
  62
7
  10
 244.379
  20
 308.365
  30
0.0
  11
 244.179
  21
 308.340
  31
0.0
   0
LINE
   8
LEVEL001
   6
CONTINUOUS
  62
7
  10
 244.179
  20
 308.340
  30
0.0
  11
 243.986
  21
 308.310
  31
0.0
   0
LINE
   8
LEVEL001
   6
CONTINUOUS
  62
7
  10
 243.986
  20
 308.310
  30
0.0
  11
 243.800
  21
 308.273
  31
0.0
   0
LINE
   8
LEVEL001
   6
CONTINUOUS
  62
7
  10
 243.800
  20
 308.273
  30
0.0
  11
 243.623
  21
 308.230
  31
0.0
   0
LINE
   8
LEVEL001
   6
CONTINUOUS
  62
7
  10
 243.623
  20
 308.230
  30
0.0
  11
 243.457
  21
 308.181
  31
0.0
   0
LINE
   8
LEVEL001
   6
CONTINUOUS
  62
7
  10
 243.457
  20
 308.181
  30
0.0
  11
 243.303
  21
 308.127
  31
0.0
   0
LINE
   8
LEVEL001
   6
CONTINUOUS
  62
7
  10
 243.303
  20
 308.127
  30
0.0
  11
 243.161
  21
 308.068
  31
0.0
   0
LINE
   8
LEVEL001
   6
CONTINUOUS
  62
7
  10
 243.161
  20
 308.068
  30
0.0
  11
 243.034
  21
 308.004
  31
0.0
   0
LINE
   8
LEVEL001
   6
CONTINUOUS
  62
7
  10
 243.034
  20
 308.004
  30
0.0
  11
 242.922
  21
 307.937
  31
0.0
   0
LINE
   8
LEVEL001
   6
CONTINUOUS
  62
7
  10
 242.922
  20
 307.937
  30
0.0
  11
 242.825
  21
 307.866
  31
0.0
   0
LINE
   8
LEVEL001
   6
CONTINUOUS
  62
7
  10
 242.825
  20
 307.866
  30
0.0
  11
 242.745
  21
 307.792
  31
0.0
   0
LINE
   8
LEVEL001
   6
CONTINUOUS
  62
7
  10
 242.745
  20
 307.792
  30
0.0
  11
 242.682
  21
 307.715
  31
0.0
   0
LINE
   8
LEVEL001
   6
CONTINUOUS
  62
7
  10
 242.682
  20
 307.715
  30
0.0
  11
 242.636
  21
 307.637
  31
0.0
   0
LINE
   8
LEVEL001
   6
CONTINUOUS
  62
7
  10
 242.636
  20
 307.637
  30
0.0
  11
 242.609
  21
 307.557
  31
0.0
   0
LINE
   8
LEVEL001
   6
CONTINUOUS
  62
7
  10
 242.609
  20
 307.557
  30
0.0
  11
 242.600
  21
 307.477
  31
0.0
   0
LINE
   8
LEVEL001
   6
CONTINUOUS
  62
7
  10
 242.600
  20
 307.477
  30
0.0
  11
 242.609
  21
 307.397
  31
0.0
   0
LINE
   8
LEVEL001
   6
CONTINUOUS
  62
7
  10
 242.609
  20
 307.397
  30
0.0
  11
 242.636
  21
 307.318
  31
0.0
   0
LINE
   8
LEVEL001
   6
CONTINUOUS
  62
7
  10
 242.636
  20
 307.318
  30
0.0
  11
 242.682
  21
 307.240
  31
0.0
   0
LINE
   8
LEVEL001
   6
CONTINUOUS
  62
7
  10
 242.682
  20
 307.240
  30
0.0
  11
 242.745
  21
 307.163
  31
0.0
   0
LINE
   8
LEVEL001
   6
CONTINUOUS
  62
7
  10
 242.745
  20
 307.163
  30
0.0
  11
 242.825
  21
 307.089
  31
0.0
   0
LINE
   8
LEVEL001
   6
CONTINUOUS
  62
7
  10
 242.825
  20
 307.089
  30
0.0
  11
 242.922
  21
 307.018
  31
0.0
   0
LINE
   8
LEVEL001
   6
CONTINUOUS
  62
7
  10
 242.922
  20
 307.018
  30
0.0
  11
 243.034
  21
 306.951
  31
0.0
   0
LINE
   8
LEVEL001
   6
CONTINUOUS
  62
7
  10
 243.034
  20
 306.951
  30
0.0
  11
 243.161
  21
 306.887
  31
0.0
   0
LINE
   8
LEVEL001
   6
CONTINUOUS
  62
7
  10
 243.161
  20
 306.887
  30
0.0
  11
 243.303
  21
 306.828
  31
0.0
   0
LINE
   8
LEVEL001
   6
CONTINUOUS
  62
7
  10
 243.303
  20
 306.828
  30
0.0
  11
 243.457
  21
 306.774
  31
0.0
   0
LINE
   8
LEVEL001
   6
CONTINUOUS
  62
7
  10
 243.457
  20
 306.774
  30
0.0
  11
 243.623
  21
 306.725
  31
0.0
   0
LINE
   8
LEVEL001
   6
CONTINUOUS
  62
7
  10
 243.623
  20
 306.725
  30
0.0
  11
 243.800
  21
 306.682
  31
0.0
   0
LINE
   8
LEVEL001
   6
CONTINUOUS
  62
7
  10
 243.800
  20
 306.682
  30
0.0
  11
 243.986
  21
 306.645
  31
0.0
   0
LINE
   8
LEVEL001
   6
CONTINUOUS
  62
7
  10
 243.986
  20
 306.645
  30
0.0
  11
 244.179
  21
 306.614
  31
0.0
   0
LINE
   8
LEVEL001
   6
CONTINUOUS
  62
7
  10
 244.179
  20
 306.614
  30
0.0
  11
 244.379
  21
 306.590
  31
0.0
   0
LINE
   8
LEVEL001
   6
CONTINUOUS
  62
7
  10
 244.379
  20
 306.590
  30
0.0
  11
 244.583
  21
 306.573
  31
0.0
   0
LINE
   8
LEVEL001
   6
CONTINUOUS
  62
7
  10
 244.583
  20
 306.573
  30
0.0
  11
 244.791
  21
 306.562
  31
0.0
   0
LINE
   8
LEVEL001
   6
CONTINUOUS
  62
7
  10
 244.791
  20
 306.562
  30
0.0
  11
 245.000
  21
 306.559
  31
0.0
   0
LINE
   8
LEVEL001
   6
CONTINUOUS
  62
7
  10
 245.000
  20
 306.559
  30
0.0
  11
 245.209
  21
 306.562
  31
0.0
   0
LINE
   8
LEVEL001
   6
CONTINUOUS
  62
7
  10
 245.209
  20
 306.562
  30
0.0
  11
 245.417
  21
 306.573
  31
0.0
   0
LINE
   8
LEVEL001
   6
CONTINUOUS
  62
7
  10
 245.417
  20
 306.573
  30
0.0
  11
 245.621
  21
 306.590
  31
0.0
   0
LINE
   8
LEVEL001
   6
CONTINUOUS
  62
7
  10
 245.621
  20
 306.590
  30
0.0
  11
 245.821
  21
 306.614
  31
0.0
   0
LINE
   8
LEVEL001
   6
CONTINUOUS
  62
7
  10
 245.821
  20
 306.614
  30
0.0
  11
 246.014
  21
 306.645
  31
0.0
   0
LINE
   8
LEVEL001
   6
CONTINUOUS
  62
7
  10
 246.014
  20
 306.645
  30
0.0
  11
 246.200
  21
 306.682
  31
0.0
   0
LINE
   8
LEVEL001
   6
CONTINUOUS
  62
7
  10
 246.200
  20
 306.682
  30
0.0
  11
 246.377
  21
 306.725
  31
0.0
   0
LINE
   8
LEVEL001
   6
CONTINUOUS
  62
7
  10
 246.377
  20
 306.725
  30
0.0
  11
 246.543
  21
 306.774
  31
0.0
   0
LINE
   8
LEVEL001
   6
CONTINUOUS
  62
7
  10
 246.543
  20
 306.774
  30
0.0
  11
 246.697
  21
 306.828
  31
0.0
   0
LINE
   8
LEVEL001
   6
CONTINUOUS
  62
7
  10
 246.697
  20
 306.828
  30
0.0
  11
 246.839
  21
 306.887
  31
0.0
   0
LINE
   8
LEVEL001
   6
CONTINUOUS
  62
7
  10
 246.839
  20
 306.887
  30
0.0
  11
 246.966
  21
 306.951
  31
0.0
   0
LINE
   8
LEVEL001
   6
CONTINUOUS
  62
7
  10
 246.966
  20
 306.951
  30
0.0
  11
 247.078
  21
 307.018
  31
0.0
   0
LINE
   8
LEVEL001
   6
CONTINUOUS
  62
7
  10
 247.078
  20
 307.018
  30
0.0
  11
 247.175
  21
 307.089
  31
0.0
   0
LINE
   8
LEVEL001
   6
CONTINUOUS
  62
7
  10
 247.175
  20
 307.089
  30
0.0
  11
 247.255
  21
 307.163
  31
0.0
   0
LINE
   8
LEVEL001
   6
CONTINUOUS
  62
7
  10
 247.255
  20
 307.163
  30
0.0
  11
 247.318
  21
 307.240
  31
0.0
   0
LINE
   8
LEVEL001
   6
CONTINUOUS
  62
7
  10
 247.318
  20
 307.240
  30
0.0
  11
 247.364
  21
 307.318
  31
0.0
   0
LINE
   8
LEVEL001
   6
CONTINUOUS
  62
7
  10
 247.364
  20
 307.318
  30
0.0
  11
 247.391
  21
 307.397
  31
0.0
   0
LINE
   8
LEVEL001
   6
CONTINUOUS
  62
7
  10
 247.391
  20
 307.397
  30
0.0
  11
 247.400
  21
 307.477
  31
0.0
   0
LINE
   8
LEVEL001
   6
CONTINUOUS
  62
7
  10
 244.000
  20
 307.477
  30
0.0
  11
 244.001
  21
 307.461
  31
0.0
   0
LINE
   8
LEVEL001
   6
CONTINUOUS
  62
7
  10
 244.001
  20
 307.461
  30
0.0
  11
 244.004
  21
 307.444
  31
0.0
   0
LINE
   8
LEVEL001
   6
CONTINUOUS
  62
7
  10
 244.004
  20
 307.444
  30
0.0
  11
 244.009
  21
 307.427
  31
0.0
   0
LINE
   8
LEVEL001
   6
CONTINUOUS
  62
7
  10
 244.009
  20
 307.427
  30
0.0
  11
 244.015
  21
 307.411
  31
0.0
   0
LINE
   8
LEVEL001
   6
CONTINUOUS
  62
7
  10
 244.015
  20
 307.411
  30
0.0
  11
 244.024
  21
 307.395
  31
0.0
   0
LINE
   8
LEVEL001
   6
CONTINUOUS
  62
7
  10
 244.024
  20
 307.395
  30
0.0
  11
 244.034
  21
 307.378
  31
0.0
   0
LINE
   8
LEVEL001
   6
CONTINUOUS
  62
7
  10
 244.034
  20
 307.378
  30
0.0
  11
 244.046
  21
 307.362
  31
0.0
   0
LINE
   8
LEVEL001
   6
CONTINUOUS
  62
7
  10
 244.046
  20
 307.362
  30
0.0
  11
 244.060
  21
 307.347
  31
0.0
   0
LINE
   8
LEVEL001
   6
CONTINUOUS
  62
7
  10
 244.060
  20
 307.347
  30
0.0
  11
 244.076
  21
 307.331
  31
0.0
   0
LINE
   8
LEVEL001
   6
CONTINUOUS
  62
7
  10
 244.076
  20
 307.331
  30
0.0
  11
 244.094
  21
 307.316
  31
0.0
   0
LINE
   8
LEVEL001
   6
CONTINUOUS
  62
7
  10
 244.094
  20
 307.316
  30
0.0
  11
 244.113
  21
 307.301
  31
0.0
   0
LINE
   8
LEVEL001
   6
CONTINUOUS
  62
7
  10
 244.113
  20
 307.301
  30
0.0
  11
 244.134
  21
 307.286
  31
0.0
   0
LINE
   8
LEVEL001
   6
CONTINUOUS
  62
7
  10
 244.134
  20
 307.286
  30
0.0
  11
 244.157
  21
 307.272
  31
0.0
   0
LINE
   8
LEVEL001
   6
CONTINUOUS
  62
7
  10
 244.157
  20
 307.272
  30
0.0
  11
 244.181
  21
 307.258
  31
0.0
   0
LINE
   8
LEVEL001
   6
CONTINUOUS
  62
7
  10
 244.181
  20
 307.258
  30
0.0
  11
 244.207
  21
 307.244
  31
0.0
   0
LINE
   8
LEVEL001
   6
CONTINUOUS
  62
7
  10
 244.207
  20
 307.244
  30
0.0
  11
 244.234
  21
 307.231
  31
0.0
   0
LINE
   8
LEVEL001
   6
CONTINUOUS
  62
7
  10
 244.234
  20
 307.231
  30
0.0
  11
 244.263
  21
 307.219
  31
0.0
   0
LINE
   8
LEVEL001
   6
CONTINUOUS
  62
7
  10
 244.263
  20
 307.219
  30
0.0
  11
 244.293
  21
 307.207
  31
0.0
   0
LINE
   8
LEVEL001
   6
CONTINUOUS
  62
7
  10
 244.293
  20
 307.207
  30
0.0
  11
 244.324
  21
 307.195
  31
0.0
   0
LINE
   8
LEVEL001
   6
CONTINUOUS
  62
7
  10
 244.324
  20
 307.195
  30
0.0
  11
 244.357
  21
 307.184
  31
0.0
   0
LINE
   8
LEVEL001
   6
CONTINUOUS
  62
7
  10
 244.357
  20
 307.184
  30
0.0
  11
 244.391
  21
 307.174
  31
0.0
   0
LINE
   8
LEVEL001
   6
CONTINUOUS
  62
7
  10
 244.391
  20
 307.174
  30
0.0
  11
 244.426
  21
 307.164
  31
0.0
   0
LINE
   8
LEVEL001
   6
CONTINUOUS
  62
7
  10
 244.426
  20
 307.164
  30
0.0
  11
 244.463
  21
 307.155
  31
0.0
   0
LINE
   8
LEVEL001
   6
CONTINUOUS
  62
7
  10
 244.463
  20
 307.155
  30
0.0
  11
 244.500
  21
 307.146
  31
0.0
   0
LINE
   8
LEVEL001
   6
CONTINUOUS
  62
7
  10
 244.500
  20
 307.146
  30
0.0
  11
 244.538
  21
 307.138
  31
0.0
   0
LINE
   8
LEVEL001
   6
CONTINUOUS
  62
7
  10
 244.538
  20
 307.138
  30
0.0
  11
 244.577
  21
 307.131
  31
0.0
   0
LINE
   8
LEVEL001
   6
CONTINUOUS
  62
7
  10
 244.577
  20
 307.131
  30
0.0
  11
 244.617
  21
 307.124
  31
0.0
   0
LINE
   8
LEVEL001
   6
CONTINUOUS
  62
7
  10
 244.617
  20
 307.124
  30
0.0
  11
 244.658
  21
 307.118
  31
0.0
   0
LINE
   8
LEVEL001
   6
CONTINUOUS
  62
7
  10
 244.658
  20
 307.118
  30
0.0
  11
 244.699
  21
 307.112
  31
0.0
   0
LINE
   8
LEVEL001
   6
CONTINUOUS
  62
7
  10
 244.699
  20
 307.112
  30
0.0
  11
 244.741
  21
 307.108
  31
0.0
   0
LINE
   8
LEVEL001
   6
CONTINUOUS
  62
7
  10
 244.741
  20
 307.108
  30
0.0
  11
 244.784
  21
 307.104
  31
0.0
   0
LINE
   8
LEVEL001
   6
CONTINUOUS
  62
7
  10
 244.784
  20
 307.104
  30
0.0
  11
 244.826
  21
 307.101
  31
0.0
   0
LINE
   8
LEVEL001
   6
CONTINUOUS
  62
7
  10
 244.826
  20
 307.101
  30
0.0
  11
 244.869
  21
 307.098
  31
0.0
   0
LINE
   8
LEVEL001
   6
CONTINUOUS
  62
7
  10
 244.869
  20
 307.098
  30
0.0
  11
 244.913
  21
 307.096
  31
0.0
   0
LINE
   8
LEVEL001
   6
CONTINUOUS
  62
7
  10
 244.913
  20
 307.096
  30
0.0
  11
 244.956
  21
 307.095
  31
0.0
   0
LINE
   8
LEVEL001
   6
CONTINUOUS
  62
7
  10
 244.956
  20
 307.095
  30
0.0
  11
 245.000
  21
 307.095
  31
0.0
   0
LINE
   8
LEVEL001
   6
CONTINUOUS
  62
7
  10
 245.000
  20
 307.095
  30
0.0
  11
 245.044
  21
 307.095
  31
0.0
   0
LINE
   8
LEVEL001
   6
CONTINUOUS
  62
7
  10
 245.044
  20
 307.095
  30
0.0
  11
 245.087
  21
 307.096
  31
0.0
   0
LINE
   8
LEVEL001
   6
CONTINUOUS
  62
7
  10
 245.087
  20
 307.096
  30
0.0
  11
 245.131
  21
 307.098
  31
0.0
   0
LINE
   8
LEVEL001
   6
CONTINUOUS
  62
7
  10
 245.131
  20
 307.098
  30
0.0
  11
 245.174
  21
 307.101
  31
0.0
   0
LINE
   8
LEVEL001
   6
CONTINUOUS
  62
7
  10
 245.174
  20
 307.101
  30
0.0
  11
 245.216
  21
 307.104
  31
0.0
   0
LINE
   8
LEVEL001
   6
CONTINUOUS
  62
7
  10
 245.216
  20
 307.104
  30
0.0
  11
 245.259
  21
 307.108
  31
0.0
   0
LINE
   8
LEVEL001
   6
CONTINUOUS
  62
7
  10
 245.259
  20
 307.108
  30
0.0
  11
 245.301
  21
 307.112
  31
0.0
   0
LINE
   8
LEVEL001
   6
CONTINUOUS
  62
7
  10
 245.301
  20
 307.112
  30
0.0
  11
 245.342
  21
 307.118
  31
0.0
   0
LINE
   8
LEVEL001
   6
CONTINUOUS
  62
7
  10
 245.342
  20
 307.118
  30
0.0
  11
 245.383
  21
 307.124
  31
0.0
   0
LINE
   8
LEVEL001
   6
CONTINUOUS
  62
7
  10
 245.383
  20
 307.124
  30
0.0
  11
 245.423
  21
 307.131
  31
0.0
   0
LINE
   8
LEVEL001
   6
CONTINUOUS
  62
7
  10
 245.423
  20
 307.131
  30
0.0
  11
 245.462
  21
 307.138
  31
0.0
   0
LINE
   8
LEVEL001
   6
CONTINUOUS
  62
7
  10
 245.462
  20
 307.138
  30
0.0
  11
 245.500
  21
 307.146
  31
0.0
   0
LINE
   8
LEVEL001
   6
CONTINUOUS
  62
7
  10
 245.500
  20
 307.146
  30
0.0
  11
 245.537
  21
 307.155
  31
0.0
   0
LINE
   8
LEVEL001
   6
CONTINUOUS
  62
7
  10
 245.537
  20
 307.155
  30
0.0
  11
 245.574
  21
 307.164
  31
0.0
   0
LINE
   8
LEVEL001
   6
CONTINUOUS
  62
7
  10
 245.574
  20
 307.164
  30
0.0
  11
 245.609
  21
 307.174
  31
0.0
   0
LINE
   8
LEVEL001
   6
CONTINUOUS
  62
7
  10
 245.609
  20
 307.174
  30
0.0
  11
 245.643
  21
 307.184
  31
0.0
   0
LINE
   8
LEVEL001
   6
CONTINUOUS
  62
7
  10
 245.643
  20
 307.184
  30
0.0
  11
 245.676
  21
 307.195
  31
0.0
   0
LINE
   8
LEVEL001
   6
CONTINUOUS
  62
7
  10
 245.676
  20
 307.195
  30
0.0
  11
 245.707
  21
 307.207
  31
0.0
   0
LINE
   8
LEVEL001
   6
CONTINUOUS
  62
7
  10
 245.707
  20
 307.207
  30
0.0
  11
 245.737
  21
 307.219
  31
0.0
   0
LINE
   8
LEVEL001
   6
CONTINUOUS
  62
7
  10
 245.737
  20
 307.219
  30
0.0
  11
 245.766
  21
 307.231
  31
0.0
   0
LINE
   8
LEVEL001
   6
CONTINUOUS
  62
7
  10
 245.766
  20
 307.231
  30
0.0
  11
 245.793
  21
 307.244
  31
0.0
   0
LINE
   8
LEVEL001
   6
CONTINUOUS
  62
7
  10
 245.793
  20
 307.244
  30
0.0
  11
 245.819
  21
 307.258
  31
0.0
   0
LINE
   8
LEVEL001
   6
CONTINUOUS
  62
7
  10
 245.819
  20
 307.258
  30
0.0
  11
 245.843
  21
 307.272
  31
0.0
   0
LINE
   8
LEVEL001
   6
CONTINUOUS
  62
7
  10
 245.843
  20
 307.272
  30
0.0
  11
 245.866
  21
 307.286
  31
0.0
   0
LINE
   8
LEVEL001
   6
CONTINUOUS
  62
7
  10
 245.866
  20
 307.286
  30
0.0
  11
 245.887
  21
 307.301
  31
0.0
   0
LINE
   8
LEVEL001
   6
CONTINUOUS
  62
7
  10
 245.887
  20
 307.301
  30
0.0
  11
 245.906
  21
 307.316
  31
0.0
   0
LINE
   8
LEVEL001
   6
CONTINUOUS
  62
7
  10
 245.906
  20
 307.316
  30
0.0
  11
 245.924
  21
 307.331
  31
0.0
   0
LINE
   8
LEVEL001
   6
CONTINUOUS
  62
7
  10
 245.924
  20
 307.331
  30
0.0
  11
 245.940
  21
 307.347
  31
0.0
   0
LINE
   8
LEVEL001
   6
CONTINUOUS
  62
7
  10
 245.940
  20
 307.347
  30
0.0
  11
 245.954
  21
 307.362
  31
0.0
   0
LINE
   8
LEVEL001
   6
CONTINUOUS
  62
7
  10
 245.954
  20
 307.362
  30
0.0
  11
 245.966
  21
 307.378
  31
0.0
   0
LINE
   8
LEVEL001
   6
CONTINUOUS
  62
7
  10
 245.966
  20
 307.378
  30
0.0
  11
 245.976
  21
 307.395
  31
0.0
   0
LINE
   8
LEVEL001
   6
CONTINUOUS
  62
7
  10
 245.976
  20
 307.395
  30
0.0
  11
 245.985
  21
 307.411
  31
0.0
   0
LINE
   8
LEVEL001
   6
CONTINUOUS
  62
7
  10
 245.985
  20
 307.411
  30
0.0
  11
 245.991
  21
 307.427
  31
0.0
   0
LINE
   8
LEVEL001
   6
CONTINUOUS
  62
7
  10
 245.991
  20
 307.427
  30
0.0
  11
 245.996
  21
 307.444
  31
0.0
   0
LINE
   8
LEVEL001
   6
CONTINUOUS
  62
7
  10
 245.996
  20
 307.444
  30
0.0
  11
 245.999
  21
 307.461
  31
0.0
   0
LINE
   8
LEVEL001
   6
CONTINUOUS
  62
7
  10
 245.999
  20
 307.461
  30
0.0
  11
 246.000
  21
 307.477
  31
0.0
   0
ARC
   8
LEVEL001
   6
CONTINUOUS
  62
7
  10
 245.000
  20
 307.249
  30
0.0
  40
 1.00000
  50
 11.9426
  51
 167.156
   0
LINE
   8
LEVEL001
   6
CONTINUOUS
  62
7
  10
 241.700
  20
 304.983
  30
0.0
  11
 241.703
  21
 304.928
  31
0.0
   0
LINE
   8
LEVEL001
   6
CONTINUOUS
  62
7
  10
 241.703
  20
 304.928
  30
0.0
  11
 241.713
  21
 304.873
  31
0.0
   0
LINE
   8
LEVEL001
   6
CONTINUOUS
  62
7
  10
 241.713
  20
 304.873
  30
0.0
  11
 241.728
  21
 304.819
  31
0.0
   0
LINE
   8
LEVEL001
   6
CONTINUOUS
  62
7
  10
 241.728
  20
 304.819
  30
0.0
  11
 241.750
  21
 304.764
  31
0.0
   0
LINE
   8
LEVEL001
   6
CONTINUOUS
  62
7
  10
 241.750
  20
 304.764
  30
0.0
  11
 241.778
  21
 304.710
  31
0.0
   0
LINE
   8
LEVEL001
   6
CONTINUOUS
  62
7
  10
 241.778
  20
 304.710
  30
0.0
  11
 241.812
  21
 304.657
  31
0.0
   0
LINE
   8
LEVEL001
   6
CONTINUOUS
  62
7
  10
 241.812
  20
 304.657
  30
0.0
  11
 241.853
  21
 304.604
  31
0.0
   0
LINE
   8
LEVEL001
   6
CONTINUOUS
  62
7
  10
 241.853
  20
 304.604
  30
0.0
  11
 241.899
  21
 304.552
  31
0.0
   0
LINE
   8
LEVEL001
   6
CONTINUOUS
  62
7
  10
 241.899
  20
 304.552
  30
0.0
  11
 241.951
  21
 304.500
  31
0.0
   0
LINE
   8
LEVEL001
   6
CONTINUOUS
  62
7
  10
 241.951
  20
 304.500
  30
0.0
  11
 242.009
  21
 304.450
  31
0.0
   0
LINE
   8
LEVEL001
   6
CONTINUOUS
  62
7
  10
 242.009
  20
 304.450
  30
0.0
  11
 242.073
  21
 304.400
  31
0.0
   0
LINE
   8
LEVEL001
   6
CONTINUOUS
  62
7
  10
 242.073
  20
 304.400
  30
0.0
  11
 242.142
  21
 304.352
  31
0.0
   0
LINE
   8
LEVEL001
   6
CONTINUOUS
  62
7
  10
 242.142
  20
 304.352
  30
0.0
  11
 242.217
  21
 304.305
  31
0.0
   0
LINE
   8
LEVEL001
   6
CONTINUOUS
  62
7
  10
 242.217
  20
 304.305
  30
0.0
  11
 242.297
  21
 304.259
  31
0.0
   0
LINE
   8
LEVEL001
   6
CONTINUOUS
  62
7
  10
 242.297
  20
 304.259
  30
0.0
  11
 242.382
  21
 304.215
  31
0.0
   0
LINE
   8
LEVEL001
   6
CONTINUOUS
  62
7
  10
 242.382
  20
 304.215
  30
0.0
  11
 242.472
  21
 304.172
  31
0.0
   0
LINE
   8
LEVEL001
   6
CONTINUOUS
  62
7
  10
 242.472
  20
 304.172
  30
0.0
  11
 242.567
  21
 304.130
  31
0.0
   0
LINE
   8
LEVEL001
   6
CONTINUOUS
  62
7
  10
 242.567
  20
 304.130
  30
0.0
  11
 242.667
  21
 304.091
  31
0.0
   0
LINE
   8
LEVEL001
   6
CONTINUOUS
  62
7
  10
 242.667
  20
 304.091
  30
0.0
  11
 242.771
  21
 304.052
  31
0.0
   0
LINE
   8
LEVEL001
   6
CONTINUOUS
  62
7
  10
 242.771
  20
 304.052
  30
0.0
  11
 242.879
  21
 304.016
  31
0.0
   0
LINE
   8
LEVEL001
   6
CONTINUOUS
  62
7
  10
 242.879
  20
 304.016
  30
0.0
  11
 242.991
  21
 303.982
  31
0.0
   0
LINE
   8
LEVEL001
   6
CONTINUOUS
  62
7
  10
 242.991
  20
 303.982
  30
0.0
  11
 243.107
  21
 303.949
  31
0.0
   0
LINE
   8
LEVEL001
   6
CONTINUOUS
  62
7
  10
 243.107
  20
 303.949
  30
0.0
  11
 243.227
  21
 303.918
  31
0.0
   0
LINE
   8
LEVEL001
   6
CONTINUOUS
  62
7
  10
 243.227
  20
 303.918
  30
0.0
  11
 243.350
  21
 303.890
  31
0.0
   0
LINE
   8
LEVEL001
   6
CONTINUOUS
  62
7
  10
 243.350
  20
 303.890
  30
0.0
  11
 243.476
  21
 303.863
  31
0.0
   0
LINE
   8
LEVEL001
   6
CONTINUOUS
  62
7
  10
 243.476
  20
 303.863
  30
0.0
  11
 243.605
  21
 303.839
  31
0.0
   0
LINE
   8
LEVEL001
   6
CONTINUOUS
  62
7
  10
 243.605
  20
 303.839
  30
0.0
  11
 243.737
  21
 303.817
  31
0.0
   0
LINE
   8
LEVEL001
   6
CONTINUOUS
  62
7
  10
 243.737
  20
 303.817
  30
0.0
  11
 243.871
  21
 303.797
  31
0.0
   0
LINE
   8
LEVEL001
   6
CONTINUOUS
  62
7
  10
 243.871
  20
 303.797
  30
0.0
  11
 244.008
  21
 303.779
  31
0.0
   0
LINE
   8
LEVEL001
   6
CONTINUOUS
  62
7
  10
 244.008
  20
 303.779
  30
0.0
  11
 244.146
  21
 303.764
  31
0.0
   0
LINE
   8
LEVEL001
   6
CONTINUOUS
  62
7
  10
 244.146
  20
 303.764
  30
0.0
  11
 244.286
  21
 303.751
  31
0.0
   0
LINE
   8
LEVEL001
   6
CONTINUOUS
  62
7
  10
 244.286
  20
 303.751
  30
0.0
  11
 244.427
  21
 303.740
  31
0.0
   0
LINE
   8
LEVEL001
   6
CONTINUOUS
  62
7
  10
 244.427
  20
 303.740
  30
0.0
  11
 244.569
  21
 303.731
  31
0.0
   0
LINE
   8
LEVEL001
   6
CONTINUOUS
  62
7
  10
 244.569
  20
 303.731
  30
0.0
  11
 244.712
  21
 303.725
  31
0.0
   0
LINE
   8
LEVEL001
   6
CONTINUOUS
  62
7
  10
 244.712
  20
 303.725
  30
0.0
  11
 244.856
  21
 303.722
  31
0.0
   0
LINE
   8
LEVEL001
   6
CONTINUOUS
  62
7
  10
 244.856
  20
 303.722
  30
0.0
  11
 245.000
  21
 303.721
  31
0.0
   0
LINE
   8
LEVEL001
   6
CONTINUOUS
  62
7
  10
 245.000
  20
 303.721
  30
0.0
  11
 245.144
  21
 303.722
  31
0.0
   0
LINE
   8
LEVEL001
   6
CONTINUOUS
  62
7
  10
 245.144
  20
 303.722
  30
0.0
  11
 245.288
  21
 303.725
  31
0.0
   0
LINE
   8
LEVEL001
   6
CONTINUOUS
  62
7
  10
 245.288
  20
 303.725
  30
0.0
  11
 245.431
  21
 303.731
  31
0.0
   0
LINE
   8
LEVEL001
   6
CONTINUOUS
  62
7
  10
 245.431
  20
 303.731
  30
0.0
  11
 245.573
  21
 303.740
  31
0.0
   0
LINE
   8
LEVEL001
   6
CONTINUOUS
  62
7
  10
 245.573
  20
 303.740
  30
0.0
  11
 245.714
  21
 303.751
  31
0.0
   0
LINE
   8
LEVEL001
   6
CONTINUOUS
  62
7
  10
 245.714
  20
 303.751
  30
0.0
  11
 245.854
  21
 303.764
  31
0.0
   0
LINE
   8
LEVEL001
   6
CONTINUOUS
  62
7
  10
 245.854
  20
 303.764
  30
0.0
  11
 245.992
  21
 303.779
  31
0.0
   0
LINE
   8
LEVEL001
   6
CONTINUOUS
  62
7
  10
 245.992
  20
 303.779
  30
0.0
  11
 246.129
  21
 303.797
  31
0.0
   0
LINE
   8
LEVEL001
   6
CONTINUOUS
  62
7
  10
 246.129
  20
 303.797
  30
0.0
  11
 246.263
  21
 303.817
  31
0.0
   0
LINE
   8
LEVEL001
   6
CONTINUOUS
  62
7
  10
 246.263
  20
 303.817
  30
0.0
  11
 246.395
  21
 303.839
  31
0.0
   0
LINE
   8
LEVEL001
   6
CONTINUOUS
  62
7
  10
 246.395
  20
 303.839
  30
0.0
  11
 246.524
  21
 303.863
  31
0.0
   0
LINE
   8
LEVEL001
   6
CONTINUOUS
  62
7
  10
 246.524
  20
 303.863
  30
0.0
  11
 246.650
  21
 303.890
  31
0.0
   0
LINE
   8
LEVEL001
   6
CONTINUOUS
  62
7
  10
 246.650
  20
 303.890
  30
0.0
  11
 246.773
  21
 303.918
  31
0.0
   0
LINE
   8
LEVEL001
   6
CONTINUOUS
  62
7
  10
 246.773
  20
 303.918
  30
0.0
  11
 246.893
  21
 303.949
  31
0.0
   0
LINE
   8
LEVEL001
   6
CONTINUOUS
  62
7
  10
 246.893
  20
 303.949
  30
0.0
  11
 247.009
  21
 303.982
  31
0.0
   0
LINE
   8
LEVEL001
   6
CONTINUOUS
  62
7
  10
 247.009
  20
 303.982
  30
0.0
  11
 247.121
  21
 304.016
  31
0.0
   0
LINE
   8
LEVEL001
   6
CONTINUOUS
  62
7
  10
 247.121
  20
 304.016
  30
0.0
  11
 247.229
  21
 304.052
  31
0.0
   0
LINE
   8
LEVEL001
   6
CONTINUOUS
  62
7
  10
 247.229
  20
 304.052
  30
0.0
  11
 247.333
  21
 304.091
  31
0.0
   0
LINE
   8
LEVEL001
   6
CONTINUOUS
  62
7
  10
 247.333
  20
 304.091
  30
0.0
  11
 247.433
  21
 304.130
  31
0.0
   0
LINE
   8
LEVEL001
   6
CONTINUOUS
  62
7
  10
 247.433
  20
 304.130
  30
0.0
  11
 247.528
  21
 304.172
  31
0.0
   0
LINE
   8
LEVEL001
   6
CONTINUOUS
  62
7
  10
 247.528
  20
 304.172
  30
0.0
  11
 247.618
  21
 304.215
  31
0.0
   0
LINE
   8
LEVEL001
   6
CONTINUOUS
  62
7
  10
 247.618
  20
 304.215
  30
0.0
  11
 247.703
  21
 304.259
  31
0.0
   0
LINE
   8
LEVEL001
   6
CONTINUOUS
  62
7
  10
 247.703
  20
 304.259
  30
0.0
  11
 247.783
  21
 304.305
  31
0.0
   0
LINE
   8
LEVEL001
   6
CONTINUOUS
  62
7
  10
 247.783
  20
 304.305
  30
0.0
  11
 247.858
  21
 304.352
  31
0.0
   0
LINE
   8
LEVEL001
   6
CONTINUOUS
  62
7
  10
 247.858
  20
 304.352
  30
0.0
  11
 247.927
  21
 304.400
  31
0.0
   0
LINE
   8
LEVEL001
   6
CONTINUOUS
  62
7
  10
 247.927
  20
 304.400
  30
0.0
  11
 247.991
  21
 304.450
  31
0.0
   0
LINE
   8
LEVEL001
   6
CONTINUOUS
  62
7
  10
 247.991
  20
 304.450
  30
0.0
  11
 248.049
  21
 304.500
  31
0.0
   0
LINE
   8
LEVEL001
   6
CONTINUOUS
  62
7
  10
 248.049
  20
 304.500
  30
0.0
  11
 248.101
  21
 304.552
  31
0.0
   0
LINE
   8
LEVEL001
   6
CONTINUOUS
  62
7
  10
 248.101
  20
 304.552
  30
0.0
  11
 248.147
  21
 304.604
  31
0.0
   0
LINE
   8
LEVEL001
   6
CONTINUOUS
  62
7
  10
 248.147
  20
 304.604
  30
0.0
  11
 248.188
  21
 304.657
  31
0.0
   0
LINE
   8
LEVEL001
   6
CONTINUOUS
  62
7
  10
 248.188
  20
 304.657
  30
0.0
  11
 248.222
  21
 304.710
  31
0.0
   0
LINE
   8
LEVEL001
   6
CONTINUOUS
  62
7
  10
 248.222
  20
 304.710
  30
0.0
  11
 248.250
  21
 304.764
  31
0.0
   0
LINE
   8
LEVEL001
   6
CONTINUOUS
  62
7
  10
 248.250
  20
 304.764
  30
0.0
  11
 248.272
  21
 304.819
  31
0.0
   0
LINE
   8
LEVEL001
   6
CONTINUOUS
  62
7
  10
 248.272
  20
 304.819
  30
0.0
  11
 248.287
  21
 304.873
  31
0.0
   0
LINE
   8
LEVEL001
   6
CONTINUOUS
  62
7
  10
 248.287
  20
 304.873
  30
0.0
  11
 248.297
  21
 304.928
  31
0.0
   0
LINE
   8
LEVEL001
   6
CONTINUOUS
  62
7
  10
 248.297
  20
 304.928
  30
0.0
  11
 248.300
  21
 304.983
  31
0.0
   0
LINE
   8
LEVEL001
   6
CONTINUOUS
  62
7
  10
 241.700
  20
 304.983
  30
0.0
  11
 242.602
  21
 307.517
  31
0.0
   0
LINE
   8
LEVEL001
   6
CONTINUOUS
  62
7
  10
 248.297
  20
 304.928
  30
0.0
  11
 247.391
  21
 307.557
  31
0.0
   0
LINE
   8
LEVEL001
   6
CONTINUOUS
  62
7
  10
 242.120
  20
 303.334
  30
0.0
  11
 242.123
  21
 303.286
  31
0.0
   0
LINE
   8
LEVEL001
   6
CONTINUOUS
  62
7
  10
 242.123
  20
 303.286
  30
0.0
  11
 242.131
  21
 303.238
  31
0.0
   0
LINE
   8
LEVEL001
   6
CONTINUOUS
  62
7
  10
 242.131
  20
 303.238
  30
0.0
  11
 242.145
  21
 303.190
  31
0.0
   0
LINE
   8
LEVEL001
   6
CONTINUOUS
  62
7
  10
 242.145
  20
 303.190
  30
0.0
  11
 242.164
  21
 303.142
  31
0.0
   0
LINE
   8
LEVEL001
   6
CONTINUOUS
  62
7
  10
 242.164
  20
 303.142
  30
0.0
  11
 242.188
  21
 303.095
  31
0.0
   0
LINE
   8
LEVEL001
   6
CONTINUOUS
  62
7
  10
 242.188
  20
 303.095
  30
0.0
  11
 242.218
  21
 303.048
  31
0.0
   0
LINE
   8
LEVEL001
   6
CONTINUOUS
  62
7
  10
 242.218
  20
 303.048
  30
0.0
  11
 242.253
  21
 303.002
  31
0.0
   0
LINE
   8
LEVEL001
   6
CONTINUOUS
  62
7
  10
 242.253
  20
 303.002
  30
0.0
  11
 242.294
  21
 302.957
  31
0.0
   0
LINE
   8
LEVEL001
   6
CONTINUOUS
  62
7
  10
 242.294
  20
 302.957
  30
0.0
  11
 242.339
  21
 302.912
  31
0.0
   0
LINE
   8
LEVEL001
   6
CONTINUOUS
  62
7
  10
 242.339
  20
 302.912
  30
0.0
  11
 242.390
  21
 302.868
  31
0.0
   0
LINE
   8
LEVEL001
   6
CONTINUOUS
  62
7
  10
 242.390
  20
 302.868
  30
0.0
  11
 242.445
  21
 302.825
  31
0.0
   0
LINE
   8
LEVEL001
   6
CONTINUOUS
  62
7
  10
 242.445
  20
 302.825
  30
0.0
  11
 242.506
  21
 302.783
  31
0.0
   0
LINE
   8
LEVEL001
   6
CONTINUOUS
  62
7
  10
 242.506
  20
 302.783
  30
0.0
  11
 242.571
  21
 302.741
  31
0.0
   0
LINE
   8
LEVEL001
   6
CONTINUOUS
  62
7
  10
 242.571
  20
 302.741
  30
0.0
  11
 242.641
  21
 302.701
  31
0.0
   0
LINE
   8
LEVEL001
   6
CONTINUOUS
  62
7
  10
 242.641
  20
 302.701
  30
0.0
  11
 242.715
  21
 302.663
  31
0.0
   0
LINE
   8
LEVEL001
   6
CONTINUOUS
  62
7
  10
 242.715
  20
 302.663
  30
0.0
  11
 242.794
  21
 302.625
  31
0.0
   0
LINE
   8
LEVEL001
   6
CONTINUOUS
  62
7
  10
 242.794
  20
 302.625
  30
0.0
  11
 242.877
  21
 302.589
  31
0.0
   0
LINE
   8
LEVEL001
   6
CONTINUOUS
  62
7
  10
 242.877
  20
 302.589
  30
0.0
  11
 242.964
  21
 302.554
  31
0.0
   0
LINE
   8
LEVEL001
   6
CONTINUOUS
  62
7
  10
 242.964
  20
 302.554
  30
0.0
  11
 243.054
  21
 302.521
  31
0.0
   0
LINE
   8
LEVEL001
   6
CONTINUOUS
  62
7
  10
 243.054
  20
 302.521
  30
0.0
  11
 243.149
  21
 302.489
  31
0.0
   0
LINE
   8
LEVEL001
   6
CONTINUOUS
  62
7
  10
 243.149
  20
 302.489
  30
0.0
  11
 243.247
  21
 302.459
  31
0.0
   0
LINE
   8
LEVEL001
   6
CONTINUOUS
  62
7
  10
 243.247
  20
 302.459
  30
0.0
  11
 243.348
  21
 302.431
  31
0.0
   0
LINE
   8
LEVEL001
   6
CONTINUOUS
  62
7
  10
 243.348
  20
 302.431
  30
0.0
  11
 243.453
  21
 302.404
  31
0.0
   0
LINE
   8
LEVEL001
   6
CONTINUOUS
  62
7
  10
 243.453
  20
 302.404
  30
0.0
  11
 243.560
  21
 302.379
  31
0.0
   0
LINE
   8
LEVEL001
   6
CONTINUOUS
  62
7
  10
 243.560
  20
 302.379
  30
0.0
  11
 243.670
  21
 302.356
  31
0.0
   0
LINE
   8
LEVEL001
   6
CONTINUOUS
  62
7
  10
 243.670
  20
 302.356
  30
0.0
  11
 243.783
  21
 302.335
  31
0.0
   0
LINE
   8
LEVEL001
   6
CONTINUOUS
  62
7
  10
 243.783
  20
 302.335
  30
0.0
  11
 243.898
  21
 302.315
  31
0.0
   0
LINE
   8
LEVEL001
   6
CONTINUOUS
  62
7
  10
 243.898
  20
 302.315
  30
0.0
  11
 244.015
  21
 302.298
  31
0.0
   0
LINE
   8
LEVEL001
   6
CONTINUOUS
  62
7
  10
 244.015
  20
 302.298
  30
0.0
  11
 244.134
  21
 302.283
  31
0.0
   0
LINE
   8
LEVEL001
   6
CONTINUOUS
  62
7
  10
 244.134
  20
 302.283
  30
0.0
  11
 244.255
  21
 302.269
  31
0.0
   0
LINE
   8
LEVEL001
   6
CONTINUOUS
  62
7
  10
 244.255
  20
 302.269
  30
0.0
  11
 244.377
  21
 302.258
  31
0.0
   0
LINE
   8
LEVEL001
   6
CONTINUOUS
  62
7
  10
 244.377
  20
 302.258
  30
0.0
  11
 244.500
  21
 302.248
  31
0.0
   0
LINE
   8
LEVEL001
   6
CONTINUOUS
  62
7
  10
 244.500
  20
 302.248
  30
0.0
  11
 244.624
  21
 302.241
  31
0.0
   0
LINE
   8
LEVEL001
   6
CONTINUOUS
  62
7
  10
 244.624
  20
 302.241
  30
0.0
  11
 244.749
  21
 302.236
  31
0.0
   0
LINE
   8
LEVEL001
   6
CONTINUOUS
  62
7
  10
 244.749
  20
 302.236
  30
0.0
  11
 244.874
  21
 302.233
  31
0.0
   0
LINE
   8
LEVEL001
   6
CONTINUOUS
  62
7
  10
 244.874
  20
 302.233
  30
0.0
  11
 245.000
  21
 302.232
  31
0.0
   0
LINE
   8
LEVEL001
   6
CONTINUOUS
  62
7
  10
 245.000
  20
 302.232
  30
0.0
  11
 245.126
  21
 302.233
  31
0.0
   0
LINE
   8
LEVEL001
   6
CONTINUOUS
  62
7
  10
 245.126
  20
 302.233
  30
0.0
  11
 245.251
  21
 302.236
  31
0.0
   0
LINE
   8
LEVEL001
   6
CONTINUOUS
  62
7
  10
 245.251
  20
 302.236
  30
0.0
  11
 245.376
  21
 302.241
  31
0.0
   0
LINE
   8
LEVEL001
   6
CONTINUOUS
  62
7
  10
 245.376
  20
 302.241
  30
0.0
  11
 245.500
  21
 302.248
  31
0.0
   0
LINE
   8
LEVEL001
   6
CONTINUOUS
  62
7
  10
 245.500
  20
 302.248
  30
0.0
  11
 245.623
  21
 302.258
  31
0.0
   0
LINE
   8
LEVEL001
   6
CONTINUOUS
  62
7
  10
 245.623
  20
 302.258
  30
0.0
  11
 245.745
  21
 302.269
  31
0.0
   0
LINE
   8
LEVEL001
   6
CONTINUOUS
  62
7
  10
 245.745
  20
 302.269
  30
0.0
  11
 245.866
  21
 302.283
  31
0.0
   0
LINE
   8
LEVEL001
   6
CONTINUOUS
  62
7
  10
 245.866
  20
 302.283
  30
0.0
  11
 245.985
  21
 302.298
  31
0.0
   0
LINE
   8
LEVEL001
   6
CONTINUOUS
  62
7
  10
 245.985
  20
 302.298
  30
0.0
  11
 246.102
  21
 302.315
  31
0.0
   0
LINE
   8
LEVEL001
   6
CONTINUOUS
  62
7
  10
 246.102
  20
 302.315
  30
0.0
  11
 246.217
  21
 302.335
  31
0.0
   0
LINE
   8
LEVEL001
   6
CONTINUOUS
  62
7
  10
 246.217
  20
 302.335
  30
0.0
  11
 246.330
  21
 302.356
  31
0.0
   0
LINE
   8
LEVEL001
   6
CONTINUOUS
  62
7
  10
 246.330
  20
 302.356
  30
0.0
  11
 246.440
  21
 302.379
  31
0.0
   0
LINE
   8
LEVEL001
   6
CONTINUOUS
  62
7
  10
 246.440
  20
 302.379
  30
0.0
  11
 246.547
  21
 302.404
  31
0.0
   0
LINE
   8
LEVEL001
   6
CONTINUOUS
  62
7
  10
 246.547
  20
 302.404
  30
0.0
  11
 246.652
  21
 302.431
  31
0.0
   0
LINE
   8
LEVEL001
   6
CONTINUOUS
  62
7
  10
 246.652
  20
 302.431
  30
0.0
  11
 246.753
  21
 302.459
  31
0.0
   0
LINE
   8
LEVEL001
   6
CONTINUOUS
  62
7
  10
 246.753
  20
 302.459
  30
0.0
  11
 246.851
  21
 302.489
  31
0.0
   0
LINE
   8
LEVEL001
   6
CONTINUOUS
  62
7
  10
 246.851
  20
 302.489
  30
0.0
  11
 246.946
  21
 302.521
  31
0.0
   0
LINE
   8
LEVEL001
   6
CONTINUOUS
  62
7
  10
 246.946
  20
 302.521
  30
0.0
  11
 247.036
  21
 302.554
  31
0.0
   0
LINE
   8
LEVEL001
   6
CONTINUOUS
  62
7
  10
 247.036
  20
 302.554
  30
0.0
  11
 247.123
  21
 302.589
  31
0.0
   0
LINE
   8
LEVEL001
   6
CONTINUOUS
  62
7
  10
 247.123
  20
 302.589
  30
0.0
  11
 247.206
  21
 302.625
  31
0.0
   0
LINE
   8
LEVEL001
   6
CONTINUOUS
  62
7
  10
 247.206
  20
 302.625
  30
0.0
  11
 247.285
  21
 302.663
  31
0.0
   0
LINE
   8
LEVEL001
   6
CONTINUOUS
  62
7
  10
 247.285
  20
 302.663
  30
0.0
  11
 247.359
  21
 302.701
  31
0.0
   0
LINE
   8
LEVEL001
   6
CONTINUOUS
  62
7
  10
 247.359
  20
 302.701
  30
0.0
  11
 247.429
  21
 302.741
  31
0.0
   0
LINE
   8
LEVEL001
   6
CONTINUOUS
  62
7
  10
 247.429
  20
 302.741
  30
0.0
  11
 247.494
  21
 302.783
  31
0.0
   0
LINE
   8
LEVEL001
   6
CONTINUOUS
  62
7
  10
 247.494
  20
 302.783
  30
0.0
  11
 247.555
  21
 302.825
  31
0.0
   0
LINE
   8
LEVEL001
   6
CONTINUOUS
  62
7
  10
 247.555
  20
 302.825
  30
0.0
  11
 247.610
  21
 302.868
  31
0.0
   0
LINE
   8
LEVEL001
   6
CONTINUOUS
  62
7
  10
 247.610
  20
 302.868
  30
0.0
  11
 247.661
  21
 302.912
  31
0.0
   0
LINE
   8
LEVEL001
   6
CONTINUOUS
  62
7
  10
 247.661
  20
 302.912
  30
0.0
  11
 247.706
  21
 302.957
  31
0.0
   0
LINE
   8
LEVEL001
   6
CONTINUOUS
  62
7
  10
 247.706
  20
 302.957
  30
0.0
  11
 247.747
  21
 303.002
  31
0.0
   0
LINE
   8
LEVEL001
   6
CONTINUOUS
  62
7
  10
 247.747
  20
 303.002
  30
0.0
  11
 247.782
  21
 303.048
  31
0.0
   0
LINE
   8
LEVEL001
   6
CONTINUOUS
  62
7
  10
 247.782
  20
 303.048
  30
0.0
  11
 247.812
  21
 303.095
  31
0.0
   0
LINE
   8
LEVEL001
   6
CONTINUOUS
  62
7
  10
 247.812
  20
 303.095
  30
0.0
  11
 247.836
  21
 303.142
  31
0.0
   0
LINE
   8
LEVEL001
   6
CONTINUOUS
  62
7
  10
 247.836
  20
 303.142
  30
0.0
  11
 247.855
  21
 303.190
  31
0.0
   0
LINE
   8
LEVEL001
   6
CONTINUOUS
  62
7
  10
 247.855
  20
 303.190
  30
0.0
  11
 247.869
  21
 303.238
  31
0.0
   0
LINE
   8
LEVEL001
   6
CONTINUOUS
  62
7
  10
 247.869
  20
 303.238
  30
0.0
  11
 247.877
  21
 303.286
  31
0.0
   0
LINE
   8
LEVEL001
   6
CONTINUOUS
  62
7
  10
 247.877
  20
 303.286
  30
0.0
  11
 247.880
  21
 303.334
  31
0.0
   0
LINE
   8
LEVEL001
   6
CONTINUOUS
  62
7
  10
 241.540
  20
 302.212
  30
0.0
  11
 241.543
  21
 302.154
  31
0.0
   0
LINE
   8
LEVEL001
   6
CONTINUOUS
  62
7
  10
 241.543
  20
 302.154
  30
0.0
  11
 241.553
  21
 302.096
  31
0.0
   0
LINE
   8
LEVEL001
   6
CONTINUOUS
  62
7
  10
 241.553
  20
 302.096
  30
0.0
  11
 241.570
  21
 302.039
  31
0.0
   0
LINE
   8
LEVEL001
   6
CONTINUOUS
  62
7
  10
 241.570
  20
 302.039
  30
0.0
  11
 241.593
  21
 301.982
  31
0.0
   0
LINE
   8
LEVEL001
   6
CONTINUOUS
  62
7
  10
 241.593
  20
 301.982
  30
0.0
  11
 241.622
  21
 301.925
  31
0.0
   0
LINE
   8
LEVEL001
   6
CONTINUOUS
  62
7
  10
 241.622
  20
 301.925
  30
0.0
  11
 241.658
  21
 301.869
  31
0.0
   0
LINE
   8
LEVEL001
   6
CONTINUOUS
  62
7
  10
 241.658
  20
 301.869
  30
0.0
  11
 241.700
  21
 301.814
  31
0.0
   0
LINE
   8
LEVEL001
   6
CONTINUOUS
  62
7
  10
 241.700
  20
 301.814
  30
0.0
  11
 241.749
  21
 301.759
  31
0.0
   0
LINE
   8
LEVEL001
   6
CONTINUOUS
  62
7
  10
 241.749
  20
 301.759
  30
0.0
  11
 241.803
  21
 301.705
  31
0.0
   0
LINE
   8
LEVEL001
   6
CONTINUOUS
  62
7
  10
 241.803
  20
 301.705
  30
0.0
  11
 241.864
  21
 301.652
  31
0.0
   0
LINE
   8
LEVEL001
   6
CONTINUOUS
  62
7
  10
 241.864
  20
 301.652
  30
0.0
  11
 241.931
  21
 301.600
  31
0.0
   0
LINE
   8
LEVEL001
   6
CONTINUOUS
  62
7
  10
 241.931
  20
 301.600
  30
0.0
  11
 242.004
  21
 301.550
  31
0.0
   0
LINE
   8
LEVEL001
   6
CONTINUOUS
  62
7
  10
 242.004
  20
 301.550
  30
0.0
  11
 242.082
  21
 301.500
  31
0.0
   0
LINE
   8
LEVEL001
   6
CONTINUOUS
  62
7
  10
 242.082
  20
 301.500
  30
0.0
  11
 242.166
  21
 301.452
  31
0.0
   0
LINE
   8
LEVEL001
   6
CONTINUOUS
  62
7
  10
 242.166
  20
 301.452
  30
0.0
  11
 242.255
  21
 301.406
  31
0.0
   0
LINE
   8
LEVEL001
   6
CONTINUOUS
  62
7
  10
 242.255
  20
 301.406
  30
0.0
  11
 242.349
  21
 301.361
  31
0.0
   0
LINE
   8
LEVEL001
   6
CONTINUOUS
  62
7
  10
 242.349
  20
 301.361
  30
0.0
  11
 242.449
  21
 301.317
  31
0.0
   0
LINE
   8
LEVEL001
   6
CONTINUOUS
  62
7
  10
 242.449
  20
 301.317
  30
0.0
  11
 242.553
  21
 301.276
  31
0.0
   0
LINE
   8
LEVEL001
   6
CONTINUOUS
  62
7
  10
 242.553
  20
 301.276
  30
0.0
  11
 242.662
  21
 301.236
  31
0.0
   0
LINE
   8
LEVEL001
   6
CONTINUOUS
  62
7
  10
 242.662
  20
 301.236
  30
0.0
  11
 242.776
  21
 301.198
  31
0.0
   0
LINE
   8
LEVEL001
   6
CONTINUOUS
  62
7
  10
 242.776
  20
 301.198
  30
0.0
  11
 242.894
  21
 301.161
  31
0.0
   0
LINE
   8
LEVEL001
   6
CONTINUOUS
  62
7
  10
 242.894
  20
 301.161
  30
0.0
  11
 243.015
  21
 301.127
  31
0.0
   0
LINE
   8
LEVEL001
   6
CONTINUOUS
  62
7
  10
 243.015
  20
 301.127
  30
0.0
  11
 243.141
  21
 301.095
  31
0.0
   0
LINE
   8
LEVEL001
   6
CONTINUOUS
  62
7
  10
 243.141
  20
 301.095
  30
0.0
  11
 243.270
  21
 301.065
  31
0.0
   0
LINE
   8
LEVEL001
   6
CONTINUOUS
  62
7
  10
 243.270
  20
 301.065
  30
0.0
  11
 243.402
  21
 301.037
  31
0.0
   0
LINE
   8
LEVEL001
   6
CONTINUOUS
  62
7
  10
 243.402
  20
 301.037
  30
0.0
  11
 243.538
  21
 301.012
  31
0.0
   0
LINE
   8
LEVEL001
   6
CONTINUOUS
  62
7
  10
 243.538
  20
 301.012
  30
0.0
  11
 243.676
  21
 300.989
  31
0.0
   0
LINE
   8
LEVEL001
   6
CONTINUOUS
  62
7
  10
 243.676
  20
 300.989
  30
0.0
  11
 243.817
  21
 300.968
  31
0.0
   0
LINE
   8
LEVEL001
   6
CONTINUOUS
  62
7
  10
 243.817
  20
 300.968
  30
0.0
  11
 243.960
  21
 300.949
  31
0.0
   0
LINE
   8
LEVEL001
   6
CONTINUOUS
  62
7
  10
 243.960
  20
 300.949
  30
0.0
  11
 244.104
  21
 300.933
  31
0.0
   0
LINE
   8
LEVEL001
   6
CONTINUOUS
  62
7
  10
 244.104
  20
 300.933
  30
0.0
  11
 244.251
  21
 300.919
  31
0.0
   0
LINE
   8
LEVEL001
   6
CONTINUOUS
  62
7
  10
 244.251
  20
 300.919
  30
0.0
  11
 244.399
  21
 300.908
  31
0.0
   0
LINE
   8
LEVEL001
   6
CONTINUOUS
  62
7
  10
 244.399
  20
 300.908
  30
0.0
  11
 244.548
  21
 300.899
  31
0.0
   0
LINE
   8
LEVEL001
   6
CONTINUOUS
  62
7
  10
 244.548
  20
 300.899
  30
0.0
  11
 244.698
  21
 300.893
  31
0.0
   0
LINE
   8
LEVEL001
   6
CONTINUOUS
  62
7
  10
 244.698
  20
 300.893
  30
0.0
  11
 244.849
  21
 300.889
  31
0.0
   0
LINE
   8
LEVEL001
   6
CONTINUOUS
  62
7
  10
 244.849
  20
 300.889
  30
0.0
  11
 245.000
  21
 300.888
  31
0.0
   0
LINE
   8
LEVEL001
   6
CONTINUOUS
  62
7
  10
 245.000
  20
 300.888
  30
0.0
  11
 245.151
  21
 300.889
  31
0.0
   0
LINE
   8
LEVEL001
   6
CONTINUOUS
  62
7
  10
 245.151
  20
 300.889
  30
0.0
  11
 245.302
  21
 300.893
  31
0.0
   0
LINE
   8
LEVEL001
   6
CONTINUOUS
  62
7
  10
 245.302
  20
 300.893
  30
0.0
  11
 245.452
  21
 300.899
  31
0.0
   0
LINE
   8
LEVEL001
   6
CONTINUOUS
  62
7
  10
 245.452
  20
 300.899
  30
0.0
  11
 245.601
  21
 300.908
  31
0.0
   0
LINE
   8
LEVEL001
   6
CONTINUOUS
  62
7
  10
 245.601
  20
 300.908
  30
0.0
  11
 245.749
  21
 300.919
  31
0.0
   0
LINE
   8
LEVEL001
   6
CONTINUOUS
  62
7
  10
 245.749
  20
 300.919
  30
0.0
  11
 245.896
  21
 300.933
  31
0.0
   0
LINE
   8
LEVEL001
   6
CONTINUOUS
  62
7
  10
 245.896
  20
 300.933
  30
0.0
  11
 246.040
  21
 300.949
  31
0.0
   0
LINE
   8
LEVEL001
   6
CONTINUOUS
  62
7
  10
 246.040
  20
 300.949
  30
0.0
  11
 246.183
  21
 300.968
  31
0.0
   0
LINE
   8
LEVEL001
   6
CONTINUOUS
  62
7
  10
 246.183
  20
 300.968
  30
0.0
  11
 246.324
  21
 300.989
  31
0.0
   0
LINE
   8
LEVEL001
   6
CONTINUOUS
  62
7
  10
 246.324
  20
 300.989
  30
0.0
  11
 246.462
  21
 301.012
  31
0.0
   0
LINE
   8
LEVEL001
   6
CONTINUOUS
  62
7
  10
 246.462
  20
 301.012
  30
0.0
  11
 246.598
  21
 301.037
  31
0.0
   0
LINE
   8
LEVEL001
   6
CONTINUOUS
  62
7
  10
 246.598
  20
 301.037
  30
0.0
  11
 246.730
  21
 301.065
  31
0.0
   0
LINE
   8
LEVEL001
   6
CONTINUOUS
  62
7
  10
 246.730
  20
 301.065
  30
0.0
  11
 246.859
  21
 301.095
  31
0.0
   0
LINE
   8
LEVEL001
   6
CONTINUOUS
  62
7
  10
 246.859
  20
 301.095
  30
0.0
  11
 246.985
  21
 301.127
  31
0.0
   0
LINE
   8
LEVEL001
   6
CONTINUOUS
  62
7
  10
 246.985
  20
 301.127
  30
0.0
  11
 247.106
  21
 301.161
  31
0.0
   0
LINE
   8
LEVEL001
   6
CONTINUOUS
  62
7
  10
 247.106
  20
 301.161
  30
0.0
  11
 247.224
  21
 301.198
  31
0.0
   0
LINE
   8
LEVEL001
   6
CONTINUOUS
  62
7
  10
 247.224
  20
 301.198
  30
0.0
  11
 247.338
  21
 301.236
  31
0.0
   0
LINE
   8
LEVEL001
   6
CONTINUOUS
  62
7
  10
 247.338
  20
 301.236
  30
0.0
  11
 247.447
  21
 301.276
  31
0.0
   0
LINE
   8
LEVEL001
   6
CONTINUOUS
  62
7
  10
 247.447
  20
 301.276
  30
0.0
  11
 247.551
  21
 301.317
  31
0.0
   0
LINE
   8
LEVEL001
   6
CONTINUOUS
  62
7
  10
 247.551
  20
 301.317
  30
0.0
  11
 247.651
  21
 301.361
  31
0.0
   0
LINE
   8
LEVEL001
   6
CONTINUOUS
  62
7
  10
 247.651
  20
 301.361
  30
0.0
  11
 247.745
  21
 301.406
  31
0.0
   0
LINE
   8
LEVEL001
   6
CONTINUOUS
  62
7
  10
 247.745
  20
 301.406
  30
0.0
  11
 247.834
  21
 301.452
  31
0.0
   0
LINE
   8
LEVEL001
   6
CONTINUOUS
  62
7
  10
 247.834
  20
 301.452
  30
0.0
  11
 247.918
  21
 301.500
  31
0.0
   0
LINE
   8
LEVEL001
   6
CONTINUOUS
  62
7
  10
 247.918
  20
 301.500
  30
0.0
  11
 247.996
  21
 301.550
  31
0.0
   0
LINE
   8
LEVEL001
   6
CONTINUOUS
  62
7
  10
 247.996
  20
 301.550
  30
0.0
  11
 248.069
  21
 301.600
  31
0.0
   0
LINE
   8
LEVEL001
   6
CONTINUOUS
  62
7
  10
 248.069
  20
 301.600
  30
0.0
  11
 248.136
  21
 301.652
  31
0.0
   0
LINE
   8
LEVEL001
   6
CONTINUOUS
  62
7
  10
 248.136
  20
 301.652
  30
0.0
  11
 248.197
  21
 301.705
  31
0.0
   0
LINE
   8
LEVEL001
   6
CONTINUOUS
  62
7
  10
 248.197
  20
 301.705
  30
0.0
  11
 248.251
  21
 301.759
  31
0.0
   0
LINE
   8
LEVEL001
   6
CONTINUOUS
  62
7
  10
 248.251
  20
 301.759
  30
0.0
  11
 248.300
  21
 301.814
  31
0.0
   0
LINE
   8
LEVEL001
   6
CONTINUOUS
  62
7
  10
 248.300
  20
 301.814
  30
0.0
  11
 248.342
  21
 301.869
  31
0.0
   0
LINE
   8
LEVEL001
   6
CONTINUOUS
  62
7
  10
 248.342
  20
 301.869
  30
0.0
  11
 248.378
  21
 301.925
  31
0.0
   0
LINE
   8
LEVEL001
   6
CONTINUOUS
  62
7
  10
 248.378
  20
 301.925
  30
0.0
  11
 248.407
  21
 301.982
  31
0.0
   0
LINE
   8
LEVEL001
   6
CONTINUOUS
  62
7
  10
 248.407
  20
 301.982
  30
0.0
  11
 248.430
  21
 302.039
  31
0.0
   0
LINE
   8
LEVEL001
   6
CONTINUOUS
  62
7
  10
 248.430
  20
 302.039
  30
0.0
  11
 248.447
  21
 302.096
  31
0.0
   0
LINE
   8
LEVEL001
   6
CONTINUOUS
  62
7
  10
 248.447
  20
 302.096
  30
0.0
  11
 248.457
  21
 302.154
  31
0.0
   0
LINE
   8
LEVEL001
   6
CONTINUOUS
  62
7
  10
 248.457
  20
 302.154
  30
0.0
  11
 248.460
  21
 302.212
  31
0.0
   0
ARC
   8
LEVEL001
   6
CONTINUOUS
  62
7
  10
 242.061
  20
 305.697
  30
0.0
  40
 6.28019
  50
 337.893
  51
 352.464
   0
ARC
   8
LEVEL001
   6
CONTINUOUS
  62
7
  10
 249.013
  20
 303.209
  30
0.0
  40
 1.13965
  50
 173.696
  51
 240.986
   0
ARC
   8
LEVEL001
   6
CONTINUOUS
  62
7
  10
 247.939
  20
 305.697
  30
0.0
  40
 6.28019
  50
 187.536
  51
 202.107
   0
ARC
   8
LEVEL001
   6
CONTINUOUS
  62
7
  10
 240.987
  20
 303.209
  30
0.0
  40
 1.13965
  50
 299.014
  51
 6.30441
   0
LINE
   8
LEVEL001
   6
CONTINUOUS
  62
7
  10
 248.464
  20
 301.438
  30
0.0
  11
 245.000
  21
 300.665
  31
0.0
   0
LINE
   8
LEVEL001
   6
CONTINUOUS
  62
7
  10
 245.000
  20
 300.665
  30
0.0
  11
 241.536
  21
 301.438
  31
0.0
   0
LINE
   8
LEVEL001
   6
CONTINUOUS
  62
7
  10
 241.536
  20
 302.985
  30
0.0
  11
 242.123
  21
 303.116
  31
0.0
   0
LINE
   8
LEVEL001
   6
CONTINUOUS
  62
7
  10
 247.877
  20
 303.116
  30
0.0
  11
 248.464
  21
 302.985
  31
0.0
   0
LINE
   8
LEVEL001
   6
CONTINUOUS
  62
7
  10
 241.536
  20
 302.985
  30
0.0
  11
 241.536
  21
 299.221
  31
0.0
   0
LINE
   8
LEVEL001
   6
CONTINUOUS
  62
7
  10
 248.464
  20
 299.221
  30
0.0
  11
 248.464
  21
 302.985
  31
0.0
   0
LINE
   8
LEVEL001
   6
CONTINUOUS
  62
7
  10
 241.536
  20
 299.221
  30
0.0
  11
 245.000
  21
 298.448
  31
0.0
   0
LINE
   8
LEVEL001
   6
CONTINUOUS
  62
7
  10
 245.000
  20
 298.448
  30
0.0
  11
 248.464
  21
 299.221
  31
0.0
   0
ARC
   8
LEVEL001
   6
CONTINUOUS
  62
7
  10
 245.000
  20
 295.000
  30
0.0
  40
 6.33000
  50
 123.179
  51
 56.8213
   0
LINE
   8
LEVEL001
   6
CONTINUOUS
  62
7
  10
 245.000
  20
 300.665
  30
0.0
  11
 245.000
  21
 298.448
  31
0.0
   0
LINE
   8
LEVEL001
   6
CONTINUOUS
  62
7
  10
 141.388
  20
 246.000
  30
0.0
  11
 195.958
  21
 246.000
  31
0.0
   0
LINE
   8
LEVEL001
   6
CONTINUOUS
  62
7
  10
 247.317
  20
 246.000
  30
0.0
  11
 307.023
  21
 246.000
  31
0.0
   0
LINE
   8
LEVEL001
   6
CONTINUOUS
  62
7
  10
 253.083
  20
 295.000
  30
0.0
  11
 249.041
  21
 302.000
  31
0.0
   0
LINE
   8
LEVEL001
   6
CONTINUOUS
  62
7
  10
 240.959
  20
 302.000
  30
0.0
  11
 236.917
  21
 295.000
  31
0.0
   0
LINE
   8
LEVEL001
   6
CONTINUOUS
  62
7
  10
 236.917
  20
 295.000
  30
0.0
  11
 240.959
  21
 288.000
  31
0.0
   0
LINE
   8
LEVEL001
   6
CONTINUOUS
  62
7
  10
 240.959
  20
 288.000
  30
0.0
  11
 249.041
  21
 288.000
  31
0.0
   0
LINE
   8
LEVEL001
   6
CONTINUOUS
  62
7
  10
 249.041
  20
 288.000
  30
0.0
  11
 253.083
  21
 295.000
  31
0.0
   0
LINE
   8
LEVEL001
   6
CONTINUOUS
  62
7
  10
 249.041
  20
 302.000
  30
0.0
  11
 248.464
  21
 302.000
  31
0.0
   0
LINE
   8
LEVEL001
   6
CONTINUOUS
  62
7
  10
 241.536
  20
 302.000
  30
0.0
  11
 240.959
  21
 302.000
  31
0.0
   0
LINE
   8
LEVEL001
   6
DASHDOT
  62
1
  10
 720.000
  20
 805.500
  30
0.0
  11
 720.000
  21
 54.5000
  31
0.0
   0
LINE
   8
LEVEL001
   6
DASHDOT
  62
1
  10
 624.000
  20
 333.348
  30
0.0
  11
 624.000
  21
 257.096
  31
0.0
   0
LINE
   8
LEVEL001
   6
DASHDOT
  62
1
  10
 658.824
  20
 295.000
  30
0.0
  11
 589.694
  21
 295.000
  31
0.0
   0
LINE
   8
LEVEL001
   6
DASHDOT
  62
1
  10
 550.000
  20
 205.000
  30
0.0
  11
 550.000
  21
 239.500
  31
0.0
   0
LINE
   8
LEVEL001
   6
DASHDOT
  62
1
  10
 835.000
  20
 201.268
  30
0.0
  11
 835.000
  21
 239.500
  31
0.0
   0
LINE
   8
LEVEL001
   6
DASHDOT
  62
1
  10
 29.5846
  20
 295.000
  30
0.0
  11
 409.553
  21
 295.000
  31
0.0
   0
LINE
   8
LEVEL001
   6
DASHDOT
  62
1
  10
 160.000
  20
 205.000
  30
0.0
  11
 160.000
  21
 239.500
  31
0.0
   0
LINE
   8
LEVEL001
   6
DASHDOT
  62
1
  10
 280.000
  20
 205.000
  30
0.0
  11
 280.000
  21
 239.500
  31
0.0
   0
LINE
   8
LEVEL001
   6
DASHDOT
  62
1
  10
 220.000
  20
 805.500
  30
0.0
  11
 220.000
  21
 54.5000
  31
0.0
   0
LINE
   8
LEVEL001
   6
CONTINUOUS
  62
7
  10
 342.000
  20
 279.000
  30
0.0
  11
 342.000
  21
 310.199
  31
0.0
   0
LINE
   8
LEVEL001
   6
CONTINUOUS
  62
7
  10
 342.000
  20
 310.199
  30
0.0
  11
 399.000
  21
 310.199
  31
0.0
   0
LINE
   8
LEVEL001
   6
CONTINUOUS
  62
7
  10
 342.000
  20
 279.000
  30
0.0
  11
 399.000
  21
 279.000
  31
0.0
   0
LINE
   8
LEVEL001
   6
CONTINUOUS
  62
7
  10
 335.000
  20
 312.500
  30
0.0
  11
 342.000
  21
 310.199
  31
0.0
   0
LINE
   8
LEVEL001
   6
CONTINUOUS
  62
7
  10
 335.000
  20
 277.500
  30
0.0
  11
 342.000
  21
 279.000
  31
0.0
   0
LINE
   8
LEVEL001
   6
CONTINUOUS
  62
7
  10
 97.8960
  20
 279.000
  30
0.0
  11
 41.0000
  21
 279.000
  31
0.0
   0
LINE
   8
LEVEL001
   6
CONTINUOUS
  62
7
  10
 97.8960
  20
 310.199
  30
0.0
  11
 105.000
  21
 312.500
  31
0.0
   0
LINE
   8
LEVEL001
   6
CONTINUOUS
  62
7
  10
 97.8960
  20
 279.000
  30
0.0
  11
 105.000
  21
 277.500
  31
0.0
   0
LINE
   8
LEVEL001
   6
CONTINUOUS
  62
7
  10
 335.000
  20
 991.500
  30
0.0
  11
 342.000
  21
 990.022
  31
0.0
   0
LINE
   8
LEVEL001
   6
CONTINUOUS
  62
7
  10
 342.104
  20
 990.000
  30
0.0
  11
 342.104
  21
 979.000
  31
0.0
   0
LINE
   8
LEVEL001
   6
CONTINUOUS
  62
7
  10
 342.210
  20
 990.000
  30
0.0
  11
 399.000
  21
 990.000
  31
0.0
   0
ARC
   8
LEVEL001
   6
CONTINUOUS
  62
7
  10
 342.210
  20
 991.000
  30
0.0
  40
 1.00000
  50
 257.900
  51
 269.995
   0
ARC
   8
LEVEL001
   6
CONTINUOUS
  62
7
  10
 342.210
  20
 991.000
  30
0.0
  40
 1.00000
  50
 257.900
  51
 269.995
   0
LINE
   8
LEVEL001
   6
CONTINUOUS
  62
7
  10
 335.000
  20
 956.500
  30
0.0
  11
 342.000
  21
 957.978
  31
0.0
   0
LINE
   8
LEVEL001
   6
CONTINUOUS
  62
7
  10
 342.104
  20
 958.000
  30
0.0
  11
 342.104
  21
 969.000
  31
0.0
   0
LINE
   8
LEVEL001
   6
CONTINUOUS
  62
7
  10
 342.210
  20
 958.000
  30
0.0
  11
 399.000
  21
 958.000
  31
0.0
   0
ARC
   8
LEVEL001
   6
CONTINUOUS
  62
7
  10
 342.210
  20
 957.000
  30
0.0
  40
 1.00000
  50
 90.0049
  51
 102.100
   0
ARC
   8
LEVEL001
   6
CONTINUOUS
  62
7
  10
 342.210
  20
 957.000
  30
0.0
  40
 1.00000
  50
 90.0049
  51
 102.100
   0
LINE
   8
LEVEL001
   6
CONTINUOUS
  62
7
  10
 105.000
  20
 956.500
  30
0.0
  11
 98.0000
  21
 957.978
  31
0.0
   0
LINE
   8
LEVEL001
   6
CONTINUOUS
  62
7
  10
 105.000
  20
 991.500
  30
0.0
  11
 98.0000
  21
 990.022
  31
0.0
   0
LINE
   8
LEVEL001
   6
CONTINUOUS
  62
7
  10
 97.8960
  20
 958.000
  30
0.0
  11
 97.8960
  21
 969.000
  31
0.0
   0
LINE
   8
LEVEL001
   6
CONTINUOUS
  62
7
  10
 97.7900
  20
 958.000
  30
0.0
  11
 41.0000
  21
 958.000
  31
0.0
   0
ARC
   8
LEVEL001
   6
CONTINUOUS
  62
7
  10
 97.7900
  20
 957.000
  30
0.0
  40
 1.00000
  50
 77.9000
  51
 89.9951
   0
ARC
   8
LEVEL001
   6
CONTINUOUS
  62
7
  10
 97.7900
  20
 957.000
  30
0.0
  40
 1.00000
  50
 77.9000
  51
 89.9951
   0
LINE
   8
LEVEL001
   6
CONTINUOUS
  62
7
  10
 97.8960
  20
 990.000
  30
0.0
  11
 97.8960
  21
 979.000
  31
0.0
   0
LINE
   8
LEVEL001
   6
CONTINUOUS
  62
7
  10
 97.7900
  20
 990.000
  30
0.0
  11
 41.0000
  21
 990.000
  31
0.0
   0
ARC
   8
LEVEL001
   6
CONTINUOUS
  62
7
  10
 97.7900
  20
 991.000
  30
0.0
  40
 1.00000
  50
 270.005
  51
 282.100
   0
ARC
   8
LEVEL001
   6
CONTINUOUS
  62
7
  10
 97.7900
  20
 991.000
  30
0.0
  40
 1.00000
  50
 270.005
  51
 282.100
   0
ARC
   8
LEVEL001
   6
CONTINUOUS
  62
7
  10
 160.000
  20
 1185.00
  30
0.0
  40
 29.0000
  50
 90.9509
  51
 177.033
   0
ARC
   8
LEVEL001
   6
CONTINUOUS
  62
7
  10
 280.000
  20
 1185.00
  30
0.0
  40
 29.0000
  50
 2.96729
  51
 89.0487
   0
LINE
   8
LEVEL001
   6
CONTINUOUS
  62
7
  10
 312.952
  20
 1109.51
  30
0.0
  11
 308.961
  21
 1186.50
  31
0.0
   0
LINE
   8
LEVEL001
   6
CONTINUOUS
  62
7
  10
 127.048
  20
 1109.51
  30
0.0
  11
 131.039
  21
 1186.50
  31
0.0
   0
LINE
   8
LEVEL001
   6
CONTINUOUS
  62
7
  10
 250.723
  20
 920.379
  30
0.0
  11
 245.000
  21
 920.379
  31
0.0
   0
LINE
   8
LEVEL001
   6
CONTINUOUS
  62
7
  10
 238.394
  20
 919.495
  30
0.0
  11
 239.189
  21
 920.291
  31
0.0
   0
LINE
   8
LEVEL001
   6
CONTINUOUS
  62
7
  10
 250.723
  20
 920.379
  30
0.0
  11
 250.720
  21
 920.465
  31
0.0
   0
LINE
   8
LEVEL001
   6
CONTINUOUS
  62
7
  10
 251.606
  20
 919.495
  30
0.0
  11
 250.723
  21
 920.379
  31
0.0
   0
LINE
   8
LEVEL001
   6
CONTINUOUS
  62
7
  10
 238.418
  20
 920.279
  30
0.0
  11
 238.394
  21
 919.495
  31
0.0
   0
LINE
   8
LEVEL001
   6
CONTINUOUS
  62
7
  10
 251.606
  20
 919.495
  30
0.0
  11
 251.575
  21
 920.478
  31
0.0
   0
ARC
   8
LEVEL001
   6
CONTINUOUS
  62
7
  10
 253.274
  20
 910.856
  30
0.0
  40
 8.73264
  50
 98.3860
  51
 118.924
   0
ARC
   8
LEVEL001
   6
CONTINUOUS
  62
7
  10
 245.000
  20
 910.763
  30
0.0
  40
 8.73264
  50
 62.3688
  51
 117.631
   0
ARC
   8
LEVEL001
   6
CONTINUOUS
  62
7
  10
 236.726
  20
 910.856
  30
0.0
  40
 8.73264
  50
 61.0758
  51
 81.6142
   0
ARC
   8
LEVEL001
   6
CONTINUOUS
  62
7
  10
 245.000
  20
 913.067
  30
0.0
  40
 9.93811
  50
 241.269
  51
 252.935
   0
ARC
   8
LEVEL001
   6
CONTINUOUS
  62
7
  10
 241.665
  20
 906.983
  30
0.0
  40
 3.00000
  50
 180.000
  51
 241.269
   0
LINE
   8
LEVEL001
   6
CONTINUOUS
  62
7
  10
 238.665
  20
 906.983
  30
0.0
  11
 238.665
  21
 914.745
  31
0.0
   0
ARC
   8
LEVEL001
   6
CONTINUOUS
  62
7
  10
 245.000
  20
 913.067
  30
0.0
  40
 9.93811
  50
 287.065
  51
 298.731
   0
ARC
   8
LEVEL001
   6
CONTINUOUS
  62
7
  10
 248.335
  20
 906.983
  30
0.0
  40
 3.00000
  50
 298.731
  51
0.0
   0
LINE
   8
LEVEL001
   6
CONTINUOUS
  62
7
  10
 251.335
  20
 906.983
  30
0.0
  11
 251.335
  21
 914.745
  31
0.0
   0
LINE
   8
LEVEL001
   6
CONTINUOUS
  62
7
  10
 243.051
  20
 902.533
  30
0.0
  11
 243.342
  21
 902.357
  31
0.0
   0
LINE
   8
LEVEL001
   6
CONTINUOUS
  62
7
  10
 242.734
  20
 902.777
  30
0.0
  11
 243.051
  21
 902.533
  31
0.0
   0
LINE
   8
LEVEL001
   6
CONTINUOUS
  62
7
  10
 242.453
  20
 903.055
  30
0.0
  11
 242.734
  21
 902.777
  31
0.0
   0
LINE
   8
LEVEL001
   6
CONTINUOUS
  62
7
  10
 242.211
  20
 903.363
  30
0.0
  11
 242.453
  21
 903.055
  31
0.0
   0
LINE
   8
LEVEL001
   6
CONTINUOUS
  62
7
  10
 242.013
  20
 903.697
  30
0.0
  11
 242.211
  21
 903.363
  31
0.0
   0
LINE
   8
LEVEL001
   6
CONTINUOUS
  62
7
  10
 241.861
  20
 904.052
  30
0.0
  11
 242.013
  21
 903.697
  31
0.0
   0
LINE
   8
LEVEL001
   6
CONTINUOUS
  62
7
  10
 241.759
  20
 904.420
  30
0.0
  11
 241.861
  21
 904.052
  31
0.0
   0
LINE
   8
LEVEL001
   6
CONTINUOUS
  62
7
  10
 241.707
  20
 904.798
  30
0.0
  11
 241.759
  21
 904.420
  31
0.0
   0
LINE
   8
LEVEL001
   6
CONTINUOUS
  62
7
  10
 241.706
  20
 905.179
  30
0.0
  11
 241.707
  21
 904.798
  31
0.0
   0
LINE
   8
LEVEL001
   6
CONTINUOUS
  62
7
  10
 241.757
  20
 905.557
  30
0.0
  11
 241.706
  21
 905.179
  31
0.0
   0
LINE
   8
LEVEL001
   6
CONTINUOUS
  62
7
  10
 241.858
  20
 905.926
  30
0.0
  11
 241.757
  21
 905.557
  31
0.0
   0
LINE
   8
LEVEL001
   6
CONTINUOUS
  62
7
  10
 242.009
  20
 906.281
  30
0.0
  11
 241.858
  21
 905.926
  31
0.0
   0
LINE
   8
LEVEL001
   6
CONTINUOUS
  62
7
  10
 242.206
  20
 906.615
  30
0.0
  11
 242.009
  21
 906.281
  31
0.0
   0
LINE
   8
LEVEL001
   6
CONTINUOUS
  62
7
  10
 242.447
  20
 906.924
  30
0.0
  11
 242.206
  21
 906.615
  31
0.0
   0
LINE
   8
LEVEL001
   6
CONTINUOUS
  62
7
  10
 242.727
  20
 907.204
  30
0.0
  11
 242.447
  21
 906.924
  31
0.0
   0
LINE
   8
LEVEL001
   6
CONTINUOUS
  62
7
  10
 243.043
  20
 907.448
  30
0.0
  11
 242.727
  21
 907.204
  31
0.0
   0
LINE
   8
LEVEL001
   6
CONTINUOUS
  62
7
  10
 243.390
  20
 907.654
  30
0.0
  11
 243.043
  21
 907.448
  31
0.0
   0
LINE
   8
LEVEL001
   6
CONTINUOUS
  62
7
  10
 243.762
  20
 907.819
  30
0.0
  11
 243.390
  21
 907.654
  31
0.0
   0
LINE
   8
LEVEL001
   6
CONTINUOUS
  62
7
  10
 244.153
  20
 907.940
  30
0.0
  11
 243.762
  21
 907.819
  31
0.0
   0
LINE
   8
LEVEL001
   6
CONTINUOUS
  62
7
  10
 244.557
  20
 908.014
  30
0.0
  11
 244.153
  21
 907.940
  31
0.0
   0
LINE
   8
LEVEL001
   6
CONTINUOUS
  62
7
  10
 244.968
  20
 908.042
  30
0.0
  11
 244.557
  21
 908.014
  31
0.0
   0
LINE
   8
LEVEL001
   6
CONTINUOUS
  62
7
  10
 245.380
  20
 908.022
  30
0.0
  11
 244.968
  21
 908.042
  31
0.0
   0
LINE
   8
LEVEL001
   6
CONTINUOUS
  62
7
  10
 245.785
  20
 907.954
  30
0.0
  11
 245.380
  21
 908.022
  31
0.0
   0
LINE
   8
LEVEL001
   6
CONTINUOUS
  62
7
  10
 246.179
  20
 907.841
  30
0.0
  11
 245.785
  21
 907.954
  31
0.0
   0
LINE
   8
LEVEL001
   6
CONTINUOUS
  62
7
  10
 246.554
  20
 907.683
  30
0.0
  11
 246.179
  21
 907.841
  31
0.0
   0
LINE
   8
LEVEL001
   6
CONTINUOUS
  62
7
  10
 246.905
  20
 907.483
  30
0.0
  11
 246.554
  21
 907.683
  31
0.0
   0
LINE
   8
LEVEL001
   6
CONTINUOUS
  62
7
  10
 247.226
  20
 907.244
  30
0.0
  11
 246.905
  21
 907.483
  31
0.0
   0
LINE
   8
LEVEL001
   6
CONTINUOUS
  62
7
  10
 247.512
  20
 906.970
  30
0.0
  11
 247.226
  21
 907.244
  31
0.0
   0
LINE
   8
LEVEL001
   6
CONTINUOUS
  62
7
  10
 247.759
  20
 906.665
  30
0.0
  11
 247.512
  21
 906.970
  31
0.0
   0
LINE
   8
LEVEL001
   6
CONTINUOUS
  62
7
  10
 247.964
  20
 906.334
  30
0.0
  11
 247.759
  21
 906.665
  31
0.0
   0
LINE
   8
LEVEL001
   6
CONTINUOUS
  62
7
  10
 248.121
  20
 905.982
  30
0.0
  11
 247.964
  21
 906.334
  31
0.0
   0
LINE
   8
LEVEL001
   6
CONTINUOUS
  62
7
  10
 248.231
  20
 905.615
  30
0.0
  11
 248.121
  21
 905.982
  31
0.0
   0
LINE
   8
LEVEL001
   6
CONTINUOUS
  62
7
  10
 248.289
  20
 905.238
  30
0.0
  11
 248.231
  21
 905.615
  31
0.0
   0
LINE
   8
LEVEL001
   6
CONTINUOUS
  62
7
  10
 248.297
  20
 904.857
  30
0.0
  11
 248.289
  21
 905.238
  31
0.0
   0
LINE
   8
LEVEL001
   6
CONTINUOUS
  62
7
  10
 248.253
  20
 904.479
  30
0.0
  11
 248.297
  21
 904.857
  31
0.0
   0
LINE
   8
LEVEL001
   6
CONTINUOUS
  62
7
  10
 248.158
  20
 904.108
  30
0.0
  11
 248.253
  21
 904.479
  31
0.0
   0
LINE
   8
LEVEL001
   6
CONTINUOUS
  62
7
  10
 248.014
  20
 903.751
  30
0.0
  11
 248.158
  21
 904.108
  31
0.0
   0
LINE
   8
LEVEL001
   6
CONTINUOUS
  62
7
  10
 247.823
  20
 903.414
  30
0.0
  11
 248.014
  21
 903.751
  31
0.0
   0
LINE
   8
LEVEL001
   6
CONTINUOUS
  62
7
  10
 247.588
  20
 903.101
  30
0.0
  11
 247.823
  21
 903.414
  31
0.0
   0
LINE
   8
LEVEL001
   6
CONTINUOUS
  62
7
  10
 247.312
  20
 902.818
  30
0.0
  11
 247.588
  21
 903.101
  31
0.0
   0
LINE
   8
LEVEL001
   6
CONTINUOUS
  62
7
  10
 247.001
  20
 902.568
  30
0.0
  11
 247.312
  21
 902.818
  31
0.0
   0
LINE
   8
LEVEL001
   6
CONTINUOUS
  62
7
  10
 246.658
  20
 902.357
  30
0.0
  11
 247.001
  21
 902.568
  31
0.0
   0
LINE
   8
LEVEL001
   6
CONTINUOUS
  62
7
  10
 248.500
  20
 904.274
  30
0.0
  11
 248.151
  21
 904.088
  31
0.0
   0
LINE
   8
LEVEL001
   6
CONTINUOUS
  62
7
  10
 248.500
  20
 908.008
  30
0.0
  11
 248.500
  21
 904.274
  31
0.0
   0
LINE
   8
LEVEL001
   6
CONTINUOUS
  62
7
  10
 245.000
  20
 909.875
  30
0.0
  11
 248.500
  21
 908.008
  31
0.0
   0
LINE
   8
LEVEL001
   6
CONTINUOUS
  62
7
  10
 241.500
  20
 908.008
  30
0.0
  11
 245.000
  21
 909.875
  31
0.0
   0
LINE
   8
LEVEL001
   6
CONTINUOUS
  62
7
  10
 241.500
  20
 904.274
  30
0.0
  11
 241.500
  21
 908.008
  31
0.0
   0
LINE
   8
LEVEL001
   6
CONTINUOUS
  62
7
  10
 241.849
  20
 904.088
  30
0.0
  11
 241.500
  21
 904.274
  31
0.0
   0
LINE
   8
LEVEL001
   6
CONTINUOUS
  62
7
  10
 247.399
  20
 903.886
  30
0.0
  11
 247.400
  21
 903.960
  31
0.0
   0
LINE
   8
LEVEL001
   6
CONTINUOUS
  62
7
  10
 247.370
  20
 903.610
  30
0.0
  11
 247.399
  21
 903.886
  31
0.0
   0
LINE
   8
LEVEL001
   6
CONTINUOUS
  62
7
  10
 247.304
  20
 903.340
  30
0.0
  11
 247.370
  21
 903.610
  31
0.0
   0
LINE
   8
LEVEL001
   6
CONTINUOUS
  62
7
  10
 247.203
  20
 903.080
  30
0.0
  11
 247.304
  21
 903.340
  31
0.0
   0
LINE
   8
LEVEL001
   6
CONTINUOUS
  62
7
  10
 247.067
  20
 902.833
  30
0.0
  11
 247.203
  21
 903.080
  31
0.0
   0
LINE
   8
LEVEL001
   6
CONTINUOUS
  62
7
  10
 246.899
  20
 902.603
  30
0.0
  11
 247.067
  21
 902.833
  31
0.0
   0
LINE
   8
LEVEL001
   6
CONTINUOUS
  62
7
  10
 246.701
  20
 902.395
  30
0.0
  11
 246.899
  21
 902.603
  31
0.0
   0
LINE
   8
LEVEL001
   6
CONTINUOUS
  62
7
  10
 246.476
  20
 902.212
  30
0.0
  11
 246.701
  21
 902.395
  31
0.0
   0
LINE
   8
LEVEL001
   6
CONTINUOUS
  62
7
  10
 246.229
  20
 902.055
  30
0.0
  11
 246.476
  21
 902.212
  31
0.0
   0
LINE
   8
LEVEL001
   6
CONTINUOUS
  62
7
  10
 245.962
  20
 901.929
  30
0.0
  11
 246.229
  21
 902.055
  31
0.0
   0
LINE
   8
LEVEL001
   6
CONTINUOUS
  62
7
  10
 245.681
  20
 901.834
  30
0.0
  11
 245.962
  21
 901.929
  31
0.0
   0
LINE
   8
LEVEL001
   6
CONTINUOUS
  62
7
  10
 245.389
  20
 901.772
  30
0.0
  11
 245.681
  21
 901.834
  31
0.0
   0
LINE
   8
LEVEL001
   6
CONTINUOUS
  62
7
  10
 245.090
  20
 901.744
  30
0.0
  11
 245.389
  21
 901.772
  31
0.0
   0
LINE
   8
LEVEL001
   6
CONTINUOUS
  62
7
  10
 244.791
  20
 901.751
  30
0.0
  11
 245.090
  21
 901.744
  31
0.0
   0
LINE
   8
LEVEL001
   6
CONTINUOUS
  62
7
  10
 244.494
  20
 901.792
  30
0.0
  11
 244.791
  21
 901.751
  31
0.0
   0
LINE
   8
LEVEL001
   6
CONTINUOUS
  62
7
  10
 244.206
  20
 901.867
  30
0.0
  11
 244.494
  21
 901.792
  31
0.0
   0
LINE
   8
LEVEL001
   6
CONTINUOUS
  62
7
  10
 243.929
  20
 901.975
  30
0.0
  11
 244.206
  21
 901.867
  31
0.0
   0
LINE
   8
LEVEL001
   6
CONTINUOUS
  62
7
  10
 243.670
  20
 902.114
  30
0.0
  11
 243.929
  21
 901.975
  31
0.0
   0
LINE
   8
LEVEL001
   6
CONTINUOUS
  62
7
  10
 243.431
  20
 902.282
  30
0.0
  11
 243.670
  21
 902.114
  31
0.0
   0
LINE
   8
LEVEL001
   6
CONTINUOUS
  62
7
  10
 243.217
  20
 902.475
  30
0.0
  11
 243.431
  21
 902.282
  31
0.0
   0
LINE
   8
LEVEL001
   6
CONTINUOUS
  62
7
  10
 243.031
  20
 902.692
  30
0.0
  11
 243.217
  21
 902.475
  31
0.0
   0
LINE
   8
LEVEL001
   6
CONTINUOUS
  62
7
  10
 242.875
  20
 902.929
  30
0.0
  11
 243.031
  21
 902.692
  31
0.0
   0
LINE
   8
LEVEL001
   6
CONTINUOUS
  62
7
  10
 242.753
  20
 903.182
  30
0.0
  11
 242.875
  21
 902.929
  31
0.0
   0
LINE
   8
LEVEL001
   6
CONTINUOUS
  62
7
  10
 242.665
  20
 903.447
  30
0.0
  11
 242.753
  21
 903.182
  31
0.0
   0
LINE
   8
LEVEL001
   6
CONTINUOUS
  62
7
  10
 242.614
  20
 903.720
  30
0.0
  11
 242.665
  21
 903.447
  31
0.0
   0
LINE
   8
LEVEL001
   6
CONTINUOUS
  62
7
  10
 242.600
  20
 903.997
  30
0.0
  11
 242.614
  21
 903.720
  31
0.0
   0
LINE
   8
LEVEL001
   6
CONTINUOUS
  62
7
  10
 242.624
  20
 904.273
  30
0.0
  11
 242.600
  21
 903.997
  31
0.0
   0
LINE
   8
LEVEL001
   6
CONTINUOUS
  62
7
  10
 242.685
  20
 904.544
  30
0.0
  11
 242.624
  21
 904.273
  31
0.0
   0
LINE
   8
LEVEL001
   6
CONTINUOUS
  62
7
  10
 242.782
  20
 904.806
  30
0.0
  11
 242.685
  21
 904.544
  31
0.0
   0
LINE
   8
LEVEL001
   6
CONTINUOUS
  62
7
  10
 242.913
  20
 905.055
  30
0.0
  11
 242.782
  21
 904.806
  31
0.0
   0
LINE
   8
LEVEL001
   6
CONTINUOUS
  62
7
  10
 243.077
  20
 905.287
  30
0.0
  11
 242.913
  21
 905.055
  31
0.0
   0
LINE
   8
LEVEL001
   6
CONTINUOUS
  62
7
  10
 243.271
  20
 905.498
  30
0.0
  11
 243.077
  21
 905.287
  31
0.0
   0
LINE
   8
LEVEL001
   6
CONTINUOUS
  62
7
  10
 243.492
  20
 905.685
  30
0.0
  11
 243.271
  21
 905.498
  31
0.0
   0
LINE
   8
LEVEL001
   6
CONTINUOUS
  62
7
  10
 243.737
  20
 905.845
  30
0.0
  11
 243.492
  21
 905.685
  31
0.0
   0
LINE
   8
LEVEL001
   6
CONTINUOUS
  62
7
  10
 244.001
  20
 905.976
  30
0.0
  11
 243.737
  21
 905.845
  31
0.0
   0
LINE
   8
LEVEL001
   6
CONTINUOUS
  62
7
  10
 244.281
  20
 906.075
  30
0.0
  11
 244.001
  21
 905.976
  31
0.0
   0
LINE
   8
LEVEL001
   6
CONTINUOUS
  62
7
  10
 244.572
  20
 906.142
  30
0.0
  11
 244.281
  21
 906.075
  31
0.0
   0
LINE
   8
LEVEL001
   6
CONTINUOUS
  62
7
  10
 244.870
  20
 906.174
  30
0.0
  11
 244.572
  21
 906.142
  31
0.0
   0
LINE
   8
LEVEL001
   6
CONTINUOUS
  62
7
  10
 245.170
  20
 906.172
  30
0.0
  11
 244.870
  21
 906.174
  31
0.0
   0
LINE
   8
LEVEL001
   6
CONTINUOUS
  62
7
  10
 245.467
  20
 906.135
  30
0.0
  11
 245.170
  21
 906.172
  31
0.0
   0
LINE
   8
LEVEL001
   6
CONTINUOUS
  62
7
  10
 245.757
  20
 906.064
  30
0.0
  11
 245.467
  21
 906.135
  31
0.0
   0
LINE
   8
LEVEL001
   6
CONTINUOUS
  62
7
  10
 246.035
  20
 905.960
  30
0.0
  11
 245.757
  21
 906.064
  31
0.0
   0
LINE
   8
LEVEL001
   6
CONTINUOUS
  62
7
  10
 246.297
  20
 905.826
  30
0.0
  11
 246.035
  21
 905.960
  31
0.0
   0
LINE
   8
LEVEL001
   6
CONTINUOUS
  62
7
  10
 246.538
  20
 905.662
  30
0.0
  11
 246.297
  21
 905.826
  31
0.0
   0
LINE
   8
LEVEL001
   6
CONTINUOUS
  62
7
  10
 246.756
  20
 905.471
  30
0.0
  11
 246.538
  21
 905.662
  31
0.0
   0
LINE
   8
LEVEL001
   6
CONTINUOUS
  62
7
  10
 246.946
  20
 905.257
  30
0.0
  11
 246.756
  21
 905.471
  31
0.0
   0
LINE
   8
LEVEL001
   6
CONTINUOUS
  62
7
  10
 247.106
  20
 905.023
  30
0.0
  11
 246.946
  21
 905.257
  31
0.0
   0
LINE
   8
LEVEL001
   6
CONTINUOUS
  62
7
  10
 247.233
  20
 904.772
  30
0.0
  11
 247.106
  21
 905.023
  31
0.0
   0
LINE
   8
LEVEL001
   6
CONTINUOUS
  62
7
  10
 247.325
  20
 904.508
  30
0.0
  11
 247.233
  21
 904.772
  31
0.0
   0
LINE
   8
LEVEL001
   6
CONTINUOUS
  62
7
  10
 247.381
  20
 904.236
  30
0.0
  11
 247.325
  21
 904.508
  31
0.0
   0
LINE
   8
LEVEL001
   6
CONTINUOUS
  62
7
  10
 247.400
  20
 903.960
  30
0.0
  11
 247.381
  21
 904.236
  31
0.0
   0
LINE
   8
LEVEL001
   6
CONTINUOUS
  62
7
  10
 245.999
  20
 903.929
  30
0.0
  11
 246.000
  21
 903.960
  31
0.0
   0
LINE
   8
LEVEL001
   6
CONTINUOUS
  62
7
  10
 244.010
  20
 904.090
  30
0.0
  11
 244.000
  21
 903.975
  31
0.0
   0
LINE
   8
LEVEL001
   6
CONTINUOUS
  62
7
  10
 244.035
  20
 904.203
  30
0.0
  11
 244.010
  21
 904.090
  31
0.0
   0
LINE
   8
LEVEL001
   6
CONTINUOUS
  62
7
  10
 244.076
  20
 904.312
  30
0.0
  11
 244.035
  21
 904.203
  31
0.0
   0
LINE
   8
LEVEL001
   6
CONTINUOUS
  62
7
  10
 244.130
  20
 904.416
  30
0.0
  11
 244.076
  21
 904.312
  31
0.0
   0
LINE
   8
LEVEL001
   6
CONTINUOUS
  62
7
  10
 244.199
  20
 904.513
  30
0.0
  11
 244.130
  21
 904.416
  31
0.0
   0
LINE
   8
LEVEL001
   6
CONTINUOUS
  62
7
  10
 244.280
  20
 904.601
  30
0.0
  11
 244.199
  21
 904.513
  31
0.0
   0
LINE
   8
LEVEL001
   6
CONTINUOUS
  62
7
  10
 244.372
  20
 904.679
  30
0.0
  11
 244.280
  21
 904.601
  31
0.0
   0
LINE
   8
LEVEL001
   6
CONTINUOUS
  62
7
  10
 244.474
  20
 904.745
  30
0.0
  11
 244.372
  21
 904.679
  31
0.0
   0
LINE
   8
LEVEL001
   6
CONTINUOUS
  62
7
  10
 244.584
  20
 904.800
  30
0.0
  11
 244.474
  21
 904.745
  31
0.0
   0
LINE
   8
LEVEL001
   6
CONTINUOUS
  62
7
  10
 244.700
  20
 904.841
  30
0.0
  11
 244.584
  21
 904.800
  31
0.0
   0
LINE
   8
LEVEL001
   6
CONTINUOUS
  62
7
  10
 244.822
  20
 904.869
  30
0.0
  11
 244.700
  21
 904.841
  31
0.0
   0
LINE
   8
LEVEL001
   6
CONTINUOUS
  62
7
  10
 244.946
  20
 904.882
  30
0.0
  11
 244.822
  21
 904.869
  31
0.0
   0
LINE
   8
LEVEL001
   6
CONTINUOUS
  62
7
  10
 245.071
  20
 904.881
  30
0.0
  11
 244.946
  21
 904.882
  31
0.0
   0
LINE
   8
LEVEL001
   6
CONTINUOUS
  62
7
  10
 245.195
  20
 904.866
  30
0.0
  11
 245.071
  21
 904.881
  31
0.0
   0
LINE
   8
LEVEL001
   6
CONTINUOUS
  62
7
  10
 245.315
  20
 904.836
  30
0.0
  11
 245.195
  21
 904.866
  31
0.0
   0
LINE
   8
LEVEL001
   6
CONTINUOUS
  62
7
  10
 245.431
  20
 904.793
  30
0.0
  11
 245.315
  21
 904.836
  31
0.0
   0
LINE
   8
LEVEL001
   6
CONTINUOUS
  62
7
  10
 245.540
  20
 904.737
  30
0.0
  11
 245.431
  21
 904.793
  31
0.0
   0
LINE
   8
LEVEL001
   6
CONTINUOUS
  62
7
  10
 245.641
  20
 904.669
  30
0.0
  11
 245.540
  21
 904.737
  31
0.0
   0
LINE
   8
LEVEL001
   6
CONTINUOUS
  62
7
  10
 245.732
  20
 904.590
  30
0.0
  11
 245.641
  21
 904.669
  31
0.0
   0
LINE
   8
LEVEL001
   6
CONTINUOUS
  62
7
  10
 245.811
  20
 904.500
  30
0.0
  11
 245.732
  21
 904.590
  31
0.0
   0
LINE
   8
LEVEL001
   6
CONTINUOUS
  62
7
  10
 245.878
  20
 904.403
  30
0.0
  11
 245.811
  21
 904.500
  31
0.0
   0
LINE
   8
LEVEL001
   6
CONTINUOUS
  62
7
  10
 245.931
  20
 904.298
  30
0.0
  11
 245.878
  21
 904.403
  31
0.0
   0
LINE
   8
LEVEL001
   6
CONTINUOUS
  62
7
  10
 245.969
  20
 904.188
  30
0.0
  11
 245.931
  21
 904.298
  31
0.0
   0
LINE
   8
LEVEL001
   6
CONTINUOUS
  62
7
  10
 245.992
  20
 904.075
  30
0.0
  11
 245.969
  21
 904.188
  31
0.0
   0
LINE
   8
LEVEL001
   6
CONTINUOUS
  62
7
  10
 246.000
  20
 903.960
  30
0.0
  11
 245.992
  21
 904.075
  31
0.0
   0
LINE
   8
LEVEL001
   6
CONTINUOUS
  62
7
  10
 245.000
  20
 909.875
  30
0.0
  11
 245.000
  21
 910.793
  31
0.0
   0
LINE
   8
LEVEL001
   6
CONTINUOUS
  62
7
  10
 248.500
  20
 908.926
  30
0.0
  11
 248.500
  21
 908.008
  31
0.0
   0
LINE
   8
LEVEL001
   6
CONTINUOUS
  62
7
  10
 245.000
  20
 910.793
  30
0.0
  11
 248.500
  21
 908.926
  31
0.0
   0
LINE
   8
LEVEL001
   6
CONTINUOUS
  62
7
  10
 241.500
  20
 908.926
  30
0.0
  11
 245.000
  21
 910.793
  31
0.0
   0
LINE
   8
LEVEL001
   6
CONTINUOUS
  62
7
  10
 241.500
  20
 908.008
  30
0.0
  11
 241.500
  21
 908.926
  31
0.0
   0
LINE
   8
LEVEL001
   6
CONTINUOUS
  62
7
  10
 238.000
  20
 915.129
  30
0.0
  11
 238.665
  21
 914.745
  31
0.0
   0
LINE
   8
LEVEL001
   6
CONTINUOUS
  62
7
  10
 251.335
  20
 914.745
  30
0.0
  11
 238.665
  21
 914.745
  31
0.0
   0
LINE
   8
LEVEL001
   6
CONTINUOUS
  62
7
  10
 252.000
  20
 915.129
  30
0.0
  11
 251.335
  21
 914.745
  31
0.0
   0
LINE
   8
LEVEL001
   6
CONTINUOUS
  62
7
  10
 238.000
  20
 915.129
  30
0.0
  11
 252.000
  21
 915.129
  31
0.0
   0
ARC
   8
LEVEL001
   6
CONTINUOUS
  62
7
  10
 245.000
  20
 923.861
  30
0.0
  40
 8.73264
  50
 242.369
  51
 297.631
   0
LINE
   8
LEVEL001
   6
CONTINUOUS
  62
7
  10
 252.000
  20
 919.495
  30
0.0
  11
 238.000
  21
 919.495
  31
0.0
   0
ARC
   8
LEVEL001
   6
CONTINUOUS
  62
7
  10
 236.726
  20
 923.768
  30
0.0
  40
 8.73264
  50
 278.386
  51
 298.924
   0
ARC
   8
LEVEL001
   6
CONTINUOUS
  62
7
  10
 253.274
  20
 923.768
  30
0.0
  40
 8.73264
  50
 241.076
  51
 261.614
   0
LINE
   8
LEVEL001
   6
CONTINUOUS
  62
7
  10
 253.100
  20
 915.764
  30
0.0
  11
 252.000
  21
 915.129
  31
0.0
   0
LINE
   8
LEVEL001
   6
CONTINUOUS
  62
7
  10
 253.100
  20
 918.395
  30
0.0
  11
 253.100
  21
 915.764
  31
0.0
   0
LINE
   8
LEVEL001
   6
CONTINUOUS
  62
7
  10
 252.000
  20
 919.495
  30
0.0
  11
 253.100
  21
 918.395
  31
0.0
   0
LINE
   8
LEVEL001
   6
CONTINUOUS
  62
7
  10
 236.900
  20
 918.395
  30
0.0
  11
 238.000
  21
 919.495
  31
0.0
   0
LINE
   8
LEVEL001
   6
CONTINUOUS
  62
7
  10
 236.900
  20
 915.764
  30
0.0
  11
 236.900
  21
 918.395
  31
0.0
   0
LINE
   8
LEVEL001
   6
CONTINUOUS
  62
7
  10
 238.000
  20
 915.129
  30
0.0
  11
 236.900
  21
 915.764
  31
0.0
   0
LINE
   8
LEVEL001
   6
CONTINUOUS
  62
7
  10
 240.950
  20
 916.125
  30
0.0
  11
 240.950
  21
 918.499
  31
0.0
   0
LINE
   8
LEVEL001
   6
CONTINUOUS
  62
7
  10
 249.050
  20
 916.125
  30
0.0
  11
 249.050
  21
 918.499
  31
0.0
   0
LINE
   8
LEVEL001
   6
CONTINUOUS
  62
7
  10
 319.250
  20
 920.500
  30
0.0
  11
 330.250
  21
 920.500
  31
0.0
   0
ARC
   8
LEVEL001
   6
CONTINUOUS
  62
7
  10
 330.250
  20
 922.500
  30
0.0
  40
 2.00000
  50
 270.000
  51
0.0
   0
LINE
   8
LEVEL001
   6
CONTINUOUS
  62
7
  10
 319.000
  20
 1026.50
  30
0.0
  11
 319.000
  21
 921.500
  31
0.0
   0
LINE
   8
LEVEL001
   6
CONTINUOUS
  62
7
  10
 319.250
  20
 920.500
  30
0.0
  11
 319.250
  21
 1027.50
  31
0.0
   0
LINE
   8
LEVEL001
   6
CONTINUOUS
  62
7
  10
 319.250
  20
 1027.50
  30
0.0
  11
 330.250
  21
 1027.50
  31
0.0
   0
ARC
   8
LEVEL001
   6
CONTINUOUS
  62
7
  10
 330.250
  20
 1025.50
  30
0.0
  40
 2.00000
  50
0.0
  51
 90.0000
   0
LINE
   8
LEVEL001
   6
CONTINUOUS
  62
7
  10
 335.000
  20
 991.500
  30
0.0
  11
 332.250
  21
 991.500
  31
0.0
   0
LINE
   8
LEVEL001
   6
CONTINUOUS
  62
7
  10
 332.250
  20
 1025.50
  30
0.0
  11
 332.250
  21
 991.500
  31
0.0
   0
LINE
   8
LEVEL001
   6
CONTINUOUS
  62
7
  10
 350.000
  20
 979.000
  30
0.0
  11
 350.000
  21
 974.000
  31
0.0
   0
LINE
   8
LEVEL001
   6
CONTINUOUS
  62
7
  10
 337.000
  20
 979.000
  30
0.0
  11
 337.000
  21
 974.000
  31
0.0
   0
LINE
   8
LEVEL001
   6
CONTINUOUS
  62
7
  10
 337.000
  20
 979.000
  30
0.0
  11
 400.000
  21
 979.000
  31
0.0
   0
LINE
   8
LEVEL001
   6
CONTINUOUS
  62
7
  10
 399.000
  20
 990.000
  30
0.0
  11
 399.000
  21
 979.000
  31
0.0
   0
LINE
   8
LEVEL001
   6
CONTINUOUS
  62
7
  10
 335.000
  20
 991.500
  30
0.0
  11
 335.000
  21
 974.000
  31
0.0
   0
LINE
   8
LEVEL001
   6
CONTINUOUS
  62
7
  10
 400.000
  20
 989.000
  30
0.0
  11
 400.000
  21
 974.000
  31
0.0
   0
LINE
   8
LEVEL001
   6
CONTINUOUS
  62
7
  10
 400.000
  20
 989.000
  30
0.0
  11
 399.000
  21
 990.000
  31
0.0
   0
LINE
   8
LEVEL001
   6
CONTINUOUS
  62
7
  10
 335.000
  20
 956.500
  30
0.0
  11
 332.250
  21
 956.500
  31
0.0
   0
LINE
   8
LEVEL001
   6
CONTINUOUS
  62
7
  10
 332.250
  20
 922.500
  30
0.0
  11
 332.250
  21
 991.479
  31
0.0
   0
LINE
   8
LEVEL001
   6
CONTINUOUS
  62
7
  10
 350.000
  20
 969.000
  30
0.0
  11
 350.000
  21
 974.000
  31
0.0
   0
LINE
   8
LEVEL001
   6
CONTINUOUS
  62
7
  10
 337.000
  20
 969.000
  30
0.0
  11
 337.000
  21
 974.000
  31
0.0
   0
LINE
   8
LEVEL001
   6
CONTINUOUS
  62
7
  10
 337.000
  20
 969.000
  30
0.0
  11
 400.000
  21
 969.000
  31
0.0
   0
LINE
   8
LEVEL001
   6
CONTINUOUS
  62
7
  10
 399.000
  20
 958.000
  30
0.0
  11
 399.000
  21
 969.000
  31
0.0
   0
LINE
   8
LEVEL001
   6
CONTINUOUS
  62
7
  10
 335.000
  20
 956.500
  30
0.0
  11
 335.000
  21
 974.000
  31
0.0
   0
LINE
   8
LEVEL001
   6
CONTINUOUS
  62
7
  10
 400.000
  20
 959.000
  30
0.0
  11
 400.000
  21
 974.000
  31
0.0
   0
LINE
   8
LEVEL001
   6
CONTINUOUS
  62
7
  10
 400.000
  20
 959.000
  30
0.0
  11
 399.000
  21
 958.000
  31
0.0
   0
CIRCLE
   8
LEVEL001
   6
CONTINUOUS
  62
7
  10
 220.000
  20
 1070.00
  30
0.0
  40
 60.0000
   0
CIRCLE
   8
LEVEL001
   6
CONTINUOUS
  62
7
  10
 220.000
  20
 1070.00
  30
0.0
  40
 44.5500
   0
CIRCLE
   8
LEVEL001
   6
CONTINUOUS
  62
7
  10
 220.000
  20
 1070.00
  30
0.0
  40
 42.5000
   0
ARC
   8
LEVEL001
   6
CONTINUOUS
  62
7
  10
 220.000
  20
 1070.00
  30
0.0
  40
 101.000
  50
 272.270
  51
 341.292
   0
LINE
   8
LEVEL001
   6
CONTINUOUS
  62
7
  10
 121.000
  20
 1026.50
  30
0.0
  11
 121.000
  21
 921.500
  31
0.0
   0
LINE
   8
LEVEL001
   6
CONTINUOUS
  62
7
  10
 105.000
  20
 956.500
  30
0.0
  11
 107.750
  21
 956.500
  31
0.0
   0
LINE
   8
LEVEL001
   6
CONTINUOUS
  62
7
  10
 105.000
  20
 991.500
  30
0.0
  11
 107.750
  21
 991.500
  31
0.0
   0
LINE
   8
LEVEL001
   6
CONTINUOUS
  62
7
  10
 120.750
  20
 1027.50
  30
0.0
  11
 109.750
  21
 1027.50
  31
0.0
   0
LINE
   8
LEVEL001
   6
CONTINUOUS
  62
7
  10
 107.750
  20
 1025.50
  30
0.0
  11
 107.750
  21
 991.500
  31
0.0
   0
ARC
   8
LEVEL001
   6
CONTINUOUS
  62
7
  10
 109.750
  20
 1025.50
  30
0.0
  40
 2.00000
  50
 90.0000
  51
 180.000
   0
LINE
   8
LEVEL001
   6
CONTINUOUS
  62
7
  10
 120.750
  20
 920.500
  30
0.0
  11
 120.750
  21
 1027.50
  31
0.0
   0
LINE
   8
LEVEL001
   6
CONTINUOUS
  62
7
  10
 107.750
  20
 922.500
  30
0.0
  11
 107.750
  21
 991.479
  31
0.0
   0
LINE
   8
LEVEL001
   6
CONTINUOUS
  62
7
  10
 120.750
  20
 920.500
  30
0.0
  11
 109.750
  21
 920.500
  31
0.0
   0
ARC
   8
LEVEL001
   6
CONTINUOUS
  62
7
  10
 109.750
  20
 922.500
  30
0.0
  40
 2.00000
  50
 180.000
  51
 270.000
   0
ARC
   8
LEVEL001
   6
CONTINUOUS
  62
7
  10
 220.000
  20
 1070.00
  30
0.0
  40
 101.000
  50
 92.2677
  51
 267.730
   0
ARC
   8
LEVEL001
   6
CONTINUOUS
  62
7
  10
 220.000
  20
 963.500
  30
0.0
  40
 4.00000
  50
 180.000
  51
0.0
   0
ARC
   8
LEVEL001
   6
CONTINUOUS
  62
7
  10
 220.000
  20
 980.000
  30
0.0
  40
 11.0000
  50
 111.324
  51
 248.676
   0
ARC
   8
LEVEL001
   6
CONTINUOUS
  62
7
  10
 220.000
  20
 980.000
  30
0.0
  40
 10.0000
  50
 113.578
  51
 246.422
   0
LINE
   8
LEVEL001
   6
CONTINUOUS
  62
7
  10
 216.000
  20
 963.500
  30
0.0
  11
 216.000
  21
 996.500
  31
0.0
   0
ARC
   8
LEVEL001
   6
CONTINUOUS
  62
7
  10
 220.000
  20
 980.000
  30
0.0
  40
 11.0000
  50
 291.324
  51
 68.6763
   0
ARC
   8
LEVEL001
   6
CONTINUOUS
  62
7
  10
 220.000
  20
 996.500
  30
0.0
  40
 4.00000
  50
0.0
  51
 180.000
   0
ARC
   8
LEVEL001
   6
CONTINUOUS
  62
7
  10
 220.000
  20
 980.000
  30
0.0
  40
 10.0000
  50
 293.578
  51
 66.4220
   0
LINE
   8
LEVEL001
   6
CONTINUOUS
  62
7
  10
 224.000
  20
 963.500
  30
0.0
  11
 224.000
  21
 996.500
  31
0.0
   0
ARC
   8
LEVEL001
   6
CONTINUOUS
  62
7
  10
 220.000
  20
 1160.00
  30
0.0
  40
 11.0000
  50
 291.324
  51
 68.6763
   0
ARC
   8
LEVEL001
   6
CONTINUOUS
  62
7
  10
 220.000
  20
 1160.00
  30
0.0
  40
 11.0000
  50
 111.324
  51
 248.676
   0
ARC
   8
LEVEL001
   6
CONTINUOUS
  62
7
  10
 220.000
  20
 1070.00
  30
0.0
  40
 101.000
  50
0.0
  51
 87.7321
   0
ARC
   8
LEVEL001
   6
CONTINUOUS
  62
7
  10
 220.000
  20
 1176.50
  30
0.0
  40
 4.00000
  50
0.0
  51
 180.000
   0
ARC
   8
LEVEL001
   6
CONTINUOUS
  62
7
  10
 220.000
  20
 1143.50
  30
0.0
  40
 4.00000
  50
 180.000
  51
0.0
   0
ARC
   8
LEVEL001
   6
CONTINUOUS
  62
7
  10
 220.000
  20
 1160.00
  30
0.0
  40
 10.0000
  50
 293.578
  51
 66.4220
   0
ARC
   8
LEVEL001
   6
CONTINUOUS
  62
7
  10
 220.000
  20
 1160.00
  30
0.0
  40
 10.0000
  50
 113.578
  51
 246.422
   0
LINE
   8
LEVEL001
   6
CONTINUOUS
  62
7
  10
 216.000
  20
 1176.50
  30
0.0
  11
 216.000
  21
 1143.50
  31
0.0
   0
LINE
   8
LEVEL001
   6
CONTINUOUS
  62
7
  10
 224.000
  20
 1176.50
  30
0.0
  11
 224.000
  21
 1143.50
  31
0.0
   0
LINE
   8
LEVEL001
   6
CONTINUOUS
  62
7
  10
 227.500
  20
 1206.74
  30
0.0
  11
 227.500
  21
 1177.89
  31
0.0
   0
LINE
   8
LEVEL001
   6
CONTINUOUS
  62
7
  10
 212.500
  20
 1177.89
  30
0.0
  11
 212.500
  21
 1206.74
  31
0.0
   0
ARC
   8
LEVEL001
   6
CONTINUOUS
  62
7
  10
 204.500
  20
 1177.89
  30
0.0
  40
 8.00000
  50
 278.175
  51
 0.180000E-4
   0
ARC
   8
LEVEL001
   6
CONTINUOUS
  62
7
  10
 235.500
  20
 1177.89
  30
0.0
  40
 8.00000
  50
 180.000
  51
 261.825
   0
CIRCLE
   8
LEVEL001
   6
CONTINUOUS
  62
7
  10
 160.000
  20
 1185.00
  30
0.0
  40
 25.0000
   0
CIRCLE
   8
LEVEL001
   6
CONTINUOUS
  62
7
  10
 280.000
  20
 1185.00
  30
0.0
  40
 25.0000
   0
ARC
   8
LEVEL001
   6
CONTINUOUS
  62
7
  10
 114.865
  20
 1034.40
  30
0.0
  40
 10.0000
  50
 307.844
  51
 18.7080
   0
LINE
   8
LEVEL001
   6
CONTINUOUS
  62
7
  10
 212.500
  20
 912.234
  30
0.0
  11
 212.500
  21
 878.258
  31
0.0
   0
LINE
   8
LEVEL001
   6
CONTINUOUS
  62
7
  10
 227.500
  20
 878.258
  30
0.0
  11
 227.500
  21
 912.234
  31
0.0
   0
ARC
   8
LEVEL001
   6
CONTINUOUS
  62
7
  10
 204.500
  20
 878.258
  30
0.0
  40
 8.00000
  50
 269.049
  51
 0.240000E-4
   0
ARC
   8
LEVEL001
   6
CONTINUOUS
  62
7
  10
 204.500
  20
 912.234
  30
0.0
  40
 8.00000
  50
 0.814222E-12
  51
 89.1318
   0
ARC
   8
LEVEL001
   6
CONTINUOUS
  62
7
  10
 235.500
  20
 912.234
  30
0.0
  40
 8.00000
  50
 90.8680
  51
 180.000
   0
ARC
   8
LEVEL001
   6
CONTINUOUS
  62
7
  10
 235.500
  20
 878.258
  30
0.0
  40
 8.00000
  50
 180.000
  51
 270.951
   0
LINE
   8
LEVEL001
   6
CONTINUOUS
  62
7
  10
 319.000
  20
 921.500
  30
0.0
  11
 220.000
  21
 920.000
  31
0.0
   0
LINE
   8
LEVEL001
   6
CONTINUOUS
  62
7
  10
 121.000
  20
 921.500
  30
0.0
  11
 220.000
  21
 920.000
  31
0.0
   0
ARC
   8
LEVEL001
   6
CONTINUOUS
  62
7
  10
 160.000
  20
 900.000
  30
0.0
  40
 29.0000
  50
 182.035
  51
 269.049
   0
ARC
   8
LEVEL001
   6
CONTINUOUS
  62
7
  10
 280.000
  20
 900.000
  30
0.0
  40
 29.0000
  50
 270.951
  51
 357.965
   0
LINE
   8
LEVEL001
   6
CONTINUOUS
  62
7
  10
 309.782
  20
 921.500
  30
0.0
  11
 308.982
  21
 898.970
  31
0.0
   0
ARC
   8
LEVEL001
   6
CONTINUOUS
  62
7
  10
 280.000
  20
 900.000
  30
0.0
  40
 25.0000
  50
 120.683
  51
 56.9293
   0
ARC
   8
LEVEL001
   6
CONTINUOUS
  62
7
  10
 160.000
  20
 900.000
  30
0.0
  40
 25.0000
  50
 120.683
  51
 59.3166
   0
LINE
   8
LEVEL001
   6
CONTINUOUS
  62
7
  10
 130.218
  20
 921.500
  30
0.0
  11
 131.018
  21
 898.970
  31
0.0
   0
LINE
   8
LEVEL001
   6
CONTINUOUS
  62
7
  10
 90.0000
  20
 969.000
  30
0.0
  11
 90.0000
  21
 974.000
  31
0.0
   0
LINE
   8
LEVEL001
   6
CONTINUOUS
  62
7
  10
 103.000
  20
 969.000
  30
0.0
  11
 103.000
  21
 974.000
  31
0.0
   0
LINE
   8
LEVEL001
   6
CONTINUOUS
  62
7
  10
 103.000
  20
 969.000
  30
0.0
  11
 40.0000
  21
 969.000
  31
0.0
   0
LINE
   8
LEVEL001
   6
CONTINUOUS
  62
7
  10
 41.0000
  20
 958.000
  30
0.0
  11
 41.0000
  21
 969.000
  31
0.0
   0
LINE
   8
LEVEL001
   6
CONTINUOUS
  62
7
  10
 105.000
  20
 956.500
  30
0.0
  11
 105.000
  21
 974.000
  31
0.0
   0
LINE
   8
LEVEL001
   6
CONTINUOUS
  62
7
  10
 40.0000
  20
 959.000
  30
0.0
  11
 40.0000
  21
 974.000
  31
0.0
   0
LINE
   8
LEVEL001
   6
CONTINUOUS
  62
7
  10
 40.0000
  20
 959.000
  30
0.0
  11
 41.0000
  21
 958.000
  31
0.0
   0
LINE
   8
LEVEL001
   6
CONTINUOUS
  62
7
  10
 90.0000
  20
 979.000
  30
0.0
  11
 90.0000
  21
 974.000
  31
0.0
   0
LINE
   8
LEVEL001
   6
CONTINUOUS
  62
7
  10
 103.000
  20
 979.000
  30
0.0
  11
 103.000
  21
 974.000
  31
0.0
   0
LINE
   8
LEVEL001
   6
CONTINUOUS
  62
7
  10
 103.000
  20
 979.000
  30
0.0
  11
 40.0000
  21
 979.000
  31
0.0
   0
LINE
   8
LEVEL001
   6
CONTINUOUS
  62
7
  10
 41.0000
  20
 990.000
  30
0.0
  11
 41.0000
  21
 979.000
  31
0.0
   0
LINE
   8
LEVEL001
   6
CONTINUOUS
  62
7
  10
 105.000
  20
 991.500
  30
0.0
  11
 105.000
  21
 974.000
  31
0.0
   0
LINE
   8
LEVEL001
   6
CONTINUOUS
  62
7
  10
 40.0000
  20
 989.000
  30
0.0
  11
 40.0000
  21
 974.000
  31
0.0
   0
LINE
   8
LEVEL001
   6
CONTINUOUS
  62
7
  10
 40.0000
  20
 989.000
  30
0.0
  11
 41.0000
  21
 990.000
  31
0.0
   0
ARC
   8
LEVEL001
   6
CONTINUOUS
  62
7
  10
 220.000
  20
 1070.00
  30
0.0
  40
 101.000
  50
 341.292
  51
 0.370000E-4
   0
ARC
   8
LEVEL001
   6
CONTINUOUS
  62
7
  10
 325.135
  20
 1034.40
  30
0.0
  40
 10.0000
  50
 161.292
  51
 232.156
   0
LINE
   8
LEVEL001
   6
CONTINUOUS
  62
7
  10
 220.000
  20
 870.000
  30
0.0
  11
 280.481
  21
 871.004
  31
0.0
   0
LINE
   8
LEVEL001
   6
CONTINUOUS
  62
7
  10
 220.000
  20
 870.000
  30
0.0
  11
 159.519
  21
 871.004
  31
0.0
   0
ARC
   8
LEVEL001
   6
CONTINUOUS
  62
7
  10
 204.500
  20
 1206.74
  30
0.0
  40
 8.00000
  50
 0.413000E-3
  51
 90.9510
   0
ARC
   8
LEVEL001
   6
CONTINUOUS
  62
7
  10
 235.500
  20
 1206.74
  30
0.0
  40
 8.00000
  50
 89.0492
  51
 180.000
   0
LINE
   8
LEVEL001
   6
CONTINUOUS
  62
7
  10
 220.000
  20
 1215.00
  30
0.0
  11
 159.519
  21
 1214.00
  31
0.0
   0
LINE
   8
LEVEL001
   6
CONTINUOUS
  62
7
  10
 220.000
  20
 1215.00
  30
0.0
  11
 280.481
  21
 1214.00
  31
0.0
   0
CIRCLE
   8
LEVEL001
   6
CONTINUOUS
  62
7
  10
 160.000
  20
 900.000
  30
0.0
  40
 13.0000
   0
CIRCLE
   8
LEVEL001
   6
CONTINUOUS
  62
7
  10
 280.000
  20
 900.000
  30
0.0
  40
 13.0000
   0
CIRCLE
   8
LEVEL001
   6
CONTINUOUS
  62
7
  10
 160.000
  20
 1185.00
  30
0.0
  40
 13.0000
   0
CIRCLE
   8
LEVEL001
   6
CONTINUOUS
  62
7
  10
 280.000
  20
 1185.00
  30
0.0
  40
 13.0000
   0
ARC
   8
LEVEL001
   6
CONTINUOUS
  62
7
  10
 245.000
  20
 903.960
  30
0.0
  40
 1.00011
  50
 179.141
  51
 0.235669E-6
   0
LINE
   8
LEVEL001
   6
DASHDOT
  62
1
  10
 160.000
  20
 1153.00
  30
0.0
  11
 160.000
  21
 1217.00
  31
0.0
   0
LINE
   8
LEVEL001
   6
DASHDOT
  62
1
  10
 192.000
  20
 1185.00
  30
0.0
  11
 129.000
  21
 1185.00
  31
0.0
   0
LINE
   8
LEVEL001
   6
DASHDOT
  62
1
  10
 280.000
  20
 1153.00
  30
0.0
  11
 280.000
  21
 1217.00
  31
0.0
   0
LINE
   8
LEVEL001
   6
DASHDOT
  62
1
  10
 248.000
  20
 1185.00
  30
0.0
  11
 311.000
  21
 1185.00
  31
0.0
   0
LINE
   8
LEVEL001
   6
DASHDOT
  62
1
  10
 220.000
  20
 860.000
  30
0.0
  11
 220.000
  21
 1220.00
  31
0.0
   0
LINE
   8
LEVEL001
   6
DASHDOT
  62
1
  10
 145.778
  20
 1070.00
  30
0.0
  11
 303.197
  21
 1070.00
  31
0.0
   0
LINE
   8
LEVEL001
   6
DASHDOT
  62
1
  10
 30.0000
  20
 974.000
  30
0.0
  11
 410.000
  21
 974.000
  31
0.0
   0
LINE
   8
LEVEL001
   6
DASHDOT
  62
1
  10
 248.000
  20
 900.000
  30
0.0
  11
 311.000
  21
 900.000
  31
0.0
   0
LINE
   8
LEVEL001
   6
DASHDOT
  62
1
  10
 280.000
  20
 868.000
  30
0.0
  11
 280.000
  21
 932.000
  31
0.0
   0
LINE
   8
LEVEL001
   6
DASHDOT
  62
1
  10
 160.000
  20
 868.000
  30
0.0
  11
 160.000
  21
 932.000
  31
0.0
   0
LINE
   8
LEVEL001
   6
DASHDOT
  62
1
  10
 192.000
  20
 900.000
  30
0.0
  11
 129.000
  21
 900.000
  31
0.0
   0
LINE
   8
LEVEL003
   6
CONTINUOUS
  62
3
  10
 350.000
  20
 315.000
  30
0.0
  11
 350.000
  21
 352.000
  31
0.0
   0
LINE
   8
LEVEL003
   6
CONTINUOUS
  62
3
  10
 400.000
  20
 315.000
  30
0.0
  11
 400.000
  21
 352.000
  31
0.0
   0
LINE
   8
LEVEL003
   6
CONTINUOUS
  62
3
  10
 350.000
  20
 350.000
  30
0.0
  11
 400.000
  21
 350.000
  31
0.0
   0
LINE
   8
LEVEL003
   6
CONTINUOUS
  62
3
  10
 350.000
  20
 350.000
  30
0.0
  11
 353.000
  21
 349.196
  31
0.0
   0
LINE
   8
LEVEL003
   6
CONTINUOUS
  62
3
  10
 350.000
  20
 350.000
  30
0.0
  11
 353.000
  21
 350.804
  31
0.0
   0
LINE
   8
LEVEL003
   6
CONTINUOUS
  62
3
  10
 400.000
  20
 350.000
  30
0.0
  11
 397.000
  21
 350.804
  31
0.0
   0
LINE
   8
LEVEL003
   6
CONTINUOUS
  62
3
  10
 400.000
  20
 350.000
  30
0.0
  11
 397.000
  21
 349.196
  31
0.0
   0
TEXT
   8
LEVEL003
  62
3
  10
 373.000
  20
 351.714
  30
0.0
  40
 4.00000
   1
50
  41
 0.500000
   7
STANDARD
  72
1
  11
 375.000
  21
 351.714
  31
0.0
   0
LINE
   8
LEVEL003
   6
CONTINUOUS
  62
3
  10
 342.000
  20
 311.199
  30
0.0
  11
 342.000
  21
 382.000
  31
0.0
   0
LINE
   8
LEVEL003
   6
CONTINUOUS
  62
3
  10
 400.000
  20
 315.000
  30
0.0
  11
 400.000
  21
 382.000
  31
0.0
   0
LINE
   8
LEVEL003
   6
CONTINUOUS
  62
3
  10
 342.000
  20
 380.000
  30
0.0
  11
 400.000
  21
 380.000
  31
0.0
   0
LINE
   8
LEVEL003
   6
CONTINUOUS
  62
3
  10
 342.000
  20
 380.000
  30
0.0
  11
 345.000
  21
 379.196
  31
0.0
   0
LINE
   8
LEVEL003
   6
CONTINUOUS
  62
3
  10
 342.000
  20
 380.000
  30
0.0
  11
 345.000
  21
 380.804
  31
0.0
   0
LINE
   8
LEVEL003
   6
CONTINUOUS
  62
3
  10
 400.000
  20
 380.000
  30
0.0
  11
 397.000
  21
 380.804
  31
0.0
   0
LINE
   8
LEVEL003
   6
CONTINUOUS
  62
3
  10
 400.000
  20
 380.000
  30
0.0
  11
 397.000
  21
 379.196
  31
0.0
   0
TEXT
   8
LEVEL003
  62
3
  10
 369.000
  20
 381.714
  30
0.0
  40
 4.00000
   1
58
  41
 0.500000
   7
STANDARD
  72
1
  11
 371.000
  21
 381.714
  31
0.0
   0
LINE
   8
LEVEL003
   6
CONTINUOUS
  62
3
  10
 755.000
  20
 125.000
  30
0.0
  11
 872.000
  21
 125.000
  31
0.0
   0
LINE
   8
LEVEL003
   6
CONTINUOUS
  62
3
  10
 752.500
  20
 60.0000
  30
0.0
  11
 872.000
  21
 60.0000
  31
0.0
   0
LINE
   8
LEVEL003
   6
CONTINUOUS
  62
3
  10
 870.000
  20
 125.000
  30
0.0
  11
 870.000
  21
 60.0000
  31
0.0
   0
LINE
   8
LEVEL003
   6
CONTINUOUS
  62
3
  10
 870.000
  20
 125.000
  30
0.0
  11
 869.196
  21
 122.000
  31
0.0
   0
LINE
   8
LEVEL003
   6
CONTINUOUS
  62
3
  10
 870.000
  20
 125.000
  30
0.0
  11
 870.804
  21
 122.000
  31
0.0
   0
LINE
   8
LEVEL003
   6
CONTINUOUS
  62
3
  10
 870.000
  20
 60.0000
  30
0.0
  11
 870.804
  21
 63.0000
  31
0.0
   0
LINE
   8
LEVEL003
   6
CONTINUOUS
  62
3
  10
 870.000
  20
 60.0000
  30
0.0
  11
 869.196
  21
 63.0000
  31
0.0
   0
TEXT
   8
LEVEL003
  62
3
  10
 868.286
  20
 90.5000
  30
0.0
  40
 4.00000
   1
65
  50
 90.0000
  41
 0.500000
   7
STANDARD
  72
1
  11
 868.286
  21
 92.5000
  31
0.0
   0
LINE
   8
LEVEL003
   6
CONTINUOUS
  62
3
  10
 866.000
  20
 210.000
  30
0.0
  11
 912.000
  21
 210.000
  31
0.0
   0
LINE
   8
LEVEL003
   6
CONTINUOUS
  62
3
  10
 861.000
  20
 234.000
  30
0.0
  11
 912.000
  21
 234.000
  31
0.0
   0
LINE
   8
LEVEL003
   6
CONTINUOUS
  62
3
  10
 910.000
  20
 210.000
  30
0.0
  11
 910.000
  21
 234.000
  31
0.0
   0
LINE
   8
LEVEL003
   6
CONTINUOUS
  62
3
  10
 910.000
  20
 210.000
  30
0.0
  11
 910.804
  21
 213.000
  31
0.0
   0
LINE
   8
LEVEL003
   6
CONTINUOUS
  62
3
  10
 910.000
  20
 210.000
  30
0.0
  11
 909.196
  21
 213.000
  31
0.0
   0
LINE
   8
LEVEL003
   6
CONTINUOUS
  62
3
  10
 910.000
  20
 234.000
  30
0.0
  11
 909.196
  21
 231.000
  31
0.0
   0
LINE
   8
LEVEL003
   6
CONTINUOUS
  62
3
  10
 910.000
  20
 234.000
  30
0.0
  11
 910.804
  21
 231.000
  31
0.0
   0
TEXT
   8
LEVEL003
  62
3
  10
 908.286
  20
 220.000
  30
0.0
  40
 4.00000
   1
24
  50
 90.0000
  41
 0.500000
   7
STANDARD
  72
1
  11
 908.286
  21
 222.000
  31
0.0
   0
LINE
   8
LEVEL003
   6
CONTINUOUS
  62
3
  10
 866.000
  20
 210.000
  30
0.0
  11
 952.000
  21
 210.000
  31
0.0
   0
LINE
   8
LEVEL003
   6
CONTINUOUS
  62
3
  10
 659.824
  20
 295.000
  30
0.0
  11
 952.000
  21
 295.000
  31
0.0
   0
LINE
   8
LEVEL003
   6
CONTINUOUS
  62
3
  10
 950.000
  20
 210.000
  30
0.0
  11
 950.000
  21
 295.000
  31
0.0
   0
LINE
   8
LEVEL003
   6
CONTINUOUS
  62
3
  10
 950.000
  20
 210.000
  30
0.0
  11
 950.804
  21
 213.000
  31
0.0
   0
LINE
   8
LEVEL003
   6
CONTINUOUS
  62
3
  10
 950.000
  20
 210.000
  30
0.0
  11
 949.196
  21
 213.000
  31
0.0
   0
LINE
   8
LEVEL003
   6
CONTINUOUS
  62
3
  10
 950.000
  20
 295.000
  30
0.0
  11
 949.196
  21
 292.000
  31
0.0
   0
LINE
   8
LEVEL003
   6
CONTINUOUS
  62
3
  10
 950.000
  20
 295.000
  30
0.0
  11
 950.804
  21
 292.000
  31
0.0
   0
TEXT
   8
LEVEL003
  62
3
  10
 948.286
  20
 250.500
  30
0.0
  40
 4.00000
   1
85
  50
 90.0000
  41
 0.500000
   7
STANDARD
  72
1
  11
 948.286
  21
 252.500
  31
0.0
   0
LINE
   8
LEVEL003
   6
CONTINUOUS
  62
3
  10
 866.000
  20
 210.000
  30
0.0
  11
 952.000
  21
 210.000
  31
0.0
   0
LINE
   8
LEVEL003
   6
CONTINUOUS
  62
3
  10
 752.500
  20
 60.0000
  30
0.0
  11
 952.000
  21
 60.0000
  31
0.0
   0
LINE
   8
LEVEL003
   6
CONTINUOUS
  62
3
  10
 950.000
  20
 210.000
  30
0.0
  11
 950.000
  21
 60.0000
  31
0.0
   0
LINE
   8
LEVEL003
   6
CONTINUOUS
  62
3
  10
 950.000
  20
 210.000
  30
0.0
  11
 949.196
  21
 207.000
  31
0.0
   0
LINE
   8
LEVEL003
   6
CONTINUOUS
  62
3
  10
 950.000
  20
 210.000
  30
0.0
  11
 950.804
  21
 207.000
  31
0.0
   0
LINE
   8
LEVEL003
   6
CONTINUOUS
  62
3
  10
 950.000
  20
 60.0000
  30
0.0
  11
 950.804
  21
 63.0000
  31
0.0
   0
LINE
   8
LEVEL003
   6
CONTINUOUS
  62
3
  10
 950.000
  20
 60.0000
  30
0.0
  11
 949.196
  21
 63.0000
  31
0.0
   0
TEXT
   8
LEVEL003
  62
3
  10
 948.286
  20
 132.000
  30
0.0
  40
 4.00000
   1
150
  50
 90.0000
  41
 0.500000
   7
STANDARD
  72
1
  11
 948.286
  21
 135.000
  31
0.0
   0
LINE
   8
LEVEL003
   6
CONTINUOUS
  62
3
  10
 752.500
  20
 60.0000
  30
0.0
  11
 752.500
  21
 28.0000
  31
0.0
   0
LINE
   8
LEVEL003
   6
CONTINUOUS
  62
3
  10
 687.500
  20
 60.0000
  30
0.0
  11
 687.500
  21
 28.0000
  31
0.0
   0
LINE
   8
LEVEL003
   6
CONTINUOUS
  62
3
  10
 752.500
  20
 30.0000
  30
0.0
  11
 687.500
  21
 30.0000
  31
0.0
   0
LINE
   8
LEVEL003
   6
CONTINUOUS
  62
3
  10
 752.500
  20
 30.0000
  30
0.0
  11
 749.500
  21
 30.8038
  31
0.0
   0
LINE
   8
LEVEL003
   6
CONTINUOUS
  62
3
  10
 752.500
  20
 30.0000
  30
0.0
  11
 749.500
  21
 29.1962
  31
0.0
   0
LINE
   8
LEVEL003
   6
CONTINUOUS
  62
3
  10
 687.500
  20
 30.0000
  30
0.0
  11
 690.500
  21
 29.1962
  31
0.0
   0
LINE
   8
LEVEL003
   6
CONTINUOUS
  62
3
  10
 687.500
  20
 30.0000
  30
0.0
  11
 690.500
  21
 30.8038
  31
0.0
   0
TEXT
   8
LEVEL003
  62
3
  10
 714.000
  20
 31.7143
  30
0.0
  40
 4.00000
   1
M65×2
   7
STANDARD
  72
1
  11
 720.000
  21
 31.7143
  31
0.0
   0
LINE
   8
LEVEL003
   6
CONTINUOUS
  62
3
  10
 160.000
  20
 1218.00
  30
0.0
  11
 160.000
  21
 1252.00
  31
0.0
   0
LINE
   8
LEVEL003
   6
CONTINUOUS
  62
3
  10
 280.000
  20
 1218.00
  30
0.0
  11
 280.000
  21
 1252.00
  31
0.0
   0
LINE
   8
LEVEL003
   6
CONTINUOUS
  62
3
  10
 160.000
  20
 1250.00
  30
0.0
  11
 280.000
  21
 1250.00
  31
0.0
   0
LINE
   8
LEVEL003
   6
CONTINUOUS
  62
3
  10
 160.000
  20
 1250.00
  30
0.0
  11
 163.000
  21
 1249.20
  31
0.0
   0
LINE
   8
LEVEL003
   6
CONTINUOUS
  62
3
  10
 160.000
  20
 1250.00
  30
0.0
  11
 163.000
  21
 1250.80
  31
0.0
   0
LINE
   8
LEVEL003
   6
CONTINUOUS
  62
3
  10
 280.000
  20
 1250.00
  30
0.0
  11
 277.000
  21
 1250.80
  31
0.0
   0
LINE
   8
LEVEL003
   6
CONTINUOUS
  62
3
  10
 280.000
  20
 1250.00
  30
0.0
  11
 277.000
  21
 1249.20
  31
0.0
   0
TEXT
   8
LEVEL003
  62
3
  10
 217.000
  20
 1251.71
  30
0.0
  40
 4.00000
   1
120
  41
 0.500000
   7
STANDARD
  72
1
  11
 220.000
  21
 1251.71
  31
0.0
   0
LINE
   8
LEVEL003
   6
CONTINUOUS
  62
3
  10
 304.197
  20
 1070.00
  30
0.0
  11
 472.000
  21
 1070.00
  31
0.0
   0
LINE
   8
LEVEL003
   6
CONTINUOUS
  62
3
  10
 312.000
  20
 1185.00
  30
0.0
  11
 472.000
  21
 1185.00
  31
0.0
   0
LINE
   8
LEVEL003
   6
CONTINUOUS
  62
3
  10
 470.000
  20
 1070.00
  30
0.0
  11
 470.000
  21
 1185.00
  31
0.0
   0
LINE
   8
LEVEL003
   6
CONTINUOUS
  62
3
  10
 470.000
  20
 1070.00
  30
0.0
  11
 470.804
  21
 1073.00
  31
0.0
   0
LINE
   8
LEVEL003
   6
CONTINUOUS
  62
3
  10
 470.000
  20
 1070.00
  30
0.0
  11
 469.196
  21
 1073.00
  31
0.0
   0
LINE
   8
LEVEL003
   6
CONTINUOUS
  62
3
  10
 470.000
  20
 1185.00
  30
0.0
  11
 469.196
  21
 1182.00
  31
0.0
   0
LINE
   8
LEVEL003
   6
CONTINUOUS
  62
3
  10
 470.000
  20
 1185.00
  30
0.0
  11
 470.804
  21
 1182.00
  31
0.0
   0
TEXT
   8
LEVEL003
  62
3
  10
 468.286
  20
 1124.50
  30
0.0
  40
 4.00000
   1
115
  50
 90.0000
  41
 0.500000
   7
STANDARD
  72
1
  11
 468.286
  21
 1127.50
  31
0.0
   0
LINE
   8
LEVEL003
   6
CONTINUOUS
  62
3
  10
 304.197
  20
 1070.00
  30
0.0
  11
 472.000
  21
 1070.00
  31
0.0
   0
LINE
   8
LEVEL003
   6
CONTINUOUS
  62
3
  10
 312.000
  20
 900.000
  30
0.0
  11
 472.000
  21
 900.000
  31
0.0
   0
LINE
   8
LEVEL003
   6
CONTINUOUS
  62
3
  10
 470.000
  20
 1070.00
  30
0.0
  11
 470.000
  21
 900.000
  31
0.0
   0
LINE
   8
LEVEL003
   6
CONTINUOUS
  62
3
  10
 470.000
  20
 1070.00
  30
0.0
  11
 469.196
  21
 1067.00
  31
0.0
   0
LINE
   8
LEVEL003
   6
CONTINUOUS
  62
3
  10
 470.000
  20
 1070.00
  30
0.0
  11
 470.804
  21
 1067.00
  31
0.0
   0
LINE
   8
LEVEL003
   6
CONTINUOUS
  62
3
  10
 470.000
  20
 900.000
  30
0.0
  11
 470.804
  21
 903.000
  31
0.0
   0
LINE
   8
LEVEL003
   6
CONTINUOUS
  62
3
  10
 470.000
  20
 900.000
  30
0.0
  11
 469.196
  21
 903.000
  31
0.0
   0
TEXT
   8
LEVEL003
  62
3
  10
 468.286
  20
 982.000
  30
0.0
  40
 4.00000
   1
170
  50
 90.0000
  41
 0.500000
   7
STANDARD
  72
1
  11
 468.286
  21
 985.000
  31
0.0
   0
LINE
   8
LEVEL003
   6
CONTINUOUS
  62
3
  10
 400.000
  20
 958.000
  30
0.0
  11
 400.000
  21
 828.000
  31
0.0
   0
LINE
   8
LEVEL003
   6
CONTINUOUS
  62
3
  10
 40.0000
  20
 958.000
  30
0.0
  11
 40.0000
  21
 828.000
  31
0.0
   0
LINE
   8
LEVEL003
   6
CONTINUOUS
  62
3
  10
 400.000
  20
 830.000
  30
0.0
  11
 40.0000
  21
 830.000
  31
0.0
   0
LINE
   8
LEVEL003
   6
CONTINUOUS
  62
3
  10
 400.000
  20
 830.000
  30
0.0
  11
 397.000
  21
 830.804
  31
0.0
   0
LINE
   8
LEVEL003
   6
CONTINUOUS
  62
3
  10
 400.000
  20
 830.000
  30
0.0
  11
 397.000
  21
 829.196
  31
0.0
   0
LINE
   8
LEVEL003
   6
CONTINUOUS
  62
3
  10
 40.0000
  20
 830.000
  30
0.0
  11
 43.0000
  21
 829.196
  31
0.0
   0
LINE
   8
LEVEL003
   6
CONTINUOUS
  62
3
  10
 40.0000
  20
 830.000
  30
0.0
  11
 43.0000
  21
 830.804
  31
0.0
   0
TEXT
   8
LEVEL003
  62
3
  10
 217.000
  20
 831.714
  30
0.0
  40
 4.00000
   1
360
  41
 0.500000
   7
STANDARD
  72
1
  11
 220.000
  21
 831.714
  31
0.0
   0
LINE
   8
LEVEL003
   6
CONTINUOUS
  62
3
  10
 316.000
  20
 210.000
  30
0.0
  11
 452.000
  21
 210.000
  31
0.0
   0
LINE
   8
LEVEL003
   6
CONTINUOUS
  62
3
  10
 263.500
  20
 795.000
  30
0.0
  11
 452.000
  21
 795.000
  31
0.0
   0
LINE
   8
LEVEL003
   6
CONTINUOUS
  62
3
  10
 450.000
  20
 210.000
  30
0.0
  11
 450.000
  21
 795.000
  31
0.0
   0
LINE
   8
LEVEL003
   6
CONTINUOUS
  62
3
  10
 450.000
  20
 210.000
  30
0.0
  11
 450.804
  21
 213.000
  31
0.0
   0
LINE
   8
LEVEL003
   6
CONTINUOUS
  62
3
  10
 450.000
  20
 210.000
  30
0.0
  11
 449.196
  21
 213.000
  31
0.0
   0
LINE
   8
LEVEL003
   6
CONTINUOUS
  62
3
  10
 450.000
  20
 795.000
  30
0.0
  11
 449.196
  21
 792.000
  31
0.0
   0
LINE
   8
LEVEL003
   6
CONTINUOUS
  62
3
  10
 450.000
  20
 795.000
  30
0.0
  11
 450.804
  21
 792.000
  31
0.0
   0
TEXT
   8
LEVEL003
  62
3
  10
 448.286
  20
 488.500
  30
0.0
  40
 4.00000
   1
235+ストローク
  50
 90.0000
   7
STANDARD
  72
1
  11
 448.286
  21
 502.500
  31
0.0
   0
LINE
   8
LEVEL004
   6
DOT
  62
3
  10
 860.000
  20
 235.000
  30
0.0
  11
 860.000
  21
 234.000
  31
0.0
   0
LINE
   8
LEVEL004
   6
DOT
  62
3
  10
 810.000
  20
 234.000
  30
0.0
  11
 860.000
  21
 234.000
  31
0.0
   0
LINE
   8
LEVEL004
   6
DOT
  62
3
  10
 810.000
  20
 235.000
  30
0.0
  11
 810.000
  21
 234.000
  31
0.0
   0
ENDSEC
   0
EOF
