   0
SECTION
   2
HEADER
   9
$ACADVER
   1
AC1014
   9
$LIMMIN
  10
0.0
  20
0.0
   9
$LIMMAX
  10
 1782.0000000000
  20
 1317.0000000000
   9
$EXTMIN
  10
0.0
  20
0.0
  30
0.0
   9
$EXTMAX
  10
 1782.0000000000
  20
 1317.0000000000
  30
0.0
   9
$LTSCALE
  40
 35.640000000000
   9
$HANDSEED
   5
5E4
   0
ENDSEC
   0
SECTION
   2
TABLES
  0
TABLE
  2
VPORT
  5
8
100
AcDbSymbolTable
 70
     1
  0
VPORT
  5
5E3
100
AcDbSymbolTableRecord
100
AcDbViewportTableRecord
  2
*ACTIVE
 70
     0
 10
0.0
 20
0.0
 11
1.0
 21
1.0
  12
 891.00000000000
  22
 658.50000000000
 13
0.0
 23
0.0
 14
1.0
 24
1.0
 15
0.0
 25
0.0
 16
0.0
 26
0.0
 36
1.0
 17
0.0
 27
0.0
 37
0.0
  40
 1782.0000000000
  41
 1.4787878787879
 42
50.0
 43
0.0
 44
0.0
 50
0.0
 51
0.0
 71
     0
 72
   100
 73
     1
 74
     1
 75
     0
 76
     0
 77
     0
 78
     0
  0
ENDTAB
  0
TABLE
  2
LTYPE
  5
5
100
AcDbSymbolTable
 70
    25
  0
LTYPE
  5
12
100
AcDbSymbolTableRecord
100
AcDbLinetypeTableRecord
  2
BYBLOCK
 70
     0
  3

 72
    65
 73
     0
 40
0.0
  0
LTYPE
  5
13
100
AcDbSymbolTableRecord
100
AcDbLinetypeTableRecord
  2
BYLAYER
 70
     0
  3

 72
    65
 73
     0
 40
0.0
  0
LTYPE
  5
14
100
AcDbSymbolTableRecord
100
AcDbLinetypeTableRecord
  2
CONTINUOUS
 70
     0
  3
Solid line
 72
    65
 73
     0
 40
0.0
  0
LTYPE
  5
20
100
AcDbSymbolTableRecord
100
AcDbLinetypeTableRecord
  2
BORDER
 70
     0
  3
__ __ . __ __ . __ __ . __ __ . __ __ . __ __ .
 72
    65
 73
     6
 40
1.75
 49
0.5
 74
     0
 49
-0.25
 74
     0
 49
0.5
 74
     0
 49
-0.25
 74
     0
 49
0.0
 74
     0
 49
-0.25
 74
     0
  0
LTYPE
  5
21
100
AcDbSymbolTableRecord
100
AcDbLinetypeTableRecord
  2
BORDER2
 70
     0
  3
__.__.__.__.__.__.__.__.__.__.__.__.__.__.__.__
 72
    65
 73
     6
 40
0.875
 49
0.25
 74
     0
 49
-0.125
 74
     0
 49
0.25
 74
     0
 49
-0.125
 74
     0
 49
0.0
 74
     0
 49
-0.125
 74
     0
  0
LTYPE
  5
22
100
AcDbSymbolTableRecord
100
AcDbLinetypeTableRecord
  2
BORDERX2
 70
     0
  3
____  ____  .  ____  ____  .  ____  ____  .  __
 72
    65
 73
     6
 40
3.5
 49
1.0
 74
     0
 49
-0.5
 74
     0
 49
1.0
 74
     0
 49
-0.5
 74
     0
 49
0.0
 74
     0
 49
-0.5
 74
     0
  0
LTYPE
  5
23
100
AcDbSymbolTableRecord
100
AcDbLinetypeTableRecord
  2
CENTER
 70
     0
  3
____ _ ____ _ ____ _ ____ _ ____ _ ____ _ ____ 
 72
    65
 73
     4
 40
2.0
 49
1.25
 74
     0
 49
-0.25
 74
     0
 49
0.25
 74
     0
 49
-0.25
 74
     0
  0
LTYPE
  5
24
100
AcDbSymbolTableRecord
100
AcDbLinetypeTableRecord
  2
CENTER2
 70
     0
  3
___ _ ___ _ ___ _ ___ _ ___ _ ___ _ ___ _ ___ _
 72
    65
 73
     4
 40
1.125
 49
0.75
 74
     0
 49
-0.125
 74
     0
 49
0.125
 74
     0
 49
-0.125
 74
     0
  0
LTYPE
  5
25
100
AcDbSymbolTableRecord
100
AcDbLinetypeTableRecord
  2
CENTERX2
 70
     0
  3
________  __  ________  __  ________  __  _____
 72
    65
 73
     4
 40
4.0
 49
2.5
 74
     0
 49
-0.5
 74
     0
 49
0.5
 74
     0
 49
-0.5
 74
     0
  0
LTYPE
  5
26
100
AcDbSymbolTableRecord
100
AcDbLinetypeTableRecord
  2
DASHDOT
 70
     0
  3
__ . __ . __ . __ . __ . __ . __ . __ . __ . __
 72
    65
 73
     4
 40
1.0
 49
0.5
 74
     0
 49
-0.25
 74
     0
 49
0.0
 74
     0
 49
-0.25
 74
     0
  0
LTYPE
  5
27
100
AcDbSymbolTableRecord
100
AcDbLinetypeTableRecord
  2
DASHDOT2
 70
     0
  3
_._._._._._._._._._._._._._._._._._._._._._._._
 72
    65
 73
     4
 40
0.5
 49
0.25
 74
     0
 49
-0.125
 74
     0
 49
0.0
 74
     0
 49
-0.125
 74
     0
  0
LTYPE
  5
28
100
AcDbSymbolTableRecord
100
AcDbLinetypeTableRecord
  2
DASHDOTX2
 70
     0
  3
____  .  ____  .  ____  .  ____  .  ____  .  __
 72
    65
 73
     4
 40
2.0
 49
1.0
 74
     0
 49
-0.5
 74
     0
 49
0.0
 74
     0
 49
-0.5
 74
     0
  0
LTYPE
  5
29
100
AcDbSymbolTableRecord
100
AcDbLinetypeTableRecord
  2
DASHED
 70
     0
  3
__ __ __ __ __ __ __ __ __ __ __ __ __ __ __ __
 72
    65
 73
     2
 40
0.75
 49
0.5
 74
     0
 49
-0.25
 74
     0
  0
LTYPE
  5
2A
100
AcDbSymbolTableRecord
100
AcDbLinetypeTableRecord
  2
DASHED2
 70
     0
  3
_ _ _ _ _ _ _ _ _ _ _ _ _ _ _ _ _ _ _ _ _ _ _ _
 72
    65
 73
     2
 40
0.375
 49
0.25
 74
     0
 49
-0.125
 74
     0
  0
LTYPE
  5
2B
100
AcDbSymbolTableRecord
100
AcDbLinetypeTableRecord
  2
DASHEDX2
 70
     0
  3
____  ____  ____  ____  ____  ____  ____  ____ 
 72
    65
 73
     2
 40
1.5
 49
1.0
 74
     0
 49
-0.5
 74
     0
  0
LTYPE
  5
2C
100
AcDbSymbolTableRecord
100
AcDbLinetypeTableRecord
  2
DIVIDE
 70
     0
  3
____ . . ____ . . ____ . . ____ . . ____ . . __
 72
    65
 73
     6
 40
1.25
 49
0.5
 74
     0
 49
-0.25
 74
     0
 49
0.0
 74
     0
 49
-0.25
 74
     0
 49
0.0
 74
     0
 49
-0.25
 74
     0
  0
LTYPE
  5
2D
100
AcDbSymbolTableRecord
100
AcDbLinetypeTableRecord
  2
DIVIDE2
 70
     0
  3
__..__..__..__..__..__..__..__..__..__..__..__.
 72
    65
 73
     6
 40
0.625
 49
0.25
 74
     0
 49
-0.125
 74
     0
 49
0.0
 74
     0
 49
-0.125
 74
     0
 49
0.0
 74
     0
 49
-0.125
 74
     0
  0
LTYPE
  5
2E
100
AcDbSymbolTableRecord
100
AcDbLinetypeTableRecord
  2
DIVIDEX2
 70
     0
  3
________  .  .  ________  .  .  ________  .  . 
 72
    65
 73
     6
 40
2.5
 49
1.0
 74
     0
 49
-0.5
 74
     0
 49
0.0
 74
     0
 49
-0.5
 74
     0
 49
0.0
 74
     0
 49
-0.5
 74
     0
  0
LTYPE
  5
2F
100
AcDbSymbolTableRecord
100
AcDbLinetypeTableRecord
  2
DOT
 70
     0
  3
. . . . . . . . . . . . . . . . . . . . . . . .
 72
    65
 73
     2
 40
0.25
 49
0.0
 74
     0
 49
-0.25
 74
     0
  0
LTYPE
  5
30
100
AcDbSymbolTableRecord
100
AcDbLinetypeTableRecord
  2
DOT2
 70
     0
  3
...............................................
 72
    65
 73
     2
 40
0.125
 49
0.0
 74
     0
 49
-0.125
 74
     0
  0
LTYPE
  5
31
100
AcDbSymbolTableRecord
100
AcDbLinetypeTableRecord
  2
DOTX2
 70
     0
  3
.  .  .  .  .  .  .  .  .  .  .  .  .  .  .  . 
 72
    65
 73
     2
 40
0.5
 49
0.0
 74
     0
 49
-0.5
 74
     0
  0
LTYPE
  5
32
100
AcDbSymbolTableRecord
100
AcDbLinetypeTableRecord
  2
HIDDEN
 70
     0
  3
__ __ __ __ __ __ __ __ __ __ __ __ __ __ __ __
 72
    65
 73
     2
 40
0.375
 49
0.25
 74
     0
 49
-0.125
 74
     0
  0
LTYPE
  5
33
100
AcDbSymbolTableRecord
100
AcDbLinetypeTableRecord
  2
HIDDEN2
 70
     0
  3
_ _ _ _ _ _ _ _ _ _ _ _ _ _ _ _ _ _ _ _ _ _ _ _
 72
    65
 73
     2
 40
0.1875
 49
0.125
 74
     0
 49
-0.0625
 74
     0
  0
LTYPE
  5
34
100
AcDbSymbolTableRecord
100
AcDbLinetypeTableRecord
  2
HIDDENX2
 70
     0
  3
____ ____ ____ ____ ____ ____ ____ ____ ____ __
 72
    65
 73
     2
 40
0.75
 49
0.5
 74
     0
 49
-0.25
 74
     0
  0
LTYPE
  5
35
100
AcDbSymbolTableRecord
100
AcDbLinetypeTableRecord
  2
PHANTOM
 70
     0
  3
______  __  __  ______  __  __  ______  __  __ 
 72
    65
 73
     6
 40
2.5
 49
1.25
 74
     0
 49
-0.25
 74
     0
 49
0.25
 74
     0
 49
-0.25
 74
     0
 49
0.25
 74
     0
 49
-0.25
 74
     0
  0
LTYPE
  5
36
100
AcDbSymbolTableRecord
100
AcDbLinetypeTableRecord
  2
PHANTOM2
 70
     0
  3
___ _ _ ___ _ _ ___ _ _ ___ _ _ ___ _ _ ___ _ _
 72
    65
 73
     6
 40
1.25
 49
0.625
 74
     0
 49
-0.125
 74
     0
 49
0.125
 74
     0
 49
-0.125
 74
     0
 49
0.125
 74
     0
 49
-0.125
 74
     0
  0
LTYPE
  5
37
100
AcDbSymbolTableRecord
100
AcDbLinetypeTableRecord
  2
PHANTOMX2
 70
     0
  3
____________    ____    ____    ____________   
 72
    65
 73
     6
 40
5.0
 49
2.5
 74
     0
 49
-0.5
 74
     0
 49
0.5
 74
     0
 49
-0.5
 74
     0
 49
0.5
 74
     0
 49
-0.5
 74
     0
  0
ENDTAB
   0
TABLE
   2
LAYER
   5
2
 100
AcDbSymbolTable
  70
4
   0
LAYER
   5
E
 100
AcDbSymbolTableRecord
 100
AcDbLayerTableRecord
   2
0
  70
0
  62
7
   6
CONTINUOUS
   0
LAYER
   5
39
 100
AcDbSymbolTableRecord
 100
AcDbLayerTableRecord
   2
LEVEL002
  70
0
  62
7
   6
CONTINUOUS
   0
LAYER
   5
3A
 100
AcDbSymbolTableRecord
 100
AcDbLayerTableRecord
   2
LEVEL003
  70
0
  62
7
   6
CONTINUOUS
   0
LAYER
   5
3B
 100
AcDbSymbolTableRecord
 100
AcDbLayerTableRecord
   2
LEVEL004
  70
0
  62
7
   6
CONTINUOUS
   0
ENDTAB
  0
TABLE
  2
STYLE
  5
3
100
AcDbSymbolTable
  70
4
  0
STYLE
  5
F
100
AcDbSymbolTableRecord
100
AcDbTextStyleTableRecord
  2
STANDARD
 70
     0
 40
0.0
 41
1.0
 50
0.0
 71
     0
 42
0.2
  3
TXT
  4
BIGFONT
  0
STYLE
  5
38
100
AcDbSymbolTableRecord
100
AcDbTextStyleTableRecord
  2
STANDARD1
 70
     4
 40
0.0
 41
1.0
 50
0.0
 71
     0
 42
0.2
  3
TXT
  4
BIGFONT
   0
STYLE
   5
3C
 100
AcDbSymbolTableRecord
 100
AcDbTextStyleTableRecord
   2
GMM001
  70
0
  40
0.0
  41
 0.50000000000000
  50
0.0
  71
     0
  42
1.0
   3
txt.shx
   4
bigfont.shx
   0
STYLE
   5
3D
 100
AcDbSymbolTableRecord
 100
AcDbTextStyleTableRecord
   2
GMM002
  70
0
  40
0.0
  41
 1.0000000000000
  50
0.0
  71
     0
  42
1.0
   3
txt.shx
   4
bigfont.shx
   0
ENDTAB
  0
TABLE
  2
VIEW
  5
6
100
AcDbSymbolTable
 70
     0
  0
ENDTAB
  0
TABLE
  2
UCS
  5
7
100
AcDbSymbolTable
 70
     0
  0
ENDTAB
  0
TABLE
  2
APPID
  5
9
100
AcDbSymbolTable
 70
     1
  0
APPID
  5
10
100
AcDbSymbolTableRecord
100
AcDbRegAppTableRecord
  2
ACAD
 70
     0
  0
ENDTAB
   0
TABLE
   2
DIMSTYLE
   5
A
 100
AcDbSymbolTable
  70
2
  0
DIMSTYLE
105
1D
100
AcDbSymbolTableRecord
100
AcDbDimStyleTableRecord
  2
STANDARD
 70
     0
  3

  4

  5

  6

  7

 40
1.0
 41
0.18
 42
0.0625
 43
0.38
 44
0.18
 45
0.0
 46
0.0
 47
0.0
 48
0.0
140
0.18
141
0.09
142
0.0
143
25.4
144
1.0
145
0.0
146
1.0
147
0.09
 71
     0
 72
     0
 73
     1
 74
     1
 75
     0
 76
     0
 77
     0
 78
     0
170
     0
171
     2
172
     0
173
     0
174
     0
175
     0
176
     0
177
     0
178
     0
270
     2
271
     4
272
     4
273
     2
274
     2
340
F
275
     0
280
     0
281
     0
282
     0
283
     1
284
     0
285
     0
286
     0
287
     3
288
     0
   0
ENDTAB
  0
TABLE
  2
BLOCK_RECORD
  5
1
100
AcDbSymbolTable
 70
     0
  0
BLOCK_RECORD
  5
18
100
AcDbSymbolTableRecord
100
AcDbBlockTableRecord
  2
*MODEL_SPACE
  0
BLOCK_RECORD
  5
15
100
AcDbSymbolTableRecord
100
AcDbBlockTableRecord
  2
*PAPER_SPACE
   0
BLOCK_RECORD
   5
3E
 100
AcDbSymbolTableRecord
 100
AcDbBlockTableRecord
   2
_ARCHTICK
   0
BLOCK_RECORD
   5
3F
 100
AcDbSymbolTableRecord
 100
AcDbBlockTableRecord
   2
_BOXBLANK
   0
BLOCK_RECORD
   5
40
 100
AcDbSymbolTableRecord
 100
AcDbBlockTableRecord
   2
_BOXFILLED
   0
BLOCK_RECORD
   5
41
 100
AcDbSymbolTableRecord
 100
AcDbBlockTableRecord
   2
_CLOSED
   0
BLOCK_RECORD
   5
42
 100
AcDbSymbolTableRecord
 100
AcDbBlockTableRecord
   2
_CLOSEDBLANK
   0
BLOCK_RECORD
   5
43
 100
AcDbSymbolTableRecord
 100
AcDbBlockTableRecord
   2
_DATUMBLANK
   0
BLOCK_RECORD
   5
44
 100
AcDbSymbolTableRecord
 100
AcDbBlockTableRecord
   2
_DATUMFILLED
   0
BLOCK_RECORD
   5
45
 100
AcDbSymbolTableRecord
 100
AcDbBlockTableRecord
   2
_DOT
   0
BLOCK_RECORD
   5
46
 100
AcDbSymbolTableRecord
 100
AcDbBlockTableRecord
   2
_DOTBLANK
   0
BLOCK_RECORD
   5
47
 100
AcDbSymbolTableRecord
 100
AcDbBlockTableRecord
   2
_DOTSMALL
   0
BLOCK_RECORD
   5
48
 100
AcDbSymbolTableRecord
 100
AcDbBlockTableRecord
   2
_INTEGRAL
   0
BLOCK_RECORD
   5
49
 100
AcDbSymbolTableRecord
 100
AcDbBlockTableRecord
   2
_NONE
   0
BLOCK_RECORD
   5
4A
 100
AcDbSymbolTableRecord
 100
AcDbBlockTableRecord
   2
_OBLIQUE
   0
BLOCK_RECORD
   5
4B
 100
AcDbSymbolTableRecord
 100
AcDbBlockTableRecord
   2
_OPEN
   0
BLOCK_RECORD
   5
4C
 100
AcDbSymbolTableRecord
 100
AcDbBlockTableRecord
   2
_OPEN30
   0
BLOCK_RECORD
   5
4D
 100
AcDbSymbolTableRecord
 100
AcDbBlockTableRecord
   2
_OPEN90
   0
BLOCK_RECORD
   5
4E
 100
AcDbSymbolTableRecord
 100
AcDbBlockTableRecord
   2
_ORIGIN
   0
ENDTAB
   0
ENDSEC
  0
SECTION
  2
BLOCKS
  0
BLOCK
  5
19
100
AcDbEntity
  8
0
100
AcDbBlockBegin
  2
*MODEL_SPACE
 70
     0
 10
0.0
 20
0.0
 30
0.0
  3
*MODEL_SPACE
  1

  0
ENDBLK
  5
1A
100
AcDbEntity
  8
0
100
AcDbBlockEnd
  0
BLOCK
  5
16
100
AcDbEntity
 67
     1
  8
0
100
AcDbBlockBegin
  2
*PAPER_SPACE
 70
     0
 10
0.0
 20
0.0
 30
0.0
  3
*PAPER_SPACE
  1

  0
ENDBLK
  5
17
100
AcDbEntity
 67
     1
  8
0
100
AcDbBlockEnd
   0
BLOCK
   5
4F
 100
AcDbEntity
   8
0
 100
AcDbBlockBegin
   2
_ARCHTICK
  70
0
  10
0.0
  20
0.0
  30
0.0
   3
_ARCHTICK
   0
POLYLINE
   5
50
 100
AcDbEntity
   8
0
   6
BYBLOCK
  62
0
 100
AcDb2dPolyline
  66
1
  10
0.0
  20
0.0
  30
0.0
  70
1
  40
 0.15000000000000
  41
 0.15000000000000
   0
VERTEX
   5
51
 100
AcDbEntity
   8
0
   6
BYBLOCK
  62
0
 100
AcDbVertex
 100
AcDb2dVertex
  10
-0.50000000000000
  20
-0.50000000000000
  30
0.0
  40
 0.15000000000000
  41
 0.15000000000000
   0
VERTEX
   5
52
 100
AcDbEntity
   8
0
   6
BYBLOCK
  62
0
 100
AcDbVertex
 100
AcDb2dVertex
  10
 0.50000000000000
  20
 0.50000000000000
  30
0.0
  40
 0.15000000000000
  41
 0.15000000000000
   0
SEQEND
   5
53
 100
AcDbEntity
   8
0
   6
BYBLOCK
  62
0
   0
ENDBLK
   5
54
 100
AcDbEntity
   8
0
 100
AcDbBlockEnd
   0
BLOCK
   5
55
 100
AcDbEntity
   8
0
 100
AcDbBlockBegin
   2
_OBLIQUE
  70
0
  10
0.0
  20
0.0
  30
0.0
   3
_OBLIQUE
   0
LINE
   5
56
 100
AcDbEntity
   8
0
 100
AcDbLine
   6
BYBLOCK
  62
0
  10
-0.50000000000000
  20
-0.50000000000000
  30
0.0
  11
 0.50000000000000
  21
 0.50000000000000
  31
0.0
   0
ENDBLK
   5
57
 100
AcDbEntity
   8
0
 100
AcDbBlockEnd
   0
BLOCK
   5
58
 100
AcDbEntity
   8
0
 100
AcDbBlockBegin
   2
_BOXBLANK
  70
0
  10
0.0
  20
0.0
  30
0.0
   3
_BOXBLANK
   0
LINE
   5
59
 100
AcDbEntity
   8
0
 100
AcDbLine
   6
BYBLOCK
  62
0
  10
-0.50000000000000
  20
-0.50000000000000
  30
0.0
  11
 0.50000000000000
  21
-0.50000000000000
  31
0.0
   0
LINE
   5
5A
 100
AcDbEntity
   8
0
 100
AcDbLine
   6
BYBLOCK
  62
0
  10
 0.50000000000000
  20
-0.50000000000000
  30
0.0
  11
 0.50000000000000
  21
 0.50000000000000
  31
0.0
   0
LINE
   5
5B
 100
AcDbEntity
   8
0
 100
AcDbLine
   6
BYBLOCK
  62
0
  10
 0.50000000000000
  20
 0.50000000000000
  30
0.0
  11
-0.50000000000000
  21
 0.50000000000000
  31
0.0
   0
LINE
   5
5C
 100
AcDbEntity
   8
0
 100
AcDbLine
   6
BYBLOCK
  62
0
  10
-0.50000000000000
  20
 0.50000000000000
  30
0.0
  11
-0.50000000000000
  21
-0.50000000000000
  31
0.0
   0
LINE
   5
5D
 100
AcDbEntity
   8
0
 100
AcDbLine
   6
BYBLOCK
  62
0
  10
-0.50000000000000
  20
0.0
  30
0.0
  11
-1.0000000000000
  21
0.0
  31
0.0
   0
ENDBLK
   5
5E
 100
AcDbEntity
   8
0
 100
AcDbBlockEnd
   0
BLOCK
   5
5F
 100
AcDbEntity
   8
0
 100
AcDbBlockBegin
   2
_BOXFILLED
  70
0
  10
0.0
  20
0.0
  30
0.0
   3
_BOXFILLED
   0
SOLID
   5
60
 100
AcDbEntity
   8
0
 100
AcDbTrace
   6
BYBLOCK
  62
0
  10
-0.50000000000000
  20
 0.50000000000000
  30
0.0
  11
 0.50000000000000
  21
 0.50000000000000
  31
0.0
  12
-0.50000000000000
  22
-0.50000000000000
  32
0.0
  13
 0.50000000000000
  23
-0.50000000000000
  33
0.0
   0
LINE
   5
61
 100
AcDbEntity
   8
0
 100
AcDbLine
   6
BYBLOCK
  62
0
  10
-0.50000000000000
  20
0.0
  30
0.0
  11
-1.0000000000000
  21
0.0
  31
0.0
   0
ENDBLK
   5
62
 100
AcDbEntity
   8
0
 100
AcDbBlockEnd
   0
BLOCK
   5
63
 100
AcDbEntity
   8
0
 100
AcDbBlockBegin
   2
_CLOSED
  70
0
  10
0.0
  20
0.0
  30
0.0
   3
_CLOSED
   0
LINE
   5
64
 100
AcDbEntity
   8
0
 100
AcDbLine
   6
BYBLOCK
  62
0
  10
-1.0000000000000
  20
 0.16666666666667
  30
0.0
  11
0.0
  21
0.0
  31
0.0
   0
LINE
   5
65
 100
AcDbEntity
   8
0
 100
AcDbLine
   6
BYBLOCK
  62
0
  10
0.0
  20
0.0
  30
0.0
  11
-1.0000000000000
  21
-0.16666666666667
  31
0.0
   0
LINE
   5
66
 100
AcDbEntity
   8
0
 100
AcDbLine
   6
BYBLOCK
  62
0
  10
-1.0000000000000
  20
 0.16666666666667
  30
0.0
  11
-1.0000000000000
  21
-0.16666666666667
  31
0.0
   0
LINE
   5
67
 100
AcDbEntity
   8
0
 100
AcDbLine
   6
BYBLOCK
  62
0
  10
0.0
  20
0.0
  30
0.0
  11
-1.0000000000000
  21
0.0
  31
0.0
   0
ENDBLK
   5
68
 100
AcDbEntity
   8
0
 100
AcDbBlockEnd
   0
BLOCK
   5
69
 100
AcDbEntity
   8
0
 100
AcDbBlockBegin
   2
_OPEN
  70
0
  10
0.0
  20
0.0
  30
0.0
   3
_OPEN
   0
LINE
   5
6A
 100
AcDbEntity
   8
0
 100
AcDbLine
   6
BYBLOCK
  62
0
  10
-1.0000000000000
  20
 0.16666666666667
  30
0.0
  11
0.0
  21
0.0
  31
0.0
   0
LINE
   5
6B
 100
AcDbEntity
   8
0
 100
AcDbLine
   6
BYBLOCK
  62
0
  10
0.0
  20
0.0
  30
0.0
  11
-1.0000000000000
  21
-0.16666666666667
  31
0.0
   0
LINE
   5
6C
 100
AcDbEntity
   8
0
 100
AcDbLine
   6
BYBLOCK
  62
0
  10
0.0
  20
0.0
  30
0.0
  11
-1.0000000000000
  21
0.0
  31
0.0
   0
ENDBLK
   5
6D
 100
AcDbEntity
   8
0
 100
AcDbBlockEnd
   0
BLOCK
   5
6E
 100
AcDbEntity
   8
0
 100
AcDbBlockBegin
   2
_OPEN30
  70
0
  10
0.0
  20
0.0
  30
0.0
   3
_OPEN30
   0
LINE
   5
6F
 100
AcDbEntity
   8
0
 100
AcDbLine
   6
BYBLOCK
  62
0
  10
-1.0000000000000
  20
 0.26794919243110
  30
0.0
  11
0.0
  21
0.0
  31
0.0
   0
LINE
   5
70
 100
AcDbEntity
   8
0
 100
AcDbLine
   6
BYBLOCK
  62
0
  10
0.0
  20
0.0
  30
0.0
  11
-1.0000000000000
  21
-0.26794919243110
  31
0.0
   0
LINE
   5
71
 100
AcDbEntity
   8
0
 100
AcDbLine
   6
BYBLOCK
  62
0
  10
0.0
  20
0.0
  30
0.0
  11
-1.0000000000000
  21
0.0
  31
0.0
   0
ENDBLK
   5
72
 100
AcDbEntity
   8
0
 100
AcDbBlockEnd
   0
BLOCK
   5
73
 100
AcDbEntity
   8
0
 100
AcDbBlockBegin
   2
_OPEN90
  70
0
  10
0.0
  20
0.0
  30
0.0
   3
_OPEN90
   0
LINE
   5
74
 100
AcDbEntity
   8
0
 100
AcDbLine
   6
BYBLOCK
  62
0
  10
-0.50000000000000
  20
 0.50000000000000
  30
0.0
  11
0.0
  21
0.0
  31
0.0
   0
LINE
   5
75
 100
AcDbEntity
   8
0
 100
AcDbLine
   6
BYBLOCK
  62
0
  10
0.0
  20
0.0
  30
0.0
  11
-0.50000000000000
  21
-0.50000000000000
  31
0.0
   0
LINE
   5
76
 100
AcDbEntity
   8
0
 100
AcDbLine
   6
BYBLOCK
  62
0
  10
0.0
  20
0.0
  30
0.0
  11
-1.0000000000000
  21
0.0
  31
0.0
   0
ENDBLK
   5
77
 100
AcDbEntity
   8
0
 100
AcDbBlockEnd
   0
BLOCK
   5
78
 100
AcDbEntity
   8
0
 100
AcDbBlockBegin
   2
_CLOSEDBLANK
  70
0
  10
0.0
  20
0.0
  30
0.0
   3
_CLOSEDBLANK
   0
LINE
   5
79
 100
AcDbEntity
   8
0
 100
AcDbLine
   6
BYBLOCK
  62
0
  10
-1.0000000000000
  20
 0.16666666666667
  30
0.0
  11
0.0
  21
0.0
  31
0.0
   0
LINE
   5
7A
 100
AcDbEntity
   8
0
 100
AcDbLine
   6
BYBLOCK
  62
0
  10
0.0
  20
0.0
  30
0.0
  11
-1.0000000000000
  21
-0.16666666666667
  31
0.0
   0
LINE
   5
7B
 100
AcDbEntity
   8
0
 100
AcDbLine
   6
BYBLOCK
  62
0
  10
-1.0000000000000
  20
 0.16666666666667
  30
0.0
  11
-1.0000000000000
  21
-0.16666666666667
  31
0.0
   0
ENDBLK
   5
7C
 100
AcDbEntity
   8
0
 100
AcDbBlockEnd
   0
BLOCK
   5
7D
 100
AcDbEntity
   8
0
 100
AcDbBlockBegin
   2
_DOT
  70
0
  10
0.0
  20
0.0
  30
0.0
   3
_DOT
   0
POLYLINE
   5
7E
 100
AcDbEntity
   8
0
   6
BYBLOCK
  62
0
 100
AcDb2dPolyline
  66
1
  10
0.0
  20
0.0
  30
0.0
  70
1
  40
 0.50000000000000
  41
 0.50000000000000
   0
VERTEX
   5
7F
 100
AcDbEntity
   8
0
   6
BYBLOCK
  62
0
 100
AcDbVertex
 100
AcDb2dVertex
  10
-0.25000000000000
  20
0.0
  30
0.0
  42
 1.0000000000000
  40
 0.50000000000000
  41
 0.50000000000000
   0
VERTEX
   5
80
 100
AcDbEntity
   8
0
   6
BYBLOCK
  62
0
 100
AcDbVertex
 100
AcDb2dVertex
  10
 0.25000000000000
  20
0.0
  30
0.0
  42
 1.0000000000000
  40
 0.50000000000000
  41
 0.50000000000000
   0
SEQEND
   5
81
 100
AcDbEntity
   8
0
   6
BYBLOCK
  62
0
   0
LINE
   5
82
 100
AcDbEntity
   8
0
 100
AcDbLine
   6
BYBLOCK
  62
0
  10
-0.50000000000000
  20
0.0
  30
0.0
  11
-1.0000000000000
  21
0.0
  31
0.0
   0
ENDBLK
   5
83
 100
AcDbEntity
   8
0
 100
AcDbBlockEnd
   0
BLOCK
   5
84
 100
AcDbEntity
   8
0
 100
AcDbBlockBegin
   2
_DOTSMALL
  70
0
  10
0.0
  20
0.0
  30
0.0
   3
_DOTSMALL
   0
POLYLINE
   5
85
 100
AcDbEntity
   8
0
   6
BYBLOCK
  62
0
 100
AcDb2dPolyline
  66
1
  10
0.0
  20
0.0
  30
0.0
  70
1
  40
 0.50000000000000
  41
 0.50000000000000
   0
VERTEX
   5
86
 100
AcDbEntity
   8
0
   6
BYBLOCK
  62
0
 100
AcDbVertex
 100
AcDb2dVertex
  10
-0.62500000000000E-1
  20
0.0
  30
0.0
  42
 1.0000000000000
  40
 0.50000000000000
  41
 0.50000000000000
   0
VERTEX
   5
87
 100
AcDbEntity
   8
0
   6
BYBLOCK
  62
0
 100
AcDbVertex
 100
AcDb2dVertex
  10
 0.62500000000000E-1
  20
0.0
  30
0.0
  42
 1.0000000000000
  40
 0.50000000000000
  41
 0.50000000000000
   0
SEQEND
   5
88
 100
AcDbEntity
   8
0
   6
BYBLOCK
  62
0
   0
ENDBLK
   5
89
 100
AcDbEntity
   8
0
 100
AcDbBlockEnd
   0
BLOCK
   5
8A
 100
AcDbEntity
   8
0
 100
AcDbBlockBegin
   2
_DATUMBLANK
  70
0
  10
0.0
  20
0.0
  30
0.0
   3
_DATUMBLANK
   0
LINE
   5
8B
 100
AcDbEntity
   8
0
 100
AcDbLine
   6
BYBLOCK
  62
0
  10
0.0
  20
 0.57735027000000
  30
0.0
  11
-1.0000000000000
  21
0.0
  31
0.0
   0
LINE
   5
8C
 100
AcDbEntity
   8
0
 100
AcDbLine
   6
BYBLOCK
  62
0
  10
-1.0000000000000
  20
0.0
  30
0.0
  11
0.0
  21
-0.57735027000000
  31
0.0
   0
LINE
   5
8D
 100
AcDbEntity
   8
0
 100
AcDbLine
   6
BYBLOCK
  62
0
  10
0.0
  20
-0.57735027000000
  30
0.0
  11
0.0
  21
 0.57735027000000
  31
0.0
   0
ENDBLK
   5
8E
 100
AcDbEntity
   8
0
 100
AcDbBlockEnd
   0
BLOCK
   5
8F
 100
AcDbEntity
   8
0
 100
AcDbBlockBegin
   2
_DATUMFILLED
  70
0
  10
0.0
  20
0.0
  30
0.0
   3
_DATUMFILLED
   0
SOLID
   5
90
 100
AcDbEntity
   8
0
 100
AcDbTrace
   6
BYBLOCK
  62
0
  10
0.0
  20
 0.57735027000000
  30
0.0
  11
-1.0000000000000
  21
0.0
  31
0.0
  12
0.0
  22
-0.57735027000000
  32
0.0
  13
0.0
  23
-0.57735027000000
  33
0.0
   0
ENDBLK
   5
91
 100
AcDbEntity
   8
0
 100
AcDbBlockEnd
   0
BLOCK
   5
92
 100
AcDbEntity
   8
0
 100
AcDbBlockBegin
   2
_ORIGIN
  70
0
  10
0.0
  20
0.0
  30
0.0
   3
_ORIGIN
   0
CIRCLE
   5
93
 100
AcDbEntity
   8
0
 100
AcDbCircle
   6
BYBLOCK
  62
0
  10
0.0
  20
0.0
  30
0.0
  40
 0.50000000000000
   0
LINE
   5
94
 100
AcDbEntity
   8
0
 100
AcDbLine
   6
BYBLOCK
  62
0
  10
0.0
  20
0.0
  30
0.0
  11
-1.0000000000000
  21
0.0
  31
0.0
   0
ENDBLK
   5
95
 100
AcDbEntity
   8
0
 100
AcDbBlockEnd
   0
BLOCK
   5
96
 100
AcDbEntity
   8
0
 100
AcDbBlockBegin
   2
_NONE
  70
0
  10
0.0
  20
0.0
  30
0.0
   3
_NONE
   0
CIRCLE
   5
97
 100
AcDbEntity
   8
0
 100
AcDbCircle
   6
BYBLOCK
  62
0
  10
0.0
  20
0.0
  30
0.0
  40
 0.25000000000000
   0
ENDBLK
   5
98
 100
AcDbEntity
   8
0
 100
AcDbBlockEnd
   0
BLOCK
   5
99
 100
AcDbEntity
   8
0
 100
AcDbBlockBegin
   2
_DOTBLANK
  70
0
  10
0.0
  20
0.0
  30
0.0
   3
_DOTBLANK
   0
CIRCLE
   5
9A
 100
AcDbEntity
   8
0
 100
AcDbCircle
   6
BYBLOCK
  62
0
  10
0.0
  20
0.0
  30
0.0
  40
 0.50000000000000
   0
LINE
   5
9B
 100
AcDbEntity
   8
0
 100
AcDbLine
   6
BYBLOCK
  62
0
  10
-0.50000000000000
  20
0.0
  30
0.0
  11
-1.0000000000000
  21
0.0
  31
0.0
   0
ENDBLK
   5
9C
 100
AcDbEntity
   8
0
 100
AcDbBlockEnd
   0
BLOCK
   5
9D
 100
AcDbEntity
   8
0
 100
AcDbBlockBegin
   2
_INTEGRAL
  70
0
  10
0.0
  20
0.0
  30
0.0
   3
_INTEGRAL
   0
ARC
   5
9E
 100
AcDbEntity
   8
0
   6
BYBLOCK
  62
0
 100
AcDbCircle
  10
 0.44488800000000
  20
-0.91335000000000E-1
  30
0.0
  40
 0.45416700000000
 100
AcDbArc
  50
 102.00000000000
  51
 168.00000000000
   0
ARC
   5
9F
 100
AcDbEntity
   8
0
   6
BYBLOCK
  62
0
 100
AcDbCircle
  10
-0.44488800000000
  20
 0.91335000000000E-1
  30
0.0
  40
 0.45416700000000
 100
AcDbArc
  50
 282.00000000000
  51
 348.00000000000
   0
ENDBLK
   5
A0
 100
AcDbEntity
   8
0
 100
AcDbBlockEnd
   0
ENDSEC
   0
SECTION
   2
ENTITIES
   0
LINE
   5
A1
 100
AcDbEntity
   8
LEVEL002
 100
AcDbLine
   6
CONTINUOUS
  62
7
  10
 776.00000000000
  20
 182.69100000000
  30
0.0
  11
 780.00000000000
  21
 180.38100000000
  31
0.0
   0
LINE
   5
A2
 100
AcDbEntity
   8
LEVEL002
 100
AcDbLine
   6
CONTINUOUS
  62
7
  10
 776.00000000000
  20
 187.30900000000
  30
0.0
  11
 776.00000000000
  21
 182.69100000000
  31
0.0
   0
LINE
   5
A3
 100
AcDbEntity
   8
LEVEL002
 100
AcDbLine
   6
CONTINUOUS
  62
7
  10
 780.00000000000
  20
 189.61900000000
  30
0.0
  11
 776.00000000000
  21
 187.30900000000
  31
0.0
   0
LINE
   5
A4
 100
AcDbEntity
   8
LEVEL002
 100
AcDbLine
   6
CONTINUOUS
  62
7
  10
 784.00000000000
  20
 187.30900000000
  30
0.0
  11
 780.00000000000
  21
 189.61900000000
  31
0.0
   0
LINE
   5
A5
 100
AcDbEntity
   8
LEVEL002
 100
AcDbLine
   6
CONTINUOUS
  62
7
  10
 784.00000000000
  20
 182.69100000000
  30
0.0
  11
 784.00000000000
  21
 187.30900000000
  31
0.0
   0
LINE
   5
A6
 100
AcDbEntity
   8
LEVEL002
 100
AcDbLine
   6
CONTINUOUS
  62
7
  10
 780.00000000000
  20
 180.38100000000
  30
0.0
  11
 784.00000000000
  21
 182.69100000000
  31
0.0
   0
LINE
   5
A7
 100
AcDbEntity
   8
LEVEL002
 100
AcDbLine
   6
CONTINUOUS
  62
7
  10
 776.00000000000
  20
 162.69100000000
  30
0.0
  11
 780.00000000000
  21
 160.38100000000
  31
0.0
   0
LINE
   5
A8
 100
AcDbEntity
   8
LEVEL002
 100
AcDbLine
   6
CONTINUOUS
  62
7
  10
 776.00000000000
  20
 167.30900000000
  30
0.0
  11
 776.00000000000
  21
 162.69100000000
  31
0.0
   0
LINE
   5
A9
 100
AcDbEntity
   8
LEVEL002
 100
AcDbLine
   6
CONTINUOUS
  62
7
  10
 780.00000000000
  20
 169.61900000000
  30
0.0
  11
 776.00000000000
  21
 167.30900000000
  31
0.0
   0
LINE
   5
AA
 100
AcDbEntity
   8
LEVEL002
 100
AcDbLine
   6
CONTINUOUS
  62
7
  10
 784.00000000000
  20
 167.30900000000
  30
0.0
  11
 780.00000000000
  21
 169.61900000000
  31
0.0
   0
LINE
   5
AB
 100
AcDbEntity
   8
LEVEL002
 100
AcDbLine
   6
CONTINUOUS
  62
7
  10
 784.00000000000
  20
 162.69100000000
  30
0.0
  11
 784.00000000000
  21
 167.30900000000
  31
0.0
   0
LINE
   5
AC
 100
AcDbEntity
   8
LEVEL002
 100
AcDbLine
   6
CONTINUOUS
  62
7
  10
 780.00000000000
  20
 160.38100000000
  30
0.0
  11
 784.00000000000
  21
 162.69100000000
  31
0.0
   0
LINE
   5
AD
 100
AcDbEntity
   8
LEVEL002
 100
AcDbLine
   6
CONTINUOUS
  62
7
  10
 280.80000000000
  20
 424.73200000000
  30
0.0
  11
 241.09600000000
  21
 424.73200000000
  31
0.0
   0
LINE
   5
AE
 100
AcDbEntity
   8
LEVEL002
 100
AcDbLine
   6
CONTINUOUS
  62
7
  10
 218.90400000000
  20
 424.73200000000
  30
0.0
  11
 179.20000000000
  21
 424.73200000000
  31
0.0
   0
LINE
   5
AF
 100
AcDbEntity
   8
LEVEL002
 100
AcDbLine
   6
CONTINUOUS
  62
7
  10
 227.06900000000
  20
 419.58000000000
  30
0.0
  11
 227.09500000000
  21
 419.51200000000
  31
0.0
   0
LINE
   5
B0
 100
AcDbEntity
   8
LEVEL002
 100
AcDbLine
   6
CONTINUOUS
  62
7
  10
 227.09500000000
  20
 419.51200000000
  30
0.0
  11
 227.12500000000
  21
 419.44400000000
  31
0.0
   0
LINE
   5
B1
 100
AcDbEntity
   8
LEVEL002
 100
AcDbLine
   6
CONTINUOUS
  62
7
  10
 227.12500000000
  20
 419.44400000000
  30
0.0
  11
 227.15900000000
  21
 419.37800000000
  31
0.0
   0
LINE
   5
B2
 100
AcDbEntity
   8
LEVEL002
 100
AcDbLine
   6
CONTINUOUS
  62
7
  10
 227.15900000000
  20
 419.37800000000
  30
0.0
  11
 227.19800000000
  21
 419.31200000000
  31
0.0
   0
LINE
   5
B3
 100
AcDbEntity
   8
LEVEL002
 100
AcDbLine
   6
CONTINUOUS
  62
7
  10
 227.19800000000
  20
 419.31200000000
  30
0.0
  11
 227.23900000000
  21
 419.24700000000
  31
0.0
   0
LINE
   5
B4
 100
AcDbEntity
   8
LEVEL002
 100
AcDbLine
   6
CONTINUOUS
  62
7
  10
 227.23900000000
  20
 419.24700000000
  30
0.0
  11
 227.28500000000
  21
 419.18300000000
  31
0.0
   0
LINE
   5
B5
 100
AcDbEntity
   8
LEVEL002
 100
AcDbLine
   6
CONTINUOUS
  62
7
  10
 227.28500000000
  20
 419.18300000000
  30
0.0
  11
 227.33500000000
  21
 419.12000000000
  31
0.0
   0
LINE
   5
B6
 100
AcDbEntity
   8
LEVEL002
 100
AcDbLine
   6
CONTINUOUS
  62
7
  10
 227.33500000000
  20
 419.12000000000
  30
0.0
  11
 227.38800000000
  21
 419.05800000000
  31
0.0
   0
LINE
   5
B7
 100
AcDbEntity
   8
LEVEL002
 100
AcDbLine
   6
CONTINUOUS
  62
7
  10
 227.38800000000
  20
 419.05800000000
  30
0.0
  11
 227.44500000000
  21
 418.99800000000
  31
0.0
   0
LINE
   5
B8
 100
AcDbEntity
   8
LEVEL002
 100
AcDbLine
   6
CONTINUOUS
  62
7
  10
 227.44500000000
  20
 418.99800000000
  30
0.0
  11
 227.50600000000
  21
 418.93900000000
  31
0.0
   0
LINE
   5
B9
 100
AcDbEntity
   8
LEVEL002
 100
AcDbLine
   6
CONTINUOUS
  62
7
  10
 227.50600000000
  20
 418.93900000000
  30
0.0
  11
 227.56900000000
  21
 418.88100000000
  31
0.0
   0
LINE
   5
BA
 100
AcDbEntity
   8
LEVEL002
 100
AcDbLine
   6
CONTINUOUS
  62
7
  10
 227.56900000000
  20
 418.88100000000
  30
0.0
  11
 227.63700000000
  21
 418.82400000000
  31
0.0
   0
LINE
   5
BB
 100
AcDbEntity
   8
LEVEL002
 100
AcDbLine
   6
CONTINUOUS
  62
7
  10
 227.63700000000
  20
 418.82400000000
  30
0.0
  11
 227.70700000000
  21
 418.77000000000
  31
0.0
   0
LINE
   5
BC
 100
AcDbEntity
   8
LEVEL002
 100
AcDbLine
   6
CONTINUOUS
  62
7
  10
 227.70700000000
  20
 418.77000000000
  30
0.0
  11
 227.78100000000
  21
 418.71700000000
  31
0.0
   0
LINE
   5
BD
 100
AcDbEntity
   8
LEVEL002
 100
AcDbLine
   6
CONTINUOUS
  62
7
  10
 227.78100000000
  20
 418.71700000000
  30
0.0
  11
 227.85800000000
  21
 418.66500000000
  31
0.0
   0
LINE
   5
BE
 100
AcDbEntity
   8
LEVEL002
 100
AcDbLine
   6
CONTINUOUS
  62
7
  10
 227.85800000000
  20
 418.66500000000
  30
0.0
  11
 227.93800000000
  21
 418.61500000000
  31
0.0
   0
LINE
   5
BF
 100
AcDbEntity
   8
LEVEL002
 100
AcDbLine
   6
CONTINUOUS
  62
7
  10
 227.93800000000
  20
 418.61500000000
  30
0.0
  11
 228.02100000000
  21
 418.56800000000
  31
0.0
   0
LINE
   5
C0
 100
AcDbEntity
   8
LEVEL002
 100
AcDbLine
   6
CONTINUOUS
  62
7
  10
 228.02100000000
  20
 418.56800000000
  30
0.0
  11
 228.10700000000
  21
 418.52200000000
  31
0.0
   0
LINE
   5
C1
 100
AcDbEntity
   8
LEVEL002
 100
AcDbLine
   6
CONTINUOUS
  62
7
  10
 228.10700000000
  20
 418.52200000000
  30
0.0
  11
 228.19500000000
  21
 418.47800000000
  31
0.0
   0
LINE
   5
C2
 100
AcDbEntity
   8
LEVEL002
 100
AcDbLine
   6
CONTINUOUS
  62
7
  10
 228.19500000000
  20
 418.47800000000
  30
0.0
  11
 228.28500000000
  21
 418.43600000000
  31
0.0
   0
LINE
   5
C3
 100
AcDbEntity
   8
LEVEL002
 100
AcDbLine
   6
CONTINUOUS
  62
7
  10
 228.28500000000
  20
 418.43600000000
  30
0.0
  11
 228.37900000000
  21
 418.39600000000
  31
0.0
   0
LINE
   5
C4
 100
AcDbEntity
   8
LEVEL002
 100
AcDbLine
   6
CONTINUOUS
  62
7
  10
 228.37900000000
  20
 418.39600000000
  30
0.0
  11
 228.47400000000
  21
 418.35900000000
  31
0.0
   0
LINE
   5
C5
 100
AcDbEntity
   8
LEVEL002
 100
AcDbLine
   6
CONTINUOUS
  62
7
  10
 228.47400000000
  20
 418.35900000000
  30
0.0
  11
 228.57100000000
  21
 418.32400000000
  31
0.0
   0
LINE
   5
C6
 100
AcDbEntity
   8
LEVEL002
 100
AcDbLine
   6
CONTINUOUS
  62
7
  10
 228.57100000000
  20
 418.32400000000
  30
0.0
  11
 228.67100000000
  21
 418.29100000000
  31
0.0
   0
LINE
   5
C7
 100
AcDbEntity
   8
LEVEL002
 100
AcDbLine
   6
CONTINUOUS
  62
7
  10
 228.67100000000
  20
 418.29100000000
  30
0.0
  11
 228.77200000000
  21
 418.26000000000
  31
0.0
   0
LINE
   5
C8
 100
AcDbEntity
   8
LEVEL002
 100
AcDbLine
   6
CONTINUOUS
  62
7
  10
 228.77200000000
  20
 418.26000000000
  30
0.0
  11
 228.87500000000
  21
 418.23100000000
  31
0.0
   0
LINE
   5
C9
 100
AcDbEntity
   8
LEVEL002
 100
AcDbLine
   6
CONTINUOUS
  62
7
  10
 228.87500000000
  20
 418.23100000000
  30
0.0
  11
 228.98000000000
  21
 418.20500000000
  31
0.0
   0
LINE
   5
CA
 100
AcDbEntity
   8
LEVEL002
 100
AcDbLine
   6
CONTINUOUS
  62
7
  10
 228.98000000000
  20
 418.20500000000
  30
0.0
  11
 229.08600000000
  21
 418.18200000000
  31
0.0
   0
LINE
   5
CB
 100
AcDbEntity
   8
LEVEL002
 100
AcDbLine
   6
CONTINUOUS
  62
7
  10
 229.08600000000
  20
 418.18200000000
  30
0.0
  11
 229.19300000000
  21
 418.16100000000
  31
0.0
   0
LINE
   5
CC
 100
AcDbEntity
   8
LEVEL002
 100
AcDbLine
   6
CONTINUOUS
  62
7
  10
 229.19300000000
  20
 418.16100000000
  30
0.0
  11
 229.30200000000
  21
 418.14200000000
  31
0.0
   0
LINE
   5
CD
 100
AcDbEntity
   8
LEVEL002
 100
AcDbLine
   6
CONTINUOUS
  62
7
  10
 229.30200000000
  20
 418.14200000000
  30
0.0
  11
 229.41100000000
  21
 418.12600000000
  31
0.0
   0
LINE
   5
CE
 100
AcDbEntity
   8
LEVEL002
 100
AcDbLine
   6
CONTINUOUS
  62
7
  10
 229.41100000000
  20
 418.12600000000
  30
0.0
  11
 229.52100000000
  21
 418.11200000000
  31
0.0
   0
LINE
   5
CF
 100
AcDbEntity
   8
LEVEL002
 100
AcDbLine
   6
CONTINUOUS
  62
7
  10
 229.52100000000
  20
 418.11200000000
  30
0.0
  11
 229.63200000000
  21
 418.10100000000
  31
0.0
   0
LINE
   5
D0
 100
AcDbEntity
   8
LEVEL002
 100
AcDbLine
   6
CONTINUOUS
  62
7
  10
 229.63200000000
  20
 418.10100000000
  30
0.0
  11
 229.74400000000
  21
 418.09300000000
  31
0.0
   0
LINE
   5
D1
 100
AcDbEntity
   8
LEVEL002
 100
AcDbLine
   6
CONTINUOUS
  62
7
  10
 229.74400000000
  20
 418.09300000000
  30
0.0
  11
 229.85500000000
  21
 418.08700000000
  31
0.0
   0
LINE
   5
D2
 100
AcDbEntity
   8
LEVEL002
 100
AcDbLine
   6
CONTINUOUS
  62
7
  10
 229.85500000000
  20
 418.08700000000
  30
0.0
  11
 229.96700000000
  21
 418.08400000000
  31
0.0
   0
LINE
   5
D3
 100
AcDbEntity
   8
LEVEL002
 100
AcDbLine
   6
CONTINUOUS
  62
7
  10
 229.96700000000
  20
 418.08400000000
  30
0.0
  11
 230.07900000000
  21
 418.08300000000
  31
0.0
   0
LINE
   5
D4
 100
AcDbEntity
   8
LEVEL002
 100
AcDbLine
   6
CONTINUOUS
  62
7
  10
 230.07900000000
  20
 418.08300000000
  30
0.0
  11
 230.19100000000
  21
 418.08500000000
  31
0.0
   0
LINE
   5
D5
 100
AcDbEntity
   8
LEVEL002
 100
AcDbLine
   6
CONTINUOUS
  62
7
  10
 230.19100000000
  20
 418.08500000000
  30
0.0
  11
 230.30300000000
  21
 418.08900000000
  31
0.0
   0
LINE
   5
D6
 100
AcDbEntity
   8
LEVEL002
 100
AcDbLine
   6
CONTINUOUS
  62
7
  10
 230.30300000000
  20
 418.08900000000
  30
0.0
  11
 230.41400000000
  21
 418.09600000000
  31
0.0
   0
LINE
   5
D7
 100
AcDbEntity
   8
LEVEL002
 100
AcDbLine
   6
CONTINUOUS
  62
7
  10
 230.41400000000
  20
 418.09600000000
  30
0.0
  11
 230.52500000000
  21
 418.10600000000
  31
0.0
   0
LINE
   5
D8
 100
AcDbEntity
   8
LEVEL002
 100
AcDbLine
   6
CONTINUOUS
  62
7
  10
 230.52500000000
  20
 418.10600000000
  30
0.0
  11
 230.63500000000
  21
 418.11800000000
  31
0.0
   0
LINE
   5
D9
 100
AcDbEntity
   8
LEVEL002
 100
AcDbLine
   6
CONTINUOUS
  62
7
  10
 230.63500000000
  20
 418.11800000000
  30
0.0
  11
 230.74400000000
  21
 418.13300000000
  31
0.0
   0
LINE
   5
DA
 100
AcDbEntity
   8
LEVEL002
 100
AcDbLine
   6
CONTINUOUS
  62
7
  10
 230.74400000000
  20
 418.13300000000
  30
0.0
  11
 230.85200000000
  21
 418.15000000000
  31
0.0
   0
LINE
   5
DB
 100
AcDbEntity
   8
LEVEL002
 100
AcDbLine
   6
CONTINUOUS
  62
7
  10
 230.85200000000
  20
 418.15000000000
  30
0.0
  11
 230.95800000000
  21
 418.17000000000
  31
0.0
   0
LINE
   5
DC
 100
AcDbEntity
   8
LEVEL002
 100
AcDbLine
   6
CONTINUOUS
  62
7
  10
 230.95800000000
  20
 418.17000000000
  30
0.0
  11
 231.06400000000
  21
 418.19200000000
  31
0.0
   0
LINE
   5
DD
 100
AcDbEntity
   8
LEVEL002
 100
AcDbLine
   6
CONTINUOUS
  62
7
  10
 231.06400000000
  20
 418.19200000000
  30
0.0
  11
 231.16800000000
  21
 418.21700000000
  31
0.0
   0
LINE
   5
DE
 100
AcDbEntity
   8
LEVEL002
 100
AcDbLine
   6
CONTINUOUS
  62
7
  10
 231.16800000000
  20
 418.21700000000
  30
0.0
  11
 231.27000000000
  21
 418.24400000000
  31
0.0
   0
LINE
   5
DF
 100
AcDbEntity
   8
LEVEL002
 100
AcDbLine
   6
CONTINUOUS
  62
7
  10
 231.27000000000
  20
 418.24400000000
  30
0.0
  11
 231.37100000000
  21
 418.27400000000
  31
0.0
   0
LINE
   5
E0
 100
AcDbEntity
   8
LEVEL002
 100
AcDbLine
   6
CONTINUOUS
  62
7
  10
 231.37100000000
  20
 418.27400000000
  30
0.0
  11
 231.47000000000
  21
 418.30600000000
  31
0.0
   0
LINE
   5
E1
 100
AcDbEntity
   8
LEVEL002
 100
AcDbLine
   6
CONTINUOUS
  62
7
  10
 231.47000000000
  20
 418.30600000000
  30
0.0
  11
 231.56600000000
  21
 418.34000000000
  31
0.0
   0
LINE
   5
E2
 100
AcDbEntity
   8
LEVEL002
 100
AcDbLine
   6
CONTINUOUS
  62
7
  10
 231.56600000000
  20
 418.34000000000
  30
0.0
  11
 231.66100000000
  21
 418.37600000000
  31
0.0
   0
LINE
   5
E3
 100
AcDbEntity
   8
LEVEL002
 100
AcDbLine
   6
CONTINUOUS
  62
7
  10
 231.66100000000
  20
 418.37600000000
  30
0.0
  11
 231.75300000000
  21
 418.41500000000
  31
0.0
   0
LINE
   5
E4
 100
AcDbEntity
   8
LEVEL002
 100
AcDbLine
   6
CONTINUOUS
  62
7
  10
 231.75300000000
  20
 418.41500000000
  30
0.0
  11
 231.84200000000
  21
 418.45500000000
  31
0.0
   0
LINE
   5
E5
 100
AcDbEntity
   8
LEVEL002
 100
AcDbLine
   6
CONTINUOUS
  62
7
  10
 231.84200000000
  20
 418.45500000000
  30
0.0
  11
 231.92900000000
  21
 418.49800000000
  31
0.0
   0
LINE
   5
E6
 100
AcDbEntity
   8
LEVEL002
 100
AcDbLine
   6
CONTINUOUS
  62
7
  10
 231.92900000000
  20
 418.49800000000
  30
0.0
  11
 232.01400000000
  21
 418.54300000000
  31
0.0
   0
LINE
   5
E7
 100
AcDbEntity
   8
LEVEL002
 100
AcDbLine
   6
CONTINUOUS
  62
7
  10
 232.01400000000
  20
 418.54300000000
  30
0.0
  11
 232.09600000000
  21
 418.59000000000
  31
0.0
   0
LINE
   5
E8
 100
AcDbEntity
   8
LEVEL002
 100
AcDbLine
   6
CONTINUOUS
  62
7
  10
 232.09600000000
  20
 418.59000000000
  30
0.0
  11
 232.17400000000
  21
 418.63800000000
  31
0.0
   0
LINE
   5
E9
 100
AcDbEntity
   8
LEVEL002
 100
AcDbLine
   6
CONTINUOUS
  62
7
  10
 232.17400000000
  20
 418.63800000000
  30
0.0
  11
 232.25000000000
  21
 418.68900000000
  31
0.0
   0
LINE
   5
EA
 100
AcDbEntity
   8
LEVEL002
 100
AcDbLine
   6
CONTINUOUS
  62
7
  10
 232.25000000000
  20
 418.68900000000
  30
0.0
  11
 232.32200000000
  21
 418.74100000000
  31
0.0
   0
LINE
   5
EB
 100
AcDbEntity
   8
LEVEL002
 100
AcDbLine
   6
CONTINUOUS
  62
7
  10
 232.32200000000
  20
 418.74100000000
  30
0.0
  11
 232.39200000000
  21
 418.79500000000
  31
0.0
   0
LINE
   5
EC
 100
AcDbEntity
   8
LEVEL002
 100
AcDbLine
   6
CONTINUOUS
  62
7
  10
 232.39200000000
  20
 418.79500000000
  30
0.0
  11
 232.45800000000
  21
 418.85000000000
  31
0.0
   0
LINE
   5
ED
 100
AcDbEntity
   8
LEVEL002
 100
AcDbLine
   6
CONTINUOUS
  62
7
  10
 232.45800000000
  20
 418.85000000000
  30
0.0
  11
 232.52000000000
  21
 418.90700000000
  31
0.0
   0
LINE
   5
EE
 100
AcDbEntity
   8
LEVEL002
 100
AcDbLine
   6
CONTINUOUS
  62
7
  10
 232.52000000000
  20
 418.90700000000
  30
0.0
  11
 232.57900000000
  21
 418.96600000000
  31
0.0
   0
LINE
   5
EF
 100
AcDbEntity
   8
LEVEL002
 100
AcDbLine
   6
CONTINUOUS
  62
7
  10
 232.57900000000
  20
 418.96600000000
  30
0.0
  11
 232.63500000000
  21
 419.02600000000
  31
0.0
   0
LINE
   5
F0
 100
AcDbEntity
   8
LEVEL002
 100
AcDbLine
   6
CONTINUOUS
  62
7
  10
 232.63500000000
  20
 419.02600000000
  30
0.0
  11
 232.68600000000
  21
 419.08700000000
  31
0.0
   0
LINE
   5
F1
 100
AcDbEntity
   8
LEVEL002
 100
AcDbLine
   6
CONTINUOUS
  62
7
  10
 232.68600000000
  20
 419.08700000000
  30
0.0
  11
 232.73400000000
  21
 419.14900000000
  31
0.0
   0
LINE
   5
F2
 100
AcDbEntity
   8
LEVEL002
 100
AcDbLine
   6
CONTINUOUS
  62
7
  10
 232.73400000000
  20
 419.14900000000
  30
0.0
  11
 232.77900000000
  21
 419.21200000000
  31
0.0
   0
LINE
   5
F3
 100
AcDbEntity
   8
LEVEL002
 100
AcDbLine
   6
CONTINUOUS
  62
7
  10
 232.77900000000
  20
 419.21200000000
  30
0.0
  11
 232.81900000000
  21
 419.27700000000
  31
0.0
   0
LINE
   5
F4
 100
AcDbEntity
   8
LEVEL002
 100
AcDbLine
   6
CONTINUOUS
  62
7
  10
 232.81900000000
  20
 419.27700000000
  30
0.0
  11
 232.85500000000
  21
 419.34200000000
  31
0.0
   0
LINE
   5
F5
 100
AcDbEntity
   8
LEVEL002
 100
AcDbLine
   6
CONTINUOUS
  62
7
  10
 232.85500000000
  20
 419.34200000000
  30
0.0
  11
 232.88800000000
  21
 419.40900000000
  31
0.0
   0
LINE
   5
F6
 100
AcDbEntity
   8
LEVEL002
 100
AcDbLine
   6
CONTINUOUS
  62
7
  10
 232.88800000000
  20
 419.40900000000
  30
0.0
  11
 232.91600000000
  21
 419.47600000000
  31
0.0
   0
LINE
   5
F7
 100
AcDbEntity
   8
LEVEL002
 100
AcDbLine
   6
CONTINUOUS
  62
7
  10
 235.00000000000
  20
 424.73200000000
  30
0.0
  11
 232.91600000000
  21
 419.47600000000
  31
0.0
   0
LINE
   5
F8
 100
AcDbEntity
   8
LEVEL002
 100
AcDbLine
   6
CONTINUOUS
  62
7
  10
 225.00000000000
  20
 424.73200000000
  30
0.0
  11
 227.06200000000
  21
 419.59500000000
  31
0.0
   0
LINE
   5
F9
 100
AcDbEntity
   8
LEVEL002
 100
AcDbLine
   6
CONTINUOUS
  62
7
  10
 225.00000000000
  20
 426.94100000000
  30
0.0
  11
 220.35100000000
  21
 425.95700000000
  31
0.0
   0
LINE
   5
FA
 100
AcDbEntity
   8
LEVEL002
 100
AcDbLine
   6
CONTINUOUS
  62
7
  10
 235.00000000000
  20
 426.94100000000
  30
0.0
  11
 239.64900000000
  21
 425.95700000000
  31
0.0
   0
LINE
   5
FB
 100
AcDbEntity
   8
LEVEL002
 100
AcDbLine
   6
CONTINUOUS
  62
7
  10
 235.00000000000
  20
 426.00000000000
  30
0.0
  11
 239.23500000000
  21
 426.00000000000
  31
0.0
   0
LINE
   5
FC
 100
AcDbEntity
   8
LEVEL002
 100
AcDbLine
   6
CONTINUOUS
  62
7
  10
 220.76500000000
  20
 426.00000000000
  30
0.0
  11
 225.00000000000
  21
 426.00000000000
  31
0.0
   0
LINE
   5
FD
 100
AcDbEntity
   8
LEVEL002
 100
AcDbLine
   6
CONTINUOUS
  62
7
  10
 241.97100000000
  20
 420.00000000000
  30
0.0
  11
 288.36000000000
  21
 420.00000000000
  31
0.0
   0
LINE
   5
FE
 100
AcDbEntity
   8
LEVEL002
 100
AcDbLine
   6
CONTINUOUS
  62
7
  10
 171.64000000000
  20
 420.00000000000
  30
0.0
  11
 218.02900000000
  21
 420.00000000000
  31
0.0
   0
LINE
   5
FF
 100
AcDbEntity
   8
LEVEL002
 100
AcDbLine
   6
CONTINUOUS
  62
7
  10
 216.00000000000
  20
 400.00000000000
  30
0.0
  11
 150.11700000000
  21
 400.00000000000
  31
0.0
   0
LINE
   5
100
 100
AcDbEntity
   8
LEVEL002
 100
AcDbLine
   6
CONTINUOUS
  62
7
  10
 309.88300000000
  20
 400.00000000000
  30
0.0
  11
 244.00000000000
  21
 400.00000000000
  31
0.0
   0
LINE
   5
101
 100
AcDbEntity
   8
LEVEL002
 100
AcDbLine
   6
CONTINUOUS
  62
7
  10
 216.00000000000
  20
 398.24300000000
  30
0.0
  11
 223.18500000000
  21
 380.02700000000
  31
0.0
   0
LINE
   5
102
 100
AcDbEntity
   8
LEVEL002
 100
AcDbLine
   6
CONTINUOUS
  62
7
  10
 244.00000000000
  20
 398.24300000000
  30
0.0
  11
 236.78400000000
  21
 379.96900000000
  31
0.0
   0
LINE
   5
103
 100
AcDbEntity
   8
LEVEL002
 100
AcDbLine
   6
CONTINUOUS
  62
7
  10
 223.18500000000
  20
 380.02700000000
  30
0.0
  11
 223.25000000000
  21
 379.87300000000
  31
0.0
   0
LINE
   5
104
 100
AcDbEntity
   8
LEVEL002
 100
AcDbLine
   6
CONTINUOUS
  62
7
  10
 223.25000000000
  20
 379.87300000000
  30
0.0
  11
 223.32300000000
  21
 379.72000000000
  31
0.0
   0
LINE
   5
105
 100
AcDbEntity
   8
LEVEL002
 100
AcDbLine
   6
CONTINUOUS
  62
7
  10
 223.32300000000
  20
 379.72000000000
  30
0.0
  11
 223.40600000000
  21
 379.56900000000
  31
0.0
   0
LINE
   5
106
 100
AcDbEntity
   8
LEVEL002
 100
AcDbLine
   6
CONTINUOUS
  62
7
  10
 223.40600000000
  20
 379.56900000000
  30
0.0
  11
 223.49800000000
  21
 379.42100000000
  31
0.0
   0
LINE
   5
107
 100
AcDbEntity
   8
LEVEL002
 100
AcDbLine
   6
CONTINUOUS
  62
7
  10
 223.49800000000
  20
 379.42100000000
  30
0.0
  11
 223.59800000000
  21
 379.27400000000
  31
0.0
   0
LINE
   5
108
 100
AcDbEntity
   8
LEVEL002
 100
AcDbLine
   6
CONTINUOUS
  62
7
  10
 223.59800000000
  20
 379.27400000000
  30
0.0
  11
 223.70800000000
  21
 379.13000000000
  31
0.0
   0
LINE
   5
109
 100
AcDbEntity
   8
LEVEL002
 100
AcDbLine
   6
CONTINUOUS
  62
7
  10
 223.70800000000
  20
 379.13000000000
  30
0.0
  11
 223.82600000000
  21
 378.98800000000
  31
0.0
   0
LINE
   5
10A
 100
AcDbEntity
   8
LEVEL002
 100
AcDbLine
   6
CONTINUOUS
  62
7
  10
 223.82600000000
  20
 378.98800000000
  30
0.0
  11
 223.95300000000
  21
 378.84900000000
  31
0.0
   0
LINE
   5
10B
 100
AcDbEntity
   8
LEVEL002
 100
AcDbLine
   6
CONTINUOUS
  62
7
  10
 223.95300000000
  20
 378.84900000000
  30
0.0
  11
 224.08800000000
  21
 378.71300000000
  31
0.0
   0
LINE
   5
10C
 100
AcDbEntity
   8
LEVEL002
 100
AcDbLine
   6
CONTINUOUS
  62
7
  10
 224.08800000000
  20
 378.71300000000
  30
0.0
  11
 224.23200000000
  21
 378.58100000000
  31
0.0
   0
LINE
   5
10D
 100
AcDbEntity
   8
LEVEL002
 100
AcDbLine
   6
CONTINUOUS
  62
7
  10
 224.23200000000
  20
 378.58100000000
  30
0.0
  11
 224.38300000000
  21
 378.45200000000
  31
0.0
   0
LINE
   5
10E
 100
AcDbEntity
   8
LEVEL002
 100
AcDbLine
   6
CONTINUOUS
  62
7
  10
 224.38300000000
  20
 378.45200000000
  30
0.0
  11
 224.54200000000
  21
 378.32600000000
  31
0.0
   0
LINE
   5
10F
 100
AcDbEntity
   8
LEVEL002
 100
AcDbLine
   6
CONTINUOUS
  62
7
  10
 224.54200000000
  20
 378.32600000000
  30
0.0
  11
 224.70900000000
  21
 378.20400000000
  31
0.0
   0
LINE
   5
110
 100
AcDbEntity
   8
LEVEL002
 100
AcDbLine
   6
CONTINUOUS
  62
7
  10
 224.70900000000
  20
 378.20400000000
  30
0.0
  11
 224.88300000000
  21
 378.08600000000
  31
0.0
   0
LINE
   5
111
 100
AcDbEntity
   8
LEVEL002
 100
AcDbLine
   6
CONTINUOUS
  62
7
  10
 224.88300000000
  20
 378.08600000000
  30
0.0
  11
 225.06400000000
  21
 377.97200000000
  31
0.0
   0
LINE
   5
112
 100
AcDbEntity
   8
LEVEL002
 100
AcDbLine
   6
CONTINUOUS
  62
7
  10
 225.06400000000
  20
 377.97200000000
  30
0.0
  11
 225.25200000000
  21
 377.86200000000
  31
0.0
   0
LINE
   5
113
 100
AcDbEntity
   8
LEVEL002
 100
AcDbLine
   6
CONTINUOUS
  62
7
  10
 225.25200000000
  20
 377.86200000000
  30
0.0
  11
 225.44600000000
  21
 377.75600000000
  31
0.0
   0
LINE
   5
114
 100
AcDbEntity
   8
LEVEL002
 100
AcDbLine
   6
CONTINUOUS
  62
7
  10
 225.44600000000
  20
 377.75600000000
  30
0.0
  11
 225.64700000000
  21
 377.65500000000
  31
0.0
   0
LINE
   5
115
 100
AcDbEntity
   8
LEVEL002
 100
AcDbLine
   6
CONTINUOUS
  62
7
  10
 225.64700000000
  20
 377.65500000000
  30
0.0
  11
 225.85300000000
  21
 377.55900000000
  31
0.0
   0
LINE
   5
116
 100
AcDbEntity
   8
LEVEL002
 100
AcDbLine
   6
CONTINUOUS
  62
7
  10
 225.85300000000
  20
 377.55900000000
  30
0.0
  11
 226.06600000000
  21
 377.46700000000
  31
0.0
   0
LINE
   5
117
 100
AcDbEntity
   8
LEVEL002
 100
AcDbLine
   6
CONTINUOUS
  62
7
  10
 226.06600000000
  20
 377.46700000000
  30
0.0
  11
 226.28300000000
  21
 377.38100000000
  31
0.0
   0
LINE
   5
118
 100
AcDbEntity
   8
LEVEL002
 100
AcDbLine
   6
CONTINUOUS
  62
7
  10
 226.28300000000
  20
 377.38100000000
  30
0.0
  11
 226.50600000000
  21
 377.29900000000
  31
0.0
   0
LINE
   5
119
 100
AcDbEntity
   8
LEVEL002
 100
AcDbLine
   6
CONTINUOUS
  62
7
  10
 226.50600000000
  20
 377.29900000000
  30
0.0
  11
 226.73400000000
  21
 377.22200000000
  31
0.0
   0
LINE
   5
11A
 100
AcDbEntity
   8
LEVEL002
 100
AcDbLine
   6
CONTINUOUS
  62
7
  10
 226.73400000000
  20
 377.22200000000
  30
0.0
  11
 226.96600000000
  21
 377.15100000000
  31
0.0
   0
LINE
   5
11B
 100
AcDbEntity
   8
LEVEL002
 100
AcDbLine
   6
CONTINUOUS
  62
7
  10
 226.96600000000
  20
 377.15100000000
  30
0.0
  11
 227.20300000000
  21
 377.08500000000
  31
0.0
   0
LINE
   5
11C
 100
AcDbEntity
   8
LEVEL002
 100
AcDbLine
   6
CONTINUOUS
  62
7
  10
 227.20300000000
  20
 377.08500000000
  30
0.0
  11
 227.44300000000
  21
 377.02500000000
  31
0.0
   0
LINE
   5
11D
 100
AcDbEntity
   8
LEVEL002
 100
AcDbLine
   6
CONTINUOUS
  62
7
  10
 227.44300000000
  20
 377.02500000000
  30
0.0
  11
 227.68700000000
  21
 376.97000000000
  31
0.0
   0
LINE
   5
11E
 100
AcDbEntity
   8
LEVEL002
 100
AcDbLine
   6
CONTINUOUS
  62
7
  10
 227.68700000000
  20
 376.97000000000
  30
0.0
  11
 227.93400000000
  21
 376.92000000000
  31
0.0
   0
LINE
   5
11F
 100
AcDbEntity
   8
LEVEL002
 100
AcDbLine
   6
CONTINUOUS
  62
7
  10
 227.93400000000
  20
 376.92000000000
  30
0.0
  11
 228.18400000000
  21
 376.87600000000
  31
0.0
   0
LINE
   5
120
 100
AcDbEntity
   8
LEVEL002
 100
AcDbLine
   6
CONTINUOUS
  62
7
  10
 228.18400000000
  20
 376.87600000000
  30
0.0
  11
 228.43700000000
  21
 376.83800000000
  31
0.0
   0
LINE
   5
121
 100
AcDbEntity
   8
LEVEL002
 100
AcDbLine
   6
CONTINUOUS
  62
7
  10
 228.43700000000
  20
 376.83800000000
  30
0.0
  11
 228.69100000000
  21
 376.80600000000
  31
0.0
   0
LINE
   5
122
 100
AcDbEntity
   8
LEVEL002
 100
AcDbLine
   6
CONTINUOUS
  62
7
  10
 228.69100000000
  20
 376.80600000000
  30
0.0
  11
 228.94800000000
  21
 376.77900000000
  31
0.0
   0
LINE
   5
123
 100
AcDbEntity
   8
LEVEL002
 100
AcDbLine
   6
CONTINUOUS
  62
7
  10
 228.94800000000
  20
 376.77900000000
  30
0.0
  11
 229.20500000000
  21
 376.75900000000
  31
0.0
   0
LINE
   5
124
 100
AcDbEntity
   8
LEVEL002
 100
AcDbLine
   6
CONTINUOUS
  62
7
  10
 229.20500000000
  20
 376.75900000000
  30
0.0
  11
 229.46400000000
  21
 376.74400000000
  31
0.0
   0
LINE
   5
125
 100
AcDbEntity
   8
LEVEL002
 100
AcDbLine
   6
CONTINUOUS
  62
7
  10
 229.46400000000
  20
 376.74400000000
  30
0.0
  11
 229.72400000000
  21
 376.73500000000
  31
0.0
   0
LINE
   5
126
 100
AcDbEntity
   8
LEVEL002
 100
AcDbLine
   6
CONTINUOUS
  62
7
  10
 229.72400000000
  20
 376.73500000000
  30
0.0
  11
 229.98400000000
  21
 376.73200000000
  31
0.0
   0
LINE
   5
127
 100
AcDbEntity
   8
LEVEL002
 100
AcDbLine
   6
CONTINUOUS
  62
7
  10
 229.98400000000
  20
 376.73200000000
  30
0.0
  11
 230.24400000000
  21
 376.73500000000
  31
0.0
   0
LINE
   5
128
 100
AcDbEntity
   8
LEVEL002
 100
AcDbLine
   6
CONTINUOUS
  62
7
  10
 230.24400000000
  20
 376.73500000000
  30
0.0
  11
 230.50400000000
  21
 376.74400000000
  31
0.0
   0
LINE
   5
129
 100
AcDbEntity
   8
LEVEL002
 100
AcDbLine
   6
CONTINUOUS
  62
7
  10
 230.50400000000
  20
 376.74400000000
  30
0.0
  11
 230.76300000000
  21
 376.75900000000
  31
0.0
   0
LINE
   5
12A
 100
AcDbEntity
   8
LEVEL002
 100
AcDbLine
   6
CONTINUOUS
  62
7
  10
 230.76300000000
  20
 376.75900000000
  30
0.0
  11
 231.02100000000
  21
 376.78000000000
  31
0.0
   0
LINE
   5
12B
 100
AcDbEntity
   8
LEVEL002
 100
AcDbLine
   6
CONTINUOUS
  62
7
  10
 231.02100000000
  20
 376.78000000000
  30
0.0
  11
 231.27800000000
  21
 376.80600000000
  31
0.0
   0
LINE
   5
12C
 100
AcDbEntity
   8
LEVEL002
 100
AcDbLine
   6
CONTINUOUS
  62
7
  10
 231.27800000000
  20
 376.80600000000
  30
0.0
  11
 231.53200000000
  21
 376.83800000000
  31
0.0
   0
LINE
   5
12D
 100
AcDbEntity
   8
LEVEL002
 100
AcDbLine
   6
CONTINUOUS
  62
7
  10
 231.53200000000
  20
 376.83800000000
  30
0.0
  11
 231.78500000000
  21
 376.87700000000
  31
0.0
   0
LINE
   5
12E
 100
AcDbEntity
   8
LEVEL002
 100
AcDbLine
   6
CONTINUOUS
  62
7
  10
 231.78500000000
  20
 376.87700000000
  30
0.0
  11
 232.03500000000
  21
 376.92000000000
  31
0.0
   0
LINE
   5
12F
 100
AcDbEntity
   8
LEVEL002
 100
AcDbLine
   6
CONTINUOUS
  62
7
  10
 232.03500000000
  20
 376.92000000000
  30
0.0
  11
 232.28300000000
  21
 376.97000000000
  31
0.0
   0
LINE
   5
130
 100
AcDbEntity
   8
LEVEL002
 100
AcDbLine
   6
CONTINUOUS
  62
7
  10
 232.28300000000
  20
 376.97000000000
  30
0.0
  11
 232.52700000000
  21
 377.02500000000
  31
0.0
   0
LINE
   5
131
 100
AcDbEntity
   8
LEVEL002
 100
AcDbLine
   6
CONTINUOUS
  62
7
  10
 232.52700000000
  20
 377.02500000000
  30
0.0
  11
 232.76800000000
  21
 377.08600000000
  31
0.0
   0
LINE
   5
132
 100
AcDbEntity
   8
LEVEL002
 100
AcDbLine
   6
CONTINUOUS
  62
7
  10
 232.76800000000
  20
 377.08600000000
  30
0.0
  11
 233.00500000000
  21
 377.15200000000
  31
0.0
   0
LINE
   5
133
 100
AcDbEntity
   8
LEVEL002
 100
AcDbLine
   6
CONTINUOUS
  62
7
  10
 233.00500000000
  20
 377.15200000000
  30
0.0
  11
 233.23800000000
  21
 377.22300000000
  31
0.0
   0
LINE
   5
134
 100
AcDbEntity
   8
LEVEL002
 100
AcDbLine
   6
CONTINUOUS
  62
7
  10
 233.23800000000
  20
 377.22300000000
  30
0.0
  11
 233.46600000000
  21
 377.29900000000
  31
0.0
   0
LINE
   5
135
 100
AcDbEntity
   8
LEVEL002
 100
AcDbLine
   6
CONTINUOUS
  62
7
  10
 233.46600000000
  20
 377.29900000000
  30
0.0
  11
 233.69000000000
  21
 377.38100000000
  31
0.0
   0
LINE
   5
136
 100
AcDbEntity
   8
LEVEL002
 100
AcDbLine
   6
CONTINUOUS
  62
7
  10
 233.69000000000
  20
 377.38100000000
  30
0.0
  11
 233.90800000000
  21
 377.46800000000
  31
0.0
   0
LINE
   5
137
 100
AcDbEntity
   8
LEVEL002
 100
AcDbLine
   6
CONTINUOUS
  62
7
  10
 233.90800000000
  20
 377.46800000000
  30
0.0
  11
 234.12100000000
  21
 377.56000000000
  31
0.0
   0
LINE
   5
138
 100
AcDbEntity
   8
LEVEL002
 100
AcDbLine
   6
CONTINUOUS
  62
7
  10
 234.12100000000
  20
 377.56000000000
  30
0.0
  11
 234.32900000000
  21
 377.65600000000
  31
0.0
   0
LINE
   5
139
 100
AcDbEntity
   8
LEVEL002
 100
AcDbLine
   6
CONTINUOUS
  62
7
  10
 234.32900000000
  20
 377.65600000000
  30
0.0
  11
 234.53000000000
  21
 377.75700000000
  31
0.0
   0
LINE
   5
13A
 100
AcDbEntity
   8
LEVEL002
 100
AcDbLine
   6
CONTINUOUS
  62
7
  10
 234.53000000000
  20
 377.75700000000
  30
0.0
  11
 234.72500000000
  21
 377.86300000000
  31
0.0
   0
LINE
   5
13B
 100
AcDbEntity
   8
LEVEL002
 100
AcDbLine
   6
CONTINUOUS
  62
7
  10
 234.72500000000
  20
 377.86300000000
  30
0.0
  11
 234.91400000000
  21
 377.97200000000
  31
0.0
   0
LINE
   5
13C
 100
AcDbEntity
   8
LEVEL002
 100
AcDbLine
   6
CONTINUOUS
  62
7
  10
 234.91400000000
  20
 377.97200000000
  30
0.0
  11
 235.09600000000
  21
 378.08700000000
  31
0.0
   0
LINE
   5
13D
 100
AcDbEntity
   8
LEVEL002
 100
AcDbLine
   6
CONTINUOUS
  62
7
  10
 235.09600000000
  20
 378.08700000000
  30
0.0
  11
 235.27000000000
  21
 378.20500000000
  31
0.0
   0
LINE
   5
13E
 100
AcDbEntity
   8
LEVEL002
 100
AcDbLine
   6
CONTINUOUS
  62
7
  10
 235.27000000000
  20
 378.20500000000
  30
0.0
  11
 235.43800000000
  21
 378.32700000000
  31
0.0
   0
LINE
   5
13F
 100
AcDbEntity
   8
LEVEL002
 100
AcDbLine
   6
CONTINUOUS
  62
7
  10
 235.43800000000
  20
 378.32700000000
  30
0.0
  11
 235.59800000000
  21
 378.45200000000
  31
0.0
   0
LINE
   5
140
 100
AcDbEntity
   8
LEVEL002
 100
AcDbLine
   6
CONTINUOUS
  62
7
  10
 235.59800000000
  20
 378.45200000000
  30
0.0
  11
 235.75000000000
  21
 378.58200000000
  31
0.0
   0
LINE
   5
141
 100
AcDbEntity
   8
LEVEL002
 100
AcDbLine
   6
CONTINUOUS
  62
7
  10
 235.75000000000
  20
 378.58200000000
  30
0.0
  11
 235.89500000000
  21
 378.71400000000
  31
0.0
   0
LINE
   5
142
 100
AcDbEntity
   8
LEVEL002
 100
AcDbLine
   6
CONTINUOUS
  62
7
  10
 235.89500000000
  20
 378.71400000000
  30
0.0
  11
 236.03100000000
  21
 378.85000000000
  31
0.0
   0
LINE
   5
143
 100
AcDbEntity
   8
LEVEL002
 100
AcDbLine
   6
CONTINUOUS
  62
7
  10
 236.03100000000
  20
 378.85000000000
  30
0.0
  11
 236.15900000000
  21
 378.98900000000
  31
0.0
   0
LINE
   5
144
 100
AcDbEntity
   8
LEVEL002
 100
AcDbLine
   6
CONTINUOUS
  62
7
  10
 236.15900000000
  20
 378.98900000000
  30
0.0
  11
 236.27800000000
  21
 379.13100000000
  31
0.0
   0
LINE
   5
145
 100
AcDbEntity
   8
LEVEL002
 100
AcDbLine
   6
CONTINUOUS
  62
7
  10
 236.27800000000
  20
 379.13100000000
  30
0.0
  11
 236.38900000000
  21
 379.27500000000
  31
0.0
   0
LINE
   5
146
 100
AcDbEntity
   8
LEVEL002
 100
AcDbLine
   6
CONTINUOUS
  62
7
  10
 236.38900000000
  20
 379.27500000000
  30
0.0
  11
 236.49100000000
  21
 379.42200000000
  31
0.0
   0
LINE
   5
147
 100
AcDbEntity
   8
LEVEL002
 100
AcDbLine
   6
CONTINUOUS
  62
7
  10
 236.49100000000
  20
 379.42200000000
  30
0.0
  11
 236.58400000000
  21
 379.57000000000
  31
0.0
   0
LINE
   5
148
 100
AcDbEntity
   8
LEVEL002
 100
AcDbLine
   6
CONTINUOUS
  62
7
  10
 236.58400000000
  20
 379.57000000000
  30
0.0
  11
 236.66700000000
  21
 379.72100000000
  31
0.0
   0
LINE
   5
149
 100
AcDbEntity
   8
LEVEL002
 100
AcDbLine
   6
CONTINUOUS
  62
7
  10
 236.66700000000
  20
 379.72100000000
  30
0.0
  11
 236.74200000000
  21
 379.87400000000
  31
0.0
   0
LINE
   5
14A
 100
AcDbEntity
   8
LEVEL002
 100
AcDbLine
   6
CONTINUOUS
  62
7
  10
 236.74200000000
  20
 379.87400000000
  30
0.0
  11
 236.80700000000
  21
 380.02800000000
  31
0.0
   0
LINE
   5
14B
 100
AcDbEntity
   8
LEVEL002
 100
AcDbLine
   6
CONTINUOUS
  62
7
  10
 216.00000000000
  20
 417.00000000000
  30
0.0
  11
 216.00000000000
  21
 398.24300000000
  31
0.0
   0
LINE
   5
14C
 100
AcDbEntity
   8
LEVEL002
 100
AcDbLine
   6
CONTINUOUS
  62
7
  10
 244.00000000000
  20
 417.00000000000
  30
0.0
  11
 244.00000000000
  21
 398.24300000000
  31
0.0
   0
LINE
   5
14D
 100
AcDbEntity
   8
LEVEL002
 100
AcDbLine
   6
CONTINUOUS
  62
7
  10
 216.00000000000
  20
 417.00000000000
  30
0.0
  11
 244.00000000000
  21
 417.00000000000
  31
0.0
   0
ARC
   5
14E
 100
AcDbEntity
   8
LEVEL002
   6
CONTINUOUS
  62
7
 100
AcDbCircle
  10
 230.00000000000
  20
 463.00000000000
  30
0.0
  40
 5.0000000000000
 100
AcDbArc
  50
0.0
  51
 180.00000000000
   0
LINE
   5
14F
 100
AcDbEntity
   8
LEVEL002
 100
AcDbLine
   6
CONTINUOUS
  62
7
  10
 235.00000000000
  20
 463.00000000000
  30
0.0
  11
 235.00000000000
  21
 424.73200000000
  31
0.0
   0
LINE
   5
150
 100
AcDbEntity
   8
LEVEL002
 100
AcDbLine
   6
CONTINUOUS
  62
7
  10
 225.00000000000
  20
 463.00000000000
  30
0.0
  11
 225.00000000000
  21
 424.73200000000
  31
0.0
   0
LINE
   5
151
 100
AcDbEntity
   8
LEVEL002
 100
AcDbLine
   6
CONTINUOUS
  62
7
  10
 217.75700000000
  20
 417.00000000000
  30
0.0
  11
 242.62000000000
  21
 417.00000000000
  31
0.0
   0
LINE
   5
152
 100
AcDbEntity
   8
LEVEL002
 100
AcDbLine
   6
CONTINUOUS
  62
7
  10
 217.50000000000
  20
 417.00000000000
  30
0.0
  11
 242.50000000000
  21
 417.00000000000
  31
0.0
   0
ARC
   5
153
 100
AcDbEntity
   8
LEVEL002
   6
CONTINUOUS
  62
7
 100
AcDbCircle
  10
 239.23500000000
  20
 424.00000000000
  30
0.0
  40
 2.0000000000000
 100
AcDbArc
  50
 9.9997999999922
  51
 90.002999999951
   0
LINE
   5
154
 100
AcDbEntity
   8
LEVEL002
 100
AcDbLine
   6
CONTINUOUS
  62
7
  10
 242.50000000000
  20
 417.00000000000
  30
0.0
  11
 241.20500000000
  21
 424.34700000000
  31
0.0
   0
ARC
   5
155
 100
AcDbEntity
   8
LEVEL002
   6
CONTINUOUS
  62
7
 100
AcDbCircle
  10
 220.76500000000
  20
 424.00000000000
  30
0.0
  40
 2.0000000000000
 100
AcDbArc
  50
 90.000999999995
  51
 170.00399999997
   0
LINE
   5
156
 100
AcDbEntity
   8
LEVEL002
 100
AcDbLine
   6
CONTINUOUS
  62
7
  10
 217.50000000000
  20
 417.00000000000
  30
0.0
  11
 218.79600000000
  21
 424.34700000000
  31
0.0
   0
ARC
   5
157
 100
AcDbEntity
   8
LEVEL002
   6
CONTINUOUS
  62
7
 100
AcDbCircle
  10
 150.11700000000
  20
 370.00000000000
  30
0.0
  40
 30.000000000000
 100
AcDbArc
  50
 90.000000000000
  51
 170.44000000000
   0
LINE
   5
158
 100
AcDbEntity
   8
LEVEL002
 100
AcDbLine
   6
CONTINUOUS
  62
7
  10
 120.53400000000
  20
 374.98200000000
  30
0.0
  11
 116.98000000000
  21
 355.08700000000
  31
0.0
   0
LINE
   5
159
 100
AcDbEntity
   8
LEVEL002
 100
AcDbLine
   6
CONTINUOUS
  62
7
  10
 110.25000000000
  20
 355.00300000000
  30
0.0
  11
 212.41100000000
  21
 356.28000000000
  31
0.0
   0
LINE
   5
15A
 100
AcDbEntity
   8
LEVEL002
 100
AcDbLine
   6
CONTINUOUS
  62
7
  10
 110.25000000000
  20
 355.00300000000
  30
0.0
  11
 110.25000000000
  21
 244.97800000000
  31
0.0
   0
ARC
   5
15B
 100
AcDbEntity
   8
LEVEL002
   6
CONTINUOUS
  62
7
 100
AcDbCircle
  10
 110.00000000000
  20
 234.98100000000
  30
0.0
  40
 10.000000000000
 100
AcDbArc
  50
 0.10886200000004
  51
 88.567600000002
   0
LINE
   5
15C
 100
AcDbEntity
   8
LEVEL002
 100
AcDbLine
   6
CONTINUOUS
  62
7
  10
 349.75000000000
  20
 355.00300000000
  30
0.0
  11
 349.75000000000
  21
 244.97800000000
  31
0.0
   0
LINE
   5
15D
 100
AcDbEntity
   8
LEVEL002
 100
AcDbLine
   6
CONTINUOUS
  62
7
  10
 349.75000000000
  20
 355.00300000000
  30
0.0
  11
 247.59000000000
  21
 356.28000000000
  31
0.0
   0
ARC
   5
15E
 100
AcDbEntity
   8
LEVEL002
   6
CONTINUOUS
  62
7
 100
AcDbCircle
  10
 350.00000000000
  20
 234.98100000000
  30
0.0
  40
 10.000000000000
 100
AcDbArc
  50
 91.432400000000
  51
 179.89100000000
   0
LINE
   5
15F
 100
AcDbEntity
   8
LEVEL002
 100
AcDbLine
   6
CONTINUOUS
  62
7
  10
 339.41500000000
  20
 375.27000000000
  30
0.0
  11
 343.02000000000
  21
 355.08700000000
  31
0.0
   0
LINE
   5
160
 100
AcDbEntity
   8
LEVEL002
 100
AcDbLine
   6
CONTINUOUS
  62
7
  10
 93.653000000000
  20
 280.00000000000
  30
0.0
  11
 93.653000000000
  21
 320.00000000000
  31
0.0
   0
LINE
   5
161
 100
AcDbEntity
   8
LEVEL002
 100
AcDbLine
   6
CONTINUOUS
  62
7
  10
 27.500000000000
  20
 315.72400000000
  30
0.0
  11
 27.500000000000
  21
 283.50000000000
  31
0.0
   0
LINE
   5
162
 100
AcDbEntity
   8
LEVEL002
 100
AcDbLine
   6
CONTINUOUS
  62
7
  10
 28.500000000000
  20
 282.50000000000
  30
0.0
  11
 27.500000000000
  21
 283.50000000000
  31
0.0
   0
LINE
   5
163
 100
AcDbEntity
   8
LEVEL002
 100
AcDbLine
   6
CONTINUOUS
  62
7
  10
 27.500000000000
  20
 320.50000000000
  30
0.0
  11
 27.500000000000
  21
 315.72400000000
  31
0.0
   0
LINE
   5
164
 100
AcDbEntity
   8
LEVEL002
 100
AcDbLine
   6
CONTINUOUS
  62
7
  10
 77.500000000000
  20
 320.50000000000
  30
0.0
  11
 27.500000000000
  21
 320.50000000000
  31
0.0
   0
LINE
   5
165
 100
AcDbEntity
   8
LEVEL002
 100
AcDbLine
   6
CONTINUOUS
  62
7
  10
 77.500000000000
  20
 316.77000000000
  30
0.0
  11
 77.500000000000
  21
 320.50000000000
  31
0.0
   0
LINE
   5
166
 100
AcDbEntity
   8
LEVEL002
 100
AcDbLine
   6
CONTINUOUS
  62
7
  10
 85.500000000000
  20
 316.77000000000
  30
0.0
  11
 28.500000000000
  21
 316.77000000000
  31
0.0
   0
LINE
   5
167
 100
AcDbEntity
   8
LEVEL002
 100
AcDbLine
   6
CONTINUOUS
  62
7
  10
 28.500000000000
  20
 316.77000000000
  30
0.0
  11
 28.500000000000
  21
 282.50000000000
  31
0.0
   0
LINE
   5
168
 100
AcDbEntity
   8
LEVEL002
 100
AcDbLine
   6
CONTINUOUS
  62
7
  10
 85.500000000000
  20
 282.50000000000
  30
0.0
  11
 85.500000000000
  21
 316.77000000000
  31
0.0
   0
LINE
   5
169
 100
AcDbEntity
   8
LEVEL002
 100
AcDbLine
   6
CONTINUOUS
  62
7
  10
 28.500000000000
  20
 316.77000000000
  30
0.0
  11
 27.500000000000
  21
 315.72400000000
  31
0.0
   0
LINE
   5
16A
 100
AcDbEntity
   8
LEVEL002
 100
AcDbLine
   6
CONTINUOUS
  62
7
  10
 85.653000000000
  20
 316.77000000000
  30
0.0
  11
 93.653000000000
  21
 320.00000000000
  31
0.0
   0
LINE
   5
16B
 100
AcDbEntity
   8
LEVEL002
 100
AcDbLine
   6
CONTINUOUS
  62
7
  10
 85.653000000000
  20
 282.50000000000
  30
0.0
  11
 28.500000000000
  21
 282.50000000000
  31
0.0
   0
LINE
   5
16C
 100
AcDbEntity
   8
LEVEL002
 100
AcDbLine
   6
CONTINUOUS
  62
7
  10
 85.653000000000
  20
 282.50000000000
  30
0.0
  11
 93.653000000000
  21
 280.00000000000
  31
0.0
   0
LINE
   5
16D
 100
AcDbEntity
   8
LEVEL002
 100
AcDbLine
   6
CONTINUOUS
  62
7
  10
 366.34700000000
  20
 280.00000000000
  30
0.0
  11
 366.34700000000
  21
 320.00000000000
  31
0.0
   0
LINE
   5
16E
 100
AcDbEntity
   8
LEVEL002
 100
AcDbLine
   6
CONTINUOUS
  62
7
  10
 363.00000000000
  20
 320.00000000000
  30
0.0
  11
 366.34700000000
  21
 320.00000000000
  31
0.0
   0
LINE
   5
16F
 100
AcDbEntity
   8
LEVEL002
 100
AcDbLine
   6
CONTINUOUS
  62
7
  10
 432.50000000000
  20
 315.72400000000
  30
0.0
  11
 432.50000000000
  21
 283.50000000000
  31
0.0
   0
LINE
   5
170
 100
AcDbEntity
   8
LEVEL002
 100
AcDbLine
   6
CONTINUOUS
  62
7
  10
 431.50000000000
  20
 282.50000000000
  30
0.0
  11
 432.50000000000
  21
 283.50000000000
  31
0.0
   0
LINE
   5
171
 100
AcDbEntity
   8
LEVEL002
 100
AcDbLine
   6
CONTINUOUS
  62
7
  10
 432.50000000000
  20
 320.50000000000
  30
0.0
  11
 432.50000000000
  21
 315.72400000000
  31
0.0
   0
LINE
   5
172
 100
AcDbEntity
   8
LEVEL002
 100
AcDbLine
   6
CONTINUOUS
  62
7
  10
 382.50000000000
  20
 320.50000000000
  30
0.0
  11
 432.50000000000
  21
 320.50000000000
  31
0.0
   0
LINE
   5
173
 100
AcDbEntity
   8
LEVEL002
 100
AcDbLine
   6
CONTINUOUS
  62
7
  10
 382.50000000000
  20
 316.77000000000
  30
0.0
  11
 382.50000000000
  21
 320.50000000000
  31
0.0
   0
LINE
   5
174
 100
AcDbEntity
   8
LEVEL002
 100
AcDbLine
   6
CONTINUOUS
  62
7
  10
 431.50000000000
  20
 316.77000000000
  30
0.0
  11
 431.50000000000
  21
 282.50000000000
  31
0.0
   0
LINE
   5
175
 100
AcDbEntity
   8
LEVEL002
 100
AcDbLine
   6
CONTINUOUS
  62
7
  10
 374.50000000000
  20
 282.50000000000
  30
0.0
  11
 374.50000000000
  21
 316.77000000000
  31
0.0
   0
LINE
   5
176
 100
AcDbEntity
   8
LEVEL002
 100
AcDbLine
   6
CONTINUOUS
  62
7
  10
 431.50000000000
  20
 316.77000000000
  30
0.0
  11
 432.50000000000
  21
 315.72400000000
  31
0.0
   0
LINE
   5
177
 100
AcDbEntity
   8
LEVEL002
 100
AcDbLine
   6
CONTINUOUS
  62
7
  10
 374.34700000000
  20
 316.77000000000
  30
0.0
  11
 366.34700000000
  21
 320.00000000000
  31
0.0
   0
ARC
   5
178
 100
AcDbEntity
   8
LEVEL002
   6
CONTINUOUS
  62
7
 100
AcDbCircle
  10
 668.00000000000
  20
 300.00000000000
  30
0.0
  40
 16.500000000000
 100
AcDbArc
  50
 107.59700000000
  51
 72.147199999996
   0
ARC
   5
179
 100
AcDbEntity
   8
LEVEL002
   6
CONTINUOUS
  62
7
 100
AcDbCircle
  10
 99.000000000000
  20
 246.00000000000
  30
0.0
  40
 2.0000000000000
 100
AcDbArc
  50
 180.00000000000
  51
 270.00000000000
   0
LINE
   5
17A
 100
AcDbEntity
   8
LEVEL002
 100
AcDbLine
   6
CONTINUOUS
  62
7
  10
 99.000000000000
  20
 244.00000000000
  30
0.0
  11
 110.00000000000
  21
 244.00000000000
  31
0.0
   0
ARC
   5
17B
 100
AcDbEntity
   8
LEVEL002
   6
CONTINUOUS
  62
7
 100
AcDbCircle
  10
 99.000000000000
  20
 354.00000000000
  30
0.0
  40
 2.0000000000000
 100
AcDbArc
  50
 90.000000000000
  51
 180.00000000000
   0
LINE
   5
17C
 100
AcDbEntity
   8
LEVEL002
 100
AcDbLine
   6
CONTINUOUS
  62
7
  10
 99.000000000000
  20
 356.00000000000
  30
0.0
  11
 110.00000000000
  21
 356.00000000000
  31
0.0
   0
LINE
   5
17D
 100
AcDbEntity
   8
LEVEL002
 100
AcDbLine
   6
CONTINUOUS
  62
7
  10
 374.34700000000
  20
 282.50000000000
  30
0.0
  11
 431.50000000000
  21
 282.50000000000
  31
0.0
   0
LINE
   5
17E
 100
AcDbEntity
   8
LEVEL002
 100
AcDbLine
   6
CONTINUOUS
  62
7
  10
 374.34700000000
  20
 282.50000000000
  30
0.0
  11
 366.34700000000
  21
 280.00000000000
  31
0.0
   0
ARC
   5
17F
 100
AcDbEntity
   8
LEVEL002
   6
CONTINUOUS
  62
7
 100
AcDbCircle
  10
 361.00000000000
  20
 246.00000000000
  30
0.0
  40
 2.0000000000000
 100
AcDbArc
  50
 270.00000000000
  51
0.0
   0
ARC
   5
180
 100
AcDbEntity
   8
LEVEL002
   6
CONTINUOUS
  62
7
 100
AcDbCircle
  10
 361.00000000000
  20
 354.00000000000
  30
0.0
  40
 2.0000000000000
 100
AcDbArc
  50
0.0
  51
 90.000000000000
   0
LINE
   5
181
 100
AcDbEntity
   8
LEVEL002
 100
AcDbLine
   6
CONTINUOUS
  62
7
  10
 361.00000000000
  20
 356.00000000000
  30
0.0
  11
 350.00000000000
  21
 356.00000000000
  31
0.0
   0
LINE
   5
182
 100
AcDbEntity
   8
LEVEL002
 100
AcDbLine
   6
CONTINUOUS
  62
7
  10
 363.00000000000
  20
 280.00000000000
  30
0.0
  11
 366.34700000000
  21
 280.00000000000
  31
0.0
   0
LINE
   5
183
 100
AcDbEntity
   8
LEVEL002
 100
AcDbLine
   6
CONTINUOUS
  62
7
  10
 350.00000000000
  20
 356.00000000000
  30
0.0
  11
 350.00000000000
  21
 244.00000000000
  31
0.0
   0
LINE
   5
184
 100
AcDbEntity
   8
LEVEL002
 100
AcDbLine
   6
CONTINUOUS
  62
7
  10
 361.00000000000
  20
 244.00000000000
  30
0.0
  11
 350.00000000000
  21
 244.00000000000
  31
0.0
   0
LINE
   5
185
 100
AcDbEntity
   8
LEVEL002
 100
AcDbLine
   6
CONTINUOUS
  62
7
  10
 97.000000000000
  20
 280.00000000000
  30
0.0
  11
 93.653000000000
  21
 280.00000000000
  31
0.0
   0
LINE
   5
186
 100
AcDbEntity
   8
LEVEL002
 100
AcDbLine
   6
CONTINUOUS
  62
7
  10
 110.00000000000
  20
 244.00000000000
  30
0.0
  11
 110.00000000000
  21
 356.00000000000
  31
0.0
   0
LINE
   5
187
 100
AcDbEntity
   8
LEVEL002
 100
AcDbLine
   6
CONTINUOUS
  62
7
  10
 97.000000000000
  20
 246.00000000000
  30
0.0
  11
 97.000000000000
  21
 354.00000000000
  31
0.0
   0
LINE
   5
188
 100
AcDbEntity
   8
LEVEL002
 100
AcDbLine
   6
CONTINUOUS
  62
7
  10
 93.653000000000
  20
 320.00000000000
  30
0.0
  11
 97.000000000000
  21
 320.00000000000
  31
0.0
   0
LINE
   5
189
 100
AcDbEntity
   8
LEVEL002
 100
AcDbLine
   6
CONTINUOUS
  62
7
  10
 363.00000000000
  20
 354.00000000000
  30
0.0
  11
 363.00000000000
  21
 246.00000000000
  31
0.0
   0
LINE
   5
18A
 100
AcDbEntity
   8
LEVEL002
 100
AcDbLine
   6
CONTINUOUS
  62
7
  10
 120.00000000000
  20
 235.00000000000
  30
0.0
  11
 120.00000000000
  21
 205.00000000000
  31
0.0
   0
LINE
   5
18B
 100
AcDbEntity
   8
LEVEL002
 100
AcDbLine
   6
CONTINUOUS
  62
7
  10
 340.00000000000
  20
 205.00000000000
  30
0.0
  11
 120.00000000000
  21
 205.00000000000
  31
0.0
   0
LINE
   5
18C
 100
AcDbEntity
   8
LEVEL002
 100
AcDbLine
   6
CONTINUOUS
  62
7
  10
 340.00000000000
  20
 235.00000000000
  30
0.0
  11
 340.00000000000
  21
 205.00000000000
  31
0.0
   0
CIRCLE
   5
18D
 100
AcDbEntity
   8
LEVEL002
 100
AcDbCircle
   6
CONTINUOUS
  62
7
  10
 620.50000000000
  20
 300.00000000000
  30
0.0
  40
 3.5000000000000
   0
CIRCLE
   5
18E
 100
AcDbEntity
   8
LEVEL002
 100
AcDbCircle
   6
CONTINUOUS
  62
7
  10
 620.50000000000
  20
 300.00000000000
  30
0.0
  40
 4.0000000000000
   0
CIRCLE
   5
18F
 100
AcDbEntity
   8
LEVEL002
 100
AcDbCircle
   6
CONTINUOUS
  62
7
  10
 715.50000000000
  20
 300.00000000000
  30
0.0
  40
 3.5000000000000
   0
CIRCLE
   5
190
 100
AcDbEntity
   8
LEVEL002
 100
AcDbCircle
   6
CONTINUOUS
  62
7
  10
 715.50000000000
  20
 300.00000000000
  30
0.0
  40
 4.0000000000000
   0
LINE
   5
191
 100
AcDbEntity
   8
LEVEL002
 100
AcDbLine
   6
CONTINUOUS
  62
7
  10
 789.00000000000
  20
 112.00000000000
  30
0.0
  11
 815.00000000000
  21
 112.00000000000
  31
0.0
   0
LINE
   5
192
 100
AcDbEntity
   8
LEVEL002
 100
AcDbLine
   6
CONTINUOUS
  62
7
  10
 745.00000000000
  20
 112.00000000000
  30
0.0
  11
 771.00000000000
  21
 112.00000000000
  31
0.0
   0
LINE
   5
193
 100
AcDbEntity
   8
LEVEL002
 100
AcDbLine
   6
CONTINUOUS
  62
7
  10
 789.00000000000
  20
 115.00000000000
  30
0.0
  11
 816.50000000000
  21
 115.00000000000
  31
0.0
   0
LINE
   5
194
 100
AcDbEntity
   8
LEVEL002
 100
AcDbLine
   6
CONTINUOUS
  62
7
  10
 743.50000000000
  20
 115.00000000000
  30
0.0
  11
 771.00000000000
  21
 115.00000000000
  31
0.0
   0
LINE
   5
195
 100
AcDbEntity
   8
LEVEL002
 100
AcDbLine
   6
CONTINUOUS
  62
7
  10
 771.00000000000
  20
 147.00000000000
  30
0.0
  11
 742.75000000000
  21
 147.00000000000
  31
0.0
   0
LINE
   5
196
 100
AcDbEntity
   8
LEVEL002
 100
AcDbLine
   6
CONTINUOUS
  62
7
  10
 817.25000000000
  20
 147.00000000000
  30
0.0
  11
 789.00000000000
  21
 147.00000000000
  31
0.0
   0
LINE
   5
197
 100
AcDbEntity
   8
LEVEL002
 100
AcDbLine
   6
CONTINUOUS
  62
7
  10
 789.00000000000
  20
 150.00000000000
  30
0.0
  11
 789.00000000000
  21
 106.87000000000
  31
0.0
   0
LINE
   5
198
 100
AcDbEntity
   8
LEVEL002
 100
AcDbLine
   6
CONTINUOUS
  62
7
  10
 771.00000000000
  20
 150.00000000000
  30
0.0
  11
 771.00000000000
  21
 106.87000000000
  31
0.0
   0
LINE
   5
199
 100
AcDbEntity
   8
LEVEL002
 100
AcDbLine
   6
CONTINUOUS
  62
7
  10
 772.21800000000
  20
 181.00000000000
  30
0.0
  11
 720.00000000000
  21
 181.00000000000
  31
0.0
   0
LINE
   5
19A
 100
AcDbEntity
   8
LEVEL002
 100
AcDbLine
   6
CONTINUOUS
  62
7
  10
 840.00000000000
  20
 181.00000000000
  30
0.0
  11
 787.78200000000
  21
 181.00000000000
  31
0.0
   0
CIRCLE
   5
19B
 100
AcDbEntity
   8
LEVEL002
 100
AcDbCircle
   6
CONTINUOUS
  62
7
  10
 780.00000000000
  20
 185.00000000000
  30
0.0
  40
 8.7500000000000
   0
CIRCLE
   5
19C
 100
AcDbEntity
   8
LEVEL002
 100
AcDbCircle
   6
CONTINUOUS
  62
7
  10
 780.00000000000
  20
 185.00000000000
  30
0.0
  40
 8.0000000000000
   0
CIRCLE
   5
19D
 100
AcDbEntity
   8
LEVEL002
 100
AcDbCircle
   6
CONTINUOUS
  62
7
  10
 780.00000000000
  20
 185.00000000000
  30
0.0
  40
 7.1300000000000
   0
CIRCLE
   5
19E
 100
AcDbEntity
   8
LEVEL002
 100
AcDbCircle
   6
CONTINUOUS
  62
7
  10
 780.00000000000
  20
 165.00000000000
  30
0.0
  40
 8.7500000000000
   0
CIRCLE
   5
19F
 100
AcDbEntity
   8
LEVEL002
 100
AcDbCircle
   6
CONTINUOUS
  62
7
  10
 780.00000000000
  20
 165.00000000000
  30
0.0
  40
 8.0000000000000
   0
CIRCLE
   5
1A0
 100
AcDbEntity
   8
LEVEL002
 100
AcDbCircle
   6
CONTINUOUS
  62
7
  10
 780.00000000000
  20
 165.00000000000
  30
0.0
  40
 7.1300000000000
   0
LINE
   5
1A1
 100
AcDbEntity
   8
LEVEL002
 100
AcDbLine
   6
CONTINUOUS
  62
7
  10
 789.00000000000
  20
 106.87000000000
  30
0.0
  11
 771.00000000000
  21
 106.87000000000
  31
0.0
   0
LINE
   5
1A2
 100
AcDbEntity
   8
LEVEL002
 100
AcDbLine
   6
CONTINUOUS
  62
7
  10
 280.80000000000
  20
 805.50000000000
  30
0.0
  11
 278.50000000000
  21
 810.00000000000
  31
0.0
   0
LINE
   5
1A3
 100
AcDbEntity
   8
LEVEL002
 100
AcDbLine
   6
CONTINUOUS
  62
7
  10
 179.20000000000
  20
 805.50000000000
  30
0.0
  11
 181.50000000000
  21
 810.00000000000
  31
0.0
   0
LINE
   5
1A4
 100
AcDbEntity
   8
LEVEL002
 100
AcDbLine
   6
CONTINUOUS
  62
7
  10
 181.50000000000
  20
 810.00000000000
  30
0.0
  11
 278.50000000000
  21
 810.00000000000
  31
0.0
   0
LINE
   5
1A5
 100
AcDbEntity
   8
LEVEL002
 100
AcDbLine
   6
CONTINUOUS
  62
7
  10
 280.80000000000
  20
 805.50000000000
  30
0.0
  11
 179.20000000000
  21
 805.50000000000
  31
0.0
   0
LINE
   5
1A6
 100
AcDbEntity
   8
LEVEL002
 100
AcDbLine
   6
CONTINUOUS
  62
7
  10
 279.00000000000
  20
 421.00000000000
  30
0.0
  11
 280.00000000000
  21
 424.73200000000
  31
0.0
   0
LINE
   5
1A7
 100
AcDbEntity
   8
LEVEL002
 100
AcDbLine
   6
CONTINUOUS
  62
7
  10
 181.00000000000
  20
 421.00000000000
  30
0.0
  11
 180.00000000000
  21
 424.73200000000
  31
0.0
   0
LINE
   5
1A8
 100
AcDbEntity
   8
LEVEL002
 100
AcDbLine
   6
CONTINUOUS
  62
7
  10
 267.50000000000
  20
 147.00000000000
  30
0.0
  11
 267.25000000000
  21
 147.00000000000
  31
0.0
   0
LINE
   5
1A9
 100
AcDbEntity
   8
LEVEL002
 100
AcDbLine
   6
CONTINUOUS
  62
7
  10
 264.00000000000
  20
 45.000000000000
  30
0.0
  11
 265.00000000000
  21
 46.000000000000
  31
0.0
   0
ARC
   5
1AA
 100
AcDbEntity
   8
LEVEL002
   6
CONTINUOUS
  62
7
 100
AcDbCircle
  10
 265.00000000000
  20
 113.00000000000
  30
0.0
  40
 1.0000000000000
 100
AcDbArc
  50
 180.00000000000
  51
 270.00000000000
   0
ARC
   5
1AB
 100
AcDbEntity
   8
LEVEL002
   6
CONTINUOUS
  62
7
 100
AcDbCircle
  10
 265.00000000000
  20
 114.00000000000
  30
0.0
  40
 1.0000000000000
 100
AcDbArc
  50
 90.000000000000
  51
 180.00000000000
   0
LINE
   5
1AC
 100
AcDbEntity
   8
LEVEL002
 100
AcDbLine
   6
CONTINUOUS
  62
7
  10
 264.00000000000
  20
 113.00000000000
  30
0.0
  11
 264.00000000000
  21
 114.00000000000
  31
0.0
   0
ARC
   5
1AD
 100
AcDbEntity
   8
LEVEL002
   6
CONTINUOUS
  62
7
 100
AcDbCircle
  10
 266.50000000000
  20
 116.00000000000
  30
0.0
  40
 1.0000000000000
 100
AcDbArc
  50
 270.00000000000
  51
0.0
   0
LINE
   5
1AE
 100
AcDbEntity
   8
LEVEL002
 100
AcDbLine
   6
CONTINUOUS
  62
7
  10
 267.50000000000
  20
 116.00000000000
  30
0.0
  11
 267.50000000000
  21
 147.00000000000
  31
0.0
   0
LINE
   5
1AF
 100
AcDbEntity
   8
LEVEL002
 100
AcDbLine
   6
CONTINUOUS
  62
7
  10
 192.50000000000
  20
 147.00000000000
  30
0.0
  11
 192.75000000000
  21
 147.00000000000
  31
0.0
   0
LINE
   5
1B0
 100
AcDbEntity
   8
LEVEL002
 100
AcDbLine
   6
CONTINUOUS
  62
7
  10
 196.00000000000
  20
 45.000000000000
  30
0.0
  11
 195.00000000000
  21
 46.000000000000
  31
0.0
   0
LINE
   5
1B1
 100
AcDbEntity
   8
LEVEL002
 100
AcDbLine
   6
CONTINUOUS
  62
7
  10
 195.00000000000
  20
 46.000000000000
  30
0.0
  11
 195.00000000000
  21
 112.00000000000
  31
0.0
   0
ARC
   5
1B2
 100
AcDbEntity
   8
LEVEL002
   6
CONTINUOUS
  62
7
 100
AcDbCircle
  10
 195.00000000000
  20
 113.00000000000
  30
0.0
  40
 1.0000000000000
 100
AcDbArc
  50
 270.00000000000
  51
0.0
   0
ARC
   5
1B3
 100
AcDbEntity
   8
LEVEL002
   6
CONTINUOUS
  62
7
 100
AcDbCircle
  10
 195.00000000000
  20
 114.00000000000
  30
0.0
  40
 1.0000000000000
 100
AcDbArc
  50
0.0
  51
 90.000000000000
   0
LINE
   5
1B4
 100
AcDbEntity
   8
LEVEL002
 100
AcDbLine
   6
CONTINUOUS
  62
7
  10
 196.00000000000
  20
 113.00000000000
  30
0.0
  11
 196.00000000000
  21
 114.00000000000
  31
0.0
   0
LINE
   5
1B5
 100
AcDbEntity
   8
LEVEL002
 100
AcDbLine
   6
CONTINUOUS
  62
7
  10
 196.00000000000
  20
 45.000000000000
  30
0.0
  11
 196.00000000000
  21
 113.00000000000
  31
0.0
   0
ARC
   5
1B6
 100
AcDbEntity
   8
LEVEL002
   6
CONTINUOUS
  62
7
 100
AcDbCircle
  10
 193.50000000000
  20
 116.00000000000
  30
0.0
  40
 1.0000000000000
 100
AcDbArc
  50
 180.00000000000
  51
 270.00000000000
   0
LINE
   5
1B7
 100
AcDbEntity
   8
LEVEL002
 100
AcDbLine
   6
CONTINUOUS
  62
7
  10
 192.50000000000
  20
 116.00000000000
  30
0.0
  11
 192.50000000000
  21
 147.00000000000
  31
0.0
   0
LINE
   5
1B8
 100
AcDbEntity
   8
LEVEL002
 100
AcDbLine
   6
CONTINUOUS
  62
7
  10
 267.25000000000
  20
 147.00000000000
  30
0.0
  11
 267.25000000000
  21
 150.00000000000
  31
0.0
   0
LINE
   5
1B9
 100
AcDbEntity
   8
LEVEL002
 100
AcDbLine
   6
CONTINUOUS
  62
7
  10
 267.25000000000
  20
 150.00000000000
  30
0.0
  11
 267.50000000000
  21
 150.00000000000
  31
0.0
   0
LINE
   5
1BA
 100
AcDbEntity
   8
LEVEL002
 100
AcDbLine
   6
CONTINUOUS
  62
7
  10
 192.75000000000
  20
 147.00000000000
  30
0.0
  11
 192.75000000000
  21
 150.00000000000
  31
0.0
   0
LINE
   5
1BB
 100
AcDbEntity
   8
LEVEL002
 100
AcDbLine
   6
CONTINUOUS
  62
7
  10
 192.75000000000
  20
 150.00000000000
  30
0.0
  11
 192.50000000000
  21
 150.00000000000
  31
0.0
   0
ARC
   5
1BC
 100
AcDbEntity
   8
LEVEL002
   6
CONTINUOUS
  62
7
 100
AcDbCircle
  10
 284.50000000000
  20
 153.00000000000
  30
0.0
  40
 3.0000000000000
 100
AcDbArc
  50
 270.00000000000
  51
0.0
   0
ARC
   5
1BD
 100
AcDbEntity
   8
LEVEL002
   6
CONTINUOUS
  62
7
 100
AcDbCircle
  10
 292.50000000000
  20
 176.13000000000
  30
0.0
  40
 5.0000000000000
 100
AcDbArc
  50
 125.68499999999
  51
 180.00099999999
   0
LINE
   5
1BE
 100
AcDbEntity
   8
LEVEL002
 100
AcDbLine
   6
CONTINUOUS
  62
7
  10
 287.50000000000
  20
 176.13000000000
  30
0.0
  11
 287.50000000000
  21
 153.00000000000
  31
0.0
   0
ARC
   5
1BF
 100
AcDbEntity
   8
LEVEL002
   6
CONTINUOUS
  62
7
 100
AcDbCircle
  10
 289.00000000000
  20
 181.00000000000
  30
0.0
  40
 1.0000000000000
 100
AcDbArc
  50
 305.68800000015
  51
 359.99600000025
   0
LINE
   5
1C0
 100
AcDbEntity
   8
LEVEL002
 100
AcDbLine
   6
CONTINUOUS
  62
7
  10
 290.00000000000
  20
 201.00000000000
  30
0.0
  11
 290.00000000000
  21
 181.00000000000
  31
0.0
   0
ARC
   5
1C1
 100
AcDbEntity
   8
LEVEL002
   6
CONTINUOUS
  62
7
 100
AcDbCircle
  10
 309.88300000000
  20
 370.00000000000
  30
0.0
  40
 30.000000000000
 100
AcDbArc
  50
 10.125000000000
  51
 89.999999999999
   0
ARC
   5
1C2
 100
AcDbEntity
   8
LEVEL002
   6
CONTINUOUS
  62
7
 100
AcDbCircle
  10
 288.36000000000
  20
 418.00000000000
  30
0.0
  40
 2.0000000000000
 100
AcDbArc
  50
 11.308999999987
  51
 89.999999999933
   0
ARC
   5
1C3
 100
AcDbEntity
   8
LEVEL002
   6
CONTINUOUS
  62
7
 100
AcDbCircle
  10
 302.19800000000
  20
 410.00000000000
  30
0.0
  40
 10.000000000000
 100
AcDbArc
  50
 191.31000000000
  51
 270.00000000000
   0
LINE
   5
1C4
 100
AcDbEntity
   8
LEVEL002
 100
AcDbLine
   6
CONTINUOUS
  62
7
  10
 290.32200000000
  20
 418.39200000000
  30
0.0
  11
 292.39200000000
  21
 408.03900000000
  31
0.0
   0
ARC
   5
1C5
 100
AcDbEntity
   8
LEVEL002
   6
CONTINUOUS
  62
7
 100
AcDbCircle
  10
 175.50000000000
  20
 153.00000000000
  30
0.0
  40
 3.0000000000000
 100
AcDbArc
  50
 180.00000000000
  51
 270.00000000000
   0
ARC
   5
1C6
 100
AcDbEntity
   8
LEVEL002
   6
CONTINUOUS
  62
7
 100
AcDbCircle
  10
 167.50000000000
  20
 176.13000000000
  30
0.0
  40
 5.0000000000000
 100
AcDbArc
  50
0.0
  51
 54.314999999996
   0
LINE
   5
1C7
 100
AcDbEntity
   8
LEVEL002
 100
AcDbLine
   6
CONTINUOUS
  62
7
  10
 172.50000000000
  20
 176.13000000000
  30
0.0
  11
 172.50000000000
  21
 153.00000000000
  31
0.0
   0
ARC
   5
1C8
 100
AcDbEntity
   8
LEVEL002
   6
CONTINUOUS
  62
7
 100
AcDbCircle
  10
 171.00000000000
  20
 181.00000000000
  30
0.0
  40
 1.0000000000000
 100
AcDbArc
  50
 180.00399999993
  51
 234.31199999988
   0
LINE
   5
1C9
 100
AcDbEntity
   8
LEVEL002
 100
AcDbLine
   6
CONTINUOUS
  62
7
  10
 170.00000000000
  20
 201.00000000000
  30
0.0
  11
 170.00000000000
  21
 181.00000000000
  31
0.0
   0
ARC
   5
1CA
 100
AcDbEntity
   8
LEVEL002
   6
CONTINUOUS
  62
7
 100
AcDbCircle
  10
 171.64000000000
  20
 418.00000000000
  30
0.0
  40
 2.0000000000000
 100
AcDbArc
  50
 89.999999999997
  51
 168.69099999998
   0
ARC
   5
1CB
 100
AcDbEntity
   8
LEVEL002
   6
CONTINUOUS
  62
7
 100
AcDbCircle
  10
 157.80200000000
  20
 410.00000000000
  30
0.0
  40
 10.000000000000
 100
AcDbArc
  50
 270.00100000000
  51
 348.68999999999
   0
LINE
   5
1CC
 100
AcDbEntity
   8
LEVEL002
 100
AcDbLine
   6
CONTINUOUS
  62
7
  10
 169.67800000000
  20
 418.39200000000
  30
0.0
  11
 167.60800000000
  21
 408.03900000000
  31
0.0
   0
LINE
   5
1CD
 100
AcDbEntity
   8
LEVEL002
 100
AcDbLine
   6
CONTINUOUS
  62
7
  10
 181.00000000000
  20
 421.00000000000
  30
0.0
  11
 180.00000000000
  21
 421.00000000000
  31
0.0
   0
LINE
   5
1CE
 100
AcDbEntity
   8
LEVEL002
 100
AcDbLine
   6
CONTINUOUS
  62
7
  10
 180.00000000000
  20
 420.00000000000
  30
0.0
  11
 180.00000000000
  21
 424.73200000000
  31
0.0
   0
LINE
   5
1CF
 100
AcDbEntity
   8
LEVEL002
 100
AcDbLine
   6
CONTINUOUS
  62
7
  10
 279.00000000000
  20
 421.00000000000
  30
0.0
  11
 280.00000000000
  21
 421.00000000000
  31
0.0
   0
LINE
   5
1D0
 100
AcDbEntity
   8
LEVEL002
 100
AcDbLine
   6
CONTINUOUS
  62
7
  10
 280.00000000000
  20
 420.00000000000
  30
0.0
  11
 280.00000000000
  21
 424.73200000000
  31
0.0
   0
LINE
   5
1D1
 100
AcDbEntity
   8
LEVEL002
 100
AcDbLine
   6
CONTINUOUS
  62
7
  10
 279.00000000000
  20
 420.00000000000
  30
0.0
  11
 279.00000000000
  21
 421.00000000000
  31
0.0
   0
LINE
   5
1D2
 100
AcDbEntity
   8
LEVEL002
 100
AcDbLine
   6
CONTINUOUS
  62
7
  10
 181.00000000000
  20
 420.00000000000
  30
0.0
  11
 181.00000000000
  21
 421.00000000000
  31
0.0
   0
ARC
   5
1D3
 100
AcDbEntity
   8
LEVEL002
   6
CONTINUOUS
  62
7
 100
AcDbCircle
  10
 295.00000000000
  20
 201.00000000000
  30
0.0
  40
 5.0000000000000
 100
AcDbArc
  50
 126.87000000000
  51
 180.00000000000
   0
ARC
   5
1D4
 100
AcDbEntity
   8
LEVEL002
   6
CONTINUOUS
  62
7
 100
AcDbCircle
  10
 165.00000000000
  20
 201.00000000000
  30
0.0
  40
 5.0000000000000
 100
AcDbArc
  50
0.0
  51
 53.129999999999
   0
LINE
   5
1D5
 100
AcDbEntity
   8
LEVEL002
 100
AcDbLine
   6
CONTINUOUS
  62
7
  10
 267.25000000000
  20
 147.00000000000
  30
0.0
  11
 192.75000000000
  21
 147.00000000000
  31
0.0
   0
LINE
   5
1D6
 100
AcDbEntity
   8
LEVEL002
 100
AcDbLine
   6
CONTINUOUS
  62
7
  10
 175.50000000000
  20
 150.00000000000
  30
0.0
  11
 284.50000000000
  21
 150.00000000000
  31
0.0
   0
LINE
   5
1D7
 100
AcDbEntity
   8
LEVEL002
 100
AcDbLine
   6
CONTINUOUS
  62
7
  10
 290.00000000000
  20
 181.00000000000
  30
0.0
  11
 170.00000000000
  21
 181.00000000000
  31
0.0
   0
LINE
   5
1D8
 100
AcDbEntity
   8
LEVEL002
 100
AcDbLine
   6
CONTINUOUS
  62
7
  10
 193.50000000000
  20
 115.00000000000
  30
0.0
  11
 266.50000000000
  21
 115.00000000000
  31
0.0
   0
LINE
   5
1D9
 100
AcDbEntity
   8
LEVEL002
 100
AcDbLine
   6
CONTINUOUS
  62
7
  10
 195.00000000000
  20
 112.00000000000
  30
0.0
  11
 265.00000000000
  21
 112.00000000000
  31
0.0
   0
LINE
   5
1DA
 100
AcDbEntity
   8
LEVEL002
 100
AcDbLine
   6
CONTINUOUS
  62
7
  10
 264.00000000000
  20
 45.000000000000
  30
0.0
  11
 264.00000000000
  21
 113.00000000000
  31
0.0
   0
LINE
   5
1DB
 100
AcDbEntity
   8
LEVEL002
 100
AcDbLine
   6
CONTINUOUS
  62
7
  10
 264.00000000000
  20
 45.000000000000
  30
0.0
  11
 196.00000000000
  21
 45.000000000000
  31
0.0
   0
LINE
   5
1DC
 100
AcDbEntity
   8
LEVEL002
 100
AcDbLine
   6
CONTINUOUS
  62
7
  10
 265.00000000000
  20
 46.000000000000
  30
0.0
  11
 265.00000000000
  21
 112.00000000000
  31
0.0
   0
LINE
   5
1DD
 100
AcDbEntity
   8
LEVEL002
 100
AcDbLine
   6
CONTINUOUS
  62
7
  10
 195.00000000000
  20
 46.000000000000
  30
0.0
  11
 265.00000000000
  21
 46.000000000000
  31
0.0
   0
LINE
   5
1DE
 100
AcDbEntity
   8
LEVEL002
 100
AcDbLine
   6
CONTINUOUS
  62
7
  10
 280.80000000000
  20
 805.50000000000
  30
0.0
  11
 280.80000000000
  21
 424.73200000000
  31
0.0
   0
LINE
   5
1DF
 100
AcDbEntity
   8
LEVEL002
 100
AcDbLine
   6
CONTINUOUS
  62
7
  10
 179.20000000000
  20
 805.50000000000
  30
0.0
  11
 179.20000000000
  21
 424.73200000000
  31
0.0
   0
LINE
   5
1E0
 100
AcDbEntity
   8
LEVEL002
 100
AcDbLine
   6
CONTINUOUS
  62
7
  10
 830.80000000000
  20
 805.50000000000
  30
0.0
  11
 828.50000000000
  21
 810.00000000000
  31
0.0
   0
LINE
   5
1E1
 100
AcDbEntity
   8
LEVEL002
 100
AcDbLine
   6
CONTINUOUS
  62
7
  10
 729.20000000000
  20
 805.50000000000
  30
0.0
  11
 731.50000000000
  21
 810.00000000000
  31
0.0
   0
LINE
   5
1E2
 100
AcDbEntity
   8
LEVEL002
 100
AcDbLine
   6
CONTINUOUS
  62
7
  10
 731.50000000000
  20
 810.00000000000
  30
0.0
  11
 828.50000000000
  21
 810.00000000000
  31
0.0
   0
LINE
   5
1E3
 100
AcDbEntity
   8
LEVEL002
 100
AcDbLine
   6
CONTINUOUS
  62
7
  10
 830.80000000000
  20
 805.50000000000
  30
0.0
  11
 729.20000000000
  21
 805.50000000000
  31
0.0
   0
LINE
   5
1E4
 100
AcDbEntity
   8
LEVEL002
 100
AcDbLine
   6
CONTINUOUS
  62
7
  10
 829.00000000000
  20
 421.00000000000
  30
0.0
  11
 830.00000000000
  21
 424.73200000000
  31
0.0
   0
LINE
   5
1E5
 100
AcDbEntity
   8
LEVEL002
 100
AcDbLine
   6
CONTINUOUS
  62
7
  10
 731.00000000000
  20
 421.00000000000
  30
0.0
  11
 730.00000000000
  21
 424.73200000000
  31
0.0
   0
LINE
   5
1E6
 100
AcDbEntity
   8
LEVEL002
 100
AcDbLine
   6
CONTINUOUS
  62
7
  10
 817.50000000000
  20
 147.00000000000
  30
0.0
  11
 817.25000000000
  21
 147.00000000000
  31
0.0
   0
LINE
   5
1E7
 100
AcDbEntity
   8
LEVEL002
 100
AcDbLine
   6
CONTINUOUS
  62
7
  10
 814.00000000000
  20
 45.000000000000
  30
0.0
  11
 815.00000000000
  21
 46.000000000000
  31
0.0
   0
ARC
   5
1E8
 100
AcDbEntity
   8
LEVEL002
   6
CONTINUOUS
  62
7
 100
AcDbCircle
  10
 815.00000000000
  20
 113.00000000000
  30
0.0
  40
 1.0000000000000
 100
AcDbArc
  50
 180.00000000000
  51
 270.00000000000
   0
ARC
   5
1E9
 100
AcDbEntity
   8
LEVEL002
   6
CONTINUOUS
  62
7
 100
AcDbCircle
  10
 815.00000000000
  20
 114.00000000000
  30
0.0
  40
 1.0000000000000
 100
AcDbArc
  50
 90.000000000000
  51
 180.00000000000
   0
LINE
   5
1EA
 100
AcDbEntity
   8
LEVEL002
 100
AcDbLine
   6
CONTINUOUS
  62
7
  10
 814.00000000000
  20
 113.00000000000
  30
0.0
  11
 814.00000000000
  21
 114.00000000000
  31
0.0
   0
ARC
   5
1EB
 100
AcDbEntity
   8
LEVEL002
   6
CONTINUOUS
  62
7
 100
AcDbCircle
  10
 816.50000000000
  20
 116.00000000000
  30
0.0
  40
 1.0000000000000
 100
AcDbArc
  50
 270.00000000000
  51
0.0
   0
LINE
   5
1EC
 100
AcDbEntity
   8
LEVEL002
 100
AcDbLine
   6
CONTINUOUS
  62
7
  10
 817.50000000000
  20
 116.00000000000
  30
0.0
  11
 817.50000000000
  21
 147.00000000000
  31
0.0
   0
LINE
   5
1ED
 100
AcDbEntity
   8
LEVEL002
 100
AcDbLine
   6
CONTINUOUS
  62
7
  10
 742.50000000000
  20
 147.00000000000
  30
0.0
  11
 742.75000000000
  21
 147.00000000000
  31
0.0
   0
LINE
   5
1EE
 100
AcDbEntity
   8
LEVEL002
 100
AcDbLine
   6
CONTINUOUS
  62
7
  10
 746.00000000000
  20
 45.000000000000
  30
0.0
  11
 745.00000000000
  21
 46.000000000000
  31
0.0
   0
LINE
   5
1EF
 100
AcDbEntity
   8
LEVEL002
 100
AcDbLine
   6
CONTINUOUS
  62
7
  10
 745.00000000000
  20
 46.000000000000
  30
0.0
  11
 745.00000000000
  21
 112.00000000000
  31
0.0
   0
ARC
   5
1F0
 100
AcDbEntity
   8
LEVEL002
   6
CONTINUOUS
  62
7
 100
AcDbCircle
  10
 745.00000000000
  20
 113.00000000000
  30
0.0
  40
 1.0000000000000
 100
AcDbArc
  50
 270.00000000000
  51
0.0
   0
ARC
   5
1F1
 100
AcDbEntity
   8
LEVEL002
   6
CONTINUOUS
  62
7
 100
AcDbCircle
  10
 745.00000000000
  20
 114.00000000000
  30
0.0
  40
 1.0000000000000
 100
AcDbArc
  50
0.0
  51
 90.000000000000
   0
LINE
   5
1F2
 100
AcDbEntity
   8
LEVEL002
 100
AcDbLine
   6
CONTINUOUS
  62
7
  10
 746.00000000000
  20
 113.00000000000
  30
0.0
  11
 746.00000000000
  21
 114.00000000000
  31
0.0
   0
LINE
   5
1F3
 100
AcDbEntity
   8
LEVEL002
 100
AcDbLine
   6
CONTINUOUS
  62
7
  10
 746.00000000000
  20
 45.000000000000
  30
0.0
  11
 746.00000000000
  21
 113.00000000000
  31
0.0
   0
ARC
   5
1F4
 100
AcDbEntity
   8
LEVEL002
   6
CONTINUOUS
  62
7
 100
AcDbCircle
  10
 743.50000000000
  20
 116.00000000000
  30
0.0
  40
 1.0000000000000
 100
AcDbArc
  50
 180.00000000000
  51
 270.00000000000
   0
LINE
   5
1F5
 100
AcDbEntity
   8
LEVEL002
 100
AcDbLine
   6
CONTINUOUS
  62
7
  10
 742.50000000000
  20
 116.00000000000
  30
0.0
  11
 742.50000000000
  21
 147.00000000000
  31
0.0
   0
LINE
   5
1F6
 100
AcDbEntity
   8
LEVEL002
 100
AcDbLine
   6
CONTINUOUS
  62
7
  10
 817.25000000000
  20
 147.00000000000
  30
0.0
  11
 817.25000000000
  21
 150.00000000000
  31
0.0
   0
LINE
   5
1F7
 100
AcDbEntity
   8
LEVEL002
 100
AcDbLine
   6
CONTINUOUS
  62
7
  10
 817.25000000000
  20
 150.00000000000
  30
0.0
  11
 817.50000000000
  21
 150.00000000000
  31
0.0
   0
LINE
   5
1F8
 100
AcDbEntity
   8
LEVEL002
 100
AcDbLine
   6
CONTINUOUS
  62
7
  10
 742.75000000000
  20
 147.00000000000
  30
0.0
  11
 742.75000000000
  21
 150.00000000000
  31
0.0
   0
LINE
   5
1F9
 100
AcDbEntity
   8
LEVEL002
 100
AcDbLine
   6
CONTINUOUS
  62
7
  10
 742.75000000000
  20
 150.00000000000
  30
0.0
  11
 742.50000000000
  21
 150.00000000000
  31
0.0
   0
ARC
   5
1FA
 100
AcDbEntity
   8
LEVEL002
   6
CONTINUOUS
  62
7
 100
AcDbCircle
  10
 834.50000000000
  20
 153.00000000000
  30
0.0
  40
 3.0000000000000
 100
AcDbArc
  50
 270.00000000000
  51
0.0
   0
ARC
   5
1FB
 100
AcDbEntity
   8
LEVEL002
   6
CONTINUOUS
  62
7
 100
AcDbCircle
  10
 842.50000000000
  20
 176.12999999999
  30
0.0
  40
 5.0000000000000
 100
AcDbArc
  50
 125.68499999996
  51
 180.00099999993
   0
LINE
   5
1FC
 100
AcDbEntity
   8
LEVEL002
 100
AcDbLine
   6
CONTINUOUS
  62
7
  10
 837.50000000000
  20
 176.13000000000
  30
0.0
  11
 837.50000000000
  21
 153.00000000000
  31
0.0
   0
ARC
   5
1FD
 100
AcDbEntity
   8
LEVEL002
   6
CONTINUOUS
  62
7
 100
AcDbCircle
  10
 839.00000000000
  20
 181.00000000003
  30
0.0
  40
 1.0000000000000
 100
AcDbArc
  50
 305.68799999885
  51
 359.99599999802
   0
LINE
   5
1FE
 100
AcDbEntity
   8
LEVEL002
 100
AcDbLine
   6
CONTINUOUS
  62
7
  10
 840.00000000000
  20
 201.00000000000
  30
0.0
  11
 840.00000000000
  21
 181.00000000000
  31
0.0
   0
ARC
   5
1FF
 100
AcDbEntity
   8
LEVEL002
   6
CONTINUOUS
  62
7
 100
AcDbCircle
  10
 859.88300000000
  20
 370.00000000000
  30
0.0
  40
 30.000000000000
 100
AcDbArc
  50
 10.125000000000
  51
 90.000000000001
   0
ARC
   5
200
 100
AcDbEntity
   8
LEVEL002
   6
CONTINUOUS
  62
7
 100
AcDbCircle
  10
 838.35999999999
  20
 418.00000000000
  30
0.0
  40
 2.0000000000000
 100
AcDbArc
  50
 11.308999999951
  51
 89.999999999749
   0
ARC
   5
201
 100
AcDbEntity
   8
LEVEL002
   6
CONTINUOUS
  62
7
 100
AcDbCircle
  10
 852.19800000000
  20
 410.00000000000
  30
0.0
  40
 10.000000000000
 100
AcDbArc
  50
 191.31000000000
  51
 270.00000000001
   0
LINE
   5
202
 100
AcDbEntity
   8
LEVEL002
 100
AcDbLine
   6
CONTINUOUS
  62
7
  10
 840.32200000000
  20
 418.39200000000
  30
0.0
  11
 842.39200000000
  21
 408.03900000000
  31
0.0
   0
ARC
   5
203
 100
AcDbEntity
   8
LEVEL002
   6
CONTINUOUS
  62
7
 100
AcDbCircle
  10
 882.24299999998
  20
 415.00000000000
  30
0.0
  40
 2.0000000000000
 100
AcDbArc
  50
 7.3922999999079
  51
 89.996999999290
   0
LINE
   5
204
 100
AcDbEntity
   8
LEVEL002
 100
AcDbLine
   6
CONTINUOUS
  62
7
  10
 884.22600000000
  20
 415.25700000000
  30
0.0
  11
 889.41500000000
  21
 375.27000000000
  31
0.0
   0
ARC
   5
205
 100
AcDbEntity
   8
LEVEL002
   6
CONTINUOUS
  62
7
 100
AcDbCircle
  10
 857.38000000000
  20
 414.99999999999
  30
0.0
  40
 2.0000000000000
 100
AcDbArc
  50
 89.996999999912
  51
 155.03499999980
   0
LINE
   5
206
 100
AcDbEntity
   8
LEVEL002
 100
AcDbLine
   6
CONTINUOUS
  62
7
  10
 882.24300000000
  20
 417.00000000000
  30
0.0
  11
 857.38000000000
  21
 417.00000000000
  31
0.0
   0
ARC
   5
207
 100
AcDbEntity
   8
LEVEL002
   6
CONTINUOUS
  62
7
 100
AcDbCircle
  10
 848.31400000000
  20
 419.22100000001
  30
0.0
  40
 8.0000000000000
 100
AcDbArc
  50
 185.91600000007
  51
 335.03599999992
   0
ARC
   5
208
 100
AcDbEntity
   8
LEVEL002
   6
CONTINUOUS
  62
7
 100
AcDbCircle
  10
 725.50000000000
  20
 153.00000000000
  30
0.0
  40
 3.0000000000000
 100
AcDbArc
  50
 180.00000000000
  51
 270.00000000000
   0
ARC
   5
209
 100
AcDbEntity
   8
LEVEL002
   6
CONTINUOUS
  62
7
 100
AcDbCircle
  10
 717.50000000000
  20
 176.13000000000
  30
0.0
  40
 5.0000000000000
 100
AcDbArc
  50
 0.74908423857836E-11
  51
 54.315000000007
   0
LINE
   5
20A
 100
AcDbEntity
   8
LEVEL002
 100
AcDbLine
   6
CONTINUOUS
  62
7
  10
 722.50000000000
  20
 176.13000000000
  30
0.0
  11
 722.50000000000
  21
 153.00000000000
  31
0.0
   0
ARC
   5
20B
 100
AcDbEntity
   8
LEVEL002
   6
CONTINUOUS
  62
7
 100
AcDbCircle
  10
 720.99999999998
  20
 181.00000000001
  30
0.0
  40
 1.0000000000000
 100
AcDbArc
  50
 180.00400000074
  51
 234.31200000128
   0
LINE
   5
20C
 100
AcDbEntity
   8
LEVEL002
 100
AcDbLine
   6
CONTINUOUS
  62
7
  10
 720.00000000000
  20
 201.00000000000
  30
0.0
  11
 720.00000000000
  21
 181.00000000000
  31
0.0
   0
ARC
   5
20D
 100
AcDbEntity
   8
LEVEL002
   6
CONTINUOUS
  62
7
 100
AcDbCircle
  10
 721.64000000000
  20
 418.00000000000
  30
0.0
  40
 2.0000000000000
 100
AcDbArc
  50
 89.999999999987
  51
 168.69099999993
   0
ARC
   5
20E
 100
AcDbEntity
   8
LEVEL002
   6
CONTINUOUS
  62
7
 100
AcDbCircle
  10
 707.80200000000
  20
 410.00000000000
  30
0.0
  40
 10.000000000000
 100
AcDbArc
  50
 270.00100000000
  51
 348.69000000001
   0
LINE
   5
20F
 100
AcDbEntity
   8
LEVEL002
 100
AcDbLine
   6
CONTINUOUS
  62
7
  10
 719.67800000000
  20
 418.39200000000
  30
0.0
  11
 717.60800000000
  21
 408.03900000000
  31
0.0
   0
ARC
   5
210
 100
AcDbEntity
   8
LEVEL002
   6
CONTINUOUS
  62
7
 100
AcDbCircle
  10
 677.75700000000
  20
 415.00000000000
  30
0.0
  40
 2.0000000000000
 100
AcDbArc
  50
 90.002999999994
  51
 172.60799999996
   0
ARC
   5
211
 100
AcDbEntity
   8
LEVEL002
   6
CONTINUOUS
  62
7
 100
AcDbCircle
  10
 702.62000000000
  20
 415.00000000000
  30
0.0
  40
 2.0000000000000
 100
AcDbArc
  50
 24.964999999989
  51
 90.002999999974
   0
LINE
   5
212
 100
AcDbEntity
   8
LEVEL002
 100
AcDbLine
   6
CONTINUOUS
  62
7
  10
 677.75700000000
  20
 417.00000000000
  30
0.0
  11
 702.62000000000
  21
 417.00000000000
  31
0.0
   0
ARC
   5
213
 100
AcDbEntity
   8
LEVEL002
   6
CONTINUOUS
  62
7
 100
AcDbCircle
  10
 711.68600000000
  20
 419.22100000000
  30
0.0
  40
 8.0000000000000
 100
AcDbArc
  50
 204.96400000001
  51
 354.08399999999
   0
ARC
   5
214
 100
AcDbEntity
   8
LEVEL002
   6
CONTINUOUS
  62
7
 100
AcDbCircle
  10
 552.00000000000
  20
 233.00000000000
  30
0.0
  40
 2.0000000000000
 100
AcDbArc
  50
 90.000000000000
  51
 180.00000000000
   0
LINE
   5
215
 100
AcDbEntity
   8
LEVEL002
 100
AcDbLine
   6
CONTINUOUS
  62
7
  10
 550.00000000000
  20
 233.00000000000
  30
0.0
  11
 550.00000000000
  21
 205.00000000000
  31
0.0
   0
ARC
   5
216
 100
AcDbEntity
   8
LEVEL002
   6
CONTINUOUS
  62
7
 100
AcDbCircle
  10
 614.19400000000
  20
 250.00000000000
  30
0.0
  40
 15.000000000000
 100
AcDbArc
  50
 270.00000000000
  51
 29.664000000002
   0
LINE
   5
217
 100
AcDbEntity
   8
LEVEL002
 100
AcDbLine
   6
CONTINUOUS
  62
7
  10
 627.22800000000
  20
 257.42000000000
  30
0.0
  11
 618.90500000000
  21
 272.04000000000
  31
0.0
   0
ARC
   5
218
 100
AcDbEntity
   8
LEVEL002
   6
CONTINUOUS
  62
7
 100
AcDbCircle
  10
 574.12000000000
  20
 280.41000000000
  30
0.0
  40
 30.000000000000
 100
AcDbArc
  50
 297.27600000000
  51
 346.20400000000
   0
LINE
   5
219
 100
AcDbEntity
   8
LEVEL002
 100
AcDbLine
   6
CONTINUOUS
  62
7
  10
 587.86900000000
  20
 253.74000000000
  30
0.0
  11
 551.08300000000
  21
 234.78000000000
  31
0.0
   0
ARC
   5
21A
 100
AcDbEntity
   8
LEVEL002
   6
CONTINUOUS
  62
7
 100
AcDbCircle
  10
 633.01600000000
  20
 389.93500000000
  30
0.0
  40
 40.000000000000
 100
AcDbArc
  50
 291.25600000000
  51
 343.45400000000
   0
ARC
   5
21B
 100
AcDbEntity
   8
LEVEL002
   6
CONTINUOUS
  62
7
 100
AcDbCircle
  10
 700.11700000000
  20
 370.00000000000
  30
0.0
  40
 30.000000000000
 100
AcDbArc
  50
 90.000000000000
  51
 163.45300000000
   0
LINE
   5
21C
 100
AcDbEntity
   8
LEVEL002
 100
AcDbLine
   6
CONTINUOUS
  62
7
  10
 675.77400000000
  20
 415.25700000000
  30
0.0
  11
 670.77400000000
  21
 376.73000000000
  31
0.0
   0
CIRCLE
   5
21D
 100
AcDbEntity
   8
LEVEL002
 100
AcDbCircle
   6
CONTINUOUS
  62
7
  10
 690.00000000000
  20
 443.00000000000
  30
0.0
  40
 15.000000000000
   0
LINE
   5
21E
 100
AcDbEntity
   8
LEVEL002
 100
AcDbLine
   6
CONTINUOUS
  62
7
  10
 677.50000000000
  20
 417.00000000000
  30
0.0
  11
 702.50000000000
  21
 417.00000000000
  31
0.0
   0
ARC
   5
21F
 100
AcDbEntity
   8
LEVEL002
   6
CONTINUOUS
  62
7
 100
AcDbCircle
  10
 708.40600000000
  20
 418.05600000000
  30
0.0
  40
 6.0000000000000
 100
AcDbArc
  50
 126.42400000000
  51
 190.00000000000
   0
ARC
   5
220
 100
AcDbEntity
   8
LEVEL002
   6
CONTINUOUS
  62
7
 100
AcDbCircle
  10
 671.59400000000
  20
 418.05600000000
  30
0.0
  40
 6.0000000000000
 100
AcDbArc
  50
 350.00000000000
  51
 53.576000000006
   0
ARC
   5
221
 100
AcDbEntity
   8
LEVEL002
   6
CONTINUOUS
  62
7
 100
AcDbCircle
  10
 699.23500000000
  20
 424.00000000000
  30
0.0
  40
 2.0000000000000
 100
AcDbArc
  50
 9.9997999999980
  51
 90.002999999984
   0
LINE
   5
222
 100
AcDbEntity
   8
LEVEL002
 100
AcDbLine
   6
CONTINUOUS
  62
7
  10
 702.50000000000
  20
 417.00000000000
  30
0.0
  11
 701.20500000000
  21
 424.34700000000
  31
0.0
   0
ARC
   5
223
 100
AcDbEntity
   8
LEVEL002
   6
CONTINUOUS
  62
7
 100
AcDbCircle
  10
 680.76500000000
  20
 423.99999999999
  30
0.0
  40
 2.0000000000000
 100
AcDbArc
  50
 90.000999999944
  51
 170.00399999967
   0
LINE
   5
224
 100
AcDbEntity
   8
LEVEL002
 100
AcDbLine
   6
CONTINUOUS
  62
7
  10
 680.76500000000
  20
 426.00000000000
  30
0.0
  11
 699.23500000000
  21
 426.00000000000
  31
0.0
   0
LINE
   5
225
 100
AcDbEntity
   8
LEVEL002
 100
AcDbLine
   6
CONTINUOUS
  62
7
  10
 677.50000000000
  20
 417.00000000000
  30
0.0
  11
 678.79600000000
  21
 424.34700000000
  31
0.0
   0
LINE
   5
226
 100
AcDbEntity
   8
LEVEL002
 100
AcDbLine
   6
CONTINUOUS
  62
7
  10
 690.00000000000
  20
 428.00000000000
  30
0.0
  11
 699.64900000000
  21
 425.95700000000
  31
0.0
   0
LINE
   5
227
 100
AcDbEntity
   8
LEVEL002
 100
AcDbLine
   6
CONTINUOUS
  62
7
  10
 690.00000000000
  20
 428.00000000000
  30
0.0
  11
 680.35100000000
  21
 425.95700000000
  31
0.0
   0
ARC
   5
228
 100
AcDbEntity
   8
LEVEL002
   6
CONTINUOUS
  62
7
 100
AcDbCircle
  10
 690.00000000000
  20
 443.00000000000
  30
0.0
  40
 25.000000000000
 100
AcDbArc
  50
 306.42400000000
  51
 233.57600000000
   0
CIRCLE
   5
229
 100
AcDbEntity
   8
LEVEL002
 100
AcDbCircle
   6
CONTINUOUS
  62
7
  10
 870.00000000000
  20
 443.00000000000
  30
0.0
  40
 15.000000000000
   0
LINE
   5
22A
 100
AcDbEntity
   8
LEVEL002
 100
AcDbLine
   6
CONTINUOUS
  62
7
  10
 857.50000000000
  20
 417.00000000000
  30
0.0
  11
 882.50000000000
  21
 417.00000000000
  31
0.0
   0
ARC
   5
22B
 100
AcDbEntity
   8
LEVEL002
   6
CONTINUOUS
  62
7
 100
AcDbCircle
  10
 888.40600000000
  20
 418.05600000000
  30
0.0
  40
 6.0000000000000
 100
AcDbArc
  50
 126.42399999999
  51
 189.99999999999
   0
ARC
   5
22C
 100
AcDbEntity
   8
LEVEL002
   6
CONTINUOUS
  62
7
 100
AcDbCircle
  10
 851.59400000000
  20
 418.05600000000
  30
0.0
  40
 6.0000000000000
 100
AcDbArc
  50
 350.00100000001
  51
 53.577000000019
   0
ARC
   5
22D
 100
AcDbEntity
   8
LEVEL002
   6
CONTINUOUS
  62
7
 100
AcDbCircle
  10
 879.23499999999
  20
 424.00000000000
  30
0.0
  40
 2.0000000000000
 100
AcDbArc
  50
 9.9997999999556
  51
 90.002999999740
   0
LINE
   5
22E
 100
AcDbEntity
   8
LEVEL002
 100
AcDbLine
   6
CONTINUOUS
  62
7
  10
 882.50000000000
  20
 417.00000000000
  30
0.0
  11
 881.20500000000
  21
 424.34700000000
  31
0.0
   0
ARC
   5
22F
 100
AcDbEntity
   8
LEVEL002
   6
CONTINUOUS
  62
7
 100
AcDbCircle
  10
 860.76500000000
  20
 424.00000000000
  30
0.0
  40
 2.0000000000000
 100
AcDbArc
  50
 90.001000000016
  51
 170.00400000009
   0
LINE
   5
230
 100
AcDbEntity
   8
LEVEL002
 100
AcDbLine
   6
CONTINUOUS
  62
7
  10
 860.76500000000
  20
 426.00000000000
  30
0.0
  11
 879.23500000000
  21
 426.00000000000
  31
0.0
   0
LINE
   5
231
 100
AcDbEntity
   8
LEVEL002
 100
AcDbLine
   6
CONTINUOUS
  62
7
  10
 857.50000000000
  20
 417.00000000000
  30
0.0
  11
 858.79600000000
  21
 424.34700000000
  31
0.0
   0
LINE
   5
232
 100
AcDbEntity
   8
LEVEL002
 100
AcDbLine
   6
CONTINUOUS
  62
7
  10
 870.00000000000
  20
 428.00000000000
  30
0.0
  11
 879.64900000000
  21
 425.95700000000
  31
0.0
   0
LINE
   5
233
 100
AcDbEntity
   8
LEVEL002
 100
AcDbLine
   6
CONTINUOUS
  62
7
  10
 870.00000000000
  20
 428.00000000000
  30
0.0
  11
 860.35100000000
  21
 425.95700000000
  31
0.0
   0
ARC
   5
234
 100
AcDbEntity
   8
LEVEL002
   6
CONTINUOUS
  62
7
 100
AcDbCircle
  10
 870.00000000000
  20
 443.00000000000
  30
0.0
  40
 25.000000000000
 100
AcDbArc
  50
 306.42400000000
  51
 233.57600000000
   0
ARC
   5
235
 100
AcDbEntity
   8
LEVEL002
   6
CONTINUOUS
  62
7
 100
AcDbCircle
  10
 943.00000000000
  20
 233.00000000000
  30
0.0
  40
 2.0000000000000
 100
AcDbArc
  50
0.0
  51
 90.000000000000
   0
LINE
   5
236
 100
AcDbEntity
   8
LEVEL002
 100
AcDbLine
   6
CONTINUOUS
  62
7
  10
 945.00000000000
  20
 233.00000000000
  30
0.0
  11
 945.00000000000
  21
 205.00000000000
  31
0.0
   0
ARC
   5
237
 100
AcDbEntity
   8
LEVEL002
   6
CONTINUOUS
  62
7
 100
AcDbCircle
  10
 908.55500000000
  20
 250.00000000000
  30
0.0
  40
 15.000000000000
 100
AcDbArc
  50
 167.90500000000
  51
 270.00000000000
   0
ARC
   5
238
 100
AcDbEntity
   8
LEVEL002
   6
CONTINUOUS
  62
7
 100
AcDbCircle
  10
 882.50000000000
  20
 271.59000000001
  30
0.0
  40
 15.000000000000
 100
AcDbArc
  50
 347.90399999998
  51
0.0
   0
ARC
   5
239
 100
AcDbEntity
   8
LEVEL002
   6
CONTINUOUS
  62
7
 100
AcDbCircle
  10
 882.50000000000
  20
 271.59000000001
  30
0.0
  40
 15.000000000000
 100
AcDbArc
  50
 347.90399999998
  51
0.0
   0
LINE
   5
23A
 100
AcDbEntity
   8
LEVEL002
 100
AcDbLine
   6
CONTINUOUS
  62
7
  10
 897.16700000000
  20
 268.45000000000
  30
0.0
  11
 893.88800000000
  21
 253.14000000000
  31
0.0
   0
ARC
   5
23B
 100
AcDbEntity
   8
LEVEL002
   6
CONTINUOUS
  62
7
 100
AcDbCircle
  10
 937.44100000000
  20
 276.99000000000
  30
0.0
  40
 30.000000000000
 100
AcDbArc
  50
 190.12500000000
  51
 233.39900000000
   0
LINE
   5
23C
 100
AcDbEntity
   8
LEVEL002
 100
AcDbLine
   6
CONTINUOUS
  62
7
  10
 919.55400000000
  20
 252.90000000000
  30
0.0
  11
 944.19300000000
  21
 234.61000000000
  31
0.0
   0
ARC
   5
23D
 100
AcDbEntity
   8
LEVEL002
   6
CONTINUOUS
  62
7
 100
AcDbCircle
  10
 857.50000000000
  20
 326.46000000000
  30
0.0
  40
 40.000000000000
 100
AcDbArc
  50
 0.81422199845466E-13
  51
 10.123999999999
   0
LINE
   5
23E
 100
AcDbEntity
   8
LEVEL002
 100
AcDbLine
   6
CONTINUOUS
  62
7
  10
 897.50000000000
  20
 326.46000000000
  30
0.0
  11
 897.50000000000
  21
 271.59000000000
  31
0.0
   0
LINE
   5
23F
 100
AcDbEntity
   8
LEVEL002
 100
AcDbLine
   6
CONTINUOUS
  62
7
  10
 896.87700000000
  20
 333.49000000000
  30
0.0
  11
 907.90800000000
  21
 271.72000000000
  31
0.0
   0
LINE
   5
240
 100
AcDbEntity
   8
LEVEL002
 100
AcDbLine
   6
CONTINUOUS
  62
7
  10
 889.41500000000
  20
 375.27000000000
  30
0.0
  11
 896.87700000000
  21
 333.49000000000
  31
0.0
   0
LINE
   5
241
 100
AcDbEntity
   8
LEVEL002
 100
AcDbLine
   6
CONTINUOUS
  62
7
  10
 731.00000000000
  20
 421.00000000000
  30
0.0
  11
 730.00000000000
  21
 421.00000000000
  31
0.0
   0
LINE
   5
242
 100
AcDbEntity
   8
LEVEL002
 100
AcDbLine
   6
CONTINUOUS
  62
7
  10
 730.00000000000
  20
 420.00000000000
  30
0.0
  11
 730.00000000000
  21
 424.73200000000
  31
0.0
   0
LINE
   5
243
 100
AcDbEntity
   8
LEVEL002
 100
AcDbLine
   6
CONTINUOUS
  62
7
  10
 829.00000000000
  20
 421.00000000000
  30
0.0
  11
 830.00000000000
  21
 421.00000000000
  31
0.0
   0
LINE
   5
244
 100
AcDbEntity
   8
LEVEL002
 100
AcDbLine
   6
CONTINUOUS
  62
7
  10
 830.00000000000
  20
 420.00000000000
  30
0.0
  11
 830.00000000000
  21
 424.73200000000
  31
0.0
   0
LINE
   5
245
 100
AcDbEntity
   8
LEVEL002
 100
AcDbLine
   6
CONTINUOUS
  62
7
  10
 721.64000000000
  20
 420.00000000000
  30
0.0
  11
 838.36000000000
  21
 420.00000000000
  31
0.0
   0
LINE
   5
246
 100
AcDbEntity
   8
LEVEL002
 100
AcDbLine
   6
CONTINUOUS
  62
7
  10
 829.00000000000
  20
 420.00000000000
  30
0.0
  11
 829.00000000000
  21
 421.00000000000
  31
0.0
   0
LINE
   5
247
 100
AcDbEntity
   8
LEVEL002
 100
AcDbLine
   6
CONTINUOUS
  62
7
  10
 731.00000000000
  20
 420.00000000000
  30
0.0
  11
 731.00000000000
  21
 421.00000000000
  31
0.0
   0
LINE
   5
248
 100
AcDbEntity
   8
LEVEL002
 100
AcDbLine
   6
CONTINUOUS
  62
7
  10
 830.80000000000
  20
 424.73200000000
  30
0.0
  11
 729.20000000000
  21
 424.73200000000
  31
0.0
   0
LINE
   5
249
 100
AcDbEntity
   8
LEVEL002
 100
AcDbLine
   6
CONTINUOUS
  62
7
  10
 945.00000000000
  20
 205.00000000000
  30
0.0
  11
 550.00000000000
  21
 205.00000000000
  31
0.0
   0
ARC
   5
24A
 100
AcDbEntity
   8
LEVEL002
   6
CONTINUOUS
  62
7
 100
AcDbCircle
  10
 845.00000000000
  20
 200.99999999999
  30
0.0
  40
 5.0000000000000
 100
AcDbArc
  50
 126.86999999995
  51
 179.99999999992
   0
ARC
   5
24B
 100
AcDbEntity
   8
LEVEL002
   6
CONTINUOUS
  62
7
 100
AcDbCircle
  10
 715.00000000000
  20
 201.00000000000
  30
0.0
  40
 5.0000000000000
 100
AcDbArc
  50
0.0
  51
 53.129999999985
   0
LINE
   5
24C
 100
AcDbEntity
   8
LEVEL002
 100
AcDbLine
   6
CONTINUOUS
  62
7
  10
 552.00000000000
  20
 235.00000000000
  30
0.0
  11
 943.00000000000
  21
 235.00000000000
  31
0.0
   0
CIRCLE
   5
24D
 100
AcDbEntity
   8
LEVEL002
 100
AcDbCircle
   6
CONTINUOUS
  62
7
  10
 668.00000000000
  20
 300.00000000000
  30
0.0
  40
 56.500000000000
   0
LINE
   5
24E
 100
AcDbEntity
   8
LEVEL002
 100
AcDbLine
   6
CONTINUOUS
  62
7
  10
 673.00000000000
  20
 320.50000000000
  30
0.0
  11
 673.00000000000
  21
 312.50000000000
  31
0.0
   0
LINE
   5
24F
 100
AcDbEntity
   8
LEVEL002
 100
AcDbLine
   6
CONTINUOUS
  62
7
  10
 663.00000000000
  20
 320.50000000000
  30
0.0
  11
 663.00000000000
  21
 312.50000000000
  31
0.0
   0
LINE
   5
250
 100
AcDbEntity
   8
LEVEL002
 100
AcDbLine
   6
CONTINUOUS
  62
7
  10
 673.00000000000
  20
 312.50000000000
  30
0.0
  11
 663.00000000000
  21
 312.50000000000
  31
0.0
   0
LINE
   5
251
 100
AcDbEntity
   8
LEVEL002
 100
AcDbLine
   6
CONTINUOUS
  62
7
  10
 673.00000000000
  20
 320.50000000000
  30
0.0
  11
 663.00000000000
  21
 320.50000000000
  31
0.0
   0
ARC
   5
252
 100
AcDbEntity
   8
LEVEL002
   6
CONTINUOUS
  62
7
 100
AcDbCircle
  10
 668.00000000000
  20
 300.00000000000
  30
0.0
  40
 17.500000000000
 100
AcDbArc
  50
 106.60200000000
  51
 73.398000000001
   0
ARC
   5
253
 100
AcDbEntity
   8
LEVEL002
   6
CONTINUOUS
  62
7
 100
AcDbCircle
  10
 668.00000000000
  20
 300.00000000000
  30
0.0
  40
 20.000000000000
 100
AcDbArc
  50
 104.47800000000
  51
 75.521999999996
   0
CIRCLE
   5
254
 100
AcDbEntity
   8
LEVEL002
 100
AcDbCircle
   6
CONTINUOUS
  62
7
  10
 701.58800000000
  20
 333.59000000000
  30
0.0
  40
 6.5000000000000
   0
CIRCLE
   5
255
 100
AcDbEntity
   8
LEVEL002
 100
AcDbCircle
   6
CONTINUOUS
  62
7
  10
 701.58800000000
  20
 333.59000000000
  30
0.0
  40
 5.8071800000000
   0
LINE
   5
256
 100
AcDbEntity
   8
LEVEL002
 100
AcDbLine
   6
CONTINUOUS
  62
7
  10
 704.03700000000
  20
 336.04000000000
  30
0.0
  11
 700.69100000000
  21
 336.93000000000
  31
0.0
   0
LINE
   5
257
 100
AcDbEntity
   8
LEVEL002
 100
AcDbLine
   6
CONTINUOUS
  62
7
  10
 700.69100000000
  20
 336.93000000000
  30
0.0
  11
 698.24200000000
  21
 334.48000000000
  31
0.0
   0
LINE
   5
258
 100
AcDbEntity
   8
LEVEL002
 100
AcDbLine
   6
CONTINUOUS
  62
7
  10
 698.24200000000
  20
 334.48000000000
  30
0.0
  11
 699.13800000000
  21
 331.14000000000
  31
0.0
   0
LINE
   5
259
 100
AcDbEntity
   8
LEVEL002
 100
AcDbLine
   6
CONTINUOUS
  62
7
  10
 699.13800000000
  20
 331.14000000000
  30
0.0
  11
 702.48400000000
  21
 330.24000000000
  31
0.0
   0
LINE
   5
25A
 100
AcDbEntity
   8
LEVEL002
 100
AcDbLine
   6
CONTINUOUS
  62
7
  10
 702.48400000000
  20
 330.24000000000
  30
0.0
  11
 704.93400000000
  21
 332.69000000000
  31
0.0
   0
LINE
   5
25B
 100
AcDbEntity
   8
LEVEL002
 100
AcDbLine
   6
CONTINUOUS
  62
7
  10
 704.93400000000
  20
 332.69000000000
  30
0.0
  11
 704.03700000000
  21
 336.04000000000
  31
0.0
   0
CIRCLE
   5
25C
 100
AcDbEntity
   8
LEVEL002
 100
AcDbCircle
   6
CONTINUOUS
  62
7
  10
 634.41300000000
  20
 333.59000000000
  30
0.0
  40
 6.5000000000000
   0
CIRCLE
   5
25D
 100
AcDbEntity
   8
LEVEL002
 100
AcDbCircle
   6
CONTINUOUS
  62
7
  10
 634.41300000000
  20
 333.59000000000
  30
0.0
  40
 5.8071800000000
   0
LINE
   5
25E
 100
AcDbEntity
   8
LEVEL002
 100
AcDbLine
   6
CONTINUOUS
  62
7
  10
 631.96300000000
  20
 336.04000000000
  30
0.0
  11
 631.06600000000
  21
 332.69000000000
  31
0.0
   0
LINE
   5
25F
 100
AcDbEntity
   8
LEVEL002
 100
AcDbLine
   6
CONTINUOUS
  62
7
  10
 631.06600000000
  20
 332.69000000000
  30
0.0
  11
 633.51600000000
  21
 330.24000000000
  31
0.0
   0
LINE
   5
260
 100
AcDbEntity
   8
LEVEL002
 100
AcDbLine
   6
CONTINUOUS
  62
7
  10
 633.51600000000
  20
 330.24000000000
  30
0.0
  11
 636.86200000000
  21
 331.14000000000
  31
0.0
   0
LINE
   5
261
 100
AcDbEntity
   8
LEVEL002
 100
AcDbLine
   6
CONTINUOUS
  62
7
  10
 636.86200000000
  20
 331.14000000000
  30
0.0
  11
 637.75900000000
  21
 334.48000000000
  31
0.0
   0
LINE
   5
262
 100
AcDbEntity
   8
LEVEL002
 100
AcDbLine
   6
CONTINUOUS
  62
7
  10
 637.75900000000
  20
 334.48000000000
  30
0.0
  11
 635.30900000000
  21
 336.93000000000
  31
0.0
   0
LINE
   5
263
 100
AcDbEntity
   8
LEVEL002
 100
AcDbLine
   6
CONTINUOUS
  62
7
  10
 635.30900000000
  20
 336.93000000000
  30
0.0
  11
 631.96300000000
  21
 336.04000000000
  31
0.0
   0
CIRCLE
   5
264
 100
AcDbEntity
   8
LEVEL002
 100
AcDbCircle
   6
CONTINUOUS
  62
7
  10
 634.41200000000
  20
 266.41000000000
  30
0.0
  40
 6.5000000000000
   0
CIRCLE
   5
265
 100
AcDbEntity
   8
LEVEL002
 100
AcDbCircle
   6
CONTINUOUS
  62
7
  10
 634.41200000000
  20
 266.41000000000
  30
0.0
  40
 5.8071800000000
   0
LINE
   5
266
 100
AcDbEntity
   8
LEVEL002
 100
AcDbLine
   6
CONTINUOUS
  62
7
  10
 631.96300000000
  20
 263.96000000000
  30
0.0
  11
 635.30900000000
  21
 263.07000000000
  31
0.0
   0
LINE
   5
267
 100
AcDbEntity
   8
LEVEL002
 100
AcDbLine
   6
CONTINUOUS
  62
7
  10
 635.30900000000
  20
 263.07000000000
  30
0.0
  11
 637.75800000000
  21
 265.52000000000
  31
0.0
   0
LINE
   5
268
 100
AcDbEntity
   8
LEVEL002
 100
AcDbLine
   6
CONTINUOUS
  62
7
  10
 637.75800000000
  20
 265.52000000000
  30
0.0
  11
 636.86200000000
  21
 268.86000000000
  31
0.0
   0
LINE
   5
269
 100
AcDbEntity
   8
LEVEL002
 100
AcDbLine
   6
CONTINUOUS
  62
7
  10
 636.86200000000
  20
 268.86000000000
  30
0.0
  11
 633.51600000000
  21
 269.76000000000
  31
0.0
   0
LINE
   5
26A
 100
AcDbEntity
   8
LEVEL002
 100
AcDbLine
   6
CONTINUOUS
  62
7
  10
 633.51600000000
  20
 269.76000000000
  30
0.0
  11
 631.06600000000
  21
 267.31000000000
  31
0.0
   0
LINE
   5
26B
 100
AcDbEntity
   8
LEVEL002
 100
AcDbLine
   6
CONTINUOUS
  62
7
  10
 631.06600000000
  20
 267.31000000000
  30
0.0
  11
 631.96300000000
  21
 263.96000000000
  31
0.0
   0
CIRCLE
   5
26C
 100
AcDbEntity
   8
LEVEL002
 100
AcDbCircle
   6
CONTINUOUS
  62
7
  10
 701.58700000000
  20
 266.41000000000
  30
0.0
  40
 6.5000000000000
   0
CIRCLE
   5
26D
 100
AcDbEntity
   8
LEVEL002
 100
AcDbCircle
   6
CONTINUOUS
  62
7
  10
 701.58700000000
  20
 266.41000000000
  30
0.0
  40
 5.8071800000000
   0
LINE
   5
26E
 100
AcDbEntity
   8
LEVEL002
 100
AcDbLine
   6
CONTINUOUS
  62
7
  10
 704.03700000000
  20
 263.96000000000
  30
0.0
  11
 704.93300000000
  21
 267.31000000000
  31
0.0
   0
LINE
   5
26F
 100
AcDbEntity
   8
LEVEL002
 100
AcDbLine
   6
CONTINUOUS
  62
7
  10
 704.93300000000
  20
 267.31000000000
  30
0.0
  11
 702.48400000000
  21
 269.76000000000
  31
0.0
   0
LINE
   5
270
 100
AcDbEntity
   8
LEVEL002
 100
AcDbLine
   6
CONTINUOUS
  62
7
  10
 702.48400000000
  20
 269.76000000000
  30
0.0
  11
 699.13800000000
  21
 268.86000000000
  31
0.0
   0
LINE
   5
271
 100
AcDbEntity
   8
LEVEL002
 100
AcDbLine
   6
CONTINUOUS
  62
7
  10
 699.13800000000
  20
 268.86000000000
  30
0.0
  11
 698.24100000000
  21
 265.52000000000
  31
0.0
   0
LINE
   5
272
 100
AcDbEntity
   8
LEVEL002
 100
AcDbLine
   6
CONTINUOUS
  62
7
  10
 698.24100000000
  20
 265.52000000000
  30
0.0
  11
 700.69100000000
  21
 263.07000000000
  31
0.0
   0
LINE
   5
273
 100
AcDbEntity
   8
LEVEL002
 100
AcDbLine
   6
CONTINUOUS
  62
7
  10
 700.69100000000
  20
 263.07000000000
  30
0.0
  11
 704.03700000000
  21
 263.96000000000
  31
0.0
   0
LINE
   5
274
 100
AcDbEntity
   8
LEVEL002
 100
AcDbLine
   6
CONTINUOUS
  62
7
  10
 725.50000000000
  20
 150.00000000000
  30
0.0
  11
 834.50000000000
  21
 150.00000000000
  31
0.0
   0
LINE
   5
275
 100
AcDbEntity
   8
LEVEL002
 100
AcDbLine
   6
CONTINUOUS
  62
7
  10
 888.58300000000
  20
 268.45000000000
  30
0.0
  11
 740.00000000000
  21
 268.45000000000
  31
0.0
   0
LINE
   5
276
 100
AcDbEntity
   8
LEVEL002
 100
AcDbLine
   6
CONTINUOUS
  62
7
  10
 888.58300000000
  20
 329.97000000000
  30
0.0
  11
 729.20000000000
  21
 329.97000000000
  31
0.0
   0
LINE
   5
277
 100
AcDbEntity
   8
LEVEL002
 100
AcDbLine
   6
CONTINUOUS
  62
7
  10
 859.88300000000
  20
 400.00000000000
  30
0.0
  11
 700.11700000000
  21
 400.00000000000
  31
0.0
   0
ARC
   5
278
 100
AcDbEntity
   8
LEVEL002
   6
CONTINUOUS
  62
7
 100
AcDbCircle
  10
 616.32600000000
  20
 296.50000000000
  30
0.0
  40
 10.109300000000
 100
AcDbArc
  50
 159.74400000000
  51
 200.25600000000
   0
ARC
   5
279
 100
AcDbEntity
   8
LEVEL002
   6
CONTINUOUS
  62
7
 100
AcDbCircle
  10
 616.32600000000
  20
 303.50000000000
  30
0.0
  40
 10.109300000000
 100
AcDbArc
  50
 159.74400000000
  51
 200.25600000000
   0
LINE
   5
27A
 100
AcDbEntity
   8
LEVEL002
 100
AcDbLine
   6
CONTINUOUS
  62
7
  10
 606.25000000000
  20
 293.00000000000
  30
0.0
  11
 605.86600000000
  21
 293.66000000000
  31
0.0
   0
LINE
   5
27B
 100
AcDbEntity
   8
LEVEL002
 100
AcDbLine
   6
CONTINUOUS
  62
7
  10
 606.25000000000
  20
 307.00000000000
  30
0.0
  11
 606.25000000000
  21
 293.00000000000
  31
0.0
   0
LINE
   5
27C
 100
AcDbEntity
   8
LEVEL002
 100
AcDbLine
   6
CONTINUOUS
  62
7
  10
 605.86600000000
  20
 293.66000000000
  30
0.0
  11
 605.86600000000
  21
 306.34000000000
  31
0.0
   0
LINE
   5
27D
 100
AcDbEntity
   8
LEVEL002
 100
AcDbLine
   6
CONTINUOUS
  62
7
  10
 609.99100000000
  20
 300.00000000000
  30
0.0
  11
 606.84200000000
  21
 300.00000000000
  31
0.0
   0
LINE
   5
27E
 100
AcDbEntity
   8
LEVEL002
 100
AcDbLine
   6
CONTINUOUS
  62
7
  10
 606.25000000000
  20
 293.00000000000
  30
0.0
  11
 610.61600000000
  21
 293.00000000000
  31
0.0
   0
LINE
   5
27F
 100
AcDbEntity
   8
LEVEL002
 100
AcDbLine
   6
CONTINUOUS
  62
7
  10
 610.61600000000
  20
 293.00000000000
  30
0.0
  11
 610.61600000000
  21
 307.00000000000
  31
0.0
   0
LINE
   5
280
 100
AcDbEntity
   8
LEVEL002
 100
AcDbLine
   6
CONTINUOUS
  62
7
  10
 610.61600000000
  20
 307.00000000000
  30
0.0
  11
 606.25000000000
  21
 307.00000000000
  31
0.0
   0
LINE
   5
281
 100
AcDbEntity
   8
LEVEL002
 100
AcDbLine
   6
CONTINUOUS
  62
7
  10
 606.25000000000
  20
 307.00000000000
  30
0.0
  11
 605.86600000000
  21
 306.34000000000
  31
0.0
   0
LINE
   5
282
 100
AcDbEntity
   8
LEVEL002
 100
AcDbLine
   6
CONTINUOUS
  62
7
  10
 611.50000000000
  20
 294.28000000000
  30
0.0
  11
 611.50000000000
  21
 305.72000000000
  31
0.0
   0
ARC
   5
283
 100
AcDbEntity
   8
LEVEL002
   6
CONTINUOUS
  62
7
 100
AcDbCircle
  10
 600.10100000000
  20
 309.25000000000
  30
0.0
  40
 3.2000000000000
 100
AcDbArc
  50
 266.90299999992
  51
 294.23199999991
   0
ARC
   5
284
 100
AcDbEntity
   8
LEVEL002
   6
CONTINUOUS
  62
7
 100
AcDbCircle
  10
 593.81199999999
  20
 306.64999999999
  30
0.0
  40
 3.2000000000000
 100
AcDbArc
  50
 290.76800000016
  51
 318.09800000018
   0
ARC
   5
285
 100
AcDbEntity
   8
LEVEL002
   6
CONTINUOUS
  62
7
 100
AcDbCircle
  10
 595.34199999999
  20
 302.96000000000
  30
0.0
  40
 3.2000000000000
 100
AcDbArc
  50
 86.902999999818
  51
 114.23199999979
   0
ARC
   5
286
 100
AcDbEntity
   8
LEVEL002
   6
CONTINUOUS
  62
7
 100
AcDbCircle
  10
 595.62200000000
  20
 311.17000000000
  30
0.0
  40
 6.6873800000000
 100
AcDbArc
  50
 274.91200000000
  51
 310.08800000000
   0
ARC
   5
287
 100
AcDbEntity
   8
LEVEL002
   6
CONTINUOUS
  62
7
 100
AcDbCircle
  10
 596.11400000000
  20
 309.98000000000
  30
0.0
  40
 6.4350600000000
 100
AcDbArc
  50
 259.55100000001
  51
 325.44900000002
   0
ARC
   5
288
 100
AcDbEntity
   8
LEVEL002
   6
CONTINUOUS
  62
7
 100
AcDbCircle
  10
 598.10400000000
  20
 296.66000000000
  30
0.0
  40
 3.0000000000000
 100
AcDbArc
  50
 208.73099999995
  51
 269.99999999991
   0
ARC
   5
289
 100
AcDbEntity
   8
LEVEL002
   6
CONTINUOUS
  62
7
 100
AcDbCircle
  10
 604.18800000000
  20
 300.00000000000
  30
0.0
  40
 9.9381100000000
 100
AcDbArc
  50
 158.41299999999
  51
 208.73099999999
   0
LINE
   5
28A
 100
AcDbEntity
   8
LEVEL002
 100
AcDbLine
   6
CONTINUOUS
  62
7
  10
 601.79500000000
  20
 306.83000000000
  30
0.0
  11
 601.41400000000
  21
 306.34000000000
  31
0.0
   0
LINE
   5
28B
 100
AcDbEntity
   8
LEVEL002
 100
AcDbLine
   6
CONTINUOUS
  62
7
  10
 601.41400000000
  20
 306.34000000000
  30
0.0
  11
 594.94700000000
  21
 303.66000000000
  31
0.0
   0
LINE
   5
28C
 100
AcDbEntity
   8
LEVEL002
 100
AcDbLine
   6
CONTINUOUS
  62
7
  10
 594.94700000000
  20
 303.66000000000
  30
0.0
  11
 594.32700000000
  21
 303.74000000000
  31
0.0
   0
LINE
   5
28D
 100
AcDbEntity
   8
LEVEL002
 100
AcDbLine
   6
CONTINUOUS
  62
7
  10
 594.32700000000
  20
 303.74000000000
  30
0.0
  11
 593.64800000000
  21
 305.38000000000
  31
0.0
   0
LINE
   5
28E
 100
AcDbEntity
   8
LEVEL002
 100
AcDbLine
   6
CONTINUOUS
  62
7
  10
 593.64800000000
  20
 305.38000000000
  30
0.0
  11
 594.02900000000
  21
 305.87000000000
  31
0.0
   0
LINE
   5
28F
 100
AcDbEntity
   8
LEVEL002
 100
AcDbLine
   6
CONTINUOUS
  62
7
  10
 594.02900000000
  20
 305.87000000000
  30
0.0
  11
 600.49600000000
  21
 308.55000000000
  31
0.0
   0
LINE
   5
290
 100
AcDbEntity
   8
LEVEL002
 100
AcDbLine
   6
CONTINUOUS
  62
7
  10
 600.49600000000
  20
 308.55000000000
  30
0.0
  11
 601.11600000000
  21
 308.47000000000
  31
0.0
   0
LINE
   5
291
 100
AcDbEntity
   8
LEVEL002
 100
AcDbLine
   6
CONTINUOUS
  62
7
  10
 601.11600000000
  20
 308.47000000000
  30
0.0
  11
 601.79500000000
  21
 306.83000000000
  31
0.0
   0
LINE
   5
292
 100
AcDbEntity
   8
LEVEL002
 100
AcDbLine
   6
CONTINUOUS
  62
7
  10
 599.92800000000
  20
 306.06000000000
  30
0.0
  11
 599.24900000000
  21
 307.70000000000
  31
0.0
   0
LINE
   5
293
 100
AcDbEntity
   8
LEVEL002
 100
AcDbLine
   6
CONTINUOUS
  62
7
  10
 596.19400000000
  20
 304.51000000000
  30
0.0
  11
 595.51500000000
  21
 306.15000000000
  31
0.0
   0
LINE
   5
294
 100
AcDbEntity
   8
LEVEL002
 100
AcDbLine
   6
CONTINUOUS
  62
7
  10
 598.10400000000
  20
 293.66000000000
  30
0.0
  11
 605.86600000000
  21
 293.66000000000
  31
0.0
   0
ARC
   5
295
 100
AcDbEntity
   8
LEVEL002
   6
CONTINUOUS
  62
7
 100
AcDbCircle
  10
 588.19800000000
  20
 307.13999999999
  30
0.0
  40
 6.0000000000000
 100
AcDbArc
  50
 347.98100000012
  51
 357.56700000013
   0
ARC
   5
296
 100
AcDbEntity
   8
LEVEL002
   6
CONTINUOUS
  62
7
 100
AcDbCircle
  10
 600.20699999998
  20
 309.74000000002
  30
0.0
  40
 0.80000000000000
 100
AcDbArc
  50
 176.57300000121
  51
 227.42800000190
   0
ARC
   5
297
 100
AcDbEntity
   8
LEVEL002
   6
CONTINUOUS
  62
7
 100
AcDbCircle
  10
 595.17700000000
  20
 312.25000000001
  30
0.0
  40
 1.0000000000000
 100
AcDbArc
  50
 36.976999999510
  51
 188.02100000057
   0
ARC
   5
298
 100
AcDbEntity
   8
LEVEL002
   6
CONTINUOUS
  62
7
 100
AcDbCircle
  10
 601.63099999999
  20
 305.55999999999
  30
0.0
  40
 3.2000000000000
 100
AcDbArc
  50
 110.76799999984
  51
 138.09799999982
   0
ARC
   5
299
 100
AcDbEntity
   8
LEVEL002
   6
CONTINUOUS
  62
7
 100
AcDbCircle
  10
 599.82100000000
  20
 301.03000000000
  30
0.0
  40
 6.6873800000000
 100
AcDbArc
  50
 94.911999999995
  51
 130.08799999999
   0
ARC
   5
29A
 100
AcDbEntity
   8
LEVEL002
   6
CONTINUOUS
  62
7
 100
AcDbCircle
  10
 596.11400000000
  20
 309.98000000000
  30
0.0
  40
 3.3000000000000
 100
AcDbArc
  50
 356.58199999995
  51
 22.499999999946
   0
ARC
   5
29B
 100
AcDbEntity
   8
LEVEL002
   6
CONTINUOUS
  62
7
 100
AcDbCircle
  10
 603.72500000000
  20
 313.57000000000
  30
0.0
  40
 6.0000000000000
 100
AcDbArc
  50
 227.43100000003
  51
 237.01700000003
   0
LINE
   5
29C
 100
AcDbEntity
   8
LEVEL002
 100
AcDbLine
   6
CONTINUOUS
  62
7
  10
 595.08100000000
  20
 312.48000000000
  30
0.0
  11
 597.29800000000
  21
 313.40000000000
  31
0.0
   0
LINE
   5
29D
 100
AcDbEntity
   8
LEVEL002
 100
AcDbLine
   6
CONTINUOUS
  62
7
  10
 597.29800000000
  20
 313.40000000000
  30
0.0
  11
 599.16300000000
  21
 311.25000000000
  31
0.0
   0
LINE
   5
29E
 100
AcDbEntity
   8
LEVEL002
 100
AcDbLine
   6
CONTINUOUS
  62
7
  10
 599.16300000000
  20
 311.25000000000
  30
0.0
  11
 596.11400000000
  21
 309.98000000000
  31
0.0
   0
LINE
   5
29F
 100
AcDbEntity
   8
LEVEL002
 100
AcDbLine
   6
CONTINUOUS
  62
7
  10
 596.11400000000
  20
 309.98000000000
  30
0.0
  11
 593.06500000000
  21
 308.72000000000
  31
0.0
   0
LINE
   5
2A0
 100
AcDbEntity
   8
LEVEL002
 100
AcDbLine
   6
CONTINUOUS
  62
7
  10
 593.06500000000
  20
 308.72000000000
  30
0.0
  11
 592.86400000000
  21
 311.56000000000
  31
0.0
   0
LINE
   5
2A1
 100
AcDbEntity
   8
LEVEL002
 100
AcDbLine
   6
CONTINUOUS
  62
7
  10
 592.86400000000
  20
 311.56000000000
  30
0.0
  11
 595.08100000000
  21
 312.48000000000
  31
0.0
   0
LINE
   5
2A2
 100
AcDbEntity
   8
LEVEL002
 100
AcDbLine
   6
CONTINUOUS
  62
7
  10
 599.46500000000
  20
 309.44000000000
  30
0.0
  11
 594.14100000000
  21
 307.23000000000
  31
0.0
   0
LINE
   5
2A3
 100
AcDbEntity
   8
LEVEL002
 100
AcDbLine
   6
CONTINUOUS
  62
7
  10
 601.41400000000
  20
 306.34000000000
  30
0.0
  11
 605.86600000000
  21
 306.34000000000
  31
0.0
   0
ARC
   5
2A4
 100
AcDbEntity
   8
LEVEL002
   6
CONTINUOUS
  62
7
 100
AcDbCircle
  10
 593.39300000001
  20
 306.91999999999
  30
0.0
  40
 0.80000000000000
 100
AcDbArc
  50
 357.57500000087
  51
 48.426000001371
   0
ARC
   5
2A5
 100
AcDbEntity
   8
LEVEL002
   6
CONTINUOUS
  62
7
 100
AcDbCircle
  10
 596.11400000000
  20
 309.98000000000
  30
0.0
  40
 3.3000000000000
 100
AcDbArc
  50
 202.50000000003
  51
 228.41800000003
   0
ARC
   5
2A6
 100
AcDbEntity
   8
LEVEL002
   6
CONTINUOUS
  62
7
 100
AcDbCircle
  10
 600.50700000000
  20
 303.50000000000
  30
0.0
  40
 10.109300000000
 100
AcDbArc
  50
 339.74400000000
  51
 20.256000000003
   0
ARC
   5
2A7
 100
AcDbEntity
   8
LEVEL002
   6
CONTINUOUS
  62
7
 100
AcDbCircle
  10
 600.50700000000
  20
 296.50000000000
  30
0.0
  40
 10.109300000000
 100
AcDbArc
  50
 339.74400000000
  51
 20.255999999996
   0
LINE
   5
2A8
 100
AcDbEntity
   8
LEVEL002
 100
AcDbLine
   6
CONTINUOUS
  62
7
  10
 610.61600000000
  20
 293.39000000000
  30
0.0
  11
 611.88300000000
  21
 293.43000000000
  31
0.0
   0
LINE
   5
2A9
 100
AcDbEntity
   8
LEVEL002
 100
AcDbLine
   6
CONTINUOUS
  62
7
  10
 611.88300000000
  20
 306.57000000000
  30
0.0
  11
 610.61600000000
  21
 306.61000000000
  31
0.0
   0
LINE
   5
2AA
 100
AcDbEntity
   8
LEVEL002
 100
AcDbLine
   6
CONTINUOUS
  62
7
  10
 610.61600000000
  20
 293.39000000000
  30
0.0
  11
 611.50000000000
  21
 294.28000000000
  31
0.0
   0
LINE
   5
2AB
 100
AcDbEntity
   8
LEVEL002
 100
AcDbLine
   6
CONTINUOUS
  62
7
  10
 611.50000000000
  20
 294.28000000000
  30
0.0
  11
 611.79000000000
  21
 294.29000000000
  31
0.0
   0
LINE
   5
2AC
 100
AcDbEntity
   8
LEVEL002
 100
AcDbLine
   6
CONTINUOUS
  62
7
  10
 610.61600000000
  20
 306.61000000000
  30
0.0
  11
 611.50000000000
  21
 305.72000000000
  31
0.0
   0
LINE
   5
2AD
 100
AcDbEntity
   8
LEVEL002
 100
AcDbLine
   6
CONTINUOUS
  62
7
  10
 611.50000000000
  20
 305.72000000000
  30
0.0
  11
 611.79000000000
  21
 305.71000000000
  31
0.0
   0
LINE
   5
2AE
 100
AcDbEntity
   8
LEVEL002
 100
AcDbLine
   6
CONTINUOUS
  62
7
  10
 603.25500000000
  20
 273.26000000000
  30
0.0
  11
 608.10300000000
  21
 293.00000000000
  31
0.0
   0
LINE
   5
2AF
 100
AcDbEntity
   8
LEVEL002
 100
AcDbLine
   6
CONTINUOUS
  62
7
  10
 611.43700000000
  20
 306.58000000000
  30
0.0
  11
 613.13000000000
  21
 313.47000000000
  31
0.0
   0
LINE
   5
2B0
 100
AcDbEntity
   8
LEVEL002
 100
AcDbLine
   6
CONTINUOUS
  62
7
  10
 814.00000000000
  20
 45.000000000000
  30
0.0
  11
 814.00000000000
  21
 113.00000000000
  31
0.0
   0
LINE
   5
2B1
 100
AcDbEntity
   8
LEVEL002
 100
AcDbLine
   6
CONTINUOUS
  62
7
  10
 814.00000000000
  20
 45.000000000000
  30
0.0
  11
 746.00000000000
  21
 45.000000000000
  31
0.0
   0
LINE
   5
2B2
 100
AcDbEntity
   8
LEVEL002
 100
AcDbLine
   6
CONTINUOUS
  62
7
  10
 815.00000000000
  20
 46.000000000000
  30
0.0
  11
 815.00000000000
  21
 112.00000000000
  31
0.0
   0
LINE
   5
2B3
 100
AcDbEntity
   8
LEVEL002
 100
AcDbLine
   6
CONTINUOUS
  62
7
  10
 745.00000000000
  20
 46.000000000000
  30
0.0
  11
 815.00000000000
  21
 46.000000000000
  31
0.0
   0
LINE
   5
2B4
 100
AcDbEntity
   8
LEVEL002
 100
AcDbLine
   6
CONTINUOUS
  62
7
  10
 830.80000000000
  20
 805.50000000000
  30
0.0
  11
 830.80000000000
  21
 424.73200000000
  31
0.0
   0
LINE
   5
2B5
 100
AcDbEntity
   8
LEVEL002
 100
AcDbLine
   6
CONTINUOUS
  62
7
  10
 729.20000000000
  20
 805.50000000000
  30
0.0
  11
 729.20000000000
  21
 424.73200000000
  31
0.0
   0
LINE
   5
2B6
 100
AcDbEntity
   8
LEVEL002
 100
AcDbLine
   6
CONTINUOUS
  62
7
  10
 132.31900000000
  20
 250.00000000000
  30
0.0
  11
 189.77300000000
  21
 250.00000000000
  31
0.0
   0
LINE
   5
2B7
 100
AcDbEntity
   8
LEVEL002
 100
AcDbLine
   6
CONTINUOUS
  62
7
  10
 266.82900000000
  20
 250.00000000000
  30
0.0
  11
 326.31100000000
  21
 250.00000000000
  31
0.0
   0
ARC
   5
2B8
 100
AcDbEntity
   8
LEVEL002
   6
CONTINUOUS
  62
7
 100
AcDbCircle
  10
 245.81400000000
  20
 243.00000000000
  30
0.0
  40
 8.0000000000000
 100
AcDbArc
  50
 177.79700000000
  51
 270.00000000000
   0
LINE
   5
2B9
 100
AcDbEntity
   8
LEVEL002
 100
AcDbLine
   6
CONTINUOUS
  62
7
  10
 120.00000000000
  20
 235.00000000000
  30
0.0
  11
 340.00000000000
  21
 235.00000000000
  31
0.0
   0
ARC
   5
2BA
 100
AcDbEntity
   8
LEVEL002
   6
CONTINUOUS
  62
7
 100
AcDbCircle
  10
 214.18600000000
  20
 243.00000000000
  30
0.0
  40
 8.0000000000000
 100
AcDbArc
  50
 270.00000000000
  51
 2.2025999999985
   0
LINE
   5
2BB
 100
AcDbEntity
   8
LEVEL002
 100
AcDbLine
   6
CONTINUOUS
  62
7
  10
 220.29600000000
  20
 299.04100000000
  30
0.0
  11
 222.18000000000
  21
 243.30700000000
  31
0.0
   0
ARC
   5
2BC
 100
AcDbEntity
   8
LEVEL002
   6
CONTINUOUS
  62
7
 100
AcDbCircle
  10
 212.30200000000
  20
 298.73300000000
  30
0.0
  40
 8.0000000000000
 100
AcDbArc
  50
 2.2026000000006
  51
 90.000000000011
   0
LINE
   5
2BD
 100
AcDbEntity
   8
LEVEL002
 100
AcDbLine
   6
CONTINUOUS
  62
7
  10
 239.70400000000
  20
 299.04100000000
  30
0.0
  11
 237.82000000000
  21
 243.30700000000
  31
0.0
   0
ARC
   5
2BE
 100
AcDbEntity
   8
LEVEL002
   6
CONTINUOUS
  62
7
 100
AcDbCircle
  10
 247.69800000000
  20
 298.73300000000
  30
0.0
  40
 8.0000000000000
 100
AcDbArc
  50
 90.000000000000
  51
 177.79700000000
   0
LINE
   5
2BF
 100
AcDbEntity
   8
LEVEL002
 100
AcDbLine
   6
CONTINUOUS
  62
7
  10
 267.40000000000
  20
 312.47700000000
  30
0.0
  11
 267.39100000000
  21
 312.55700000000
  31
0.0
   0
LINE
   5
2C0
 100
AcDbEntity
   8
LEVEL002
 100
AcDbLine
   6
CONTINUOUS
  62
7
  10
 267.39100000000
  20
 312.55700000000
  30
0.0
  11
 267.36400000000
  21
 312.63700000000
  31
0.0
   0
LINE
   5
2C1
 100
AcDbEntity
   8
LEVEL002
 100
AcDbLine
   6
CONTINUOUS
  62
7
  10
 267.36400000000
  20
 312.63700000000
  30
0.0
  11
 267.31800000000
  21
 312.71500000000
  31
0.0
   0
LINE
   5
2C2
 100
AcDbEntity
   8
LEVEL002
 100
AcDbLine
   6
CONTINUOUS
  62
7
  10
 267.31800000000
  20
 312.71500000000
  30
0.0
  11
 267.25500000000
  21
 312.79200000000
  31
0.0
   0
LINE
   5
2C3
 100
AcDbEntity
   8
LEVEL002
 100
AcDbLine
   6
CONTINUOUS
  62
7
  10
 267.25500000000
  20
 312.79200000000
  30
0.0
  11
 267.17500000000
  21
 312.86600000000
  31
0.0
   0
LINE
   5
2C4
 100
AcDbEntity
   8
LEVEL002
 100
AcDbLine
   6
CONTINUOUS
  62
7
  10
 267.17500000000
  20
 312.86600000000
  30
0.0
  11
 267.07800000000
  21
 312.93700000000
  31
0.0
   0
LINE
   5
2C5
 100
AcDbEntity
   8
LEVEL002
 100
AcDbLine
   6
CONTINUOUS
  62
7
  10
 267.07800000000
  20
 312.93700000000
  30
0.0
  11
 266.96600000000
  21
 313.00400000000
  31
0.0
   0
LINE
   5
2C6
 100
AcDbEntity
   8
LEVEL002
 100
AcDbLine
   6
CONTINUOUS
  62
7
  10
 266.96600000000
  20
 313.00400000000
  30
0.0
  11
 266.83900000000
  21
 313.06800000000
  31
0.0
   0
LINE
   5
2C7
 100
AcDbEntity
   8
LEVEL002
 100
AcDbLine
   6
CONTINUOUS
  62
7
  10
 266.83900000000
  20
 313.06800000000
  30
0.0
  11
 266.69700000000
  21
 313.12700000000
  31
0.0
   0
LINE
   5
2C8
 100
AcDbEntity
   8
LEVEL002
 100
AcDbLine
   6
CONTINUOUS
  62
7
  10
 266.69700000000
  20
 313.12700000000
  30
0.0
  11
 266.54300000000
  21
 313.18100000000
  31
0.0
   0
LINE
   5
2C9
 100
AcDbEntity
   8
LEVEL002
 100
AcDbLine
   6
CONTINUOUS
  62
7
  10
 266.54300000000
  20
 313.18100000000
  30
0.0
  11
 266.37700000000
  21
 313.23000000000
  31
0.0
   0
LINE
   5
2CA
 100
AcDbEntity
   8
LEVEL002
 100
AcDbLine
   6
CONTINUOUS
  62
7
  10
 266.37700000000
  20
 313.23000000000
  30
0.0
  11
 266.20000000000
  21
 313.27300000000
  31
0.0
   0
LINE
   5
2CB
 100
AcDbEntity
   8
LEVEL002
 100
AcDbLine
   6
CONTINUOUS
  62
7
  10
 266.20000000000
  20
 313.27300000000
  30
0.0
  11
 266.01400000000
  21
 313.31000000000
  31
0.0
   0
LINE
   5
2CC
 100
AcDbEntity
   8
LEVEL002
 100
AcDbLine
   6
CONTINUOUS
  62
7
  10
 266.01400000000
  20
 313.31000000000
  30
0.0
  11
 265.82100000000
  21
 313.34000000000
  31
0.0
   0
LINE
   5
2CD
 100
AcDbEntity
   8
LEVEL002
 100
AcDbLine
   6
CONTINUOUS
  62
7
  10
 265.82100000000
  20
 313.34000000000
  30
0.0
  11
 265.62100000000
  21
 313.36500000000
  31
0.0
   0
LINE
   5
2CE
 100
AcDbEntity
   8
LEVEL002
 100
AcDbLine
   6
CONTINUOUS
  62
7
  10
 265.62100000000
  20
 313.36500000000
  30
0.0
  11
 265.41700000000
  21
 313.38200000000
  31
0.0
   0
LINE
   5
2CF
 100
AcDbEntity
   8
LEVEL002
 100
AcDbLine
   6
CONTINUOUS
  62
7
  10
 265.41700000000
  20
 313.38200000000
  30
0.0
  11
 265.20900000000
  21
 313.39200000000
  31
0.0
   0
LINE
   5
2D0
 100
AcDbEntity
   8
LEVEL002
 100
AcDbLine
   6
CONTINUOUS
  62
7
  10
 265.20900000000
  20
 313.39200000000
  30
0.0
  11
 265.00000000000
  21
 313.39600000000
  31
0.0
   0
LINE
   5
2D1
 100
AcDbEntity
   8
LEVEL002
 100
AcDbLine
   6
CONTINUOUS
  62
7
  10
 265.00000000000
  20
 313.39600000000
  30
0.0
  11
 264.79100000000
  21
 313.39200000000
  31
0.0
   0
LINE
   5
2D2
 100
AcDbEntity
   8
LEVEL002
 100
AcDbLine
   6
CONTINUOUS
  62
7
  10
 264.79100000000
  20
 313.39200000000
  30
0.0
  11
 264.58300000000
  21
 313.38200000000
  31
0.0
   0
LINE
   5
2D3
 100
AcDbEntity
   8
LEVEL002
 100
AcDbLine
   6
CONTINUOUS
  62
7
  10
 264.58300000000
  20
 313.38200000000
  30
0.0
  11
 264.37900000000
  21
 313.36500000000
  31
0.0
   0
LINE
   5
2D4
 100
AcDbEntity
   8
LEVEL002
 100
AcDbLine
   6
CONTINUOUS
  62
7
  10
 264.37900000000
  20
 313.36500000000
  30
0.0
  11
 264.17900000000
  21
 313.34000000000
  31
0.0
   0
LINE
   5
2D5
 100
AcDbEntity
   8
LEVEL002
 100
AcDbLine
   6
CONTINUOUS
  62
7
  10
 264.17900000000
  20
 313.34000000000
  30
0.0
  11
 263.98600000000
  21
 313.31000000000
  31
0.0
   0
LINE
   5
2D6
 100
AcDbEntity
   8
LEVEL002
 100
AcDbLine
   6
CONTINUOUS
  62
7
  10
 263.98600000000
  20
 313.31000000000
  30
0.0
  11
 263.80000000000
  21
 313.27300000000
  31
0.0
   0
LINE
   5
2D7
 100
AcDbEntity
   8
LEVEL002
 100
AcDbLine
   6
CONTINUOUS
  62
7
  10
 263.80000000000
  20
 313.27300000000
  30
0.0
  11
 263.62300000000
  21
 313.23000000000
  31
0.0
   0
LINE
   5
2D8
 100
AcDbEntity
   8
LEVEL002
 100
AcDbLine
   6
CONTINUOUS
  62
7
  10
 263.62300000000
  20
 313.23000000000
  30
0.0
  11
 263.45700000000
  21
 313.18100000000
  31
0.0
   0
LINE
   5
2D9
 100
AcDbEntity
   8
LEVEL002
 100
AcDbLine
   6
CONTINUOUS
  62
7
  10
 263.45700000000
  20
 313.18100000000
  30
0.0
  11
 263.30300000000
  21
 313.12700000000
  31
0.0
   0
LINE
   5
2DA
 100
AcDbEntity
   8
LEVEL002
 100
AcDbLine
   6
CONTINUOUS
  62
7
  10
 263.30300000000
  20
 313.12700000000
  30
0.0
  11
 263.16100000000
  21
 313.06800000000
  31
0.0
   0
LINE
   5
2DB
 100
AcDbEntity
   8
LEVEL002
 100
AcDbLine
   6
CONTINUOUS
  62
7
  10
 263.16100000000
  20
 313.06800000000
  30
0.0
  11
 263.03400000000
  21
 313.00400000000
  31
0.0
   0
LINE
   5
2DC
 100
AcDbEntity
   8
LEVEL002
 100
AcDbLine
   6
CONTINUOUS
  62
7
  10
 263.03400000000
  20
 313.00400000000
  30
0.0
  11
 262.92200000000
  21
 312.93700000000
  31
0.0
   0
LINE
   5
2DD
 100
AcDbEntity
   8
LEVEL002
 100
AcDbLine
   6
CONTINUOUS
  62
7
  10
 262.92200000000
  20
 312.93700000000
  30
0.0
  11
 262.82500000000
  21
 312.86600000000
  31
0.0
   0
LINE
   5
2DE
 100
AcDbEntity
   8
LEVEL002
 100
AcDbLine
   6
CONTINUOUS
  62
7
  10
 262.82500000000
  20
 312.86600000000
  30
0.0
  11
 262.74500000000
  21
 312.79200000000
  31
0.0
   0
LINE
   5
2DF
 100
AcDbEntity
   8
LEVEL002
 100
AcDbLine
   6
CONTINUOUS
  62
7
  10
 262.74500000000
  20
 312.79200000000
  30
0.0
  11
 262.68200000000
  21
 312.71500000000
  31
0.0
   0
LINE
   5
2E0
 100
AcDbEntity
   8
LEVEL002
 100
AcDbLine
   6
CONTINUOUS
  62
7
  10
 262.68200000000
  20
 312.71500000000
  30
0.0
  11
 262.63600000000
  21
 312.63700000000
  31
0.0
   0
LINE
   5
2E1
 100
AcDbEntity
   8
LEVEL002
 100
AcDbLine
   6
CONTINUOUS
  62
7
  10
 262.63600000000
  20
 312.63700000000
  30
0.0
  11
 262.60900000000
  21
 312.55700000000
  31
0.0
   0
LINE
   5
2E2
 100
AcDbEntity
   8
LEVEL002
 100
AcDbLine
   6
CONTINUOUS
  62
7
  10
 262.60900000000
  20
 312.55700000000
  30
0.0
  11
 262.60000000000
  21
 312.47700000000
  31
0.0
   0
LINE
   5
2E3
 100
AcDbEntity
   8
LEVEL002
 100
AcDbLine
   6
CONTINUOUS
  62
7
  10
 262.60000000000
  20
 312.47700000000
  30
0.0
  11
 262.60900000000
  21
 312.39700000000
  31
0.0
   0
LINE
   5
2E4
 100
AcDbEntity
   8
LEVEL002
 100
AcDbLine
   6
CONTINUOUS
  62
7
  10
 262.60900000000
  20
 312.39700000000
  30
0.0
  11
 262.63600000000
  21
 312.31800000000
  31
0.0
   0
LINE
   5
2E5
 100
AcDbEntity
   8
LEVEL002
 100
AcDbLine
   6
CONTINUOUS
  62
7
  10
 262.63600000000
  20
 312.31800000000
  30
0.0
  11
 262.68200000000
  21
 312.24000000000
  31
0.0
   0
LINE
   5
2E6
 100
AcDbEntity
   8
LEVEL002
 100
AcDbLine
   6
CONTINUOUS
  62
7
  10
 262.68200000000
  20
 312.24000000000
  30
0.0
  11
 262.74500000000
  21
 312.16300000000
  31
0.0
   0
LINE
   5
2E7
 100
AcDbEntity
   8
LEVEL002
 100
AcDbLine
   6
CONTINUOUS
  62
7
  10
 262.74500000000
  20
 312.16300000000
  30
0.0
  11
 262.82500000000
  21
 312.08900000000
  31
0.0
   0
LINE
   5
2E8
 100
AcDbEntity
   8
LEVEL002
 100
AcDbLine
   6
CONTINUOUS
  62
7
  10
 262.82500000000
  20
 312.08900000000
  30
0.0
  11
 262.92200000000
  21
 312.01800000000
  31
0.0
   0
LINE
   5
2E9
 100
AcDbEntity
   8
LEVEL002
 100
AcDbLine
   6
CONTINUOUS
  62
7
  10
 262.92200000000
  20
 312.01800000000
  30
0.0
  11
 263.03400000000
  21
 311.95100000000
  31
0.0
   0
LINE
   5
2EA
 100
AcDbEntity
   8
LEVEL002
 100
AcDbLine
   6
CONTINUOUS
  62
7
  10
 263.03400000000
  20
 311.95100000000
  30
0.0
  11
 263.16100000000
  21
 311.88700000000
  31
0.0
   0
LINE
   5
2EB
 100
AcDbEntity
   8
LEVEL002
 100
AcDbLine
   6
CONTINUOUS
  62
7
  10
 263.16100000000
  20
 311.88700000000
  30
0.0
  11
 263.30300000000
  21
 311.82800000000
  31
0.0
   0
LINE
   5
2EC
 100
AcDbEntity
   8
LEVEL002
 100
AcDbLine
   6
CONTINUOUS
  62
7
  10
 263.30300000000
  20
 311.82800000000
  30
0.0
  11
 263.45700000000
  21
 311.77400000000
  31
0.0
   0
LINE
   5
2ED
 100
AcDbEntity
   8
LEVEL002
 100
AcDbLine
   6
CONTINUOUS
  62
7
  10
 263.45700000000
  20
 311.77400000000
  30
0.0
  11
 263.62300000000
  21
 311.72500000000
  31
0.0
   0
LINE
   5
2EE
 100
AcDbEntity
   8
LEVEL002
 100
AcDbLine
   6
CONTINUOUS
  62
7
  10
 263.62300000000
  20
 311.72500000000
  30
0.0
  11
 263.80000000000
  21
 311.68200000000
  31
0.0
   0
LINE
   5
2EF
 100
AcDbEntity
   8
LEVEL002
 100
AcDbLine
   6
CONTINUOUS
  62
7
  10
 263.80000000000
  20
 311.68200000000
  30
0.0
  11
 263.98600000000
  21
 311.64500000000
  31
0.0
   0
LINE
   5
2F0
 100
AcDbEntity
   8
LEVEL002
 100
AcDbLine
   6
CONTINUOUS
  62
7
  10
 263.98600000000
  20
 311.64500000000
  30
0.0
  11
 264.17900000000
  21
 311.61400000000
  31
0.0
   0
LINE
   5
2F1
 100
AcDbEntity
   8
LEVEL002
 100
AcDbLine
   6
CONTINUOUS
  62
7
  10
 264.17900000000
  20
 311.61400000000
  30
0.0
  11
 264.37900000000
  21
 311.59000000000
  31
0.0
   0
LINE
   5
2F2
 100
AcDbEntity
   8
LEVEL002
 100
AcDbLine
   6
CONTINUOUS
  62
7
  10
 264.37900000000
  20
 311.59000000000
  30
0.0
  11
 264.58300000000
  21
 311.57300000000
  31
0.0
   0
LINE
   5
2F3
 100
AcDbEntity
   8
LEVEL002
 100
AcDbLine
   6
CONTINUOUS
  62
7
  10
 264.58300000000
  20
 311.57300000000
  30
0.0
  11
 264.79100000000
  21
 311.56200000000
  31
0.0
   0
LINE
   5
2F4
 100
AcDbEntity
   8
LEVEL002
 100
AcDbLine
   6
CONTINUOUS
  62
7
  10
 264.79100000000
  20
 311.56200000000
  30
0.0
  11
 265.00000000000
  21
 311.55900000000
  31
0.0
   0
LINE
   5
2F5
 100
AcDbEntity
   8
LEVEL002
 100
AcDbLine
   6
CONTINUOUS
  62
7
  10
 265.00000000000
  20
 311.55900000000
  30
0.0
  11
 265.20900000000
  21
 311.56200000000
  31
0.0
   0
LINE
   5
2F6
 100
AcDbEntity
   8
LEVEL002
 100
AcDbLine
   6
CONTINUOUS
  62
7
  10
 265.20900000000
  20
 311.56200000000
  30
0.0
  11
 265.41700000000
  21
 311.57300000000
  31
0.0
   0
LINE
   5
2F7
 100
AcDbEntity
   8
LEVEL002
 100
AcDbLine
   6
CONTINUOUS
  62
7
  10
 265.41700000000
  20
 311.57300000000
  30
0.0
  11
 265.62100000000
  21
 311.59000000000
  31
0.0
   0
LINE
   5
2F8
 100
AcDbEntity
   8
LEVEL002
 100
AcDbLine
   6
CONTINUOUS
  62
7
  10
 265.62100000000
  20
 311.59000000000
  30
0.0
  11
 265.82100000000
  21
 311.61400000000
  31
0.0
   0
LINE
   5
2F9
 100
AcDbEntity
   8
LEVEL002
 100
AcDbLine
   6
CONTINUOUS
  62
7
  10
 265.82100000000
  20
 311.61400000000
  30
0.0
  11
 266.01400000000
  21
 311.64500000000
  31
0.0
   0
LINE
   5
2FA
 100
AcDbEntity
   8
LEVEL002
 100
AcDbLine
   6
CONTINUOUS
  62
7
  10
 266.01400000000
  20
 311.64500000000
  30
0.0
  11
 266.20000000000
  21
 311.68200000000
  31
0.0
   0
LINE
   5
2FB
 100
AcDbEntity
   8
LEVEL002
 100
AcDbLine
   6
CONTINUOUS
  62
7
  10
 266.20000000000
  20
 311.68200000000
  30
0.0
  11
 266.37700000000
  21
 311.72500000000
  31
0.0
   0
LINE
   5
2FC
 100
AcDbEntity
   8
LEVEL002
 100
AcDbLine
   6
CONTINUOUS
  62
7
  10
 266.37700000000
  20
 311.72500000000
  30
0.0
  11
 266.54300000000
  21
 311.77400000000
  31
0.0
   0
LINE
   5
2FD
 100
AcDbEntity
   8
LEVEL002
 100
AcDbLine
   6
CONTINUOUS
  62
7
  10
 266.54300000000
  20
 311.77400000000
  30
0.0
  11
 266.69700000000
  21
 311.82800000000
  31
0.0
   0
LINE
   5
2FE
 100
AcDbEntity
   8
LEVEL002
 100
AcDbLine
   6
CONTINUOUS
  62
7
  10
 266.69700000000
  20
 311.82800000000
  30
0.0
  11
 266.83900000000
  21
 311.88700000000
  31
0.0
   0
LINE
   5
2FF
 100
AcDbEntity
   8
LEVEL002
 100
AcDbLine
   6
CONTINUOUS
  62
7
  10
 266.83900000000
  20
 311.88700000000
  30
0.0
  11
 266.96600000000
  21
 311.95100000000
  31
0.0
   0
LINE
   5
300
 100
AcDbEntity
   8
LEVEL002
 100
AcDbLine
   6
CONTINUOUS
  62
7
  10
 266.96600000000
  20
 311.95100000000
  30
0.0
  11
 267.07800000000
  21
 312.01800000000
  31
0.0
   0
LINE
   5
301
 100
AcDbEntity
   8
LEVEL002
 100
AcDbLine
   6
CONTINUOUS
  62
7
  10
 267.07800000000
  20
 312.01800000000
  30
0.0
  11
 267.17500000000
  21
 312.08900000000
  31
0.0
   0
LINE
   5
302
 100
AcDbEntity
   8
LEVEL002
 100
AcDbLine
   6
CONTINUOUS
  62
7
  10
 267.17500000000
  20
 312.08900000000
  30
0.0
  11
 267.25500000000
  21
 312.16300000000
  31
0.0
   0
LINE
   5
303
 100
AcDbEntity
   8
LEVEL002
 100
AcDbLine
   6
CONTINUOUS
  62
7
  10
 267.25500000000
  20
 312.16300000000
  30
0.0
  11
 267.31800000000
  21
 312.24000000000
  31
0.0
   0
LINE
   5
304
 100
AcDbEntity
   8
LEVEL002
 100
AcDbLine
   6
CONTINUOUS
  62
7
  10
 267.31800000000
  20
 312.24000000000
  30
0.0
  11
 267.36400000000
  21
 312.31800000000
  31
0.0
   0
LINE
   5
305
 100
AcDbEntity
   8
LEVEL002
 100
AcDbLine
   6
CONTINUOUS
  62
7
  10
 267.36400000000
  20
 312.31800000000
  30
0.0
  11
 267.39100000000
  21
 312.39700000000
  31
0.0
   0
LINE
   5
306
 100
AcDbEntity
   8
LEVEL002
 100
AcDbLine
   6
CONTINUOUS
  62
7
  10
 267.39100000000
  20
 312.39700000000
  30
0.0
  11
 267.40000000000
  21
 312.47700000000
  31
0.0
   0
LINE
   5
307
 100
AcDbEntity
   8
LEVEL002
 100
AcDbLine
   6
CONTINUOUS
  62
7
  10
 264.00000000000
  20
 312.47700000000
  30
0.0
  11
 264.00100000000
  21
 312.46100000000
  31
0.0
   0
LINE
   5
308
 100
AcDbEntity
   8
LEVEL002
 100
AcDbLine
   6
CONTINUOUS
  62
7
  10
 264.00100000000
  20
 312.46100000000
  30
0.0
  11
 264.00400000000
  21
 312.44400000000
  31
0.0
   0
LINE
   5
309
 100
AcDbEntity
   8
LEVEL002
 100
AcDbLine
   6
CONTINUOUS
  62
7
  10
 264.00400000000
  20
 312.44400000000
  30
0.0
  11
 264.00900000000
  21
 312.42700000000
  31
0.0
   0
LINE
   5
30A
 100
AcDbEntity
   8
LEVEL002
 100
AcDbLine
   6
CONTINUOUS
  62
7
  10
 264.00900000000
  20
 312.42700000000
  30
0.0
  11
 264.01500000000
  21
 312.41100000000
  31
0.0
   0
LINE
   5
30B
 100
AcDbEntity
   8
LEVEL002
 100
AcDbLine
   6
CONTINUOUS
  62
7
  10
 264.01500000000
  20
 312.41100000000
  30
0.0
  11
 264.02400000000
  21
 312.39500000000
  31
0.0
   0
LINE
   5
30C
 100
AcDbEntity
   8
LEVEL002
 100
AcDbLine
   6
CONTINUOUS
  62
7
  10
 264.02400000000
  20
 312.39500000000
  30
0.0
  11
 264.03400000000
  21
 312.37800000000
  31
0.0
   0
LINE
   5
30D
 100
AcDbEntity
   8
LEVEL002
 100
AcDbLine
   6
CONTINUOUS
  62
7
  10
 264.03400000000
  20
 312.37800000000
  30
0.0
  11
 264.04600000000
  21
 312.36200000000
  31
0.0
   0
LINE
   5
30E
 100
AcDbEntity
   8
LEVEL002
 100
AcDbLine
   6
CONTINUOUS
  62
7
  10
 264.04600000000
  20
 312.36200000000
  30
0.0
  11
 264.06000000000
  21
 312.34700000000
  31
0.0
   0
LINE
   5
30F
 100
AcDbEntity
   8
LEVEL002
 100
AcDbLine
   6
CONTINUOUS
  62
7
  10
 264.06000000000
  20
 312.34700000000
  30
0.0
  11
 264.07600000000
  21
 312.33100000000
  31
0.0
   0
LINE
   5
310
 100
AcDbEntity
   8
LEVEL002
 100
AcDbLine
   6
CONTINUOUS
  62
7
  10
 264.07600000000
  20
 312.33100000000
  30
0.0
  11
 264.09400000000
  21
 312.31600000000
  31
0.0
   0
LINE
   5
311
 100
AcDbEntity
   8
LEVEL002
 100
AcDbLine
   6
CONTINUOUS
  62
7
  10
 264.09400000000
  20
 312.31600000000
  30
0.0
  11
 264.11300000000
  21
 312.30100000000
  31
0.0
   0
LINE
   5
312
 100
AcDbEntity
   8
LEVEL002
 100
AcDbLine
   6
CONTINUOUS
  62
7
  10
 264.11300000000
  20
 312.30100000000
  30
0.0
  11
 264.13400000000
  21
 312.28600000000
  31
0.0
   0
LINE
   5
313
 100
AcDbEntity
   8
LEVEL002
 100
AcDbLine
   6
CONTINUOUS
  62
7
  10
 264.13400000000
  20
 312.28600000000
  30
0.0
  11
 264.15700000000
  21
 312.27200000000
  31
0.0
   0
LINE
   5
314
 100
AcDbEntity
   8
LEVEL002
 100
AcDbLine
   6
CONTINUOUS
  62
7
  10
 264.15700000000
  20
 312.27200000000
  30
0.0
  11
 264.18100000000
  21
 312.25800000000
  31
0.0
   0
LINE
   5
315
 100
AcDbEntity
   8
LEVEL002
 100
AcDbLine
   6
CONTINUOUS
  62
7
  10
 264.18100000000
  20
 312.25800000000
  30
0.0
  11
 264.20700000000
  21
 312.24400000000
  31
0.0
   0
LINE
   5
316
 100
AcDbEntity
   8
LEVEL002
 100
AcDbLine
   6
CONTINUOUS
  62
7
  10
 264.20700000000
  20
 312.24400000000
  30
0.0
  11
 264.23400000000
  21
 312.23100000000
  31
0.0
   0
LINE
   5
317
 100
AcDbEntity
   8
LEVEL002
 100
AcDbLine
   6
CONTINUOUS
  62
7
  10
 264.23400000000
  20
 312.23100000000
  30
0.0
  11
 264.26300000000
  21
 312.21900000000
  31
0.0
   0
LINE
   5
318
 100
AcDbEntity
   8
LEVEL002
 100
AcDbLine
   6
CONTINUOUS
  62
7
  10
 264.26300000000
  20
 312.21900000000
  30
0.0
  11
 264.29300000000
  21
 312.20700000000
  31
0.0
   0
LINE
   5
319
 100
AcDbEntity
   8
LEVEL002
 100
AcDbLine
   6
CONTINUOUS
  62
7
  10
 264.29300000000
  20
 312.20700000000
  30
0.0
  11
 264.32400000000
  21
 312.19500000000
  31
0.0
   0
LINE
   5
31A
 100
AcDbEntity
   8
LEVEL002
 100
AcDbLine
   6
CONTINUOUS
  62
7
  10
 264.32400000000
  20
 312.19500000000
  30
0.0
  11
 264.35700000000
  21
 312.18400000000
  31
0.0
   0
LINE
   5
31B
 100
AcDbEntity
   8
LEVEL002
 100
AcDbLine
   6
CONTINUOUS
  62
7
  10
 264.35700000000
  20
 312.18400000000
  30
0.0
  11
 264.39100000000
  21
 312.17400000000
  31
0.0
   0
LINE
   5
31C
 100
AcDbEntity
   8
LEVEL002
 100
AcDbLine
   6
CONTINUOUS
  62
7
  10
 264.39100000000
  20
 312.17400000000
  30
0.0
  11
 264.42600000000
  21
 312.16400000000
  31
0.0
   0
LINE
   5
31D
 100
AcDbEntity
   8
LEVEL002
 100
AcDbLine
   6
CONTINUOUS
  62
7
  10
 264.42600000000
  20
 312.16400000000
  30
0.0
  11
 264.46300000000
  21
 312.15500000000
  31
0.0
   0
LINE
   5
31E
 100
AcDbEntity
   8
LEVEL002
 100
AcDbLine
   6
CONTINUOUS
  62
7
  10
 264.46300000000
  20
 312.15500000000
  30
0.0
  11
 264.50000000000
  21
 312.14600000000
  31
0.0
   0
LINE
   5
31F
 100
AcDbEntity
   8
LEVEL002
 100
AcDbLine
   6
CONTINUOUS
  62
7
  10
 264.50000000000
  20
 312.14600000000
  30
0.0
  11
 264.53800000000
  21
 312.13800000000
  31
0.0
   0
LINE
   5
320
 100
AcDbEntity
   8
LEVEL002
 100
AcDbLine
   6
CONTINUOUS
  62
7
  10
 264.53800000000
  20
 312.13800000000
  30
0.0
  11
 264.57700000000
  21
 312.13100000000
  31
0.0
   0
LINE
   5
321
 100
AcDbEntity
   8
LEVEL002
 100
AcDbLine
   6
CONTINUOUS
  62
7
  10
 264.57700000000
  20
 312.13100000000
  30
0.0
  11
 264.61700000000
  21
 312.12400000000
  31
0.0
   0
LINE
   5
322
 100
AcDbEntity
   8
LEVEL002
 100
AcDbLine
   6
CONTINUOUS
  62
7
  10
 264.61700000000
  20
 312.12400000000
  30
0.0
  11
 264.65800000000
  21
 312.11800000000
  31
0.0
   0
LINE
   5
323
 100
AcDbEntity
   8
LEVEL002
 100
AcDbLine
   6
CONTINUOUS
  62
7
  10
 264.65800000000
  20
 312.11800000000
  30
0.0
  11
 264.69900000000
  21
 312.11200000000
  31
0.0
   0
LINE
   5
324
 100
AcDbEntity
   8
LEVEL002
 100
AcDbLine
   6
CONTINUOUS
  62
7
  10
 264.69900000000
  20
 312.11200000000
  30
0.0
  11
 264.74100000000
  21
 312.10800000000
  31
0.0
   0
LINE
   5
325
 100
AcDbEntity
   8
LEVEL002
 100
AcDbLine
   6
CONTINUOUS
  62
7
  10
 264.74100000000
  20
 312.10800000000
  30
0.0
  11
 264.78400000000
  21
 312.10400000000
  31
0.0
   0
LINE
   5
326
 100
AcDbEntity
   8
LEVEL002
 100
AcDbLine
   6
CONTINUOUS
  62
7
  10
 264.78400000000
  20
 312.10400000000
  30
0.0
  11
 264.82600000000
  21
 312.10100000000
  31
0.0
   0
LINE
   5
327
 100
AcDbEntity
   8
LEVEL002
 100
AcDbLine
   6
CONTINUOUS
  62
7
  10
 264.82600000000
  20
 312.10100000000
  30
0.0
  11
 264.86900000000
  21
 312.09800000000
  31
0.0
   0
LINE
   5
328
 100
AcDbEntity
   8
LEVEL002
 100
AcDbLine
   6
CONTINUOUS
  62
7
  10
 264.86900000000
  20
 312.09800000000
  30
0.0
  11
 264.91300000000
  21
 312.09600000000
  31
0.0
   0
LINE
   5
329
 100
AcDbEntity
   8
LEVEL002
 100
AcDbLine
   6
CONTINUOUS
  62
7
  10
 264.91300000000
  20
 312.09600000000
  30
0.0
  11
 264.95600000000
  21
 312.09500000000
  31
0.0
   0
LINE
   5
32A
 100
AcDbEntity
   8
LEVEL002
 100
AcDbLine
   6
CONTINUOUS
  62
7
  10
 264.95600000000
  20
 312.09500000000
  30
0.0
  11
 265.00000000000
  21
 312.09500000000
  31
0.0
   0
LINE
   5
32B
 100
AcDbEntity
   8
LEVEL002
 100
AcDbLine
   6
CONTINUOUS
  62
7
  10
 265.00000000000
  20
 312.09500000000
  30
0.0
  11
 265.04400000000
  21
 312.09500000000
  31
0.0
   0
LINE
   5
32C
 100
AcDbEntity
   8
LEVEL002
 100
AcDbLine
   6
CONTINUOUS
  62
7
  10
 265.04400000000
  20
 312.09500000000
  30
0.0
  11
 265.08700000000
  21
 312.09600000000
  31
0.0
   0
LINE
   5
32D
 100
AcDbEntity
   8
LEVEL002
 100
AcDbLine
   6
CONTINUOUS
  62
7
  10
 265.08700000000
  20
 312.09600000000
  30
0.0
  11
 265.13100000000
  21
 312.09800000000
  31
0.0
   0
LINE
   5
32E
 100
AcDbEntity
   8
LEVEL002
 100
AcDbLine
   6
CONTINUOUS
  62
7
  10
 265.13100000000
  20
 312.09800000000
  30
0.0
  11
 265.17400000000
  21
 312.10100000000
  31
0.0
   0
LINE
   5
32F
 100
AcDbEntity
   8
LEVEL002
 100
AcDbLine
   6
CONTINUOUS
  62
7
  10
 265.17400000000
  20
 312.10100000000
  30
0.0
  11
 265.21600000000
  21
 312.10400000000
  31
0.0
   0
LINE
   5
330
 100
AcDbEntity
   8
LEVEL002
 100
AcDbLine
   6
CONTINUOUS
  62
7
  10
 265.21600000000
  20
 312.10400000000
  30
0.0
  11
 265.25900000000
  21
 312.10800000000
  31
0.0
   0
LINE
   5
331
 100
AcDbEntity
   8
LEVEL002
 100
AcDbLine
   6
CONTINUOUS
  62
7
  10
 265.25900000000
  20
 312.10800000000
  30
0.0
  11
 265.30100000000
  21
 312.11200000000
  31
0.0
   0
LINE
   5
332
 100
AcDbEntity
   8
LEVEL002
 100
AcDbLine
   6
CONTINUOUS
  62
7
  10
 265.30100000000
  20
 312.11200000000
  30
0.0
  11
 265.34200000000
  21
 312.11800000000
  31
0.0
   0
LINE
   5
333
 100
AcDbEntity
   8
LEVEL002
 100
AcDbLine
   6
CONTINUOUS
  62
7
  10
 265.34200000000
  20
 312.11800000000
  30
0.0
  11
 265.38300000000
  21
 312.12400000000
  31
0.0
   0
LINE
   5
334
 100
AcDbEntity
   8
LEVEL002
 100
AcDbLine
   6
CONTINUOUS
  62
7
  10
 265.38300000000
  20
 312.12400000000
  30
0.0
  11
 265.42300000000
  21
 312.13100000000
  31
0.0
   0
LINE
   5
335
 100
AcDbEntity
   8
LEVEL002
 100
AcDbLine
   6
CONTINUOUS
  62
7
  10
 265.42300000000
  20
 312.13100000000
  30
0.0
  11
 265.46200000000
  21
 312.13800000000
  31
0.0
   0
LINE
   5
336
 100
AcDbEntity
   8
LEVEL002
 100
AcDbLine
   6
CONTINUOUS
  62
7
  10
 265.46200000000
  20
 312.13800000000
  30
0.0
  11
 265.50000000000
  21
 312.14600000000
  31
0.0
   0
LINE
   5
337
 100
AcDbEntity
   8
LEVEL002
 100
AcDbLine
   6
CONTINUOUS
  62
7
  10
 265.50000000000
  20
 312.14600000000
  30
0.0
  11
 265.53700000000
  21
 312.15500000000
  31
0.0
   0
LINE
   5
338
 100
AcDbEntity
   8
LEVEL002
 100
AcDbLine
   6
CONTINUOUS
  62
7
  10
 265.53700000000
  20
 312.15500000000
  30
0.0
  11
 265.57400000000
  21
 312.16400000000
  31
0.0
   0
LINE
   5
339
 100
AcDbEntity
   8
LEVEL002
 100
AcDbLine
   6
CONTINUOUS
  62
7
  10
 265.57400000000
  20
 312.16400000000
  30
0.0
  11
 265.60900000000
  21
 312.17400000000
  31
0.0
   0
LINE
   5
33A
 100
AcDbEntity
   8
LEVEL002
 100
AcDbLine
   6
CONTINUOUS
  62
7
  10
 265.60900000000
  20
 312.17400000000
  30
0.0
  11
 265.64300000000
  21
 312.18400000000
  31
0.0
   0
LINE
   5
33B
 100
AcDbEntity
   8
LEVEL002
 100
AcDbLine
   6
CONTINUOUS
  62
7
  10
 265.64300000000
  20
 312.18400000000
  30
0.0
  11
 265.67600000000
  21
 312.19500000000
  31
0.0
   0
LINE
   5
33C
 100
AcDbEntity
   8
LEVEL002
 100
AcDbLine
   6
CONTINUOUS
  62
7
  10
 265.67600000000
  20
 312.19500000000
  30
0.0
  11
 265.70700000000
  21
 312.20700000000
  31
0.0
   0
LINE
   5
33D
 100
AcDbEntity
   8
LEVEL002
 100
AcDbLine
   6
CONTINUOUS
  62
7
  10
 265.70700000000
  20
 312.20700000000
  30
0.0
  11
 265.73700000000
  21
 312.21900000000
  31
0.0
   0
LINE
   5
33E
 100
AcDbEntity
   8
LEVEL002
 100
AcDbLine
   6
CONTINUOUS
  62
7
  10
 265.73700000000
  20
 312.21900000000
  30
0.0
  11
 265.76600000000
  21
 312.23100000000
  31
0.0
   0
LINE
   5
33F
 100
AcDbEntity
   8
LEVEL002
 100
AcDbLine
   6
CONTINUOUS
  62
7
  10
 265.76600000000
  20
 312.23100000000
  30
0.0
  11
 265.79300000000
  21
 312.24400000000
  31
0.0
   0
LINE
   5
340
 100
AcDbEntity
   8
LEVEL002
 100
AcDbLine
   6
CONTINUOUS
  62
7
  10
 265.79300000000
  20
 312.24400000000
  30
0.0
  11
 265.81900000000
  21
 312.25800000000
  31
0.0
   0
LINE
   5
341
 100
AcDbEntity
   8
LEVEL002
 100
AcDbLine
   6
CONTINUOUS
  62
7
  10
 265.81900000000
  20
 312.25800000000
  30
0.0
  11
 265.84300000000
  21
 312.27200000000
  31
0.0
   0
LINE
   5
342
 100
AcDbEntity
   8
LEVEL002
 100
AcDbLine
   6
CONTINUOUS
  62
7
  10
 265.84300000000
  20
 312.27200000000
  30
0.0
  11
 265.86600000000
  21
 312.28600000000
  31
0.0
   0
LINE
   5
343
 100
AcDbEntity
   8
LEVEL002
 100
AcDbLine
   6
CONTINUOUS
  62
7
  10
 265.86600000000
  20
 312.28600000000
  30
0.0
  11
 265.88700000000
  21
 312.30100000000
  31
0.0
   0
LINE
   5
344
 100
AcDbEntity
   8
LEVEL002
 100
AcDbLine
   6
CONTINUOUS
  62
7
  10
 265.88700000000
  20
 312.30100000000
  30
0.0
  11
 265.90600000000
  21
 312.31600000000
  31
0.0
   0
LINE
   5
345
 100
AcDbEntity
   8
LEVEL002
 100
AcDbLine
   6
CONTINUOUS
  62
7
  10
 265.90600000000
  20
 312.31600000000
  30
0.0
  11
 265.92400000000
  21
 312.33100000000
  31
0.0
   0
LINE
   5
346
 100
AcDbEntity
   8
LEVEL002
 100
AcDbLine
   6
CONTINUOUS
  62
7
  10
 265.92400000000
  20
 312.33100000000
  30
0.0
  11
 265.94000000000
  21
 312.34700000000
  31
0.0
   0
LINE
   5
347
 100
AcDbEntity
   8
LEVEL002
 100
AcDbLine
   6
CONTINUOUS
  62
7
  10
 265.94000000000
  20
 312.34700000000
  30
0.0
  11
 265.95400000000
  21
 312.36200000000
  31
0.0
   0
LINE
   5
348
 100
AcDbEntity
   8
LEVEL002
 100
AcDbLine
   6
CONTINUOUS
  62
7
  10
 265.95400000000
  20
 312.36200000000
  30
0.0
  11
 265.96600000000
  21
 312.37800000000
  31
0.0
   0
LINE
   5
349
 100
AcDbEntity
   8
LEVEL002
 100
AcDbLine
   6
CONTINUOUS
  62
7
  10
 265.96600000000
  20
 312.37800000000
  30
0.0
  11
 265.97600000000
  21
 312.39500000000
  31
0.0
   0
LINE
   5
34A
 100
AcDbEntity
   8
LEVEL002
 100
AcDbLine
   6
CONTINUOUS
  62
7
  10
 265.97600000000
  20
 312.39500000000
  30
0.0
  11
 265.98500000000
  21
 312.41100000000
  31
0.0
   0
LINE
   5
34B
 100
AcDbEntity
   8
LEVEL002
 100
AcDbLine
   6
CONTINUOUS
  62
7
  10
 265.98500000000
  20
 312.41100000000
  30
0.0
  11
 265.99100000000
  21
 312.42700000000
  31
0.0
   0
LINE
   5
34C
 100
AcDbEntity
   8
LEVEL002
 100
AcDbLine
   6
CONTINUOUS
  62
7
  10
 265.99100000000
  20
 312.42700000000
  30
0.0
  11
 265.99600000000
  21
 312.44400000000
  31
0.0
   0
LINE
   5
34D
 100
AcDbEntity
   8
LEVEL002
 100
AcDbLine
   6
CONTINUOUS
  62
7
  10
 265.99600000000
  20
 312.44400000000
  30
0.0
  11
 265.99900000000
  21
 312.46100000000
  31
0.0
   0
LINE
   5
34E
 100
AcDbEntity
   8
LEVEL002
 100
AcDbLine
   6
CONTINUOUS
  62
7
  10
 265.99900000000
  20
 312.46100000000
  30
0.0
  11
 266.00000000000
  21
 312.47700000000
  31
0.0
   0
ARC
   5
34F
 100
AcDbEntity
   8
LEVEL002
   6
CONTINUOUS
  62
7
 100
AcDbCircle
  10
 265.00000000000
  20
 312.24900000000
  30
0.0
  40
 1.0000000000000
 100
AcDbArc
  50
 11.942600000111
  51
 167.15599999988
   0
LINE
   5
350
 100
AcDbEntity
   8
LEVEL002
 100
AcDbLine
   6
CONTINUOUS
  62
7
  10
 261.70000000000
  20
 309.98300000000
  30
0.0
  11
 261.70300000000
  21
 309.92800000000
  31
0.0
   0
LINE
   5
351
 100
AcDbEntity
   8
LEVEL002
 100
AcDbLine
   6
CONTINUOUS
  62
7
  10
 261.70300000000
  20
 309.92800000000
  30
0.0
  11
 261.71300000000
  21
 309.87300000000
  31
0.0
   0
LINE
   5
352
 100
AcDbEntity
   8
LEVEL002
 100
AcDbLine
   6
CONTINUOUS
  62
7
  10
 261.71300000000
  20
 309.87300000000
  30
0.0
  11
 261.72800000000
  21
 309.81900000000
  31
0.0
   0
LINE
   5
353
 100
AcDbEntity
   8
LEVEL002
 100
AcDbLine
   6
CONTINUOUS
  62
7
  10
 261.72800000000
  20
 309.81900000000
  30
0.0
  11
 261.75000000000
  21
 309.76400000000
  31
0.0
   0
LINE
   5
354
 100
AcDbEntity
   8
LEVEL002
 100
AcDbLine
   6
CONTINUOUS
  62
7
  10
 261.75000000000
  20
 309.76400000000
  30
0.0
  11
 261.77800000000
  21
 309.71000000000
  31
0.0
   0
LINE
   5
355
 100
AcDbEntity
   8
LEVEL002
 100
AcDbLine
   6
CONTINUOUS
  62
7
  10
 261.77800000000
  20
 309.71000000000
  30
0.0
  11
 261.81200000000
  21
 309.65700000000
  31
0.0
   0
LINE
   5
356
 100
AcDbEntity
   8
LEVEL002
 100
AcDbLine
   6
CONTINUOUS
  62
7
  10
 261.81200000000
  20
 309.65700000000
  30
0.0
  11
 261.85300000000
  21
 309.60400000000
  31
0.0
   0
LINE
   5
357
 100
AcDbEntity
   8
LEVEL002
 100
AcDbLine
   6
CONTINUOUS
  62
7
  10
 261.85300000000
  20
 309.60400000000
  30
0.0
  11
 261.89900000000
  21
 309.55200000000
  31
0.0
   0
LINE
   5
358
 100
AcDbEntity
   8
LEVEL002
 100
AcDbLine
   6
CONTINUOUS
  62
7
  10
 261.89900000000
  20
 309.55200000000
  30
0.0
  11
 261.95100000000
  21
 309.50000000000
  31
0.0
   0
LINE
   5
359
 100
AcDbEntity
   8
LEVEL002
 100
AcDbLine
   6
CONTINUOUS
  62
7
  10
 261.95100000000
  20
 309.50000000000
  30
0.0
  11
 262.00900000000
  21
 309.45000000000
  31
0.0
   0
LINE
   5
35A
 100
AcDbEntity
   8
LEVEL002
 100
AcDbLine
   6
CONTINUOUS
  62
7
  10
 262.00900000000
  20
 309.45000000000
  30
0.0
  11
 262.07300000000
  21
 309.40000000000
  31
0.0
   0
LINE
   5
35B
 100
AcDbEntity
   8
LEVEL002
 100
AcDbLine
   6
CONTINUOUS
  62
7
  10
 262.07300000000
  20
 309.40000000000
  30
0.0
  11
 262.14200000000
  21
 309.35200000000
  31
0.0
   0
LINE
   5
35C
 100
AcDbEntity
   8
LEVEL002
 100
AcDbLine
   6
CONTINUOUS
  62
7
  10
 262.14200000000
  20
 309.35200000000
  30
0.0
  11
 262.21700000000
  21
 309.30500000000
  31
0.0
   0
LINE
   5
35D
 100
AcDbEntity
   8
LEVEL002
 100
AcDbLine
   6
CONTINUOUS
  62
7
  10
 262.21700000000
  20
 309.30500000000
  30
0.0
  11
 262.29700000000
  21
 309.25900000000
  31
0.0
   0
LINE
   5
35E
 100
AcDbEntity
   8
LEVEL002
 100
AcDbLine
   6
CONTINUOUS
  62
7
  10
 262.29700000000
  20
 309.25900000000
  30
0.0
  11
 262.38200000000
  21
 309.21500000000
  31
0.0
   0
LINE
   5
35F
 100
AcDbEntity
   8
LEVEL002
 100
AcDbLine
   6
CONTINUOUS
  62
7
  10
 262.38200000000
  20
 309.21500000000
  30
0.0
  11
 262.47200000000
  21
 309.17200000000
  31
0.0
   0
LINE
   5
360
 100
AcDbEntity
   8
LEVEL002
 100
AcDbLine
   6
CONTINUOUS
  62
7
  10
 262.47200000000
  20
 309.17200000000
  30
0.0
  11
 262.56700000000
  21
 309.13000000000
  31
0.0
   0
LINE
   5
361
 100
AcDbEntity
   8
LEVEL002
 100
AcDbLine
   6
CONTINUOUS
  62
7
  10
 262.56700000000
  20
 309.13000000000
  30
0.0
  11
 262.66700000000
  21
 309.09100000000
  31
0.0
   0
LINE
   5
362
 100
AcDbEntity
   8
LEVEL002
 100
AcDbLine
   6
CONTINUOUS
  62
7
  10
 262.66700000000
  20
 309.09100000000
  30
0.0
  11
 262.77100000000
  21
 309.05200000000
  31
0.0
   0
LINE
   5
363
 100
AcDbEntity
   8
LEVEL002
 100
AcDbLine
   6
CONTINUOUS
  62
7
  10
 262.77100000000
  20
 309.05200000000
  30
0.0
  11
 262.87900000000
  21
 309.01600000000
  31
0.0
   0
LINE
   5
364
 100
AcDbEntity
   8
LEVEL002
 100
AcDbLine
   6
CONTINUOUS
  62
7
  10
 262.87900000000
  20
 309.01600000000
  30
0.0
  11
 262.99100000000
  21
 308.98200000000
  31
0.0
   0
LINE
   5
365
 100
AcDbEntity
   8
LEVEL002
 100
AcDbLine
   6
CONTINUOUS
  62
7
  10
 262.99100000000
  20
 308.98200000000
  30
0.0
  11
 263.10700000000
  21
 308.94900000000
  31
0.0
   0
LINE
   5
366
 100
AcDbEntity
   8
LEVEL002
 100
AcDbLine
   6
CONTINUOUS
  62
7
  10
 263.10700000000
  20
 308.94900000000
  30
0.0
  11
 263.22700000000
  21
 308.91800000000
  31
0.0
   0
LINE
   5
367
 100
AcDbEntity
   8
LEVEL002
 100
AcDbLine
   6
CONTINUOUS
  62
7
  10
 263.22700000000
  20
 308.91800000000
  30
0.0
  11
 263.35000000000
  21
 308.89000000000
  31
0.0
   0
LINE
   5
368
 100
AcDbEntity
   8
LEVEL002
 100
AcDbLine
   6
CONTINUOUS
  62
7
  10
 263.35000000000
  20
 308.89000000000
  30
0.0
  11
 263.47600000000
  21
 308.86300000000
  31
0.0
   0
LINE
   5
369
 100
AcDbEntity
   8
LEVEL002
 100
AcDbLine
   6
CONTINUOUS
  62
7
  10
 263.47600000000
  20
 308.86300000000
  30
0.0
  11
 263.60500000000
  21
 308.83900000000
  31
0.0
   0
LINE
   5
36A
 100
AcDbEntity
   8
LEVEL002
 100
AcDbLine
   6
CONTINUOUS
  62
7
  10
 263.60500000000
  20
 308.83900000000
  30
0.0
  11
 263.73700000000
  21
 308.81700000000
  31
0.0
   0
LINE
   5
36B
 100
AcDbEntity
   8
LEVEL002
 100
AcDbLine
   6
CONTINUOUS
  62
7
  10
 263.73700000000
  20
 308.81700000000
  30
0.0
  11
 263.87100000000
  21
 308.79700000000
  31
0.0
   0
LINE
   5
36C
 100
AcDbEntity
   8
LEVEL002
 100
AcDbLine
   6
CONTINUOUS
  62
7
  10
 263.87100000000
  20
 308.79700000000
  30
0.0
  11
 264.00800000000
  21
 308.77900000000
  31
0.0
   0
LINE
   5
36D
 100
AcDbEntity
   8
LEVEL002
 100
AcDbLine
   6
CONTINUOUS
  62
7
  10
 264.00800000000
  20
 308.77900000000
  30
0.0
  11
 264.14600000000
  21
 308.76400000000
  31
0.0
   0
LINE
   5
36E
 100
AcDbEntity
   8
LEVEL002
 100
AcDbLine
   6
CONTINUOUS
  62
7
  10
 264.14600000000
  20
 308.76400000000
  30
0.0
  11
 264.28600000000
  21
 308.75100000000
  31
0.0
   0
LINE
   5
36F
 100
AcDbEntity
   8
LEVEL002
 100
AcDbLine
   6
CONTINUOUS
  62
7
  10
 264.28600000000
  20
 308.75100000000
  30
0.0
  11
 264.42700000000
  21
 308.74000000000
  31
0.0
   0
LINE
   5
370
 100
AcDbEntity
   8
LEVEL002
 100
AcDbLine
   6
CONTINUOUS
  62
7
  10
 264.42700000000
  20
 308.74000000000
  30
0.0
  11
 264.56900000000
  21
 308.73100000000
  31
0.0
   0
LINE
   5
371
 100
AcDbEntity
   8
LEVEL002
 100
AcDbLine
   6
CONTINUOUS
  62
7
  10
 264.56900000000
  20
 308.73100000000
  30
0.0
  11
 264.71200000000
  21
 308.72500000000
  31
0.0
   0
LINE
   5
372
 100
AcDbEntity
   8
LEVEL002
 100
AcDbLine
   6
CONTINUOUS
  62
7
  10
 264.71200000000
  20
 308.72500000000
  30
0.0
  11
 264.85600000000
  21
 308.72200000000
  31
0.0
   0
LINE
   5
373
 100
AcDbEntity
   8
LEVEL002
 100
AcDbLine
   6
CONTINUOUS
  62
7
  10
 264.85600000000
  20
 308.72200000000
  30
0.0
  11
 265.00000000000
  21
 308.72100000000
  31
0.0
   0
LINE
   5
374
 100
AcDbEntity
   8
LEVEL002
 100
AcDbLine
   6
CONTINUOUS
  62
7
  10
 265.00000000000
  20
 308.72100000000
  30
0.0
  11
 265.14400000000
  21
 308.72200000000
  31
0.0
   0
LINE
   5
375
 100
AcDbEntity
   8
LEVEL002
 100
AcDbLine
   6
CONTINUOUS
  62
7
  10
 265.14400000000
  20
 308.72200000000
  30
0.0
  11
 265.28800000000
  21
 308.72500000000
  31
0.0
   0
LINE
   5
376
 100
AcDbEntity
   8
LEVEL002
 100
AcDbLine
   6
CONTINUOUS
  62
7
  10
 265.28800000000
  20
 308.72500000000
  30
0.0
  11
 265.43100000000
  21
 308.73100000000
  31
0.0
   0
LINE
   5
377
 100
AcDbEntity
   8
LEVEL002
 100
AcDbLine
   6
CONTINUOUS
  62
7
  10
 265.43100000000
  20
 308.73100000000
  30
0.0
  11
 265.57300000000
  21
 308.74000000000
  31
0.0
   0
LINE
   5
378
 100
AcDbEntity
   8
LEVEL002
 100
AcDbLine
   6
CONTINUOUS
  62
7
  10
 265.57300000000
  20
 308.74000000000
  30
0.0
  11
 265.71400000000
  21
 308.75100000000
  31
0.0
   0
LINE
   5
379
 100
AcDbEntity
   8
LEVEL002
 100
AcDbLine
   6
CONTINUOUS
  62
7
  10
 265.71400000000
  20
 308.75100000000
  30
0.0
  11
 265.85400000000
  21
 308.76400000000
  31
0.0
   0
LINE
   5
37A
 100
AcDbEntity
   8
LEVEL002
 100
AcDbLine
   6
CONTINUOUS
  62
7
  10
 265.85400000000
  20
 308.76400000000
  30
0.0
  11
 265.99200000000
  21
 308.77900000000
  31
0.0
   0
LINE
   5
37B
 100
AcDbEntity
   8
LEVEL002
 100
AcDbLine
   6
CONTINUOUS
  62
7
  10
 265.99200000000
  20
 308.77900000000
  30
0.0
  11
 266.12900000000
  21
 308.79700000000
  31
0.0
   0
LINE
   5
37C
 100
AcDbEntity
   8
LEVEL002
 100
AcDbLine
   6
CONTINUOUS
  62
7
  10
 266.12900000000
  20
 308.79700000000
  30
0.0
  11
 266.26300000000
  21
 308.81700000000
  31
0.0
   0
LINE
   5
37D
 100
AcDbEntity
   8
LEVEL002
 100
AcDbLine
   6
CONTINUOUS
  62
7
  10
 266.26300000000
  20
 308.81700000000
  30
0.0
  11
 266.39500000000
  21
 308.83900000000
  31
0.0
   0
LINE
   5
37E
 100
AcDbEntity
   8
LEVEL002
 100
AcDbLine
   6
CONTINUOUS
  62
7
  10
 266.39500000000
  20
 308.83900000000
  30
0.0
  11
 266.52400000000
  21
 308.86300000000
  31
0.0
   0
LINE
   5
37F
 100
AcDbEntity
   8
LEVEL002
 100
AcDbLine
   6
CONTINUOUS
  62
7
  10
 266.52400000000
  20
 308.86300000000
  30
0.0
  11
 266.65000000000
  21
 308.89000000000
  31
0.0
   0
LINE
   5
380
 100
AcDbEntity
   8
LEVEL002
 100
AcDbLine
   6
CONTINUOUS
  62
7
  10
 266.65000000000
  20
 308.89000000000
  30
0.0
  11
 266.77300000000
  21
 308.91800000000
  31
0.0
   0
LINE
   5
381
 100
AcDbEntity
   8
LEVEL002
 100
AcDbLine
   6
CONTINUOUS
  62
7
  10
 266.77300000000
  20
 308.91800000000
  30
0.0
  11
 266.89300000000
  21
 308.94900000000
  31
0.0
   0
LINE
   5
382
 100
AcDbEntity
   8
LEVEL002
 100
AcDbLine
   6
CONTINUOUS
  62
7
  10
 266.89300000000
  20
 308.94900000000
  30
0.0
  11
 267.00900000000
  21
 308.98200000000
  31
0.0
   0
LINE
   5
383
 100
AcDbEntity
   8
LEVEL002
 100
AcDbLine
   6
CONTINUOUS
  62
7
  10
 267.00900000000
  20
 308.98200000000
  30
0.0
  11
 267.12100000000
  21
 309.01600000000
  31
0.0
   0
LINE
   5
384
 100
AcDbEntity
   8
LEVEL002
 100
AcDbLine
   6
CONTINUOUS
  62
7
  10
 267.12100000000
  20
 309.01600000000
  30
0.0
  11
 267.22900000000
  21
 309.05200000000
  31
0.0
   0
LINE
   5
385
 100
AcDbEntity
   8
LEVEL002
 100
AcDbLine
   6
CONTINUOUS
  62
7
  10
 267.22900000000
  20
 309.05200000000
  30
0.0
  11
 267.33300000000
  21
 309.09100000000
  31
0.0
   0
LINE
   5
386
 100
AcDbEntity
   8
LEVEL002
 100
AcDbLine
   6
CONTINUOUS
  62
7
  10
 267.33300000000
  20
 309.09100000000
  30
0.0
  11
 267.43300000000
  21
 309.13000000000
  31
0.0
   0
LINE
   5
387
 100
AcDbEntity
   8
LEVEL002
 100
AcDbLine
   6
CONTINUOUS
  62
7
  10
 267.43300000000
  20
 309.13000000000
  30
0.0
  11
 267.52800000000
  21
 309.17200000000
  31
0.0
   0
LINE
   5
388
 100
AcDbEntity
   8
LEVEL002
 100
AcDbLine
   6
CONTINUOUS
  62
7
  10
 267.52800000000
  20
 309.17200000000
  30
0.0
  11
 267.61800000000
  21
 309.21500000000
  31
0.0
   0
LINE
   5
389
 100
AcDbEntity
   8
LEVEL002
 100
AcDbLine
   6
CONTINUOUS
  62
7
  10
 267.61800000000
  20
 309.21500000000
  30
0.0
  11
 267.70300000000
  21
 309.25900000000
  31
0.0
   0
LINE
   5
38A
 100
AcDbEntity
   8
LEVEL002
 100
AcDbLine
   6
CONTINUOUS
  62
7
  10
 267.70300000000
  20
 309.25900000000
  30
0.0
  11
 267.78300000000
  21
 309.30500000000
  31
0.0
   0
LINE
   5
38B
 100
AcDbEntity
   8
LEVEL002
 100
AcDbLine
   6
CONTINUOUS
  62
7
  10
 267.78300000000
  20
 309.30500000000
  30
0.0
  11
 267.85800000000
  21
 309.35200000000
  31
0.0
   0
LINE
   5
38C
 100
AcDbEntity
   8
LEVEL002
 100
AcDbLine
   6
CONTINUOUS
  62
7
  10
 267.85800000000
  20
 309.35200000000
  30
0.0
  11
 267.92700000000
  21
 309.40000000000
  31
0.0
   0
LINE
   5
38D
 100
AcDbEntity
   8
LEVEL002
 100
AcDbLine
   6
CONTINUOUS
  62
7
  10
 267.92700000000
  20
 309.40000000000
  30
0.0
  11
 267.99100000000
  21
 309.45000000000
  31
0.0
   0
LINE
   5
38E
 100
AcDbEntity
   8
LEVEL002
 100
AcDbLine
   6
CONTINUOUS
  62
7
  10
 267.99100000000
  20
 309.45000000000
  30
0.0
  11
 268.04900000000
  21
 309.50000000000
  31
0.0
   0
LINE
   5
38F
 100
AcDbEntity
   8
LEVEL002
 100
AcDbLine
   6
CONTINUOUS
  62
7
  10
 268.04900000000
  20
 309.50000000000
  30
0.0
  11
 268.10100000000
  21
 309.55200000000
  31
0.0
   0
LINE
   5
390
 100
AcDbEntity
   8
LEVEL002
 100
AcDbLine
   6
CONTINUOUS
  62
7
  10
 268.10100000000
  20
 309.55200000000
  30
0.0
  11
 268.14700000000
  21
 309.60400000000
  31
0.0
   0
LINE
   5
391
 100
AcDbEntity
   8
LEVEL002
 100
AcDbLine
   6
CONTINUOUS
  62
7
  10
 268.14700000000
  20
 309.60400000000
  30
0.0
  11
 268.18800000000
  21
 309.65700000000
  31
0.0
   0
LINE
   5
392
 100
AcDbEntity
   8
LEVEL002
 100
AcDbLine
   6
CONTINUOUS
  62
7
  10
 268.18800000000
  20
 309.65700000000
  30
0.0
  11
 268.22200000000
  21
 309.71000000000
  31
0.0
   0
LINE
   5
393
 100
AcDbEntity
   8
LEVEL002
 100
AcDbLine
   6
CONTINUOUS
  62
7
  10
 268.22200000000
  20
 309.71000000000
  30
0.0
  11
 268.25000000000
  21
 309.76400000000
  31
0.0
   0
LINE
   5
394
 100
AcDbEntity
   8
LEVEL002
 100
AcDbLine
   6
CONTINUOUS
  62
7
  10
 268.25000000000
  20
 309.76400000000
  30
0.0
  11
 268.27200000000
  21
 309.81900000000
  31
0.0
   0
LINE
   5
395
 100
AcDbEntity
   8
LEVEL002
 100
AcDbLine
   6
CONTINUOUS
  62
7
  10
 268.27200000000
  20
 309.81900000000
  30
0.0
  11
 268.28700000000
  21
 309.87300000000
  31
0.0
   0
LINE
   5
396
 100
AcDbEntity
   8
LEVEL002
 100
AcDbLine
   6
CONTINUOUS
  62
7
  10
 268.28700000000
  20
 309.87300000000
  30
0.0
  11
 268.29700000000
  21
 309.92800000000
  31
0.0
   0
LINE
   5
397
 100
AcDbEntity
   8
LEVEL002
 100
AcDbLine
   6
CONTINUOUS
  62
7
  10
 268.29700000000
  20
 309.92800000000
  30
0.0
  11
 268.30000000000
  21
 309.98300000000
  31
0.0
   0
LINE
   5
398
 100
AcDbEntity
   8
LEVEL002
 100
AcDbLine
   6
CONTINUOUS
  62
7
  10
 261.70000000000
  20
 309.98300000000
  30
0.0
  11
 262.60200000000
  21
 312.51700000000
  31
0.0
   0
LINE
   5
399
 100
AcDbEntity
   8
LEVEL002
 100
AcDbLine
   6
CONTINUOUS
  62
7
  10
 268.29700000000
  20
 309.92800000000
  30
0.0
  11
 267.39100000000
  21
 312.55700000000
  31
0.0
   0
LINE
   5
39A
 100
AcDbEntity
   8
LEVEL002
 100
AcDbLine
   6
CONTINUOUS
  62
7
  10
 262.12000000000
  20
 308.33400000000
  30
0.0
  11
 262.12300000000
  21
 308.28600000000
  31
0.0
   0
LINE
   5
39B
 100
AcDbEntity
   8
LEVEL002
 100
AcDbLine
   6
CONTINUOUS
  62
7
  10
 262.12300000000
  20
 308.28600000000
  30
0.0
  11
 262.13100000000
  21
 308.23800000000
  31
0.0
   0
LINE
   5
39C
 100
AcDbEntity
   8
LEVEL002
 100
AcDbLine
   6
CONTINUOUS
  62
7
  10
 262.13100000000
  20
 308.23800000000
  30
0.0
  11
 262.14500000000
  21
 308.19000000000
  31
0.0
   0
LINE
   5
39D
 100
AcDbEntity
   8
LEVEL002
 100
AcDbLine
   6
CONTINUOUS
  62
7
  10
 262.14500000000
  20
 308.19000000000
  30
0.0
  11
 262.16400000000
  21
 308.14200000000
  31
0.0
   0
LINE
   5
39E
 100
AcDbEntity
   8
LEVEL002
 100
AcDbLine
   6
CONTINUOUS
  62
7
  10
 262.16400000000
  20
 308.14200000000
  30
0.0
  11
 262.18800000000
  21
 308.09500000000
  31
0.0
   0
LINE
   5
39F
 100
AcDbEntity
   8
LEVEL002
 100
AcDbLine
   6
CONTINUOUS
  62
7
  10
 262.18800000000
  20
 308.09500000000
  30
0.0
  11
 262.21800000000
  21
 308.04800000000
  31
0.0
   0
LINE
   5
3A0
 100
AcDbEntity
   8
LEVEL002
 100
AcDbLine
   6
CONTINUOUS
  62
7
  10
 262.21800000000
  20
 308.04800000000
  30
0.0
  11
 262.25300000000
  21
 308.00200000000
  31
0.0
   0
LINE
   5
3A1
 100
AcDbEntity
   8
LEVEL002
 100
AcDbLine
   6
CONTINUOUS
  62
7
  10
 262.25300000000
  20
 308.00200000000
  30
0.0
  11
 262.29400000000
  21
 307.95700000000
  31
0.0
   0
LINE
   5
3A2
 100
AcDbEntity
   8
LEVEL002
 100
AcDbLine
   6
CONTINUOUS
  62
7
  10
 262.29400000000
  20
 307.95700000000
  30
0.0
  11
 262.33900000000
  21
 307.91200000000
  31
0.0
   0
LINE
   5
3A3
 100
AcDbEntity
   8
LEVEL002
 100
AcDbLine
   6
CONTINUOUS
  62
7
  10
 262.33900000000
  20
 307.91200000000
  30
0.0
  11
 262.39000000000
  21
 307.86800000000
  31
0.0
   0
LINE
   5
3A4
 100
AcDbEntity
   8
LEVEL002
 100
AcDbLine
   6
CONTINUOUS
  62
7
  10
 262.39000000000
  20
 307.86800000000
  30
0.0
  11
 262.44500000000
  21
 307.82500000000
  31
0.0
   0
LINE
   5
3A5
 100
AcDbEntity
   8
LEVEL002
 100
AcDbLine
   6
CONTINUOUS
  62
7
  10
 262.44500000000
  20
 307.82500000000
  30
0.0
  11
 262.50600000000
  21
 307.78300000000
  31
0.0
   0
LINE
   5
3A6
 100
AcDbEntity
   8
LEVEL002
 100
AcDbLine
   6
CONTINUOUS
  62
7
  10
 262.50600000000
  20
 307.78300000000
  30
0.0
  11
 262.57100000000
  21
 307.74100000000
  31
0.0
   0
LINE
   5
3A7
 100
AcDbEntity
   8
LEVEL002
 100
AcDbLine
   6
CONTINUOUS
  62
7
  10
 262.57100000000
  20
 307.74100000000
  30
0.0
  11
 262.64100000000
  21
 307.70100000000
  31
0.0
   0
LINE
   5
3A8
 100
AcDbEntity
   8
LEVEL002
 100
AcDbLine
   6
CONTINUOUS
  62
7
  10
 262.64100000000
  20
 307.70100000000
  30
0.0
  11
 262.71500000000
  21
 307.66300000000
  31
0.0
   0
LINE
   5
3A9
 100
AcDbEntity
   8
LEVEL002
 100
AcDbLine
   6
CONTINUOUS
  62
7
  10
 262.71500000000
  20
 307.66300000000
  30
0.0
  11
 262.79400000000
  21
 307.62500000000
  31
0.0
   0
LINE
   5
3AA
 100
AcDbEntity
   8
LEVEL002
 100
AcDbLine
   6
CONTINUOUS
  62
7
  10
 262.79400000000
  20
 307.62500000000
  30
0.0
  11
 262.87700000000
  21
 307.58900000000
  31
0.0
   0
LINE
   5
3AB
 100
AcDbEntity
   8
LEVEL002
 100
AcDbLine
   6
CONTINUOUS
  62
7
  10
 262.87700000000
  20
 307.58900000000
  30
0.0
  11
 262.96400000000
  21
 307.55400000000
  31
0.0
   0
LINE
   5
3AC
 100
AcDbEntity
   8
LEVEL002
 100
AcDbLine
   6
CONTINUOUS
  62
7
  10
 262.96400000000
  20
 307.55400000000
  30
0.0
  11
 263.05400000000
  21
 307.52100000000
  31
0.0
   0
LINE
   5
3AD
 100
AcDbEntity
   8
LEVEL002
 100
AcDbLine
   6
CONTINUOUS
  62
7
  10
 263.05400000000
  20
 307.52100000000
  30
0.0
  11
 263.14900000000
  21
 307.48900000000
  31
0.0
   0
LINE
   5
3AE
 100
AcDbEntity
   8
LEVEL002
 100
AcDbLine
   6
CONTINUOUS
  62
7
  10
 263.14900000000
  20
 307.48900000000
  30
0.0
  11
 263.24700000000
  21
 307.45900000000
  31
0.0
   0
LINE
   5
3AF
 100
AcDbEntity
   8
LEVEL002
 100
AcDbLine
   6
CONTINUOUS
  62
7
  10
 263.24700000000
  20
 307.45900000000
  30
0.0
  11
 263.34800000000
  21
 307.43100000000
  31
0.0
   0
LINE
   5
3B0
 100
AcDbEntity
   8
LEVEL002
 100
AcDbLine
   6
CONTINUOUS
  62
7
  10
 263.34800000000
  20
 307.43100000000
  30
0.0
  11
 263.45300000000
  21
 307.40400000000
  31
0.0
   0
LINE
   5
3B1
 100
AcDbEntity
   8
LEVEL002
 100
AcDbLine
   6
CONTINUOUS
  62
7
  10
 263.45300000000
  20
 307.40400000000
  30
0.0
  11
 263.56000000000
  21
 307.37900000000
  31
0.0
   0
LINE
   5
3B2
 100
AcDbEntity
   8
LEVEL002
 100
AcDbLine
   6
CONTINUOUS
  62
7
  10
 263.56000000000
  20
 307.37900000000
  30
0.0
  11
 263.67000000000
  21
 307.35600000000
  31
0.0
   0
LINE
   5
3B3
 100
AcDbEntity
   8
LEVEL002
 100
AcDbLine
   6
CONTINUOUS
  62
7
  10
 263.67000000000
  20
 307.35600000000
  30
0.0
  11
 263.78300000000
  21
 307.33500000000
  31
0.0
   0
LINE
   5
3B4
 100
AcDbEntity
   8
LEVEL002
 100
AcDbLine
   6
CONTINUOUS
  62
7
  10
 263.78300000000
  20
 307.33500000000
  30
0.0
  11
 263.89800000000
  21
 307.31500000000
  31
0.0
   0
LINE
   5
3B5
 100
AcDbEntity
   8
LEVEL002
 100
AcDbLine
   6
CONTINUOUS
  62
7
  10
 263.89800000000
  20
 307.31500000000
  30
0.0
  11
 264.01500000000
  21
 307.29800000000
  31
0.0
   0
LINE
   5
3B6
 100
AcDbEntity
   8
LEVEL002
 100
AcDbLine
   6
CONTINUOUS
  62
7
  10
 264.01500000000
  20
 307.29800000000
  30
0.0
  11
 264.13400000000
  21
 307.28300000000
  31
0.0
   0
LINE
   5
3B7
 100
AcDbEntity
   8
LEVEL002
 100
AcDbLine
   6
CONTINUOUS
  62
7
  10
 264.13400000000
  20
 307.28300000000
  30
0.0
  11
 264.25500000000
  21
 307.26900000000
  31
0.0
   0
LINE
   5
3B8
 100
AcDbEntity
   8
LEVEL002
 100
AcDbLine
   6
CONTINUOUS
  62
7
  10
 264.25500000000
  20
 307.26900000000
  30
0.0
  11
 264.37700000000
  21
 307.25800000000
  31
0.0
   0
LINE
   5
3B9
 100
AcDbEntity
   8
LEVEL002
 100
AcDbLine
   6
CONTINUOUS
  62
7
  10
 264.37700000000
  20
 307.25800000000
  30
0.0
  11
 264.50000000000
  21
 307.24800000000
  31
0.0
   0
LINE
   5
3BA
 100
AcDbEntity
   8
LEVEL002
 100
AcDbLine
   6
CONTINUOUS
  62
7
  10
 264.50000000000
  20
 307.24800000000
  30
0.0
  11
 264.62400000000
  21
 307.24100000000
  31
0.0
   0
LINE
   5
3BB
 100
AcDbEntity
   8
LEVEL002
 100
AcDbLine
   6
CONTINUOUS
  62
7
  10
 264.62400000000
  20
 307.24100000000
  30
0.0
  11
 264.74900000000
  21
 307.23600000000
  31
0.0
   0
LINE
   5
3BC
 100
AcDbEntity
   8
LEVEL002
 100
AcDbLine
   6
CONTINUOUS
  62
7
  10
 264.74900000000
  20
 307.23600000000
  30
0.0
  11
 264.87400000000
  21
 307.23300000000
  31
0.0
   0
LINE
   5
3BD
 100
AcDbEntity
   8
LEVEL002
 100
AcDbLine
   6
CONTINUOUS
  62
7
  10
 264.87400000000
  20
 307.23300000000
  30
0.0
  11
 265.00000000000
  21
 307.23200000000
  31
0.0
   0
LINE
   5
3BE
 100
AcDbEntity
   8
LEVEL002
 100
AcDbLine
   6
CONTINUOUS
  62
7
  10
 265.00000000000
  20
 307.23200000000
  30
0.0
  11
 265.12600000000
  21
 307.23300000000
  31
0.0
   0
LINE
   5
3BF
 100
AcDbEntity
   8
LEVEL002
 100
AcDbLine
   6
CONTINUOUS
  62
7
  10
 265.12600000000
  20
 307.23300000000
  30
0.0
  11
 265.25100000000
  21
 307.23600000000
  31
0.0
   0
LINE
   5
3C0
 100
AcDbEntity
   8
LEVEL002
 100
AcDbLine
   6
CONTINUOUS
  62
7
  10
 265.25100000000
  20
 307.23600000000
  30
0.0
  11
 265.37600000000
  21
 307.24100000000
  31
0.0
   0
LINE
   5
3C1
 100
AcDbEntity
   8
LEVEL002
 100
AcDbLine
   6
CONTINUOUS
  62
7
  10
 265.37600000000
  20
 307.24100000000
  30
0.0
  11
 265.50000000000
  21
 307.24800000000
  31
0.0
   0
LINE
   5
3C2
 100
AcDbEntity
   8
LEVEL002
 100
AcDbLine
   6
CONTINUOUS
  62
7
  10
 265.50000000000
  20
 307.24800000000
  30
0.0
  11
 265.62300000000
  21
 307.25800000000
  31
0.0
   0
LINE
   5
3C3
 100
AcDbEntity
   8
LEVEL002
 100
AcDbLine
   6
CONTINUOUS
  62
7
  10
 265.62300000000
  20
 307.25800000000
  30
0.0
  11
 265.74500000000
  21
 307.26900000000
  31
0.0
   0
LINE
   5
3C4
 100
AcDbEntity
   8
LEVEL002
 100
AcDbLine
   6
CONTINUOUS
  62
7
  10
 265.74500000000
  20
 307.26900000000
  30
0.0
  11
 265.86600000000
  21
 307.28300000000
  31
0.0
   0
LINE
   5
3C5
 100
AcDbEntity
   8
LEVEL002
 100
AcDbLine
   6
CONTINUOUS
  62
7
  10
 265.86600000000
  20
 307.28300000000
  30
0.0
  11
 265.98500000000
  21
 307.29800000000
  31
0.0
   0
LINE
   5
3C6
 100
AcDbEntity
   8
LEVEL002
 100
AcDbLine
   6
CONTINUOUS
  62
7
  10
 265.98500000000
  20
 307.29800000000
  30
0.0
  11
 266.10200000000
  21
 307.31500000000
  31
0.0
   0
LINE
   5
3C7
 100
AcDbEntity
   8
LEVEL002
 100
AcDbLine
   6
CONTINUOUS
  62
7
  10
 266.10200000000
  20
 307.31500000000
  30
0.0
  11
 266.21700000000
  21
 307.33500000000
  31
0.0
   0
LINE
   5
3C8
 100
AcDbEntity
   8
LEVEL002
 100
AcDbLine
   6
CONTINUOUS
  62
7
  10
 266.21700000000
  20
 307.33500000000
  30
0.0
  11
 266.33000000000
  21
 307.35600000000
  31
0.0
   0
LINE
   5
3C9
 100
AcDbEntity
   8
LEVEL002
 100
AcDbLine
   6
CONTINUOUS
  62
7
  10
 266.33000000000
  20
 307.35600000000
  30
0.0
  11
 266.44000000000
  21
 307.37900000000
  31
0.0
   0
LINE
   5
3CA
 100
AcDbEntity
   8
LEVEL002
 100
AcDbLine
   6
CONTINUOUS
  62
7
  10
 266.44000000000
  20
 307.37900000000
  30
0.0
  11
 266.54700000000
  21
 307.40400000000
  31
0.0
   0
LINE
   5
3CB
 100
AcDbEntity
   8
LEVEL002
 100
AcDbLine
   6
CONTINUOUS
  62
7
  10
 266.54700000000
  20
 307.40400000000
  30
0.0
  11
 266.65200000000
  21
 307.43100000000
  31
0.0
   0
LINE
   5
3CC
 100
AcDbEntity
   8
LEVEL002
 100
AcDbLine
   6
CONTINUOUS
  62
7
  10
 266.65200000000
  20
 307.43100000000
  30
0.0
  11
 266.75300000000
  21
 307.45900000000
  31
0.0
   0
LINE
   5
3CD
 100
AcDbEntity
   8
LEVEL002
 100
AcDbLine
   6
CONTINUOUS
  62
7
  10
 266.75300000000
  20
 307.45900000000
  30
0.0
  11
 266.85100000000
  21
 307.48900000000
  31
0.0
   0
LINE
   5
3CE
 100
AcDbEntity
   8
LEVEL002
 100
AcDbLine
   6
CONTINUOUS
  62
7
  10
 266.85100000000
  20
 307.48900000000
  30
0.0
  11
 266.94600000000
  21
 307.52100000000
  31
0.0
   0
LINE
   5
3CF
 100
AcDbEntity
   8
LEVEL002
 100
AcDbLine
   6
CONTINUOUS
  62
7
  10
 266.94600000000
  20
 307.52100000000
  30
0.0
  11
 267.03600000000
  21
 307.55400000000
  31
0.0
   0
LINE
   5
3D0
 100
AcDbEntity
   8
LEVEL002
 100
AcDbLine
   6
CONTINUOUS
  62
7
  10
 267.03600000000
  20
 307.55400000000
  30
0.0
  11
 267.12300000000
  21
 307.58900000000
  31
0.0
   0
LINE
   5
3D1
 100
AcDbEntity
   8
LEVEL002
 100
AcDbLine
   6
CONTINUOUS
  62
7
  10
 267.12300000000
  20
 307.58900000000
  30
0.0
  11
 267.20600000000
  21
 307.62500000000
  31
0.0
   0
LINE
   5
3D2
 100
AcDbEntity
   8
LEVEL002
 100
AcDbLine
   6
CONTINUOUS
  62
7
  10
 267.20600000000
  20
 307.62500000000
  30
0.0
  11
 267.28500000000
  21
 307.66300000000
  31
0.0
   0
LINE
   5
3D3
 100
AcDbEntity
   8
LEVEL002
 100
AcDbLine
   6
CONTINUOUS
  62
7
  10
 267.28500000000
  20
 307.66300000000
  30
0.0
  11
 267.35900000000
  21
 307.70100000000
  31
0.0
   0
LINE
   5
3D4
 100
AcDbEntity
   8
LEVEL002
 100
AcDbLine
   6
CONTINUOUS
  62
7
  10
 267.35900000000
  20
 307.70100000000
  30
0.0
  11
 267.42900000000
  21
 307.74100000000
  31
0.0
   0
LINE
   5
3D5
 100
AcDbEntity
   8
LEVEL002
 100
AcDbLine
   6
CONTINUOUS
  62
7
  10
 267.42900000000
  20
 307.74100000000
  30
0.0
  11
 267.49400000000
  21
 307.78300000000
  31
0.0
   0
LINE
   5
3D6
 100
AcDbEntity
   8
LEVEL002
 100
AcDbLine
   6
CONTINUOUS
  62
7
  10
 267.49400000000
  20
 307.78300000000
  30
0.0
  11
 267.55500000000
  21
 307.82500000000
  31
0.0
   0
LINE
   5
3D7
 100
AcDbEntity
   8
LEVEL002
 100
AcDbLine
   6
CONTINUOUS
  62
7
  10
 267.55500000000
  20
 307.82500000000
  30
0.0
  11
 267.61000000000
  21
 307.86800000000
  31
0.0
   0
LINE
   5
3D8
 100
AcDbEntity
   8
LEVEL002
 100
AcDbLine
   6
CONTINUOUS
  62
7
  10
 267.61000000000
  20
 307.86800000000
  30
0.0
  11
 267.66100000000
  21
 307.91200000000
  31
0.0
   0
LINE
   5
3D9
 100
AcDbEntity
   8
LEVEL002
 100
AcDbLine
   6
CONTINUOUS
  62
7
  10
 267.66100000000
  20
 307.91200000000
  30
0.0
  11
 267.70600000000
  21
 307.95700000000
  31
0.0
   0
LINE
   5
3DA
 100
AcDbEntity
   8
LEVEL002
 100
AcDbLine
   6
CONTINUOUS
  62
7
  10
 267.70600000000
  20
 307.95700000000
  30
0.0
  11
 267.74700000000
  21
 308.00200000000
  31
0.0
   0
LINE
   5
3DB
 100
AcDbEntity
   8
LEVEL002
 100
AcDbLine
   6
CONTINUOUS
  62
7
  10
 267.74700000000
  20
 308.00200000000
  30
0.0
  11
 267.78200000000
  21
 308.04800000000
  31
0.0
   0
LINE
   5
3DC
 100
AcDbEntity
   8
LEVEL002
 100
AcDbLine
   6
CONTINUOUS
  62
7
  10
 267.78200000000
  20
 308.04800000000
  30
0.0
  11
 267.81200000000
  21
 308.09500000000
  31
0.0
   0
LINE
   5
3DD
 100
AcDbEntity
   8
LEVEL002
 100
AcDbLine
   6
CONTINUOUS
  62
7
  10
 267.81200000000
  20
 308.09500000000
  30
0.0
  11
 267.83600000000
  21
 308.14200000000
  31
0.0
   0
LINE
   5
3DE
 100
AcDbEntity
   8
LEVEL002
 100
AcDbLine
   6
CONTINUOUS
  62
7
  10
 267.83600000000
  20
 308.14200000000
  30
0.0
  11
 267.85500000000
  21
 308.19000000000
  31
0.0
   0
LINE
   5
3DF
 100
AcDbEntity
   8
LEVEL002
 100
AcDbLine
   6
CONTINUOUS
  62
7
  10
 267.85500000000
  20
 308.19000000000
  30
0.0
  11
 267.86900000000
  21
 308.23800000000
  31
0.0
   0
LINE
   5
3E0
 100
AcDbEntity
   8
LEVEL002
 100
AcDbLine
   6
CONTINUOUS
  62
7
  10
 267.86900000000
  20
 308.23800000000
  30
0.0
  11
 267.87700000000
  21
 308.28600000000
  31
0.0
   0
LINE
   5
3E1
 100
AcDbEntity
   8
LEVEL002
 100
AcDbLine
   6
CONTINUOUS
  62
7
  10
 267.87700000000
  20
 308.28600000000
  30
0.0
  11
 267.88000000000
  21
 308.33400000000
  31
0.0
   0
LINE
   5
3E2
 100
AcDbEntity
   8
LEVEL002
 100
AcDbLine
   6
CONTINUOUS
  62
7
  10
 261.54000000000
  20
 307.21200000000
  30
0.0
  11
 261.54300000000
  21
 307.15400000000
  31
0.0
   0
LINE
   5
3E3
 100
AcDbEntity
   8
LEVEL002
 100
AcDbLine
   6
CONTINUOUS
  62
7
  10
 261.54300000000
  20
 307.15400000000
  30
0.0
  11
 261.55300000000
  21
 307.09600000000
  31
0.0
   0
LINE
   5
3E4
 100
AcDbEntity
   8
LEVEL002
 100
AcDbLine
   6
CONTINUOUS
  62
7
  10
 261.55300000000
  20
 307.09600000000
  30
0.0
  11
 261.57000000000
  21
 307.03900000000
  31
0.0
   0
LINE
   5
3E5
 100
AcDbEntity
   8
LEVEL002
 100
AcDbLine
   6
CONTINUOUS
  62
7
  10
 261.57000000000
  20
 307.03900000000
  30
0.0
  11
 261.59300000000
  21
 306.98200000000
  31
0.0
   0
LINE
   5
3E6
 100
AcDbEntity
   8
LEVEL002
 100
AcDbLine
   6
CONTINUOUS
  62
7
  10
 261.59300000000
  20
 306.98200000000
  30
0.0
  11
 261.62200000000
  21
 306.92500000000
  31
0.0
   0
LINE
   5
3E7
 100
AcDbEntity
   8
LEVEL002
 100
AcDbLine
   6
CONTINUOUS
  62
7
  10
 261.62200000000
  20
 306.92500000000
  30
0.0
  11
 261.65800000000
  21
 306.86900000000
  31
0.0
   0
LINE
   5
3E8
 100
AcDbEntity
   8
LEVEL002
 100
AcDbLine
   6
CONTINUOUS
  62
7
  10
 261.65800000000
  20
 306.86900000000
  30
0.0
  11
 261.70000000000
  21
 306.81400000000
  31
0.0
   0
LINE
   5
3E9
 100
AcDbEntity
   8
LEVEL002
 100
AcDbLine
   6
CONTINUOUS
  62
7
  10
 261.70000000000
  20
 306.81400000000
  30
0.0
  11
 261.74900000000
  21
 306.75900000000
  31
0.0
   0
LINE
   5
3EA
 100
AcDbEntity
   8
LEVEL002
 100
AcDbLine
   6
CONTINUOUS
  62
7
  10
 261.74900000000
  20
 306.75900000000
  30
0.0
  11
 261.80300000000
  21
 306.70500000000
  31
0.0
   0
LINE
   5
3EB
 100
AcDbEntity
   8
LEVEL002
 100
AcDbLine
   6
CONTINUOUS
  62
7
  10
 261.80300000000
  20
 306.70500000000
  30
0.0
  11
 261.86400000000
  21
 306.65200000000
  31
0.0
   0
LINE
   5
3EC
 100
AcDbEntity
   8
LEVEL002
 100
AcDbLine
   6
CONTINUOUS
  62
7
  10
 261.86400000000
  20
 306.65200000000
  30
0.0
  11
 261.93100000000
  21
 306.60000000000
  31
0.0
   0
LINE
   5
3ED
 100
AcDbEntity
   8
LEVEL002
 100
AcDbLine
   6
CONTINUOUS
  62
7
  10
 261.93100000000
  20
 306.60000000000
  30
0.0
  11
 262.00400000000
  21
 306.55000000000
  31
0.0
   0
LINE
   5
3EE
 100
AcDbEntity
   8
LEVEL002
 100
AcDbLine
   6
CONTINUOUS
  62
7
  10
 262.00400000000
  20
 306.55000000000
  30
0.0
  11
 262.08200000000
  21
 306.50000000000
  31
0.0
   0
LINE
   5
3EF
 100
AcDbEntity
   8
LEVEL002
 100
AcDbLine
   6
CONTINUOUS
  62
7
  10
 262.08200000000
  20
 306.50000000000
  30
0.0
  11
 262.16600000000
  21
 306.45200000000
  31
0.0
   0
LINE
   5
3F0
 100
AcDbEntity
   8
LEVEL002
 100
AcDbLine
   6
CONTINUOUS
  62
7
  10
 262.16600000000
  20
 306.45200000000
  30
0.0
  11
 262.25500000000
  21
 306.40600000000
  31
0.0
   0
LINE
   5
3F1
 100
AcDbEntity
   8
LEVEL002
 100
AcDbLine
   6
CONTINUOUS
  62
7
  10
 262.25500000000
  20
 306.40600000000
  30
0.0
  11
 262.34900000000
  21
 306.36100000000
  31
0.0
   0
LINE
   5
3F2
 100
AcDbEntity
   8
LEVEL002
 100
AcDbLine
   6
CONTINUOUS
  62
7
  10
 262.34900000000
  20
 306.36100000000
  30
0.0
  11
 262.44900000000
  21
 306.31700000000
  31
0.0
   0
LINE
   5
3F3
 100
AcDbEntity
   8
LEVEL002
 100
AcDbLine
   6
CONTINUOUS
  62
7
  10
 262.44900000000
  20
 306.31700000000
  30
0.0
  11
 262.55300000000
  21
 306.27600000000
  31
0.0
   0
LINE
   5
3F4
 100
AcDbEntity
   8
LEVEL002
 100
AcDbLine
   6
CONTINUOUS
  62
7
  10
 262.55300000000
  20
 306.27600000000
  30
0.0
  11
 262.66200000000
  21
 306.23600000000
  31
0.0
   0
LINE
   5
3F5
 100
AcDbEntity
   8
LEVEL002
 100
AcDbLine
   6
CONTINUOUS
  62
7
  10
 262.66200000000
  20
 306.23600000000
  30
0.0
  11
 262.77600000000
  21
 306.19800000000
  31
0.0
   0
LINE
   5
3F6
 100
AcDbEntity
   8
LEVEL002
 100
AcDbLine
   6
CONTINUOUS
  62
7
  10
 262.77600000000
  20
 306.19800000000
  30
0.0
  11
 262.89400000000
  21
 306.16100000000
  31
0.0
   0
LINE
   5
3F7
 100
AcDbEntity
   8
LEVEL002
 100
AcDbLine
   6
CONTINUOUS
  62
7
  10
 262.89400000000
  20
 306.16100000000
  30
0.0
  11
 263.01500000000
  21
 306.12700000000
  31
0.0
   0
LINE
   5
3F8
 100
AcDbEntity
   8
LEVEL002
 100
AcDbLine
   6
CONTINUOUS
  62
7
  10
 263.01500000000
  20
 306.12700000000
  30
0.0
  11
 263.14100000000
  21
 306.09500000000
  31
0.0
   0
LINE
   5
3F9
 100
AcDbEntity
   8
LEVEL002
 100
AcDbLine
   6
CONTINUOUS
  62
7
  10
 263.14100000000
  20
 306.09500000000
  30
0.0
  11
 263.27000000000
  21
 306.06500000000
  31
0.0
   0
LINE
   5
3FA
 100
AcDbEntity
   8
LEVEL002
 100
AcDbLine
   6
CONTINUOUS
  62
7
  10
 263.27000000000
  20
 306.06500000000
  30
0.0
  11
 263.40200000000
  21
 306.03700000000
  31
0.0
   0
LINE
   5
3FB
 100
AcDbEntity
   8
LEVEL002
 100
AcDbLine
   6
CONTINUOUS
  62
7
  10
 263.40200000000
  20
 306.03700000000
  30
0.0
  11
 263.53800000000
  21
 306.01200000000
  31
0.0
   0
LINE
   5
3FC
 100
AcDbEntity
   8
LEVEL002
 100
AcDbLine
   6
CONTINUOUS
  62
7
  10
 263.53800000000
  20
 306.01200000000
  30
0.0
  11
 263.67600000000
  21
 305.98900000000
  31
0.0
   0
LINE
   5
3FD
 100
AcDbEntity
   8
LEVEL002
 100
AcDbLine
   6
CONTINUOUS
  62
7
  10
 263.67600000000
  20
 305.98900000000
  30
0.0
  11
 263.81700000000
  21
 305.96800000000
  31
0.0
   0
LINE
   5
3FE
 100
AcDbEntity
   8
LEVEL002
 100
AcDbLine
   6
CONTINUOUS
  62
7
  10
 263.81700000000
  20
 305.96800000000
  30
0.0
  11
 263.96000000000
  21
 305.94900000000
  31
0.0
   0
LINE
   5
3FF
 100
AcDbEntity
   8
LEVEL002
 100
AcDbLine
   6
CONTINUOUS
  62
7
  10
 263.96000000000
  20
 305.94900000000
  30
0.0
  11
 264.10400000000
  21
 305.93300000000
  31
0.0
   0
LINE
   5
400
 100
AcDbEntity
   8
LEVEL002
 100
AcDbLine
   6
CONTINUOUS
  62
7
  10
 264.10400000000
  20
 305.93300000000
  30
0.0
  11
 264.25100000000
  21
 305.91900000000
  31
0.0
   0
LINE
   5
401
 100
AcDbEntity
   8
LEVEL002
 100
AcDbLine
   6
CONTINUOUS
  62
7
  10
 264.25100000000
  20
 305.91900000000
  30
0.0
  11
 264.39900000000
  21
 305.90800000000
  31
0.0
   0
LINE
   5
402
 100
AcDbEntity
   8
LEVEL002
 100
AcDbLine
   6
CONTINUOUS
  62
7
  10
 264.39900000000
  20
 305.90800000000
  30
0.0
  11
 264.54800000000
  21
 305.89900000000
  31
0.0
   0
LINE
   5
403
 100
AcDbEntity
   8
LEVEL002
 100
AcDbLine
   6
CONTINUOUS
  62
7
  10
 264.54800000000
  20
 305.89900000000
  30
0.0
  11
 264.69800000000
  21
 305.89300000000
  31
0.0
   0
LINE
   5
404
 100
AcDbEntity
   8
LEVEL002
 100
AcDbLine
   6
CONTINUOUS
  62
7
  10
 264.69800000000
  20
 305.89300000000
  30
0.0
  11
 264.84900000000
  21
 305.88900000000
  31
0.0
   0
LINE
   5
405
 100
AcDbEntity
   8
LEVEL002
 100
AcDbLine
   6
CONTINUOUS
  62
7
  10
 264.84900000000
  20
 305.88900000000
  30
0.0
  11
 265.00000000000
  21
 305.88800000000
  31
0.0
   0
LINE
   5
406
 100
AcDbEntity
   8
LEVEL002
 100
AcDbLine
   6
CONTINUOUS
  62
7
  10
 265.00000000000
  20
 305.88800000000
  30
0.0
  11
 265.15100000000
  21
 305.88900000000
  31
0.0
   0
LINE
   5
407
 100
AcDbEntity
   8
LEVEL002
 100
AcDbLine
   6
CONTINUOUS
  62
7
  10
 265.15100000000
  20
 305.88900000000
  30
0.0
  11
 265.30200000000
  21
 305.89300000000
  31
0.0
   0
LINE
   5
408
 100
AcDbEntity
   8
LEVEL002
 100
AcDbLine
   6
CONTINUOUS
  62
7
  10
 265.30200000000
  20
 305.89300000000
  30
0.0
  11
 265.45200000000
  21
 305.89900000000
  31
0.0
   0
LINE
   5
409
 100
AcDbEntity
   8
LEVEL002
 100
AcDbLine
   6
CONTINUOUS
  62
7
  10
 265.45200000000
  20
 305.89900000000
  30
0.0
  11
 265.60100000000
  21
 305.90800000000
  31
0.0
   0
LINE
   5
40A
 100
AcDbEntity
   8
LEVEL002
 100
AcDbLine
   6
CONTINUOUS
  62
7
  10
 265.60100000000
  20
 305.90800000000
  30
0.0
  11
 265.74900000000
  21
 305.91900000000
  31
0.0
   0
LINE
   5
40B
 100
AcDbEntity
   8
LEVEL002
 100
AcDbLine
   6
CONTINUOUS
  62
7
  10
 265.74900000000
  20
 305.91900000000
  30
0.0
  11
 265.89600000000
  21
 305.93300000000
  31
0.0
   0
LINE
   5
40C
 100
AcDbEntity
   8
LEVEL002
 100
AcDbLine
   6
CONTINUOUS
  62
7
  10
 265.89600000000
  20
 305.93300000000
  30
0.0
  11
 266.04000000000
  21
 305.94900000000
  31
0.0
   0
LINE
   5
40D
 100
AcDbEntity
   8
LEVEL002
 100
AcDbLine
   6
CONTINUOUS
  62
7
  10
 266.04000000000
  20
 305.94900000000
  30
0.0
  11
 266.18300000000
  21
 305.96800000000
  31
0.0
   0
LINE
   5
40E
 100
AcDbEntity
   8
LEVEL002
 100
AcDbLine
   6
CONTINUOUS
  62
7
  10
 266.18300000000
  20
 305.96800000000
  30
0.0
  11
 266.32400000000
  21
 305.98900000000
  31
0.0
   0
LINE
   5
40F
 100
AcDbEntity
   8
LEVEL002
 100
AcDbLine
   6
CONTINUOUS
  62
7
  10
 266.32400000000
  20
 305.98900000000
  30
0.0
  11
 266.46200000000
  21
 306.01200000000
  31
0.0
   0
LINE
   5
410
 100
AcDbEntity
   8
LEVEL002
 100
AcDbLine
   6
CONTINUOUS
  62
7
  10
 266.46200000000
  20
 306.01200000000
  30
0.0
  11
 266.59800000000
  21
 306.03700000000
  31
0.0
   0
LINE
   5
411
 100
AcDbEntity
   8
LEVEL002
 100
AcDbLine
   6
CONTINUOUS
  62
7
  10
 266.59800000000
  20
 306.03700000000
  30
0.0
  11
 266.73000000000
  21
 306.06500000000
  31
0.0
   0
LINE
   5
412
 100
AcDbEntity
   8
LEVEL002
 100
AcDbLine
   6
CONTINUOUS
  62
7
  10
 266.73000000000
  20
 306.06500000000
  30
0.0
  11
 266.85900000000
  21
 306.09500000000
  31
0.0
   0
LINE
   5
413
 100
AcDbEntity
   8
LEVEL002
 100
AcDbLine
   6
CONTINUOUS
  62
7
  10
 266.85900000000
  20
 306.09500000000
  30
0.0
  11
 266.98500000000
  21
 306.12700000000
  31
0.0
   0
LINE
   5
414
 100
AcDbEntity
   8
LEVEL002
 100
AcDbLine
   6
CONTINUOUS
  62
7
  10
 266.98500000000
  20
 306.12700000000
  30
0.0
  11
 267.10600000000
  21
 306.16100000000
  31
0.0
   0
LINE
   5
415
 100
AcDbEntity
   8
LEVEL002
 100
AcDbLine
   6
CONTINUOUS
  62
7
  10
 267.10600000000
  20
 306.16100000000
  30
0.0
  11
 267.22400000000
  21
 306.19800000000
  31
0.0
   0
LINE
   5
416
 100
AcDbEntity
   8
LEVEL002
 100
AcDbLine
   6
CONTINUOUS
  62
7
  10
 267.22400000000
  20
 306.19800000000
  30
0.0
  11
 267.33800000000
  21
 306.23600000000
  31
0.0
   0
LINE
   5
417
 100
AcDbEntity
   8
LEVEL002
 100
AcDbLine
   6
CONTINUOUS
  62
7
  10
 267.33800000000
  20
 306.23600000000
  30
0.0
  11
 267.44700000000
  21
 306.27600000000
  31
0.0
   0
LINE
   5
418
 100
AcDbEntity
   8
LEVEL002
 100
AcDbLine
   6
CONTINUOUS
  62
7
  10
 267.44700000000
  20
 306.27600000000
  30
0.0
  11
 267.55100000000
  21
 306.31700000000
  31
0.0
   0
LINE
   5
419
 100
AcDbEntity
   8
LEVEL002
 100
AcDbLine
   6
CONTINUOUS
  62
7
  10
 267.55100000000
  20
 306.31700000000
  30
0.0
  11
 267.65100000000
  21
 306.36100000000
  31
0.0
   0
LINE
   5
41A
 100
AcDbEntity
   8
LEVEL002
 100
AcDbLine
   6
CONTINUOUS
  62
7
  10
 267.65100000000
  20
 306.36100000000
  30
0.0
  11
 267.74500000000
  21
 306.40600000000
  31
0.0
   0
LINE
   5
41B
 100
AcDbEntity
   8
LEVEL002
 100
AcDbLine
   6
CONTINUOUS
  62
7
  10
 267.74500000000
  20
 306.40600000000
  30
0.0
  11
 267.83400000000
  21
 306.45200000000
  31
0.0
   0
LINE
   5
41C
 100
AcDbEntity
   8
LEVEL002
 100
AcDbLine
   6
CONTINUOUS
  62
7
  10
 267.83400000000
  20
 306.45200000000
  30
0.0
  11
 267.91800000000
  21
 306.50000000000
  31
0.0
   0
LINE
   5
41D
 100
AcDbEntity
   8
LEVEL002
 100
AcDbLine
   6
CONTINUOUS
  62
7
  10
 267.91800000000
  20
 306.50000000000
  30
0.0
  11
 267.99600000000
  21
 306.55000000000
  31
0.0
   0
LINE
   5
41E
 100
AcDbEntity
   8
LEVEL002
 100
AcDbLine
   6
CONTINUOUS
  62
7
  10
 267.99600000000
  20
 306.55000000000
  30
0.0
  11
 268.06900000000
  21
 306.60000000000
  31
0.0
   0
LINE
   5
41F
 100
AcDbEntity
   8
LEVEL002
 100
AcDbLine
   6
CONTINUOUS
  62
7
  10
 268.06900000000
  20
 306.60000000000
  30
0.0
  11
 268.13600000000
  21
 306.65200000000
  31
0.0
   0
LINE
   5
420
 100
AcDbEntity
   8
LEVEL002
 100
AcDbLine
   6
CONTINUOUS
  62
7
  10
 268.13600000000
  20
 306.65200000000
  30
0.0
  11
 268.19700000000
  21
 306.70500000000
  31
0.0
   0
LINE
   5
421
 100
AcDbEntity
   8
LEVEL002
 100
AcDbLine
   6
CONTINUOUS
  62
7
  10
 268.19700000000
  20
 306.70500000000
  30
0.0
  11
 268.25100000000
  21
 306.75900000000
  31
0.0
   0
LINE
   5
422
 100
AcDbEntity
   8
LEVEL002
 100
AcDbLine
   6
CONTINUOUS
  62
7
  10
 268.25100000000
  20
 306.75900000000
  30
0.0
  11
 268.30000000000
  21
 306.81400000000
  31
0.0
   0
LINE
   5
423
 100
AcDbEntity
   8
LEVEL002
 100
AcDbLine
   6
CONTINUOUS
  62
7
  10
 268.30000000000
  20
 306.81400000000
  30
0.0
  11
 268.34200000000
  21
 306.86900000000
  31
0.0
   0
LINE
   5
424
 100
AcDbEntity
   8
LEVEL002
 100
AcDbLine
   6
CONTINUOUS
  62
7
  10
 268.34200000000
  20
 306.86900000000
  30
0.0
  11
 268.37800000000
  21
 306.92500000000
  31
0.0
   0
LINE
   5
425
 100
AcDbEntity
   8
LEVEL002
 100
AcDbLine
   6
CONTINUOUS
  62
7
  10
 268.37800000000
  20
 306.92500000000
  30
0.0
  11
 268.40700000000
  21
 306.98200000000
  31
0.0
   0
LINE
   5
426
 100
AcDbEntity
   8
LEVEL002
 100
AcDbLine
   6
CONTINUOUS
  62
7
  10
 268.40700000000
  20
 306.98200000000
  30
0.0
  11
 268.43000000000
  21
 307.03900000000
  31
0.0
   0
LINE
   5
427
 100
AcDbEntity
   8
LEVEL002
 100
AcDbLine
   6
CONTINUOUS
  62
7
  10
 268.43000000000
  20
 307.03900000000
  30
0.0
  11
 268.44700000000
  21
 307.09600000000
  31
0.0
   0
LINE
   5
428
 100
AcDbEntity
   8
LEVEL002
 100
AcDbLine
   6
CONTINUOUS
  62
7
  10
 268.44700000000
  20
 307.09600000000
  30
0.0
  11
 268.45700000000
  21
 307.15400000000
  31
0.0
   0
LINE
   5
429
 100
AcDbEntity
   8
LEVEL002
 100
AcDbLine
   6
CONTINUOUS
  62
7
  10
 268.45700000000
  20
 307.15400000000
  30
0.0
  11
 268.46000000000
  21
 307.21200000000
  31
0.0
   0
ARC
   5
42A
 100
AcDbEntity
   8
LEVEL002
   6
CONTINUOUS
  62
7
 100
AcDbCircle
  10
 262.06100000000
  20
 310.69700000000
  30
0.0
  40
 6.2801900000000
 100
AcDbArc
  50
 337.89300000001
  51
 352.46400000001
   0
ARC
   5
42B
 100
AcDbEntity
   8
LEVEL002
   6
CONTINUOUS
  62
7
 100
AcDbCircle
  10
 269.01300000000
  20
 308.20900000000
  30
0.0
  40
 1.1396500000000
 100
AcDbArc
  50
 173.69600000003
  51
 240.98600000008
   0
ARC
   5
42C
 100
AcDbEntity
   8
LEVEL002
   6
CONTINUOUS
  62
7
 100
AcDbCircle
  10
 267.93900000000
  20
 310.69700000000
  30
0.0
  40
 6.2801900000000
 100
AcDbArc
  50
 187.53600000002
  51
 202.10700000002
   0
ARC
   5
42D
 100
AcDbEntity
   8
LEVEL002
   6
CONTINUOUS
  62
7
 100
AcDbCircle
  10
 260.98700000000
  20
 308.20900000000
  30
0.0
  40
 1.1396500000000
 100
AcDbArc
  50
 299.01399999999
  51
 6.3044099999874
   0
LINE
   5
42E
 100
AcDbEntity
   8
LEVEL002
 100
AcDbLine
   6
CONTINUOUS
  62
7
  10
 268.46400000000
  20
 306.43800000000
  30
0.0
  11
 265.00000000000
  21
 305.66500000000
  31
0.0
   0
LINE
   5
42F
 100
AcDbEntity
   8
LEVEL002
 100
AcDbLine
   6
CONTINUOUS
  62
7
  10
 265.00000000000
  20
 305.66500000000
  30
0.0
  11
 261.53600000000
  21
 306.43800000000
  31
0.0
   0
LINE
   5
430
 100
AcDbEntity
   8
LEVEL002
 100
AcDbLine
   6
CONTINUOUS
  62
7
  10
 261.53600000000
  20
 307.98500000000
  30
0.0
  11
 262.12300000000
  21
 308.11600000000
  31
0.0
   0
LINE
   5
431
 100
AcDbEntity
   8
LEVEL002
 100
AcDbLine
   6
CONTINUOUS
  62
7
  10
 267.87700000000
  20
 308.11600000000
  30
0.0
  11
 268.46400000000
  21
 307.98500000000
  31
0.0
   0
LINE
   5
432
 100
AcDbEntity
   8
LEVEL002
 100
AcDbLine
   6
CONTINUOUS
  62
7
  10
 261.53600000000
  20
 307.98500000000
  30
0.0
  11
 261.53600000000
  21
 304.22100000000
  31
0.0
   0
LINE
   5
433
 100
AcDbEntity
   8
LEVEL002
 100
AcDbLine
   6
CONTINUOUS
  62
7
  10
 268.46400000000
  20
 304.22100000000
  30
0.0
  11
 268.46400000000
  21
 307.98500000000
  31
0.0
   0
LINE
   5
434
 100
AcDbEntity
   8
LEVEL002
 100
AcDbLine
   6
CONTINUOUS
  62
7
  10
 261.53600000000
  20
 304.22100000000
  30
0.0
  11
 265.00000000000
  21
 303.44800000000
  31
0.0
   0
LINE
   5
435
 100
AcDbEntity
   8
LEVEL002
 100
AcDbLine
   6
CONTINUOUS
  62
7
  10
 265.00000000000
  20
 303.44800000000
  30
0.0
  11
 268.46400000000
  21
 304.22100000000
  31
0.0
   0
ARC
   5
436
 100
AcDbEntity
   8
LEVEL002
   6
CONTINUOUS
  62
7
 100
AcDbCircle
  10
 265.00000000000
  20
 300.00000000000
  30
0.0
  40
 6.3300000000000
 100
AcDbArc
  50
 123.17900000000
  51
 56.821299999993
   0
LINE
   5
437
 100
AcDbEntity
   8
LEVEL002
 100
AcDbLine
   6
CONTINUOUS
  62
7
  10
 273.08300000000
  20
 300.00000000000
  30
0.0
  11
 269.04100000000
  21
 307.00000000000
  31
0.0
   0
LINE
   5
438
 100
AcDbEntity
   8
LEVEL002
 100
AcDbLine
   6
CONTINUOUS
  62
7
  10
 260.95900000000
  20
 307.00000000000
  30
0.0
  11
 256.91700000000
  21
 300.00000000000
  31
0.0
   0
LINE
   5
439
 100
AcDbEntity
   8
LEVEL002
 100
AcDbLine
   6
CONTINUOUS
  62
7
  10
 256.91700000000
  20
 300.00000000000
  30
0.0
  11
 260.95900000000
  21
 293.00000000000
  31
0.0
   0
LINE
   5
43A
 100
AcDbEntity
   8
LEVEL002
 100
AcDbLine
   6
CONTINUOUS
  62
7
  10
 260.95900000000
  20
 293.00000000000
  30
0.0
  11
 269.04100000000
  21
 293.00000000000
  31
0.0
   0
LINE
   5
43B
 100
AcDbEntity
   8
LEVEL002
 100
AcDbLine
   6
CONTINUOUS
  62
7
  10
 269.04100000000
  20
 293.00000000000
  30
0.0
  11
 273.08300000000
  21
 300.00000000000
  31
0.0
   0
LINE
   5
43C
 100
AcDbEntity
   8
LEVEL002
 100
AcDbLine
   6
CONTINUOUS
  62
7
  10
 269.04100000000
  20
 307.00000000000
  30
0.0
  11
 268.46400000000
  21
 307.00000000000
  31
0.0
   0
LINE
   5
43D
 100
AcDbEntity
   8
LEVEL002
 100
AcDbLine
   6
CONTINUOUS
  62
7
  10
 261.53600000000
  20
 307.00000000000
  30
0.0
  11
 260.95900000000
  21
 307.00000000000
  31
0.0
   0
LINE
   5
43E
 100
AcDbEntity
   8
LEVEL002
 100
AcDbLine
   6
CONTINUOUS
  62
7
  10
 265.00000000000
  20
 305.66500000000
  30
0.0
  11
 265.00000000000
  21
 303.44800000000
  31
0.0
   0
LINE
   5
43F
 100
AcDbEntity
   8
LEVEL002
 100
AcDbLine
   6
DASHDOT
  62
1
  10
 668.00000000000
  20
 340.57800000000
  30
0.0
  11
 668.00000000000
  21
 253.43200000000
  31
0.0
   0
LINE
   5
440
 100
AcDbEntity
   8
LEVEL002
 100
AcDbLine
   6
DASHDOT
  62
1
  10
 636.68100000000
  20
 300.00000000000
  30
0.0
  11
 705.01800000000
  21
 300.00000000000
  31
0.0
   0
LINE
   5
441
 100
AcDbEntity
   8
LEVEL002
 100
AcDbLine
   6
DASHDOT
  62
1
  10
 585.00000000000
  20
 250.00000000000
  30
0.0
  11
 585.00000000000
  21
 195.00000000000
  31
0.0
   0
LINE
   5
442
 100
AcDbEntity
   8
LEVEL002
 100
AcDbLine
   6
DASHDOT
  62
1
  10
 910.00000000000
  20
 250.00000000000
  30
0.0
  11
 910.00000000000
  21
 195.00000000000
  31
0.0
   0
LINE
   5
443
 100
AcDbEntity
   8
LEVEL002
 100
AcDbLine
   6
DASHDOT
  62
1
  10
 440.00000000000
  20
 300.00000000000
  30
0.0
  11
 20.000000000000
  21
 300.00000000000
  31
0.0
   0
LINE
   5
444
 100
AcDbEntity
   8
LEVEL002
 100
AcDbLine
   6
DASHDOT
  62
1
  10
 155.00000000000
  20
 250.00000000000
  30
0.0
  11
 155.00000000000
  21
 195.00000000000
  31
0.0
   0
LINE
   5
445
 100
AcDbEntity
   8
LEVEL002
 100
AcDbLine
   6
DASHDOT
  62
1
  10
 305.00000000000
  20
 250.00000000000
  30
0.0
  11
 305.00000000000
  21
 195.00000000000
  31
0.0
   0
LINE
   5
446
 100
AcDbEntity
   8
LEVEL002
 100
AcDbLine
   6
DASHDOT
  62
1
  10
 780.00000000000
  20
 823.50000000000
  30
0.0
  11
 780.00000000000
  21
 30.000000000000
  31
0.0
   0
LINE
   5
447
 100
AcDbEntity
   8
LEVEL002
 100
AcDbLine
   6
DASHDOT
  62
1
  10
 230.00000000000
  20
 823.50000000000
  30
0.0
  11
 230.00000000000
  21
 30.000000000000
  31
0.0
   0
LINE
   5
448
 100
AcDbEntity
   8
LEVEL002
 100
AcDbLine
   6
CONTINUOUS
  62
7
  10
 374.34700000000
  20
 316.77000000000
  30
0.0
  11
 431.50000000000
  21
 316.77000000000
  31
0.0
   0
ARC
   5
449
 100
AcDbEntity
   8
LEVEL002
   6
CONTINUOUS
  62
7
 100
AcDbCircle
  10
 265.00000000000
  20
 935.51900000000
  30
0.0
  40
 0.99921700000000
 100
AcDbArc
  50
 180.00000000000
  51
0.0
   0
CIRCLE
   5
44A
 100
AcDbEntity
   8
LEVEL002
 100
AcDbCircle
   6
CONTINUOUS
  62
7
  10
 305.00000000000
  20
 1250.0000000000
  30
0.0
  40
 16.500000000000
   0
CIRCLE
   5
44B
 100
AcDbEntity
   8
LEVEL002
 100
AcDbCircle
   6
CONTINUOUS
  62
7
  10
 155.00000000000
  20
 1250.0000000000
  30
0.0
  40
 16.500000000000
   0
LINE
   5
44C
 100
AcDbEntity
   8
LEVEL002
 100
AcDbLine
   6
CONTINUOUS
  62
7
  10
 230.00000000000
  20
 1285.0000000000
  30
0.0
  11
 154.54800000000
  21
 1284.0000000000
  31
0.0
   0
LINE
   5
44D
 100
AcDbEntity
   8
LEVEL002
 100
AcDbLine
   6
CONTINUOUS
  62
7
  10
 230.00000000000
  20
 1285.0000000000
  30
0.0
  11
 305.45200000000
  21
 1284.0000000000
  31
0.0
   0
ARC
   5
44E
 100
AcDbEntity
   8
LEVEL002
   6
CONTINUOUS
  62
7
 100
AcDbCircle
  10
 305.00000000000
  20
 1250.0000000000
  30
0.0
  40
 34.000000000000
 100
AcDbArc
  50
 0.44153699999994
  51
 89.238399999999
   0
ARC
   5
44F
 100
AcDbEntity
   8
LEVEL002
   6
CONTINUOUS
  62
7
 100
AcDbCircle
  10
 155.00000000000
  20
 1250.0000000000
  30
0.0
  40
 34.000000000000
 100
AcDbArc
  50
 90.761600000000
  51
 179.55800000000
   0
CIRCLE
   5
450
 100
AcDbEntity
   8
LEVEL002
 100
AcDbCircle
   6
CONTINUOUS
  62
7
  10
 155.00000000000
  20
 925.00000000000
  30
0.0
  40
 16.500000000000
   0
CIRCLE
   5
451
 100
AcDbEntity
   8
LEVEL002
 100
AcDbCircle
   6
CONTINUOUS
  62
7
  10
 305.00000000000
  20
 925.00000000000
  30
0.0
  40
 16.500000000000
   0
ARC
   5
452
 100
AcDbEntity
   8
LEVEL002
   6
CONTINUOUS
  62
7
 100
AcDbCircle
  10
 305.00000000000
  20
 925.00000000000
  30
0.0
  40
 34.000000000000
 100
AcDbArc
  50
 270.76200000000
  51
 359.70600000000
   0
ARC
   5
453
 100
AcDbEntity
   8
LEVEL002
   6
CONTINUOUS
  62
7
 100
AcDbCircle
  10
 155.00000000000
  20
 925.00000000000
  30
0.0
  40
 34.000000000000
 100
AcDbArc
  50
 180.29400000000
  51
 270.00000000000
   0
LINE
   5
454
 100
AcDbEntity
   8
LEVEL002
 100
AcDbLine
   6
CONTINUOUS
  62
7
  10
 214.39400000000
  20
 890.20700000000
  30
0.0
  11
 154.54800000000
  21
 891.00300000000
  31
0.0
   0
LINE
   5
455
 100
AcDbEntity
   8
LEVEL002
 100
AcDbLine
   6
CONTINUOUS
  62
7
  10
 245.60600000000
  20
 890.20700000000
  30
0.0
  11
 305.45200000000
  21
 891.00300000000
  31
0.0
   0
LINE
   5
456
 100
AcDbEntity
   8
LEVEL002
 100
AcDbLine
   6
CONTINUOUS
  62
7
  10
 214.39400000000
  20
 890.20700000000
  30
0.0
  11
 245.60600000000
  21
 890.20700000000
  31
0.0
   0
LINE
   5
457
 100
AcDbEntity
   8
LEVEL002
 100
AcDbLine
   6
CONTINUOUS
  62
7
  10
 339.14400000000
  20
 953.00000000000
  30
0.0
  11
 339.00000000000
  21
 924.82600000000
  31
0.0
   0
ARC
   5
458
 100
AcDbEntity
   8
LEVEL002
   6
CONTINUOUS
  62
7
 100
AcDbCircle
  10
 382.65300000023
  20
 1026.5000000000
  30
0.0
  40
 1.0000000000000
 100
AcDbArc
  50
 252.64399998734
  51
 269.99799998674
   0
LINE
   5
459
 100
AcDbEntity
   8
LEVEL002
 100
AcDbLine
   6
CONTINUOUS
  62
7
  10
 431.50000000000
  20
 1025.5000000000
  30
0.0
  11
 432.50000000000
  21
 1024.5000000000
  31
0.0
   0
LINE
   5
45A
 100
AcDbEntity
   8
LEVEL002
 100
AcDbLine
   6
CONTINUOUS
  62
7
  10
 431.50000000000
  20
 1013.0000000000
  30
0.0
  11
 431.50000000000
  21
 1025.5000000000
  31
0.0
   0
LINE
   5
45B
 100
AcDbEntity
   8
LEVEL002
 100
AcDbLine
   6
CONTINUOUS
  62
7
  10
 374.34700000000
  20
 1025.5000000000
  30
0.0
  11
 431.50000000000
  21
 1025.5000000000
  31
0.0
   0
LINE
   5
45C
 100
AcDbEntity
   8
LEVEL002
 100
AcDbLine
   6
CONTINUOUS
  62
7
  10
 374.34700000000
  20
 1028.0000000000
  30
0.0
  11
 374.50000000000
  21
 1028.0000000000
  31
0.0
   0
LINE
   5
45D
 100
AcDbEntity
   8
LEVEL002
 100
AcDbLine
   6
CONTINUOUS
  62
7
  10
 374.34700000000
  20
 1025.5000000000
  30
0.0
  11
 366.34700000000
  21
 1028.0000000000
  31
0.0
   0
LINE
   5
45E
 100
AcDbEntity
   8
LEVEL002
 100
AcDbLine
   6
CONTINUOUS
  62
7
  10
 366.34700000000
  20
 1028.0000000000
  30
0.0
  11
 366.34700000000
  21
 1008.0000000000
  31
0.0
   0
LINE
   5
45F
 100
AcDbEntity
   8
LEVEL002
 100
AcDbLine
   6
CONTINUOUS
  62
7
  10
 382.50000000000
  20
 1013.0000000000
  30
0.0
  11
 382.50000000000
  21
 1008.0000000000
  31
0.0
   0
LINE
   5
460
 100
AcDbEntity
   8
LEVEL002
 100
AcDbLine
   6
CONTINUOUS
  62
7
  10
 367.30000000000
  20
 1008.0000000000
  30
0.0
  11
 367.30000000000
  21
 1013.0000000000
  31
0.0
   0
LINE
   5
461
 100
AcDbEntity
   8
LEVEL002
 100
AcDbLine
   6
CONTINUOUS
  62
7
  10
 432.50000000000
  20
 1013.0000000000
  30
0.0
  11
 367.30000000000
  21
 1013.0000000000
  31
0.0
   0
LINE
   5
462
 100
AcDbEntity
   8
LEVEL002
 100
AcDbLine
   6
CONTINUOUS
  62
7
  10
 374.50000000000
  20
 1025.5000000000
  30
0.0
  11
 374.50000000000
  21
 1013.0000000000
  31
0.0
   0
ARC
   5
463
 100
AcDbEntity
   8
LEVEL002
   6
CONTINUOUS
  62
7
 100
AcDbCircle
  10
 348.52899999999
  20
 1073.0200000000
  30
0.0
  40
 10.000000000000
 100
AcDbArc
  50
 158.37799999998
  51
 269.28400000007
   0
LINE
   5
464
 100
AcDbEntity
   8
LEVEL002
 100
AcDbLine
   6
CONTINUOUS
  62
7
  10
 350.00000000000
  20
 1063.0000000000
  30
0.0
  11
 348.40400000000
  21
 1063.0200000000
  31
0.0
   0
ARC
   5
465
 100
AcDbEntity
   8
LEVEL002
   6
CONTINUOUS
  62
7
 100
AcDbCircle
  10
 361.00000000000
  20
 1062.0000000000
  30
0.0
  40
 2.0000000000000
 100
AcDbArc
  50
0.0
  51
 89.999999999997
   0
LINE
   5
466
 100
AcDbEntity
   8
LEVEL002
 100
AcDbLine
   6
CONTINUOUS
  62
7
  10
 361.00000000000
  20
 1064.0000000000
  30
0.0
  11
 350.00000000000
  21
 1064.0000000000
  31
0.0
   0
ARC
   5
467
 100
AcDbEntity
   8
LEVEL002
   6
CONTINUOUS
  62
7
 100
AcDbCircle
  10
 382.65299999999
  20
 989.50000000000
  30
0.0
  40
 1.0000000000000
 100
AcDbArc
  50
 90.001999999202
  51
 107.35599999916
   0
LINE
   5
468
 100
AcDbEntity
   8
LEVEL002
 100
AcDbLine
   6
CONTINUOUS
  62
7
  10
 431.50000000000
  20
 990.50000000000
  30
0.0
  11
 432.50000000000
  21
 991.50000000000
  31
0.0
   0
LINE
   5
469
 100
AcDbEntity
   8
LEVEL002
 100
AcDbLine
   6
CONTINUOUS
  62
7
  10
 431.50000000000
  20
 1003.0000000000
  30
0.0
  11
 431.50000000000
  21
 990.50000000000
  31
0.0
   0
LINE
   5
46A
 100
AcDbEntity
   8
LEVEL002
 100
AcDbLine
   6
CONTINUOUS
  62
7
  10
 374.34700000000
  20
 990.50000000000
  30
0.0
  11
 431.50000000000
  21
 990.50000000000
  31
0.0
   0
LINE
   5
46B
 100
AcDbEntity
   8
LEVEL002
 100
AcDbLine
   6
CONTINUOUS
  62
7
  10
 374.34700000000
  20
 990.50000000000
  30
0.0
  11
 366.34700000000
  21
 988.00000000000
  31
0.0
   0
LINE
   5
46C
 100
AcDbEntity
   8
LEVEL002
 100
AcDbLine
   6
CONTINUOUS
  62
7
  10
 366.34700000000
  20
 988.00000000000
  30
0.0
  11
 366.34700000000
  21
 1008.0000000000
  31
0.0
   0
LINE
   5
46D
 100
AcDbEntity
   8
LEVEL002
 100
AcDbLine
   6
CONTINUOUS
  62
7
  10
 382.50000000000
  20
 1003.0000000000
  30
0.0
  11
 382.50000000000
  21
 1008.0000000000
  31
0.0
   0
LINE
   5
46E
 100
AcDbEntity
   8
LEVEL002
 100
AcDbLine
   6
CONTINUOUS
  62
7
  10
 367.30000000000
  20
 1008.0000000000
  30
0.0
  11
 367.30000000000
  21
 1003.0000000000
  31
0.0
   0
LINE
   5
46F
 100
AcDbEntity
   8
LEVEL002
 100
AcDbLine
   6
CONTINUOUS
  62
7
  10
 432.50000000000
  20
 1003.0000000000
  30
0.0
  11
 367.30000000000
  21
 1003.0000000000
  31
0.0
   0
LINE
   5
470
 100
AcDbEntity
   8
LEVEL002
 100
AcDbLine
   6
CONTINUOUS
  62
7
  10
 374.50000000000
  20
 990.50000000000
  30
0.0
  11
 374.50000000000
  21
 1003.0000000000
  31
0.0
   0
ARC
   5
471
 100
AcDbEntity
   8
LEVEL002
   6
CONTINUOUS
  62
7
 100
AcDbCircle
  10
 361.00000000000
  20
 954.00000000000
  30
0.0
  40
 2.0000000000000
 100
AcDbArc
  50
 270.00000000000
  51
0.0
   0
LINE
   5
472
 100
AcDbEntity
   8
LEVEL002
 100
AcDbLine
   6
CONTINUOUS
  62
7
  10
 361.00000000000
  20
 952.00000000000
  30
0.0
  11
 350.00000000000
  21
 952.00000000000
  31
0.0
   0
ARC
   5
473
 100
AcDbEntity
   8
LEVEL002
   6
CONTINUOUS
  62
7
 100
AcDbCircle
  10
 305.00000000000
  20
 925.00000000000
  30
0.0
  40
 29.000000000000
 100
AcDbArc
  50
 109.62300000000
  51
 71.809600000003
   0
ARC
   5
474
 100
AcDbEntity
   8
LEVEL002
   6
CONTINUOUS
  62
7
 100
AcDbCircle
  10
 155.00000000000
  20
 925.00000000000
  30
0.0
  40
 29.000000000000
 100
AcDbArc
  50
 108.19000000000
  51
 70.377099999996
   0
LINE
   5
475
 100
AcDbEntity
   8
LEVEL002
 100
AcDbLine
   6
CONTINUOUS
  62
7
  10
 120.85700000000
  20
 952.86400000000
  30
0.0
  11
 121.00000000000
  21
 924.82600000000
  31
0.0
   0
ARC
   5
476
 100
AcDbEntity
   8
LEVEL002
   6
CONTINUOUS
  62
7
 100
AcDbCircle
  10
 77.347000000046
  20
 1026.5000000000
  30
0.0
  40
 1.0000000000000
 100
AcDbArc
  50
 270.00199999734
  51
 287.35599999721
   0
LINE
   5
477
 100
AcDbEntity
   8
LEVEL002
 100
AcDbLine
   6
CONTINUOUS
  62
7
  10
 28.500000000000
  20
 1025.5000000000
  30
0.0
  11
 27.500000000000
  21
 1024.5000000000
  31
0.0
   0
LINE
   5
478
 100
AcDbEntity
   8
LEVEL002
 100
AcDbLine
   6
CONTINUOUS
  62
7
  10
 27.500000000000
  20
 1024.5000000000
  30
0.0
  11
 27.500000000000
  21
 1008.0000000000
  31
0.0
   0
LINE
   5
479
 100
AcDbEntity
   8
LEVEL002
 100
AcDbLine
   6
CONTINUOUS
  62
7
  10
 28.500000000000
  20
 1013.0000000000
  30
0.0
  11
 28.500000000000
  21
 1025.5000000000
  31
0.0
   0
LINE
   5
47A
 100
AcDbEntity
   8
LEVEL002
 100
AcDbLine
   6
CONTINUOUS
  62
7
  10
 85.653000000000
  20
 1025.5000000000
  30
0.0
  11
 28.500000000000
  21
 1025.5000000000
  31
0.0
   0
LINE
   5
47B
 100
AcDbEntity
   8
LEVEL002
 100
AcDbLine
   6
CONTINUOUS
  62
7
  10
 85.653000000000
  20
 1025.5000000000
  30
0.0
  11
 93.653000000000
  21
 1028.0000000000
  31
0.0
   0
LINE
   5
47C
 100
AcDbEntity
   8
LEVEL002
 100
AcDbLine
   6
CONTINUOUS
  62
7
  10
 93.653000000000
  20
 1028.0000000000
  30
0.0
  11
 93.653000000000
  21
 1008.0000000000
  31
0.0
   0
LINE
   5
47D
 100
AcDbEntity
   8
LEVEL002
 100
AcDbLine
   6
CONTINUOUS
  62
7
  10
 77.500000000000
  20
 1013.0000000000
  30
0.0
  11
 77.500000000000
  21
 1008.0000000000
  31
0.0
   0
LINE
   5
47E
 100
AcDbEntity
   8
LEVEL002
 100
AcDbLine
   6
CONTINUOUS
  62
7
  10
 92.700000000000
  20
 1008.0000000000
  30
0.0
  11
 92.700000000000
  21
 1013.0000000000
  31
0.0
   0
LINE
   5
47F
 100
AcDbEntity
   8
LEVEL002
 100
AcDbLine
   6
CONTINUOUS
  62
7
  10
 27.500000000000
  20
 1013.0000000000
  30
0.0
  11
 92.700000000000
  21
 1013.0000000000
  31
0.0
   0
LINE
   5
480
 100
AcDbEntity
   8
LEVEL002
 100
AcDbLine
   6
CONTINUOUS
  62
7
  10
 85.500000000000
  20
 1025.5000000000
  30
0.0
  11
 85.500000000000
  21
 1013.0000000000
  31
0.0
   0
ARC
   5
481
 100
AcDbEntity
   8
LEVEL002
   6
CONTINUOUS
  62
7
 100
AcDbCircle
  10
 99.000000000000
  20
 1062.0000000000
  30
0.0
  40
 2.0000000000000
 100
AcDbArc
  50
 90.000000000000
  51
 180.00000000000
   0
ARC
   5
482
 100
AcDbEntity
   8
LEVEL002
   6
CONTINUOUS
  62
7
 100
AcDbCircle
  10
 77.347000000065
  20
 989.50000000000
  30
0.0
  40
 1.0000000000000
 100
AcDbArc
  50
 72.643600003531
  51
 89.998000003699
   0
LINE
   5
483
 100
AcDbEntity
   8
LEVEL002
 100
AcDbLine
   6
CONTINUOUS
  62
7
  10
 28.500000000000
  20
 990.50000000000
  30
0.0
  11
 27.500000000000
  21
 991.50000000000
  31
0.0
   0
LINE
   5
484
 100
AcDbEntity
   8
LEVEL002
 100
AcDbLine
   6
CONTINUOUS
  62
7
  10
 27.500000000000
  20
 991.50000000000
  30
0.0
  11
 27.500000000000
  21
 1008.0000000000
  31
0.0
   0
LINE
   5
485
 100
AcDbEntity
   8
LEVEL002
 100
AcDbLine
   6
CONTINUOUS
  62
7
  10
 28.500000000000
  20
 1003.0000000000
  30
0.0
  11
 28.500000000000
  21
 990.50000000000
  31
0.0
   0
LINE
   5
486
 100
AcDbEntity
   8
LEVEL002
 100
AcDbLine
   6
CONTINUOUS
  62
7
  10
 85.653000000000
  20
 990.50000000000
  30
0.0
  11
 28.500000000000
  21
 990.50000000000
  31
0.0
   0
LINE
   5
487
 100
AcDbEntity
   8
LEVEL002
 100
AcDbLine
   6
CONTINUOUS
  62
7
  10
 85.653000000000
  20
 990.50000000000
  30
0.0
  11
 93.653000000000
  21
 988.00000000000
  31
0.0
   0
LINE
   5
488
 100
AcDbEntity
   8
LEVEL002
 100
AcDbLine
   6
CONTINUOUS
  62
7
  10
 93.653000000000
  20
 988.00000000000
  30
0.0
  11
 93.653000000000
  21
 1008.0000000000
  31
0.0
   0
LINE
   5
489
 100
AcDbEntity
   8
LEVEL002
 100
AcDbLine
   6
CONTINUOUS
  62
7
  10
 77.500000000000
  20
 1003.0000000000
  30
0.0
  11
 77.500000000000
  21
 1008.0000000000
  31
0.0
   0
LINE
   5
48A
 100
AcDbEntity
   8
LEVEL002
 100
AcDbLine
   6
CONTINUOUS
  62
7
  10
 92.700000000000
  20
 1008.0000000000
  30
0.0
  11
 92.700000000000
  21
 1003.0000000000
  31
0.0
   0
LINE
   5
48B
 100
AcDbEntity
   8
LEVEL002
 100
AcDbLine
   6
CONTINUOUS
  62
7
  10
 27.500000000000
  20
 1003.0000000000
  30
0.0
  11
 92.700000000000
  21
 1003.0000000000
  31
0.0
   0
LINE
   5
48C
 100
AcDbEntity
   8
LEVEL002
 100
AcDbLine
   6
CONTINUOUS
  62
7
  10
 85.500000000000
  20
 990.50000000000
  30
0.0
  11
 85.500000000000
  21
 1003.0000000000
  31
0.0
   0
ARC
   5
48D
 100
AcDbEntity
   8
LEVEL002
   6
CONTINUOUS
  62
7
 100
AcDbCircle
  10
 99.000000000000
  20
 954.00000000000
  30
0.0
  40
 2.0000000000000
 100
AcDbArc
  50
 180.00000000000
  51
 270.00000000000
   0
LINE
   5
48E
 100
AcDbEntity
   8
LEVEL002
 100
AcDbLine
   6
CONTINUOUS
  62
7
  10
 99.000000000000
  20
 952.00000000000
  30
0.0
  11
 110.00000000000
  21
 952.00000000000
  31
0.0
   0
LINE
   5
48F
 100
AcDbEntity
   8
LEVEL002
 100
AcDbLine
   6
CONTINUOUS
  62
7
  10
 97.000000000000
  20
 1028.0000000000
  30
0.0
  11
 93.653000000000
  21
 1028.0000000000
  31
0.0
   0
LINE
   5
490
 100
AcDbEntity
   8
LEVEL002
 100
AcDbLine
   6
CONTINUOUS
  62
7
  10
 97.000000000000
  20
 988.00000000000
  30
0.0
  11
 93.653000000000
  21
 988.00000000000
  31
0.0
   0
CIRCLE
   5
491
 100
AcDbEntity
   8
LEVEL002
 100
AcDbCircle
   6
CONTINUOUS
  62
7
  10
 305.00000000000
  20
 1250.0000000000
  30
0.0
  40
 29.000000000000
   0
CIRCLE
   5
492
 100
AcDbEntity
   8
LEVEL002
 100
AcDbCircle
   6
CONTINUOUS
  62
7
  10
 155.00000000000
  20
 1250.0000000000
  30
0.0
  40
 29.000000000000
   0
LINE
   5
493
 100
AcDbEntity
   8
LEVEL002
 100
AcDbLine
   6
CONTINUOUS
  62
7
  10
 120.32200000000
  20
 1162.1500000000
  30
0.0
  11
 121.00100000000
  21
 1250.2600000000
  31
0.0
   0
LINE
   5
494
 100
AcDbEntity
   8
LEVEL002
 100
AcDbLine
   6
CONTINUOUS
  62
7
  10
 339.67800000000
  20
 1162.1500000000
  30
0.0
  11
 338.99900000000
  21
 1250.2600000000
  31
0.0
   0
ARC
   5
495
 100
AcDbEntity
   8
LEVEL002
   6
CONTINUOUS
  62
7
 100
AcDbCircle
  10
 230.00000000000
  20
 1230.0000000000
  30
0.0
  40
 5.0000000000000
 100
AcDbArc
  50
0.0
  51
 180.00000000000
   0
ARC
   5
496
 100
AcDbEntity
   8
LEVEL002
   6
CONTINUOUS
  62
7
 100
AcDbCircle
  10
 230.00000000000
  20
 1190.0000000000
  30
0.0
  40
 5.0000000000000
 100
AcDbArc
  50
 180.00000000000
  51
0.0
   0
LINE
   5
497
 100
AcDbEntity
   8
LEVEL002
 100
AcDbLine
   6
CONTINUOUS
  62
7
  10
 225.00000000000
  20
 1190.0000000000
  30
0.0
  11
 225.00000000000
  21
 1230.0000000000
  31
0.0
   0
LINE
   5
498
 100
AcDbEntity
   8
LEVEL002
 100
AcDbLine
   6
CONTINUOUS
  62
7
  10
 235.00000000000
  20
 1230.0000000000
  30
0.0
  11
 235.00000000000
  21
 1190.0000000000
  31
0.0
   0
ARC
   5
499
 100
AcDbEntity
   8
LEVEL002
   6
CONTINUOUS
  62
7
 100
AcDbCircle
  10
 230.00000000000
  20
 1210.0000000000
  30
0.0
  40
 12.500000000000
 100
AcDbArc
  50
 111.80200000001
  51
 246.42199999999
   0
ARC
   5
49A
 100
AcDbEntity
   8
LEVEL002
   6
CONTINUOUS
  62
7
 100
AcDbCircle
  10
 230.00000000000
  20
 1210.0000000000
  30
0.0
  40
 12.500000000000
 100
AcDbArc
  50
 293.57800000000
  51
 66.421599999994
   0
ARC
   5
49B
 100
AcDbEntity
   8
LEVEL002
   6
CONTINUOUS
  62
7
 100
AcDbCircle
  10
 230.00000000000
  20
 1210.0000000000
  30
0.0
  40
 14.000000000000
 100
AcDbArc
  50
 110.92500000000
  51
 249.07500000000
   0
ARC
   5
49C
 100
AcDbEntity
   8
LEVEL002
   6
CONTINUOUS
  62
7
 100
AcDbCircle
  10
 230.00000000000
  20
 1210.0000000000
  30
0.0
  40
 14.000000000000
 100
AcDbArc
  50
 290.92500000001
  51
 69.074699999992
   0
ARC
   5
49D
 100
AcDbEntity
   8
LEVEL002
   6
CONTINUOUS
  62
7
 100
AcDbCircle
  10
 230.00000000000
  20
 1010.0000000000
  30
0.0
  40
 5.0000000000000
 100
AcDbArc
  50
 180.00000000000
  51
0.0
   0
ARC
   5
49E
 100
AcDbEntity
   8
LEVEL002
   6
CONTINUOUS
  62
7
 100
AcDbCircle
  10
 230.00000000000
  20
 1050.0000000000
  30
0.0
  40
 5.0000000000000
 100
AcDbArc
  50
0.0
  51
 180.00000000000
   0
LINE
   5
49F
 100
AcDbEntity
   8
LEVEL002
 100
AcDbLine
   6
CONTINUOUS
  62
7
  10
 235.00000000000
  20
 1010.0000000000
  30
0.0
  11
 235.00000000000
  21
 1050.0000000000
  31
0.0
   0
ARC
   5
4A0
 100
AcDbEntity
   8
LEVEL002
   6
CONTINUOUS
  62
7
 100
AcDbCircle
  10
 230.00000000000
  20
 1030.0000000000
  30
0.0
  40
 12.500000000000
 100
AcDbArc
  50
 293.57800000001
  51
 66.421599999984
   0
ARC
   5
4A1
 100
AcDbEntity
   8
LEVEL002
   6
CONTINUOUS
  62
7
 100
AcDbCircle
  10
 230.00000000001
  20
 1030.0000000000
  30
0.0
  40
 14.000000000000
 100
AcDbArc
  50
 290.92499999998
  51
 69.074700000033
   0
ARC
   5
4A2
 100
AcDbEntity
   8
LEVEL002
   6
CONTINUOUS
  62
7
 100
AcDbCircle
  10
 230.00000000000
  20
 1030.0000000000
  30
0.0
  40
 12.500000000000
 100
AcDbArc
  50
 113.57800000000
  51
 248.19800000000
   0
ARC
   5
4A3
 100
AcDbEntity
   8
LEVEL002
   6
CONTINUOUS
  62
7
 100
AcDbCircle
  10
 230.00000000000
  20
 1030.0000000000
  30
0.0
  40
 14.000000000000
 100
AcDbArc
  50
 110.92499999999
  51
 249.07500000001
   0
LINE
   5
4A4
 100
AcDbEntity
   8
LEVEL002
 100
AcDbLine
   6
CONTINUOUS
  62
7
  10
 225.00000000000
  20
 1050.0000000000
  30
0.0
  11
 225.00000000000
  21
 1010.0000000000
  31
0.0
   0
LINE
   5
4A5
 100
AcDbEntity
   8
LEVEL002
 100
AcDbLine
   6
CONTINUOUS
  62
7
  10
 110.00000000000
  20
 952.00000000000
  30
0.0
  11
 110.00000000000
  21
 1064.0000000000
  31
0.0
   0
LINE
   5
4A6
 100
AcDbEntity
   8
LEVEL002
 100
AcDbLine
   6
CONTINUOUS
  62
7
  10
 99.000000000000
  20
 1064.0000000000
  30
0.0
  11
 110.00000000000
  21
 1064.0000000000
  31
0.0
   0
ARC
   5
4A7
 100
AcDbEntity
   8
LEVEL002
   6
CONTINUOUS
  62
7
 100
AcDbCircle
  10
 245.93300000000
  20
 1276.7900000000
  30
0.0
  40
 8.0000000000000
 100
AcDbArc
  50
 89.238300000000
  51
 182.98199999999
   0
ARC
   5
4A8
 100
AcDbEntity
   8
LEVEL002
   6
CONTINUOUS
  62
7
 100
AcDbCircle
  10
 214.06700000000
  20
 1276.7900000000
  30
0.0
  40
 8.0000000000000
 100
AcDbArc
  50
 357.01700000000
  51
 90.761799999980
   0
ARC
   5
4A9
 100
AcDbEntity
   8
LEVEL002
   6
CONTINUOUS
  62
7
 100
AcDbCircle
  10
 247.62800000001
  20
 1244.2600000000
  30
0.0
  40
 8.0000000000000
 100
AcDbArc
  50
 182.98299999999
  51
 261.92499999996
   0
ARC
   5
4AA
 100
AcDbEntity
   8
LEVEL002
   6
CONTINUOUS
  62
7
 100
AcDbCircle
  10
 212.37200000000
  20
 1244.2600000000
  30
0.0
  40
 8.0000000000000
 100
AcDbArc
  50
 278.07399999999
  51
 357.01699999997
   0
LINE
   5
4AB
 100
AcDbEntity
   8
LEVEL002
 100
AcDbLine
   6
CONTINUOUS
  62
7
  10
 220.36200000000
  20
 1243.8400000000
  30
0.0
  11
 222.05600000000
  21
 1276.3700000000
  31
0.0
   0
LINE
   5
4AC
 100
AcDbEntity
   8
LEVEL002
 100
AcDbLine
   6
CONTINUOUS
  62
7
  10
 239.63900000000
  20
 1243.8400000000
  30
0.0
  11
 237.94400000000
  21
 1276.3700000000
  31
0.0
   0
ARC
   5
4AD
 100
AcDbEntity
   8
LEVEL002
   6
CONTINUOUS
  62
7
 100
AcDbCircle
  10
 247.68900000000
  20
 943.72100000000
  30
0.0
  40
 8.0000000000000
 100
AcDbArc
  50
 90.716100000001
  51
 177.66500000001
   0
ARC
   5
4AE
 100
AcDbEntity
   8
LEVEL002
   6
CONTINUOUS
  62
7
 100
AcDbCircle
  10
 214.16700000000
  20
 898.21100000000
  30
0.0
  40
 8.0000000000000
 100
AcDbArc
  50
 269.23900000000
  51
 2.3360599999972
   0
ARC
   5
4AF
 100
AcDbEntity
   8
LEVEL002
   6
CONTINUOUS
  62
7
 100
AcDbCircle
  10
 245.83299999999
  20
 898.21100000000
  30
0.0
  40
 8.0000000000000
 100
AcDbArc
  50
 177.66500000000
  51
 270.76100000004
   0
ARC
   5
4B0
 100
AcDbEntity
   8
LEVEL002
   6
CONTINUOUS
  62
7
 100
AcDbCircle
  10
 212.31000000000
  20
 943.72100000000
  30
0.0
  40
 8.0000000000000
 100
AcDbArc
  50
 2.3356999999977
  51
 89.283899999968
   0
LINE
   5
4B1
 100
AcDbEntity
   8
LEVEL002
 100
AcDbLine
   6
CONTINUOUS
  62
7
  10
 350.00000000000
  20
 953.00000000000
  30
0.0
  11
 247.58900000000
  21
 951.72000000000
  31
0.0
   0
ARC
   5
4B2
 100
AcDbEntity
   8
LEVEL002
   6
CONTINUOUS
  62
7
 100
AcDbCircle
  10
 247.92500000000
  20
 949.50000000000
  30
0.0
  40
 8.0000000000000
 100
AcDbArc
  50
 90.000100000001
  51
 177.66500000001
   0
LINE
   5
4B3
 100
AcDbEntity
   8
LEVEL002
 100
AcDbLine
   6
CONTINUOUS
  62
7
  10
 237.84000000000
  20
 898.53700000000
  30
0.0
  11
 239.93100000000
  21
 949.82600000000
  31
0.0
   0
ARC
   5
4B4
 100
AcDbEntity
   8
LEVEL002
   6
CONTINUOUS
  62
7
 100
AcDbCircle
  10
 212.07500000000
  20
 949.50000000000
  30
0.0
  40
 8.0000000000000
 100
AcDbArc
  50
 2.3362400000012
  51
 90.000000000021
   0
LINE
   5
4B5
 100
AcDbEntity
   8
LEVEL002
 100
AcDbLine
   6
CONTINUOUS
  62
7
  10
 222.16000000000
  20
 898.53700000000
  30
0.0
  11
 220.06800000000
  21
 949.82600000000
  31
0.0
   0
ARC
   5
4B6
 100
AcDbEntity
   8
LEVEL002
   6
CONTINUOUS
  62
7
 100
AcDbCircle
  10
 249.00000000000
  20
 1230.8800000000
  30
0.0
  40
 5.0000000000000
 100
AcDbArc
  50
 80.276300000004
  51
 180.00099999997
   0
ARC
   5
4B7
 100
AcDbEntity
   8
LEVEL002
   6
CONTINUOUS
  62
7
 100
AcDbCircle
  10
 211.00000000002
  20
 1230.8800000000
  30
0.0
  40
 5.0000000000000
 100
AcDbArc
  50
0.0
  51
 99.723700000210
   0
ARC
   5
4B8
 100
AcDbEntity
   8
LEVEL002
   6
CONTINUOUS
  62
7
 100
AcDbCircle
  10
 249.00000000001
  20
 1009.1200000000
  30
0.0
  40
 5.0000000000000
 100
AcDbArc
  50
 179.99900000001
  51
 279.72399999994
   0
ARC
   5
4B9
 100
AcDbEntity
   8
LEVEL002
   6
CONTINUOUS
  62
7
 100
AcDbCircle
  10
 211.00000000000
  20
 1009.1200000000
  30
0.0
  40
 5.0000000000000
 100
AcDbArc
  50
 260.27599999999
  51
 0.61500003324656E-3
   0
LINE
   5
4BA
 100
AcDbEntity
   8
LEVEL002
 100
AcDbLine
   6
CONTINUOUS
  62
7
  10
 244.00000000000
  20
 1009.1200000000
  30
0.0
  11
 244.00000000000
  21
 1030.0000000000
  31
0.0
   0
LINE
   5
4BB
 100
AcDbEntity
   8
LEVEL002
 100
AcDbLine
   6
CONTINUOUS
  62
7
  10
 216.00000000000
  20
 1009.1200000000
  30
0.0
  11
 216.00000000000
  21
 1030.0000000000
  31
0.0
   0
LINE
   5
4BC
 100
AcDbEntity
   8
LEVEL002
 100
AcDbLine
   6
CONTINUOUS
  62
7
  10
 244.00000000000
  20
 1210.0000000000
  30
0.0
  11
 244.00000000000
  21
 1230.8800000000
  31
0.0
   0
LINE
   5
4BD
 100
AcDbEntity
   8
LEVEL002
 100
AcDbLine
   6
CONTINUOUS
  62
7
  10
 216.00000000000
  20
 1210.0000000000
  30
0.0
  11
 216.00000000000
  21
 1230.8800000000
  31
0.0
   0
LINE
   5
4BE
 100
AcDbEntity
   8
LEVEL002
 100
AcDbLine
   6
CONTINUOUS
  62
7
  10
 110.00000000000
  20
 953.00000000000
  30
0.0
  11
 212.41000000000
  21
 951.72000000000
  31
0.0
   0
ARC
   5
4BF
 100
AcDbEntity
   8
LEVEL002
   6
CONTINUOUS
  62
7
 100
AcDbCircle
  10
 111.47100000000
  20
 1073.0200000000
  30
0.0
  40
 10.000000000000
 100
AcDbArc
  50
 270.71600000000
  51
 21.621499999989
   0
LINE
   5
4C0
 100
AcDbEntity
   8
LEVEL002
 100
AcDbLine
   6
CONTINUOUS
  62
7
  10
 110.00000000000
  20
 1063.0000000000
  30
0.0
  11
 111.59600000000
  21
 1063.0200000000
  31
0.0
   0
LINE
   5
4C1
 100
AcDbEntity
   8
LEVEL002
 100
AcDbLine
   6
CONTINUOUS
  62
7
  10
 432.50000000000
  20
 991.50000000000
  30
0.0
  11
 432.50000000000
  21
 1024.5000000000
  31
0.0
   0
CIRCLE
   5
4C2
 100
AcDbEntity
   8
LEVEL002
 100
AcDbCircle
   6
CONTINUOUS
  62
7
  10
 230.00000000000
  20
 1120.0000000000
  30
0.0
  40
 48.500000000000
   0
CIRCLE
   5
4C3
 100
AcDbEntity
   8
LEVEL002
 100
AcDbCircle
   6
CONTINUOUS
  62
7
  10
 230.00000000000
  20
 1120.0000000000
  30
0.0
  40
 50.800000000000
   0
CIRCLE
   5
4C4
 100
AcDbEntity
   8
LEVEL002
 100
AcDbCircle
   6
CONTINUOUS
  62
7
  10
 230.00000000000
  20
 1120.0000000000
  30
0.0
  40
 60.000000000000
   0
CIRCLE
   5
4C5
 100
AcDbEntity
   8
LEVEL002
 100
AcDbCircle
   6
CONTINUOUS
  62
7
  10
 230.00000000000
  20
 1120.0000000000
  30
0.0
  40
 117.50000000000
   0
LINE
   5
4C6
 100
AcDbEntity
   8
LEVEL002
 100
AcDbLine
   6
CONTINUOUS
  62
7
  10
 363.00000000000
  20
 1028.0000000000
  30
0.0
  11
 366.34700000000
  21
 1028.0000000000
  31
0.0
   0
LINE
   5
4C7
 100
AcDbEntity
   8
LEVEL002
 100
AcDbLine
   6
CONTINUOUS
  62
7
  10
 350.00000000000
  20
 1064.0000000000
  30
0.0
  11
 350.00000000000
  21
 952.00000000000
  31
0.0
   0
LINE
   5
4C8
 100
AcDbEntity
   8
LEVEL002
 100
AcDbLine
   6
CONTINUOUS
  62
7
  10
 363.00000000000
  20
 1062.0000000000
  30
0.0
  11
 363.00000000000
  21
 954.00000000000
  31
0.0
   0
LINE
   5
4C9
 100
AcDbEntity
   8
LEVEL002
 100
AcDbLine
   6
CONTINUOUS
  62
7
  10
 366.34700000000
  20
 988.00000000000
  30
0.0
  11
 363.00000000000
  21
 988.00000000000
  31
0.0
   0
LINE
   5
4CA
 100
AcDbEntity
   8
LEVEL002
 100
AcDbLine
   6
CONTINUOUS
  62
7
  10
 269.05000000000
  20
 947.68400000000
  30
0.0
  11
 269.05000000000
  21
 950.05800000000
  31
0.0
   0
LINE
   5
4CB
 100
AcDbEntity
   8
LEVEL002
 100
AcDbLine
   6
CONTINUOUS
  62
7
  10
 260.95000000000
  20
 947.68400000000
  30
0.0
  11
 260.95000000000
  21
 950.05800000000
  31
0.0
   0
LINE
   5
4CC
 100
AcDbEntity
   8
LEVEL002
 100
AcDbLine
   6
CONTINUOUS
  62
7
  10
 258.00000000000
  20
 946.68800000000
  30
0.0
  11
 256.90000000000
  21
 947.32300000000
  31
0.0
   0
LINE
   5
4CD
 100
AcDbEntity
   8
LEVEL002
 100
AcDbLine
   6
CONTINUOUS
  62
7
  10
 256.90000000000
  20
 947.32300000000
  30
0.0
  11
 256.90000000000
  21
 949.95400000000
  31
0.0
   0
LINE
   5
4CE
 100
AcDbEntity
   8
LEVEL002
 100
AcDbLine
   6
CONTINUOUS
  62
7
  10
 256.90000000000
  20
 949.95400000000
  30
0.0
  11
 258.00000000000
  21
 951.05400000000
  31
0.0
   0
LINE
   5
4CF
 100
AcDbEntity
   8
LEVEL002
 100
AcDbLine
   6
CONTINUOUS
  62
7
  10
 272.00000000000
  20
 951.05400000000
  30
0.0
  11
 273.10000000000
  21
 949.95400000000
  31
0.0
   0
LINE
   5
4D0
 100
AcDbEntity
   8
LEVEL002
 100
AcDbLine
   6
CONTINUOUS
  62
7
  10
 273.10000000000
  20
 949.95400000000
  30
0.0
  11
 273.10000000000
  21
 947.32300000000
  31
0.0
   0
LINE
   5
4D1
 100
AcDbEntity
   8
LEVEL002
 100
AcDbLine
   6
CONTINUOUS
  62
7
  10
 273.10000000000
  20
 947.32300000000
  30
0.0
  11
 272.00000000000
  21
 946.68800000000
  31
0.0
   0
ARC
   5
4D2
 100
AcDbEntity
   8
LEVEL002
   6
CONTINUOUS
  62
7
 100
AcDbCircle
  10
 273.27400000001
  20
 955.32700000000
  30
0.0
  40
 8.7326400000000
 100
AcDbArc
  50
 241.07599999994
  51
 261.61399999994
   0
ARC
   5
4D3
 100
AcDbEntity
   8
LEVEL002
   6
CONTINUOUS
  62
7
 100
AcDbCircle
  10
 256.72599999999
  20
 955.32699999999
  30
0.0
  40
 8.7326400000000
 100
AcDbArc
  50
 278.38600000009
  51
 298.92400000009
   0
LINE
   5
4D4
 100
AcDbEntity
   8
LEVEL002
 100
AcDbLine
   6
CONTINUOUS
  62
7
  10
 272.00000000000
  20
 951.05400000000
  30
0.0
  11
 258.00000000000
  21
 951.05400000000
  31
0.0
   0
ARC
   5
4D5
 100
AcDbEntity
   8
LEVEL002
   6
CONTINUOUS
  62
7
 100
AcDbCircle
  10
 265.00000000000
  20
 955.42000000000
  30
0.0
  40
 8.7326400000000
 100
AcDbArc
  50
 242.36899999999
  51
 297.63099999998
   0
LINE
   5
4D6
 100
AcDbEntity
   8
LEVEL002
 100
AcDbLine
   6
CONTINUOUS
  62
7
  10
 258.00000000000
  20
 946.68800000000
  30
0.0
  11
 272.00000000000
  21
 946.68800000000
  31
0.0
   0
LINE
   5
4D7
 100
AcDbEntity
   8
LEVEL002
 100
AcDbLine
   6
CONTINUOUS
  62
7
  10
 272.00000000000
  20
 946.68800000000
  30
0.0
  11
 271.33500000000
  21
 946.30400000000
  31
0.0
   0
LINE
   5
4D8
 100
AcDbEntity
   8
LEVEL002
 100
AcDbLine
   6
CONTINUOUS
  62
7
  10
 271.33500000000
  20
 946.30400000000
  30
0.0
  11
 258.66500000000
  21
 946.30400000000
  31
0.0
   0
LINE
   5
4D9
 100
AcDbEntity
   8
LEVEL002
 100
AcDbLine
   6
CONTINUOUS
  62
7
  10
 258.00000000000
  20
 946.68800000000
  30
0.0
  11
 258.66500000000
  21
 946.30400000000
  31
0.0
   0
LINE
   5
4DA
 100
AcDbEntity
   8
LEVEL002
 100
AcDbLine
   6
CONTINUOUS
  62
7
  10
 261.50000000000
  20
 939.56700000000
  30
0.0
  11
 261.50000000000
  21
 940.48500000000
  31
0.0
   0
LINE
   5
4DB
 100
AcDbEntity
   8
LEVEL002
 100
AcDbLine
   6
CONTINUOUS
  62
7
  10
 261.50000000000
  20
 940.48500000000
  30
0.0
  11
 265.00000000000
  21
 942.35200000000
  31
0.0
   0
LINE
   5
4DC
 100
AcDbEntity
   8
LEVEL002
 100
AcDbLine
   6
CONTINUOUS
  62
7
  10
 265.00000000000
  20
 942.35200000000
  30
0.0
  11
 268.50000000000
  21
 940.48500000000
  31
0.0
   0
LINE
   5
4DD
 100
AcDbEntity
   8
LEVEL002
 100
AcDbLine
   6
CONTINUOUS
  62
7
  10
 268.50000000000
  20
 940.48500000000
  30
0.0
  11
 268.50000000000
  21
 939.56700000000
  31
0.0
   0
LINE
   5
4DE
 100
AcDbEntity
   8
LEVEL002
 100
AcDbLine
   6
CONTINUOUS
  62
7
  10
 265.00000000000
  20
 941.43400000000
  30
0.0
  11
 265.00000000000
  21
 942.35200000000
  31
0.0
   0
LINE
   5
4DF
 100
AcDbEntity
   8
LEVEL002
 100
AcDbLine
   6
CONTINUOUS
  62
7
  10
 266.00000000000
  20
 935.51900000000
  30
0.0
  11
 265.99200000000
  21
 935.63400000000
  31
0.0
   0
LINE
   5
4E0
 100
AcDbEntity
   8
LEVEL002
 100
AcDbLine
   6
CONTINUOUS
  62
7
  10
 265.99200000000
  20
 935.63400000000
  30
0.0
  11
 265.96900000000
  21
 935.74700000000
  31
0.0
   0
LINE
   5
4E1
 100
AcDbEntity
   8
LEVEL002
 100
AcDbLine
   6
CONTINUOUS
  62
7
  10
 265.96900000000
  20
 935.74700000000
  30
0.0
  11
 265.93100000000
  21
 935.85700000000
  31
0.0
   0
LINE
   5
4E2
 100
AcDbEntity
   8
LEVEL002
 100
AcDbLine
   6
CONTINUOUS
  62
7
  10
 265.93100000000
  20
 935.85700000000
  30
0.0
  11
 265.87800000000
  21
 935.96200000000
  31
0.0
   0
LINE
   5
4E3
 100
AcDbEntity
   8
LEVEL002
 100
AcDbLine
   6
CONTINUOUS
  62
7
  10
 265.87800000000
  20
 935.96200000000
  30
0.0
  11
 265.81100000000
  21
 936.05900000000
  31
0.0
   0
LINE
   5
4E4
 100
AcDbEntity
   8
LEVEL002
 100
AcDbLine
   6
CONTINUOUS
  62
7
  10
 265.81100000000
  20
 936.05900000000
  30
0.0
  11
 265.73200000000
  21
 936.14800000000
  31
0.0
   0
LINE
   5
4E5
 100
AcDbEntity
   8
LEVEL002
 100
AcDbLine
   6
CONTINUOUS
  62
7
  10
 265.73200000000
  20
 936.14800000000
  30
0.0
  11
 265.64100000000
  21
 936.22800000000
  31
0.0
   0
LINE
   5
4E6
 100
AcDbEntity
   8
LEVEL002
 100
AcDbLine
   6
CONTINUOUS
  62
7
  10
 265.64100000000
  20
 936.22800000000
  30
0.0
  11
 265.54000000000
  21
 936.29600000000
  31
0.0
   0
LINE
   5
4E7
 100
AcDbEntity
   8
LEVEL002
 100
AcDbLine
   6
CONTINUOUS
  62
7
  10
 265.54000000000
  20
 936.29600000000
  30
0.0
  11
 265.43100000000
  21
 936.35200000000
  31
0.0
   0
LINE
   5
4E8
 100
AcDbEntity
   8
LEVEL002
 100
AcDbLine
   6
CONTINUOUS
  62
7
  10
 265.43100000000
  20
 936.35200000000
  30
0.0
  11
 265.31500000000
  21
 936.39500000000
  31
0.0
   0
LINE
   5
4E9
 100
AcDbEntity
   8
LEVEL002
 100
AcDbLine
   6
CONTINUOUS
  62
7
  10
 265.31500000000
  20
 936.39500000000
  30
0.0
  11
 265.19500000000
  21
 936.42500000000
  31
0.0
   0
LINE
   5
4EA
 100
AcDbEntity
   8
LEVEL002
 100
AcDbLine
   6
CONTINUOUS
  62
7
  10
 265.19500000000
  20
 936.42500000000
  30
0.0
  11
 265.07100000000
  21
 936.44000000000
  31
0.0
   0
LINE
   5
4EB
 100
AcDbEntity
   8
LEVEL002
 100
AcDbLine
   6
CONTINUOUS
  62
7
  10
 265.07100000000
  20
 936.44000000000
  30
0.0
  11
 264.94600000000
  21
 936.44100000000
  31
0.0
   0
LINE
   5
4EC
 100
AcDbEntity
   8
LEVEL002
 100
AcDbLine
   6
CONTINUOUS
  62
7
  10
 264.94600000000
  20
 936.44100000000
  30
0.0
  11
 264.82200000000
  21
 936.42800000000
  31
0.0
   0
LINE
   5
4ED
 100
AcDbEntity
   8
LEVEL002
 100
AcDbLine
   6
CONTINUOUS
  62
7
  10
 264.82200000000
  20
 936.42800000000
  30
0.0
  11
 264.70000000000
  21
 936.40000000000
  31
0.0
   0
LINE
   5
4EE
 100
AcDbEntity
   8
LEVEL002
 100
AcDbLine
   6
CONTINUOUS
  62
7
  10
 264.70000000000
  20
 936.40000000000
  30
0.0
  11
 264.58400000000
  21
 936.35900000000
  31
0.0
   0
LINE
   5
4EF
 100
AcDbEntity
   8
LEVEL002
 100
AcDbLine
   6
CONTINUOUS
  62
7
  10
 264.58400000000
  20
 936.35900000000
  30
0.0
  11
 264.47400000000
  21
 936.30400000000
  31
0.0
   0
LINE
   5
4F0
 100
AcDbEntity
   8
LEVEL002
 100
AcDbLine
   6
CONTINUOUS
  62
7
  10
 264.47400000000
  20
 936.30400000000
  30
0.0
  11
 264.37200000000
  21
 936.23700000000
  31
0.0
   0
LINE
   5
4F1
 100
AcDbEntity
   8
LEVEL002
 100
AcDbLine
   6
CONTINUOUS
  62
7
  10
 264.37200000000
  20
 936.23700000000
  30
0.0
  11
 264.28000000000
  21
 936.15900000000
  31
0.0
   0
LINE
   5
4F2
 100
AcDbEntity
   8
LEVEL002
 100
AcDbLine
   6
CONTINUOUS
  62
7
  10
 264.28000000000
  20
 936.15900000000
  30
0.0
  11
 264.19900000000
  21
 936.07200000000
  31
0.0
   0
LINE
   5
4F3
 100
AcDbEntity
   8
LEVEL002
 100
AcDbLine
   6
CONTINUOUS
  62
7
  10
 264.19900000000
  20
 936.07200000000
  30
0.0
  11
 264.13000000000
  21
 935.97500000000
  31
0.0
   0
LINE
   5
4F4
 100
AcDbEntity
   8
LEVEL002
 100
AcDbLine
   6
CONTINUOUS
  62
7
  10
 264.13000000000
  20
 935.97500000000
  30
0.0
  11
 264.07600000000
  21
 935.87100000000
  31
0.0
   0
LINE
   5
4F5
 100
AcDbEntity
   8
LEVEL002
 100
AcDbLine
   6
CONTINUOUS
  62
7
  10
 264.07600000000
  20
 935.87100000000
  30
0.0
  11
 264.03500000000
  21
 935.76200000000
  31
0.0
   0
LINE
   5
4F6
 100
AcDbEntity
   8
LEVEL002
 100
AcDbLine
   6
CONTINUOUS
  62
7
  10
 264.03500000000
  20
 935.76200000000
  30
0.0
  11
 264.01000000000
  21
 935.64900000000
  31
0.0
   0
LINE
   5
4F7
 100
AcDbEntity
   8
LEVEL002
 100
AcDbLine
   6
CONTINUOUS
  62
7
  10
 264.01000000000
  20
 935.64900000000
  30
0.0
  11
 264.00000000000
  21
 935.53400000000
  31
0.0
   0
LINE
   5
4F8
 100
AcDbEntity
   8
LEVEL002
 100
AcDbLine
   6
CONTINUOUS
  62
7
  10
 265.99900000000
  20
 935.48800000000
  30
0.0
  11
 266.00000000000
  21
 935.51900000000
  31
0.0
   0
LINE
   5
4F9
 100
AcDbEntity
   8
LEVEL002
 100
AcDbLine
   6
CONTINUOUS
  62
7
  10
 267.40000000000
  20
 935.51900000000
  30
0.0
  11
 267.38100000000
  21
 935.79500000000
  31
0.0
   0
LINE
   5
4FA
 100
AcDbEntity
   8
LEVEL002
 100
AcDbLine
   6
CONTINUOUS
  62
7
  10
 267.38100000000
  20
 935.79500000000
  30
0.0
  11
 267.32500000000
  21
 936.06700000000
  31
0.0
   0
LINE
   5
4FB
 100
AcDbEntity
   8
LEVEL002
 100
AcDbLine
   6
CONTINUOUS
  62
7
  10
 267.32500000000
  20
 936.06700000000
  30
0.0
  11
 267.23300000000
  21
 936.33100000000
  31
0.0
   0
LINE
   5
4FC
 100
AcDbEntity
   8
LEVEL002
 100
AcDbLine
   6
CONTINUOUS
  62
7
  10
 267.23300000000
  20
 936.33100000000
  30
0.0
  11
 267.10600000000
  21
 936.58200000000
  31
0.0
   0
LINE
   5
4FD
 100
AcDbEntity
   8
LEVEL002
 100
AcDbLine
   6
CONTINUOUS
  62
7
  10
 267.10600000000
  20
 936.58200000000
  30
0.0
  11
 266.94600000000
  21
 936.81600000000
  31
0.0
   0
LINE
   5
4FE
 100
AcDbEntity
   8
LEVEL002
 100
AcDbLine
   6
CONTINUOUS
  62
7
  10
 266.94600000000
  20
 936.81600000000
  30
0.0
  11
 266.75600000000
  21
 937.03000000000
  31
0.0
   0
LINE
   5
4FF
 100
AcDbEntity
   8
LEVEL002
 100
AcDbLine
   6
CONTINUOUS
  62
7
  10
 266.75600000000
  20
 937.03000000000
  30
0.0
  11
 266.53800000000
  21
 937.22000000000
  31
0.0
   0
LINE
   5
500
 100
AcDbEntity
   8
LEVEL002
 100
AcDbLine
   6
CONTINUOUS
  62
7
  10
 266.53800000000
  20
 937.22000000000
  30
0.0
  11
 266.29700000000
  21
 937.38400000000
  31
0.0
   0
LINE
   5
501
 100
AcDbEntity
   8
LEVEL002
 100
AcDbLine
   6
CONTINUOUS
  62
7
  10
 266.29700000000
  20
 937.38400000000
  30
0.0
  11
 266.03500000000
  21
 937.51900000000
  31
0.0
   0
LINE
   5
502
 100
AcDbEntity
   8
LEVEL002
 100
AcDbLine
   6
CONTINUOUS
  62
7
  10
 266.03500000000
  20
 937.51900000000
  30
0.0
  11
 265.75700000000
  21
 937.62300000000
  31
0.0
   0
LINE
   5
503
 100
AcDbEntity
   8
LEVEL002
 100
AcDbLine
   6
CONTINUOUS
  62
7
  10
 265.75700000000
  20
 937.62300000000
  30
0.0
  11
 265.46700000000
  21
 937.69400000000
  31
0.0
   0
LINE
   5
504
 100
AcDbEntity
   8
LEVEL002
 100
AcDbLine
   6
CONTINUOUS
  62
7
  10
 265.46700000000
  20
 937.69400000000
  30
0.0
  11
 265.17000000000
  21
 937.73000000000
  31
0.0
   0
LINE
   5
505
 100
AcDbEntity
   8
LEVEL002
 100
AcDbLine
   6
CONTINUOUS
  62
7
  10
 265.17000000000
  20
 937.73000000000
  30
0.0
  11
 264.87000000000
  21
 937.73300000000
  31
0.0
   0
LINE
   5
506
 100
AcDbEntity
   8
LEVEL002
 100
AcDbLine
   6
CONTINUOUS
  62
7
  10
 264.87000000000
  20
 937.73300000000
  30
0.0
  11
 264.57200000000
  21
 937.70000000000
  31
0.0
   0
LINE
   5
507
 100
AcDbEntity
   8
LEVEL002
 100
AcDbLine
   6
CONTINUOUS
  62
7
  10
 264.57200000000
  20
 937.70000000000
  30
0.0
  11
 264.28100000000
  21
 937.63400000000
  31
0.0
   0
LINE
   5
508
 100
AcDbEntity
   8
LEVEL002
 100
AcDbLine
   6
CONTINUOUS
  62
7
  10
 264.28100000000
  20
 937.63400000000
  30
0.0
  11
 264.00100000000
  21
 937.53500000000
  31
0.0
   0
LINE
   5
509
 100
AcDbEntity
   8
LEVEL002
 100
AcDbLine
   6
CONTINUOUS
  62
7
  10
 264.00100000000
  20
 937.53500000000
  30
0.0
  11
 263.73700000000
  21
 937.40400000000
  31
0.0
   0
LINE
   5
50A
 100
AcDbEntity
   8
LEVEL002
 100
AcDbLine
   6
CONTINUOUS
  62
7
  10
 263.73700000000
  20
 937.40400000000
  30
0.0
  11
 263.49200000000
  21
 937.24400000000
  31
0.0
   0
LINE
   5
50B
 100
AcDbEntity
   8
LEVEL002
 100
AcDbLine
   6
CONTINUOUS
  62
7
  10
 263.49200000000
  20
 937.24400000000
  30
0.0
  11
 263.27100000000
  21
 937.05700000000
  31
0.0
   0
LINE
   5
50C
 100
AcDbEntity
   8
LEVEL002
 100
AcDbLine
   6
CONTINUOUS
  62
7
  10
 263.27100000000
  20
 937.05700000000
  30
0.0
  11
 263.07700000000
  21
 936.84600000000
  31
0.0
   0
LINE
   5
50D
 100
AcDbEntity
   8
LEVEL002
 100
AcDbLine
   6
CONTINUOUS
  62
7
  10
 263.07700000000
  20
 936.84600000000
  30
0.0
  11
 262.91300000000
  21
 936.61400000000
  31
0.0
   0
LINE
   5
50E
 100
AcDbEntity
   8
LEVEL002
 100
AcDbLine
   6
CONTINUOUS
  62
7
  10
 262.91300000000
  20
 936.61400000000
  30
0.0
  11
 262.78200000000
  21
 936.36500000000
  31
0.0
   0
LINE
   5
50F
 100
AcDbEntity
   8
LEVEL002
 100
AcDbLine
   6
CONTINUOUS
  62
7
  10
 262.78200000000
  20
 936.36500000000
  30
0.0
  11
 262.68500000000
  21
 936.10300000000
  31
0.0
   0
LINE
   5
510
 100
AcDbEntity
   8
LEVEL002
 100
AcDbLine
   6
CONTINUOUS
  62
7
  10
 262.68500000000
  20
 936.10300000000
  30
0.0
  11
 262.62400000000
  21
 935.83200000000
  31
0.0
   0
LINE
   5
511
 100
AcDbEntity
   8
LEVEL002
 100
AcDbLine
   6
CONTINUOUS
  62
7
  10
 262.62400000000
  20
 935.83200000000
  30
0.0
  11
 262.60000000000
  21
 935.55500000000
  31
0.0
   0
LINE
   5
512
 100
AcDbEntity
   8
LEVEL002
 100
AcDbLine
   6
CONTINUOUS
  62
7
  10
 262.60000000000
  20
 935.55500000000
  30
0.0
  11
 262.61400000000
  21
 935.27900000000
  31
0.0
   0
LINE
   5
513
 100
AcDbEntity
   8
LEVEL002
 100
AcDbLine
   6
CONTINUOUS
  62
7
  10
 262.61400000000
  20
 935.27900000000
  30
0.0
  11
 262.66500000000
  21
 935.00600000000
  31
0.0
   0
LINE
   5
514
 100
AcDbEntity
   8
LEVEL002
 100
AcDbLine
   6
CONTINUOUS
  62
7
  10
 262.66500000000
  20
 935.00600000000
  30
0.0
  11
 262.75300000000
  21
 934.74100000000
  31
0.0
   0
LINE
   5
515
 100
AcDbEntity
   8
LEVEL002
 100
AcDbLine
   6
CONTINUOUS
  62
7
  10
 262.75300000000
  20
 934.74100000000
  30
0.0
  11
 262.87500000000
  21
 934.48800000000
  31
0.0
   0
LINE
   5
516
 100
AcDbEntity
   8
LEVEL002
 100
AcDbLine
   6
CONTINUOUS
  62
7
  10
 262.87500000000
  20
 934.48800000000
  30
0.0
  11
 263.03100000000
  21
 934.25100000000
  31
0.0
   0
LINE
   5
517
 100
AcDbEntity
   8
LEVEL002
 100
AcDbLine
   6
CONTINUOUS
  62
7
  10
 263.03100000000
  20
 934.25100000000
  30
0.0
  11
 263.21700000000
  21
 934.03400000000
  31
0.0
   0
LINE
   5
518
 100
AcDbEntity
   8
LEVEL002
 100
AcDbLine
   6
CONTINUOUS
  62
7
  10
 263.21700000000
  20
 934.03400000000
  30
0.0
  11
 263.43100000000
  21
 933.84100000000
  31
0.0
   0
LINE
   5
519
 100
AcDbEntity
   8
LEVEL002
 100
AcDbLine
   6
CONTINUOUS
  62
7
  10
 263.43100000000
  20
 933.84100000000
  30
0.0
  11
 263.67000000000
  21
 933.67300000000
  31
0.0
   0
LINE
   5
51A
 100
AcDbEntity
   8
LEVEL002
 100
AcDbLine
   6
CONTINUOUS
  62
7
  10
 263.67000000000
  20
 933.67300000000
  30
0.0
  11
 263.92900000000
  21
 933.53400000000
  31
0.0
   0
LINE
   5
51B
 100
AcDbEntity
   8
LEVEL002
 100
AcDbLine
   6
CONTINUOUS
  62
7
  10
 263.92900000000
  20
 933.53400000000
  30
0.0
  11
 264.20600000000
  21
 933.42600000000
  31
0.0
   0
LINE
   5
51C
 100
AcDbEntity
   8
LEVEL002
 100
AcDbLine
   6
CONTINUOUS
  62
7
  10
 264.20600000000
  20
 933.42600000000
  30
0.0
  11
 264.49400000000
  21
 933.35100000000
  31
0.0
   0
LINE
   5
51D
 100
AcDbEntity
   8
LEVEL002
 100
AcDbLine
   6
CONTINUOUS
  62
7
  10
 264.49400000000
  20
 933.35100000000
  30
0.0
  11
 264.79100000000
  21
 933.31000000000
  31
0.0
   0
LINE
   5
51E
 100
AcDbEntity
   8
LEVEL002
 100
AcDbLine
   6
CONTINUOUS
  62
7
  10
 264.79100000000
  20
 933.31000000000
  30
0.0
  11
 265.09000000000
  21
 933.30300000000
  31
0.0
   0
LINE
   5
51F
 100
AcDbEntity
   8
LEVEL002
 100
AcDbLine
   6
CONTINUOUS
  62
7
  10
 265.09000000000
  20
 933.30300000000
  30
0.0
  11
 265.38900000000
  21
 933.33100000000
  31
0.0
   0
LINE
   5
520
 100
AcDbEntity
   8
LEVEL002
 100
AcDbLine
   6
CONTINUOUS
  62
7
  10
 265.38900000000
  20
 933.33100000000
  30
0.0
  11
 265.68100000000
  21
 933.39200000000
  31
0.0
   0
LINE
   5
521
 100
AcDbEntity
   8
LEVEL002
 100
AcDbLine
   6
CONTINUOUS
  62
7
  10
 265.68100000000
  20
 933.39200000000
  30
0.0
  11
 265.96200000000
  21
 933.48700000000
  31
0.0
   0
LINE
   5
522
 100
AcDbEntity
   8
LEVEL002
 100
AcDbLine
   6
CONTINUOUS
  62
7
  10
 265.96200000000
  20
 933.48700000000
  30
0.0
  11
 266.22900000000
  21
 933.61400000000
  31
0.0
   0
LINE
   5
523
 100
AcDbEntity
   8
LEVEL002
 100
AcDbLine
   6
CONTINUOUS
  62
7
  10
 266.22900000000
  20
 933.61400000000
  30
0.0
  11
 266.47600000000
  21
 933.77100000000
  31
0.0
   0
LINE
   5
524
 100
AcDbEntity
   8
LEVEL002
 100
AcDbLine
   6
CONTINUOUS
  62
7
  10
 266.47600000000
  20
 933.77100000000
  30
0.0
  11
 266.70100000000
  21
 933.95400000000
  31
0.0
   0
LINE
   5
525
 100
AcDbEntity
   8
LEVEL002
 100
AcDbLine
   6
CONTINUOUS
  62
7
  10
 266.70100000000
  20
 933.95400000000
  30
0.0
  11
 266.89900000000
  21
 934.16200000000
  31
0.0
   0
LINE
   5
526
 100
AcDbEntity
   8
LEVEL002
 100
AcDbLine
   6
CONTINUOUS
  62
7
  10
 266.89900000000
  20
 934.16200000000
  30
0.0
  11
 267.06700000000
  21
 934.39200000000
  31
0.0
   0
LINE
   5
527
 100
AcDbEntity
   8
LEVEL002
 100
AcDbLine
   6
CONTINUOUS
  62
7
  10
 267.06700000000
  20
 934.39200000000
  30
0.0
  11
 267.20300000000
  21
 934.63800000000
  31
0.0
   0
LINE
   5
528
 100
AcDbEntity
   8
LEVEL002
 100
AcDbLine
   6
CONTINUOUS
  62
7
  10
 267.20300000000
  20
 934.63800000000
  30
0.0
  11
 267.30400000000
  21
 934.89900000000
  31
0.0
   0
LINE
   5
529
 100
AcDbEntity
   8
LEVEL002
 100
AcDbLine
   6
CONTINUOUS
  62
7
  10
 267.30400000000
  20
 934.89900000000
  30
0.0
  11
 267.37000000000
  21
 935.16900000000
  31
0.0
   0
LINE
   5
52A
 100
AcDbEntity
   8
LEVEL002
 100
AcDbLine
   6
CONTINUOUS
  62
7
  10
 267.37000000000
  20
 935.16900000000
  30
0.0
  11
 267.39900000000
  21
 935.44500000000
  31
0.0
   0
LINE
   5
52B
 100
AcDbEntity
   8
LEVEL002
 100
AcDbLine
   6
CONTINUOUS
  62
7
  10
 267.39900000000
  20
 935.44500000000
  30
0.0
  11
 267.40000000000
  21
 935.51900000000
  31
0.0
   0
LINE
   5
52C
 100
AcDbEntity
   8
LEVEL002
 100
AcDbLine
   6
CONTINUOUS
  62
7
  10
 261.84900000000
  20
 935.64700000000
  30
0.0
  11
 261.50000000000
  21
 935.83300000000
  31
0.0
   0
LINE
   5
52D
 100
AcDbEntity
   8
LEVEL002
 100
AcDbLine
   6
CONTINUOUS
  62
7
  10
 261.50000000000
  20
 935.83300000000
  30
0.0
  11
 261.50000000000
  21
 939.56700000000
  31
0.0
   0
LINE
   5
52E
 100
AcDbEntity
   8
LEVEL002
 100
AcDbLine
   6
CONTINUOUS
  62
7
  10
 261.50000000000
  20
 939.56700000000
  30
0.0
  11
 265.00000000000
  21
 941.43400000000
  31
0.0
   0
LINE
   5
52F
 100
AcDbEntity
   8
LEVEL002
 100
AcDbLine
   6
CONTINUOUS
  62
7
  10
 265.00000000000
  20
 941.43400000000
  30
0.0
  11
 268.50000000000
  21
 939.56700000000
  31
0.0
   0
LINE
   5
530
 100
AcDbEntity
   8
LEVEL002
 100
AcDbLine
   6
CONTINUOUS
  62
7
  10
 268.50000000000
  20
 939.56700000000
  30
0.0
  11
 268.50000000000
  21
 935.83300000000
  31
0.0
   0
LINE
   5
531
 100
AcDbEntity
   8
LEVEL002
 100
AcDbLine
   6
CONTINUOUS
  62
7
  10
 268.50000000000
  20
 935.83300000000
  30
0.0
  11
 268.15100000000
  21
 935.64700000000
  31
0.0
   0
LINE
   5
532
 100
AcDbEntity
   8
LEVEL002
 100
AcDbLine
   6
CONTINUOUS
  62
7
  10
 266.65800000000
  20
 933.91600000000
  30
0.0
  11
 267.00100000000
  21
 934.12700000000
  31
0.0
   0
LINE
   5
533
 100
AcDbEntity
   8
LEVEL002
 100
AcDbLine
   6
CONTINUOUS
  62
7
  10
 267.00100000000
  20
 934.12700000000
  30
0.0
  11
 267.31200000000
  21
 934.37700000000
  31
0.0
   0
LINE
   5
534
 100
AcDbEntity
   8
LEVEL002
 100
AcDbLine
   6
CONTINUOUS
  62
7
  10
 267.31200000000
  20
 934.37700000000
  30
0.0
  11
 267.58800000000
  21
 934.66000000000
  31
0.0
   0
LINE
   5
535
 100
AcDbEntity
   8
LEVEL002
 100
AcDbLine
   6
CONTINUOUS
  62
7
  10
 267.58800000000
  20
 934.66000000000
  30
0.0
  11
 267.82300000000
  21
 934.97300000000
  31
0.0
   0
LINE
   5
536
 100
AcDbEntity
   8
LEVEL002
 100
AcDbLine
   6
CONTINUOUS
  62
7
  10
 267.82300000000
  20
 934.97300000000
  30
0.0
  11
 268.01400000000
  21
 935.31000000000
  31
0.0
   0
LINE
   5
537
 100
AcDbEntity
   8
LEVEL002
 100
AcDbLine
   6
CONTINUOUS
  62
7
  10
 268.01400000000
  20
 935.31000000000
  30
0.0
  11
 268.15800000000
  21
 935.66700000000
  31
0.0
   0
LINE
   5
538
 100
AcDbEntity
   8
LEVEL002
 100
AcDbLine
   6
CONTINUOUS
  62
7
  10
 268.15800000000
  20
 935.66700000000
  30
0.0
  11
 268.25300000000
  21
 936.03800000000
  31
0.0
   0
LINE
   5
539
 100
AcDbEntity
   8
LEVEL002
 100
AcDbLine
   6
CONTINUOUS
  62
7
  10
 268.25300000000
  20
 936.03800000000
  30
0.0
  11
 268.29700000000
  21
 936.41600000000
  31
0.0
   0
LINE
   5
53A
 100
AcDbEntity
   8
LEVEL002
 100
AcDbLine
   6
CONTINUOUS
  62
7
  10
 268.29700000000
  20
 936.41600000000
  30
0.0
  11
 268.28900000000
  21
 936.79700000000
  31
0.0
   0
LINE
   5
53B
 100
AcDbEntity
   8
LEVEL002
 100
AcDbLine
   6
CONTINUOUS
  62
7
  10
 268.28900000000
  20
 936.79700000000
  30
0.0
  11
 268.23100000000
  21
 937.17400000000
  31
0.0
   0
LINE
   5
53C
 100
AcDbEntity
   8
LEVEL002
 100
AcDbLine
   6
CONTINUOUS
  62
7
  10
 268.23100000000
  20
 937.17400000000
  30
0.0
  11
 268.12100000000
  21
 937.54100000000
  31
0.0
   0
LINE
   5
53D
 100
AcDbEntity
   8
LEVEL002
 100
AcDbLine
   6
CONTINUOUS
  62
7
  10
 268.12100000000
  20
 937.54100000000
  30
0.0
  11
 267.96400000000
  21
 937.89300000000
  31
0.0
   0
LINE
   5
53E
 100
AcDbEntity
   8
LEVEL002
 100
AcDbLine
   6
CONTINUOUS
  62
7
  10
 267.96400000000
  20
 937.89300000000
  30
0.0
  11
 267.75900000000
  21
 938.22400000000
  31
0.0
   0
LINE
   5
53F
 100
AcDbEntity
   8
LEVEL002
 100
AcDbLine
   6
CONTINUOUS
  62
7
  10
 267.75900000000
  20
 938.22400000000
  30
0.0
  11
 267.51200000000
  21
 938.52900000000
  31
0.0
   0
LINE
   5
540
 100
AcDbEntity
   8
LEVEL002
 100
AcDbLine
   6
CONTINUOUS
  62
7
  10
 267.51200000000
  20
 938.52900000000
  30
0.0
  11
 267.22600000000
  21
 938.80300000000
  31
0.0
   0
LINE
   5
541
 100
AcDbEntity
   8
LEVEL002
 100
AcDbLine
   6
CONTINUOUS
  62
7
  10
 267.22600000000
  20
 938.80300000000
  30
0.0
  11
 266.90500000000
  21
 939.04200000000
  31
0.0
   0
LINE
   5
542
 100
AcDbEntity
   8
LEVEL002
 100
AcDbLine
   6
CONTINUOUS
  62
7
  10
 266.90500000000
  20
 939.04200000000
  30
0.0
  11
 266.55400000000
  21
 939.24200000000
  31
0.0
   0
LINE
   5
543
 100
AcDbEntity
   8
LEVEL002
 100
AcDbLine
   6
CONTINUOUS
  62
7
  10
 266.55400000000
  20
 939.24200000000
  30
0.0
  11
 266.17900000000
  21
 939.40000000000
  31
0.0
   0
LINE
   5
544
 100
AcDbEntity
   8
LEVEL002
 100
AcDbLine
   6
CONTINUOUS
  62
7
  10
 266.17900000000
  20
 939.40000000000
  30
0.0
  11
 265.78500000000
  21
 939.51300000000
  31
0.0
   0
LINE
   5
545
 100
AcDbEntity
   8
LEVEL002
 100
AcDbLine
   6
CONTINUOUS
  62
7
  10
 265.78500000000
  20
 939.51300000000
  30
0.0
  11
 265.38000000000
  21
 939.58000000000
  31
0.0
   0
LINE
   5
546
 100
AcDbEntity
   8
LEVEL002
 100
AcDbLine
   6
CONTINUOUS
  62
7
  10
 265.38000000000
  20
 939.58000000000
  30
0.0
  11
 264.96800000000
  21
 939.60100000000
  31
0.0
   0
LINE
   5
547
 100
AcDbEntity
   8
LEVEL002
 100
AcDbLine
   6
CONTINUOUS
  62
7
  10
 264.96800000000
  20
 939.60100000000
  30
0.0
  11
 264.55700000000
  21
 939.57300000000
  31
0.0
   0
LINE
   5
548
 100
AcDbEntity
   8
LEVEL002
 100
AcDbLine
   6
CONTINUOUS
  62
7
  10
 264.55700000000
  20
 939.57300000000
  30
0.0
  11
 264.15300000000
  21
 939.49800000000
  31
0.0
   0
LINE
   5
549
 100
AcDbEntity
   8
LEVEL002
 100
AcDbLine
   6
CONTINUOUS
  62
7
  10
 264.15300000000
  20
 939.49800000000
  30
0.0
  11
 263.76200000000
  21
 939.37800000000
  31
0.0
   0
LINE
   5
54A
 100
AcDbEntity
   8
LEVEL002
 100
AcDbLine
   6
CONTINUOUS
  62
7
  10
 263.76200000000
  20
 939.37800000000
  30
0.0
  11
 263.39000000000
  21
 939.21300000000
  31
0.0
   0
LINE
   5
54B
 100
AcDbEntity
   8
LEVEL002
 100
AcDbLine
   6
CONTINUOUS
  62
7
  10
 263.39000000000
  20
 939.21300000000
  30
0.0
  11
 263.04300000000
  21
 939.00700000000
  31
0.0
   0
LINE
   5
54C
 100
AcDbEntity
   8
LEVEL002
 100
AcDbLine
   6
CONTINUOUS
  62
7
  10
 263.04300000000
  20
 939.00700000000
  30
0.0
  11
 262.72700000000
  21
 938.76200000000
  31
0.0
   0
LINE
   5
54D
 100
AcDbEntity
   8
LEVEL002
 100
AcDbLine
   6
CONTINUOUS
  62
7
  10
 262.72700000000
  20
 938.76200000000
  30
0.0
  11
 262.44700000000
  21
 938.48300000000
  31
0.0
   0
LINE
   5
54E
 100
AcDbEntity
   8
LEVEL002
 100
AcDbLine
   6
CONTINUOUS
  62
7
  10
 262.44700000000
  20
 938.48300000000
  30
0.0
  11
 262.20600000000
  21
 938.17400000000
  31
0.0
   0
LINE
   5
54F
 100
AcDbEntity
   8
LEVEL002
 100
AcDbLine
   6
CONTINUOUS
  62
7
  10
 262.20600000000
  20
 938.17400000000
  30
0.0
  11
 262.00900000000
  21
 937.84000000000
  31
0.0
   0
LINE
   5
550
 100
AcDbEntity
   8
LEVEL002
 100
AcDbLine
   6
CONTINUOUS
  62
7
  10
 262.00900000000
  20
 937.84000000000
  30
0.0
  11
 261.85800000000
  21
 937.48500000000
  31
0.0
   0
LINE
   5
551
 100
AcDbEntity
   8
LEVEL002
 100
AcDbLine
   6
CONTINUOUS
  62
7
  10
 261.85800000000
  20
 937.48500000000
  30
0.0
  11
 261.75700000000
  21
 937.11600000000
  31
0.0
   0
LINE
   5
552
 100
AcDbEntity
   8
LEVEL002
 100
AcDbLine
   6
CONTINUOUS
  62
7
  10
 261.75700000000
  20
 937.11600000000
  30
0.0
  11
 261.70600000000
  21
 936.73800000000
  31
0.0
   0
LINE
   5
553
 100
AcDbEntity
   8
LEVEL002
 100
AcDbLine
   6
CONTINUOUS
  62
7
  10
 261.70600000000
  20
 936.73800000000
  30
0.0
  11
 261.70700000000
  21
 936.35700000000
  31
0.0
   0
LINE
   5
554
 100
AcDbEntity
   8
LEVEL002
 100
AcDbLine
   6
CONTINUOUS
  62
7
  10
 261.70700000000
  20
 936.35700000000
  30
0.0
  11
 261.75900000000
  21
 935.97900000000
  31
0.0
   0
LINE
   5
555
 100
AcDbEntity
   8
LEVEL002
 100
AcDbLine
   6
CONTINUOUS
  62
7
  10
 261.75900000000
  20
 935.97900000000
  30
0.0
  11
 261.86100000000
  21
 935.61000000000
  31
0.0
   0
LINE
   5
556
 100
AcDbEntity
   8
LEVEL002
 100
AcDbLine
   6
CONTINUOUS
  62
7
  10
 261.86100000000
  20
 935.61000000000
  30
0.0
  11
 262.01300000000
  21
 935.25600000000
  31
0.0
   0
LINE
   5
557
 100
AcDbEntity
   8
LEVEL002
 100
AcDbLine
   6
CONTINUOUS
  62
7
  10
 262.01300000000
  20
 935.25600000000
  30
0.0
  11
 262.21100000000
  21
 934.92200000000
  31
0.0
   0
LINE
   5
558
 100
AcDbEntity
   8
LEVEL002
 100
AcDbLine
   6
CONTINUOUS
  62
7
  10
 262.21100000000
  20
 934.92200000000
  30
0.0
  11
 262.45300000000
  21
 934.61400000000
  31
0.0
   0
LINE
   5
559
 100
AcDbEntity
   8
LEVEL002
 100
AcDbLine
   6
CONTINUOUS
  62
7
  10
 262.45300000000
  20
 934.61400000000
  30
0.0
  11
 262.73400000000
  21
 934.33500000000
  31
0.0
   0
LINE
   5
55A
 100
AcDbEntity
   8
LEVEL002
 100
AcDbLine
   6
CONTINUOUS
  62
7
  10
 262.73400000000
  20
 934.33500000000
  30
0.0
  11
 263.05100000000
  21
 934.09200000000
  31
0.0
   0
LINE
   5
55B
 100
AcDbEntity
   8
LEVEL002
 100
AcDbLine
   6
CONTINUOUS
  62
7
  10
 263.05100000000
  20
 934.09200000000
  30
0.0
  11
 263.34200000000
  21
 933.91600000000
  31
0.0
   0
LINE
   5
55C
 100
AcDbEntity
   8
LEVEL002
 100
AcDbLine
   6
CONTINUOUS
  62
7
  10
 271.33500000000
  20
 938.54200000000
  30
0.0
  11
 271.33500000000
  21
 946.30400000000
  31
0.0
   0
ARC
   5
55D
 100
AcDbEntity
   8
LEVEL002
   6
CONTINUOUS
  62
7
 100
AcDbCircle
  10
 268.33500000000
  20
 938.54200000000
  30
0.0
  40
 3.0000000000000
 100
AcDbArc
  50
 298.73100000004
  51
 0.47116312977243E-9
   0
ARC
   5
55E
 100
AcDbEntity
   8
LEVEL002
   6
CONTINUOUS
  62
7
 100
AcDbCircle
  10
 264.99999999999
  20
 944.62599999999
  30
0.0
  40
 9.9381100000000
 100
AcDbArc
  50
 287.06500000008
  51
 298.73100000008
   0
LINE
   5
55F
 100
AcDbEntity
   8
LEVEL002
 100
AcDbLine
   6
CONTINUOUS
  62
7
  10
 258.66500000000
  20
 938.54200000000
  30
0.0
  11
 258.66500000000
  21
 946.30400000000
  31
0.0
   0
ARC
   5
560
 100
AcDbEntity
   8
LEVEL002
   6
CONTINUOUS
  62
7
 100
AcDbCircle
  10
 261.66500000000
  20
 938.54200000000
  30
0.0
  40
 3.0000000000000
 100
AcDbArc
  50
 179.99999999998
  51
 241.26899999997
   0
ARC
   5
561
 100
AcDbEntity
   8
LEVEL002
   6
CONTINUOUS
  62
7
 100
AcDbCircle
  10
 264.99999999999
  20
 944.62600000000
  30
0.0
  40
 9.9381100000000
 100
AcDbArc
  50
 241.26900000004
  51
 252.93500000004
   0
ARC
   5
562
 100
AcDbEntity
   8
LEVEL002
   6
CONTINUOUS
  62
7
 100
AcDbCircle
  10
 256.72600000000
  20
 942.41500000000
  30
0.0
  40
 8.7326400000000
 100
AcDbArc
  50
 61.075799999996
  51
 81.614199999996
   0
ARC
   5
563
 100
AcDbEntity
   8
LEVEL002
   6
CONTINUOUS
  62
7
 100
AcDbCircle
  10
 265.00000000000
  20
 942.32100000000
  30
0.0
  40
 8.7326400000000
 100
AcDbArc
  50
 62.368799999986
  51
 117.63099999998
   0
ARC
   5
564
 100
AcDbEntity
   8
LEVEL002
   6
CONTINUOUS
  62
7
 100
AcDbCircle
  10
 273.27400000000
  20
 942.41500000000
  30
0.0
  40
 8.7326400000000
 100
AcDbArc
  50
 98.385999999989
  51
 118.92399999999
   0
LINE
   5
565
 100
AcDbEntity
   8
LEVEL002
 100
AcDbLine
   6
CONTINUOUS
  62
7
  10
 271.60600000000
  20
 951.05400000000
  30
0.0
  11
 271.57600000000
  21
 952.02000000000
  31
0.0
   0
LINE
   5
566
 100
AcDbEntity
   8
LEVEL002
 100
AcDbLine
   6
CONTINUOUS
  62
7
  10
 258.41900000000
  20
 951.85500000000
  30
0.0
  11
 258.39400000000
  21
 951.05400000000
  31
0.0
   0
LINE
   5
567
 100
AcDbEntity
   8
LEVEL002
 100
AcDbLine
   6
CONTINUOUS
  62
7
  10
 271.60600000000
  20
 951.05400000000
  30
0.0
  11
 270.72300000000
  21
 951.93800000000
  31
0.0
   0
LINE
   5
568
 100
AcDbEntity
   8
LEVEL002
 100
AcDbLine
   6
CONTINUOUS
  62
7
  10
 270.72300000000
  20
 951.93800000000
  30
0.0
  11
 270.72000000000
  21
 952.00900000000
  31
0.0
   0
LINE
   5
569
 100
AcDbEntity
   8
LEVEL002
 100
AcDbLine
   6
CONTINUOUS
  62
7
  10
 258.39400000000
  20
 951.05400000000
  30
0.0
  11
 259.20500000000
  21
 951.86500000000
  31
0.0
   0
LINE
   5
56A
 100
AcDbEntity
   8
LEVEL002
 100
AcDbLine
   6
CONTINUOUS
  62
7
  10
 270.72300000000
  20
 951.93800000000
  30
0.0
  11
 265.00000000000
  21
 951.93800000000
  31
0.0
   0
LINE
   5
56B
 100
AcDbEntity
   8
LEVEL002
 100
AcDbLine
   6
CONTINUOUS
  62
7
  10
 97.000000000000
  20
 954.00000000000
  30
0.0
  11
 97.000000000000
  21
 1062.0000000000
  31
0.0
   0
LINE
   5
56C
 100
AcDbEntity
   8
LEVEL002
 100
AcDbLine
   6
DASHDOT
  62
1
  10
 115.00000000000
  20
 1250.0000000000
  30
0.0
  11
 195.00000000000
  21
 1250.0000000000
  31
0.0
   0
LINE
   5
56D
 100
AcDbEntity
   8
LEVEL002
 100
AcDbLine
   6
DASHDOT
  62
1
  10
 155.00000000000
  20
 1290.0000000000
  30
0.0
  11
 155.00000000000
  21
 1210.0000000000
  31
0.0
   0
LINE
   5
56E
 100
AcDbEntity
   8
LEVEL002
 100
AcDbLine
   6
DASHDOT
  62
1
  10
 305.00000000000
  20
 1290.0000000000
  30
0.0
  11
 305.00000000000
  21
 1210.0000000000
  31
0.0
   0
LINE
   5
56F
 100
AcDbEntity
   8
LEVEL002
 100
AcDbLine
   6
DASHDOT
  62
1
  10
 265.00000000000
  20
 1250.0000000000
  30
0.0
  11
 345.00000000000
  21
 1250.0000000000
  31
0.0
   0
LINE
   5
570
 100
AcDbEntity
   8
LEVEL002
 100
AcDbLine
   6
DASHDOT
  62
1
  10
 135.82000000000
  20
 1120.0000000000
  30
0.0
  11
 333.07900000000
  21
 1120.0000000000
  31
0.0
   0
LINE
   5
571
 100
AcDbEntity
   8
LEVEL002
 100
AcDbLine
   6
DASHDOT
  62
1
  10
 230.00000000000
  20
 880.00000000000
  30
0.0
  11
 230.00000000000
  21
 1295.0000000000
  31
0.0
   0
LINE
   5
572
 100
AcDbEntity
   8
LEVEL002
 100
AcDbLine
   6
DASHDOT
  62
1
  10
 20.000000000000
  20
 1008.0000000000
  30
0.0
  11
 440.00000000000
  21
 1008.0000000000
  31
0.0
   0
LINE
   5
573
 100
AcDbEntity
   8
LEVEL002
 100
AcDbLine
   6
DASHDOT
  62
1
  10
 265.00000000000
  20
 925.00000000000
  30
0.0
  11
 345.00000000000
  21
 925.00000000000
  31
0.0
   0
LINE
   5
574
 100
AcDbEntity
   8
LEVEL002
 100
AcDbLine
   6
DASHDOT
  62
1
  10
 305.00000000000
  20
 965.00000000000
  30
0.0
  11
 305.00000000000
  21
 885.00000000000
  31
0.0
   0
LINE
   5
575
 100
AcDbEntity
   8
LEVEL002
 100
AcDbLine
   6
DASHDOT
  62
1
  10
 155.00000000000
  20
 885.00000000000
  30
0.0
  11
 155.00000000000
  21
 965.00000000000
  31
0.0
   0
LINE
   5
576
 100
AcDbEntity
   8
LEVEL002
 100
AcDbLine
   6
DASHDOT
  62
1
  10
 115.00000000000
  20
 925.00000000000
  30
0.0
  11
 195.00000000000
  21
 925.00000000000
  31
0.0
   0
TEXT
   5
577
 100
AcDbEntity
   8
LEVEL003
  62
7
 100
AcDbText
  10
 1145.0700000000
  20
 30.659900000000
  30
0.0
  40
 30.000000000000
   1
ＯＳＡＫＡ ＪＡＣＫ
   7
STANDARD
 100
AcDbText
   0
CIRCLE
   5
578
 100
AcDbEntity
   8
LEVEL003
 100
AcDbCircle
   6
CONTINUOUS
  62
7
  10
 1109.1600000000
  20
 51.812000000000
  30
0.0
  40
 9.0000000000000
   0
LINE
   5
579
 100
AcDbEntity
   8
LEVEL003
 100
AcDbLine
   6
CONTINUOUS
  62
7
  10
 1126.8200000000
  20
 60.812000000000
  30
0.0
  11
 1115.3900000000
  21
 41.012000000000
  31
0.0
   0
LINE
   5
57A
 100
AcDbEntity
   8
LEVEL003
 100
AcDbLine
   6
CONTINUOUS
  62
7
  10
 1115.3900000000
  20
 41.012000000000
  30
0.0
  11
 1092.5300000000
  21
 41.012000000000
  31
0.0
   0
LINE
   5
57B
 100
AcDbEntity
   8
LEVEL003
 100
AcDbLine
   6
CONTINUOUS
  62
7
  10
 1089.9300000000
  20
 36.512000000000
  30
0.0
  11
 1130.7900000000
  21
 36.512000000000
  31
0.0
   0
LINE
   5
57C
 100
AcDbEntity
   8
LEVEL003
 100
AcDbLine
   6
CONTINUOUS
  62
7
  10
 1130.7900000000
  20
 36.512000000000
  30
0.0
  11
 1144.8200000000
  21
 60.812000000000
  31
0.0
   0
LINE
   5
57D
 100
AcDbEntity
   8
LEVEL003
 100
AcDbLine
   6
CONTINUOUS
  62
7
  10
 1144.8200000000
  20
 60.812000000000
  30
0.0
  11
 1126.8200000000
  21
 60.812000000000
  31
0.0
   0
LINE
   5
57E
 100
AcDbEntity
   8
LEVEL003
 100
AcDbLine
   6
CONTINUOUS
  62
7
  10
 1092.5300000000
  20
 41.012000000000
  30
0.0
  11
 1089.9300000000
  21
 36.512000000000
  31
0.0
   0
LINE
   5
57F
 100
AcDbEntity
   8
LEVEL003
 100
AcDbLine
   6
CONTINUOUS
  62
3
  10
 940.00000000000
  20
 234.00000000000
  30
0.0
  11
 992.00000000000
  21
 234.00000000000
  31
0.0
   0
LINE
   5
580
 100
AcDbEntity
   8
LEVEL003
 100
AcDbLine
   6
CONTINUOUS
  62
3
  10
 946.00000000000
  20
 205.00000000000
  30
0.0
  11
 992.00000000000
  21
 205.00000000000
  31
0.0
   0
LINE
   5
581
 100
AcDbEntity
   8
LEVEL003
 100
AcDbLine
   6
CONTINUOUS
  62
3
  10
 990.00000000000
  20
 234.00000000000
  30
0.0
  11
 990.00000000000
  21
 205.00000000000
  31
0.0
   0
LINE
   5
582
 100
AcDbEntity
   8
LEVEL003
 100
AcDbLine
   6
CONTINUOUS
  62
3
  10
 990.00000000000
  20
 234.00000000000
  30
0.0
  11
 989.19600000000
  21
 231.00000000000
  31
0.0
   0
LINE
   5
583
 100
AcDbEntity
   8
LEVEL003
 100
AcDbLine
   6
CONTINUOUS
  62
3
  10
 990.00000000000
  20
 234.00000000000
  30
0.0
  11
 990.80400000000
  21
 231.00000000000
  31
0.0
   0
LINE
   5
584
 100
AcDbEntity
   8
LEVEL003
 100
AcDbLine
   6
CONTINUOUS
  62
3
  10
 990.00000000000
  20
 205.00000000000
  30
0.0
  11
 990.80400000000
  21
 208.00000000000
  31
0.0
   0
LINE
   5
585
 100
AcDbEntity
   8
LEVEL003
 100
AcDbLine
   6
CONTINUOUS
  62
3
  10
 990.00000000000
  20
 205.00000000000
  30
0.0
  11
 989.19600000000
  21
 208.00000000000
  31
0.0
   0
MTEXT
   5
586
 100
AcDbEntity
   8
LEVEL003
  62
3
 100
AcDbMText
  10
 988.28600000000
  20
 219.50000000000
  30
0.0
  40
 4.0000000000000
  41
0.0
  71
8
  72
1
   1
29
   7
GMM001
  11
0.0
  21
 1.0000000000000
  31
0.0
   0
LINE
   5
587
 100
AcDbEntity
   8
LEVEL003
 100
AcDbLine
   6
CONTINUOUS
  62
3
  10
 706.01800000000
  20
 300.00000000000
  30
0.0
  11
 1022.0000000000
  21
 300.00000000000
  31
0.0
   0
LINE
   5
588
 100
AcDbEntity
   8
LEVEL003
 100
AcDbLine
   6
CONTINUOUS
  62
3
  10
 946.00000000000
  20
 205.00000000000
  30
0.0
  11
 1022.0000000000
  21
 205.00000000000
  31
0.0
   0
LINE
   5
589
 100
AcDbEntity
   8
LEVEL003
 100
AcDbLine
   6
CONTINUOUS
  62
3
  10
 1020.0000000000
  20
 300.00000000000
  30
0.0
  11
 1020.0000000000
  21
 205.00000000000
  31
0.0
   0
LINE
   5
58A
 100
AcDbEntity
   8
LEVEL003
 100
AcDbLine
   6
CONTINUOUS
  62
3
  10
 1020.0000000000
  20
 300.00000000000
  30
0.0
  11
 1019.2000000000
  21
 297.00000000000
  31
0.0
   0
LINE
   5
58B
 100
AcDbEntity
   8
LEVEL003
 100
AcDbLine
   6
CONTINUOUS
  62
3
  10
 1020.0000000000
  20
 300.00000000000
  30
0.0
  11
 1020.8000000000
  21
 297.00000000000
  31
0.0
   0
LINE
   5
58C
 100
AcDbEntity
   8
LEVEL003
 100
AcDbLine
   6
CONTINUOUS
  62
3
  10
 1020.0000000000
  20
 205.00000000000
  30
0.0
  11
 1020.8000000000
  21
 208.00000000000
  31
0.0
   0
LINE
   5
58D
 100
AcDbEntity
   8
LEVEL003
 100
AcDbLine
   6
CONTINUOUS
  62
3
  10
 1020.0000000000
  20
 205.00000000000
  30
0.0
  11
 1019.2000000000
  21
 208.00000000000
  31
0.0
   0
MTEXT
   5
58E
 100
AcDbEntity
   8
LEVEL003
  62
3
 100
AcDbMText
  10
 1018.2900000000
  20
 252.50000000000
  30
0.0
  40
 4.0000000000000
  41
0.0
  71
8
  72
1
   1
95
   7
GMM001
  11
0.0
  21
 1.0000000000000
  31
0.0
   0
LINE
   5
58F
 100
AcDbEntity
   8
LEVEL003
 100
AcDbLine
   6
CONTINUOUS
  62
3
  10
 946.00000000000
  20
 205.00000000000
  30
0.0
  11
 1022.0000000000
  21
 205.00000000000
  31
0.0
   0
LINE
   5
590
 100
AcDbEntity
   8
LEVEL003
 100
AcDbLine
   6
CONTINUOUS
  62
3
  10
 815.00000000000
  20
 45.000000000000
  30
0.0
  11
 1022.0000000000
  21
 45.000000000000
  31
0.0
   0
LINE
   5
591
 100
AcDbEntity
   8
LEVEL003
 100
AcDbLine
   6
CONTINUOUS
  62
3
  10
 1020.0000000000
  20
 205.00000000000
  30
0.0
  11
 1020.0000000000
  21
 45.000000000000
  31
0.0
   0
LINE
   5
592
 100
AcDbEntity
   8
LEVEL003
 100
AcDbLine
   6
CONTINUOUS
  62
3
  10
 1020.0000000000
  20
 205.00000000000
  30
0.0
  11
 1019.2000000000
  21
 202.00000000000
  31
0.0
   0
LINE
   5
593
 100
AcDbEntity
   8
LEVEL003
 100
AcDbLine
   6
CONTINUOUS
  62
3
  10
 1020.0000000000
  20
 205.00000000000
  30
0.0
  11
 1020.8000000000
  21
 202.00000000000
  31
0.0
   0
LINE
   5
594
 100
AcDbEntity
   8
LEVEL003
 100
AcDbLine
   6
CONTINUOUS
  62
3
  10
 1020.0000000000
  20
 45.000000000000
  30
0.0
  11
 1020.8000000000
  21
 48.000000000000
  31
0.0
   0
LINE
   5
595
 100
AcDbEntity
   8
LEVEL003
 100
AcDbLine
   6
CONTINUOUS
  62
3
  10
 1020.0000000000
  20
 45.000000000000
  30
0.0
  11
 1019.2000000000
  21
 48.000000000000
  31
0.0
   0
MTEXT
   5
596
 100
AcDbEntity
   8
LEVEL003
  62
3
 100
AcDbMText
  10
 1018.2900000000
  20
 125.00000000000
  30
0.0
  40
 4.0000000000000
  41
0.0
  71
8
  72
1
   1
160
   7
GMM001
  11
0.0
  21
 1.0000000000000
  31
0.0
   0
LINE
   5
597
 100
AcDbEntity
   8
LEVEL003
 100
AcDbLine
   6
CONTINUOUS
  62
3
  10
 817.50000000000
  20
 115.00000000000
  30
0.0
  11
 882.00000000000
  21
 115.00000000000
  31
0.0
   0
LINE
   5
598
 100
AcDbEntity
   8
LEVEL003
 100
AcDbLine
   6
CONTINUOUS
  62
3
  10
 815.00000000000
  20
 45.000000000000
  30
0.0
  11
 882.00000000000
  21
 45.000000000000
  31
0.0
   0
LINE
   5
599
 100
AcDbEntity
   8
LEVEL003
 100
AcDbLine
   6
CONTINUOUS
  62
3
  10
 880.00000000000
  20
 115.00000000000
  30
0.0
  11
 880.00000000000
  21
 45.000000000000
  31
0.0
   0
LINE
   5
59A
 100
AcDbEntity
   8
LEVEL003
 100
AcDbLine
   6
CONTINUOUS
  62
3
  10
 880.00000000000
  20
 115.00000000000
  30
0.0
  11
 879.19600000000
  21
 112.00000000000
  31
0.0
   0
LINE
   5
59B
 100
AcDbEntity
   8
LEVEL003
 100
AcDbLine
   6
CONTINUOUS
  62
3
  10
 880.00000000000
  20
 115.00000000000
  30
0.0
  11
 880.80400000000
  21
 112.00000000000
  31
0.0
   0
LINE
   5
59C
 100
AcDbEntity
   8
LEVEL003
 100
AcDbLine
   6
CONTINUOUS
  62
3
  10
 880.00000000000
  20
 45.000000000000
  30
0.0
  11
 880.80400000000
  21
 48.000000000000
  31
0.0
   0
LINE
   5
59D
 100
AcDbEntity
   8
LEVEL003
 100
AcDbLine
   6
CONTINUOUS
  62
3
  10
 880.00000000000
  20
 45.000000000000
  30
0.0
  11
 879.19600000000
  21
 48.000000000000
  31
0.0
   0
MTEXT
   5
59E
 100
AcDbEntity
   8
LEVEL003
  62
3
 100
AcDbMText
  10
 878.28600000000
  20
 80.000000000000
  30
0.0
  40
 4.0000000000000
  41
0.0
  71
8
  72
1
   1
70
   7
GMM001
  11
0.0
  21
 1.0000000000000
  31
0.0
   0
LINE
   5
59F
 100
AcDbEntity
   8
LEVEL003
 100
AcDbLine
   6
CONTINUOUS
  62
3
  10
 382.50000000000
  20
 321.50000000000
  30
0.0
  11
 382.50000000000
  21
 372.00000000000
  31
0.0
   0
LINE
   5
5A0
 100
AcDbEntity
   8
LEVEL003
 100
AcDbLine
   6
CONTINUOUS
  62
3
  10
 432.50000000000
  20
 321.50000000000
  30
0.0
  11
 432.50000000000
  21
 372.00000000000
  31
0.0
   0
LINE
   5
5A1
 100
AcDbEntity
   8
LEVEL003
 100
AcDbLine
   6
CONTINUOUS
  62
3
  10
 382.50000000000
  20
 370.00000000000
  30
0.0
  11
 432.50000000000
  21
 370.00000000000
  31
0.0
   0
LINE
   5
5A2
 100
AcDbEntity
   8
LEVEL003
 100
AcDbLine
   6
CONTINUOUS
  62
3
  10
 382.50000000000
  20
 370.00000000000
  30
0.0
  11
 385.50000000000
  21
 369.19600000000
  31
0.0
   0
LINE
   5
5A3
 100
AcDbEntity
   8
LEVEL003
 100
AcDbLine
   6
CONTINUOUS
  62
3
  10
 382.50000000000
  20
 370.00000000000
  30
0.0
  11
 385.50000000000
  21
 370.80400000000
  31
0.0
   0
LINE
   5
5A4
 100
AcDbEntity
   8
LEVEL003
 100
AcDbLine
   6
CONTINUOUS
  62
3
  10
 432.50000000000
  20
 370.00000000000
  30
0.0
  11
 429.50000000000
  21
 370.80400000000
  31
0.0
   0
LINE
   5
5A5
 100
AcDbEntity
   8
LEVEL003
 100
AcDbLine
   6
CONTINUOUS
  62
3
  10
 432.50000000000
  20
 370.00000000000
  30
0.0
  11
 429.50000000000
  21
 369.19600000000
  31
0.0
   0
MTEXT
   5
5A6
 100
AcDbEntity
   8
LEVEL003
  62
3
 100
AcDbMText
  10
 407.50000000000
  20
 371.71400000000
  30
0.0
  40
 4.0000000000000
  41
0.0
  71
8
  72
1
   1
50
   7
GMM001
   0
LINE
   5
5A7
 100
AcDbEntity
   8
LEVEL003
 100
AcDbLine
   6
CONTINUOUS
  62
3
  10
 374.50000000000
  20
 317.77000000000
  30
0.0
  11
 374.50000000000
  21
 402.00000000000
  31
0.0
   0
LINE
   5
5A8
 100
AcDbEntity
   8
LEVEL003
 100
AcDbLine
   6
CONTINUOUS
  62
3
  10
 432.50000000000
  20
 321.50000000000
  30
0.0
  11
 432.50000000000
  21
 402.00000000000
  31
0.0
   0
LINE
   5
5A9
 100
AcDbEntity
   8
LEVEL003
 100
AcDbLine
   6
CONTINUOUS
  62
3
  10
 374.50000000000
  20
 400.00000000000
  30
0.0
  11
 432.50000000000
  21
 400.00000000000
  31
0.0
   0
LINE
   5
5AA
 100
AcDbEntity
   8
LEVEL003
 100
AcDbLine
   6
CONTINUOUS
  62
3
  10
 374.50000000000
  20
 400.00000000000
  30
0.0
  11
 377.50000000000
  21
 399.19600000000
  31
0.0
   0
LINE
   5
5AB
 100
AcDbEntity
   8
LEVEL003
 100
AcDbLine
   6
CONTINUOUS
  62
3
  10
 374.50000000000
  20
 400.00000000000
  30
0.0
  11
 377.50000000000
  21
 400.80400000000
  31
0.0
   0
LINE
   5
5AC
 100
AcDbEntity
   8
LEVEL003
 100
AcDbLine
   6
CONTINUOUS
  62
3
  10
 432.50000000000
  20
 400.00000000000
  30
0.0
  11
 429.50000000000
  21
 400.80400000000
  31
0.0
   0
LINE
   5
5AD
 100
AcDbEntity
   8
LEVEL003
 100
AcDbLine
   6
CONTINUOUS
  62
3
  10
 432.50000000000
  20
 400.00000000000
  30
0.0
  11
 429.50000000000
  21
 399.19600000000
  31
0.0
   0
MTEXT
   5
5AE
 100
AcDbEntity
   8
LEVEL003
  62
3
 100
AcDbMText
  10
 403.50000000000
  20
 401.71400000000
  30
0.0
  40
 4.0000000000000
  41
0.0
  71
8
  72
1
   1
58
   7
GMM001
   0
LINE
   5
5AF
 100
AcDbEntity
   8
LEVEL003
 100
AcDbLine
   6
CONTINUOUS
  62
3
  10
 346.00000000000
  20
 1250.0000000000
  30
0.0
  11
 482.00000000000
  21
 1250.0000000000
  31
0.0
   0
LINE
   5
5B0
 100
AcDbEntity
   8
LEVEL003
 100
AcDbLine
   6
CONTINUOUS
  62
3
  10
 334.07900000000
  20
 1120.0000000000
  30
0.0
  11
 482.00000000000
  21
 1120.0000000000
  31
0.0
   0
LINE
   5
5B1
 100
AcDbEntity
   8
LEVEL003
 100
AcDbLine
   6
CONTINUOUS
  62
3
  10
 480.00000000000
  20
 1250.0000000000
  30
0.0
  11
 480.00000000000
  21
 1120.0000000000
  31
0.0
   0
LINE
   5
5B2
 100
AcDbEntity
   8
LEVEL003
 100
AcDbLine
   6
CONTINUOUS
  62
3
  10
 480.00000000000
  20
 1250.0000000000
  30
0.0
  11
 479.19600000000
  21
 1247.0000000000
  31
0.0
   0
LINE
   5
5B3
 100
AcDbEntity
   8
LEVEL003
 100
AcDbLine
   6
CONTINUOUS
  62
3
  10
 480.00000000000
  20
 1250.0000000000
  30
0.0
  11
 480.80400000000
  21
 1247.0000000000
  31
0.0
   0
LINE
   5
5B4
 100
AcDbEntity
   8
LEVEL003
 100
AcDbLine
   6
CONTINUOUS
  62
3
  10
 480.00000000000
  20
 1120.0000000000
  30
0.0
  11
 480.80400000000
  21
 1123.0000000000
  31
0.0
   0
LINE
   5
5B5
 100
AcDbEntity
   8
LEVEL003
 100
AcDbLine
   6
CONTINUOUS
  62
3
  10
 480.00000000000
  20
 1120.0000000000
  30
0.0
  11
 479.19600000000
  21
 1123.0000000000
  31
0.0
   0
MTEXT
   5
5B6
 100
AcDbEntity
   8
LEVEL003
  62
3
 100
AcDbMText
  10
 478.28600000000
  20
 1185.0000000000
  30
0.0
  40
 4.0000000000000
  41
0.0
  71
8
  72
1
   1
130
   7
GMM001
  11
0.0
  21
 1.0000000000000
  31
0.0
   0
LINE
   5
5B7
 100
AcDbEntity
   8
LEVEL003
 100
AcDbLine
   6
CONTINUOUS
  62
3
  10
 334.07900000000
  20
 1120.0000000000
  30
0.0
  11
 482.00000000000
  21
 1120.0000000000
  31
0.0
   0
LINE
   5
5B8
 100
AcDbEntity
   8
LEVEL003
 100
AcDbLine
   6
CONTINUOUS
  62
3
  10
 346.00000000000
  20
 925.00000000000
  30
0.0
  11
 482.00000000000
  21
 925.00000000000
  31
0.0
   0
LINE
   5
5B9
 100
AcDbEntity
   8
LEVEL003
 100
AcDbLine
   6
CONTINUOUS
  62
3
  10
 480.00000000000
  20
 1120.0000000000
  30
0.0
  11
 480.00000000000
  21
 925.00000000000
  31
0.0
   0
LINE
   5
5BA
 100
AcDbEntity
   8
LEVEL003
 100
AcDbLine
   6
CONTINUOUS
  62
3
  10
 480.00000000000
  20
 1120.0000000000
  30
0.0
  11
 479.19600000000
  21
 1117.0000000000
  31
0.0
   0
LINE
   5
5BB
 100
AcDbEntity
   8
LEVEL003
 100
AcDbLine
   6
CONTINUOUS
  62
3
  10
 480.00000000000
  20
 1120.0000000000
  30
0.0
  11
 480.80400000000
  21
 1117.0000000000
  31
0.0
   0
LINE
   5
5BC
 100
AcDbEntity
   8
LEVEL003
 100
AcDbLine
   6
CONTINUOUS
  62
3
  10
 480.00000000000
  20
 925.00000000000
  30
0.0
  11
 480.80400000000
  21
 928.00000000000
  31
0.0
   0
LINE
   5
5BD
 100
AcDbEntity
   8
LEVEL003
 100
AcDbLine
   6
CONTINUOUS
  62
3
  10
 480.00000000000
  20
 925.00000000000
  30
0.0
  11
 479.19600000000
  21
 928.00000000000
  31
0.0
   0
MTEXT
   5
5BE
 100
AcDbEntity
   8
LEVEL003
  62
3
 100
AcDbMText
  10
 478.28600000000
  20
 1022.5000000000
  30
0.0
  40
 4.0000000000000
  41
0.0
  71
8
  72
1
   1
195
   7
GMM001
  11
0.0
  21
 1.0000000000000
  31
0.0
   0
LINE
   5
5BF
 100
AcDbEntity
   8
LEVEL003
 100
AcDbLine
   6
CONTINUOUS
  62
3
  10
 27.500000000000
  20
 990.50000000000
  30
0.0
  11
 27.500000000000
  21
 848.00000000000
  31
0.0
   0
LINE
   5
5C0
 100
AcDbEntity
   8
LEVEL003
 100
AcDbLine
   6
CONTINUOUS
  62
3
  10
 432.50000000000
  20
 990.50000000000
  30
0.0
  11
 432.50000000000
  21
 848.00000000000
  31
0.0
   0
LINE
   5
5C1
 100
AcDbEntity
   8
LEVEL003
 100
AcDbLine
   6
CONTINUOUS
  62
3
  10
 27.500000000000
  20
 850.00000000000
  30
0.0
  11
 432.50000000000
  21
 850.00000000000
  31
0.0
   0
LINE
   5
5C2
 100
AcDbEntity
   8
LEVEL003
 100
AcDbLine
   6
CONTINUOUS
  62
3
  10
 27.500000000000
  20
 850.00000000000
  30
0.0
  11
 30.500000000000
  21
 849.19600000000
  31
0.0
   0
LINE
   5
5C3
 100
AcDbEntity
   8
LEVEL003
 100
AcDbLine
   6
CONTINUOUS
  62
3
  10
 27.500000000000
  20
 850.00000000000
  30
0.0
  11
 30.500000000000
  21
 850.80400000000
  31
0.0
   0
LINE
   5
5C4
 100
AcDbEntity
   8
LEVEL003
 100
AcDbLine
   6
CONTINUOUS
  62
3
  10
 432.50000000000
  20
 850.00000000000
  30
0.0
  11
 429.50000000000
  21
 850.80400000000
  31
0.0
   0
LINE
   5
5C5
 100
AcDbEntity
   8
LEVEL003
 100
AcDbLine
   6
CONTINUOUS
  62
3
  10
 432.50000000000
  20
 850.00000000000
  30
0.0
  11
 429.50000000000
  21
 849.19600000000
  31
0.0
   0
MTEXT
   5
5C6
 100
AcDbEntity
   8
LEVEL003
  62
3
 100
AcDbMText
  10
 230.00000000000
  20
 851.71400000000
  30
0.0
  40
 4.0000000000000
  41
0.0
  71
8
  72
1
   1
405
   7
GMM001
   0
LINE
   5
5C7
 100
AcDbEntity
   8
LEVEL003
 100
AcDbLine
   6
CONTINUOUS
  62
3
  10
 341.00000000000
  20
 205.00000000000
  30
0.0
  11
 482.00000000000
  21
 205.00000000000
  31
0.0
   0
LINE
   5
5C8
 100
AcDbEntity
   8
LEVEL003
 100
AcDbLine
   6
CONTINUOUS
  62
3
  10
 279.50000000000
  20
 810.00000000000
  30
0.0
  11
 482.00000000000
  21
 810.00000000000
  31
0.0
   0
LINE
   5
5C9
 100
AcDbEntity
   8
LEVEL003
 100
AcDbLine
   6
CONTINUOUS
  62
3
  10
 480.00000000000
  20
 205.00000000000
  30
0.0
  11
 480.00000000000
  21
 810.00000000000
  31
0.0
   0
LINE
   5
5CA
 100
AcDbEntity
   8
LEVEL003
 100
AcDbLine
   6
CONTINUOUS
  62
3
  10
 480.00000000000
  20
 205.00000000000
  30
0.0
  11
 480.80400000000
  21
 208.00000000000
  31
0.0
   0
LINE
   5
5CB
 100
AcDbEntity
   8
LEVEL003
 100
AcDbLine
   6
CONTINUOUS
  62
3
  10
 480.00000000000
  20
 205.00000000000
  30
0.0
  11
 479.19600000000
  21
 208.00000000000
  31
0.0
   0
LINE
   5
5CC
 100
AcDbEntity
   8
LEVEL003
 100
AcDbLine
   6
CONTINUOUS
  62
3
  10
 480.00000000000
  20
 810.00000000000
  30
0.0
  11
 479.19600000000
  21
 807.00000000000
  31
0.0
   0
LINE
   5
5CD
 100
AcDbEntity
   8
LEVEL003
 100
AcDbLine
   6
CONTINUOUS
  62
3
  10
 480.00000000000
  20
 810.00000000000
  30
0.0
  11
 480.80400000000
  21
 807.00000000000
  31
0.0
   0
TEXT
   5
5CE
 100
AcDbEntity
   8
LEVEL003
  62
3
 100
AcDbText
  10
 478.28600000000
  20
 493.50000000000
  30
0.0
  40
 4.0000000000000
   1
255+ストローク
  50
 90.000000000000
   7
STANDARD
  72
1
  11
 478.28600000000
  21
 507.50000000000
  31
0.0
 100
AcDbText
   0
LINE
   5
5CF
 100
AcDbEntity
   8
LEVEL003
 100
AcDbLine
   6
CONTINUOUS
  62
3
  10
 815.00000000000
  20
 45.000000000000
  30
0.0
  11
 815.00000000000
  21
 8.0000000000000
  31
0.0
   0
LINE
   5
5D0
 100
AcDbEntity
   8
LEVEL003
 100
AcDbLine
   6
CONTINUOUS
  62
3
  10
 745.00000000000
  20
 45.000000000000
  30
0.0
  11
 745.00000000000
  21
 8.0000000000000
  31
0.0
   0
LINE
   5
5D1
 100
AcDbEntity
   8
LEVEL003
 100
AcDbLine
   6
CONTINUOUS
  62
3
  10
 815.00000000000
  20
 10.000000000000
  30
0.0
  11
 745.00000000000
  21
 10.000000000000
  31
0.0
   0
LINE
   5
5D2
 100
AcDbEntity
   8
LEVEL003
 100
AcDbLine
   6
CONTINUOUS
  62
3
  10
 815.00000000000
  20
 10.000000000000
  30
0.0
  11
 812.00000000000
  21
 10.803800000000
  31
0.0
   0
LINE
   5
5D3
 100
AcDbEntity
   8
LEVEL003
 100
AcDbLine
   6
CONTINUOUS
  62
3
  10
 815.00000000000
  20
 10.000000000000
  30
0.0
  11
 812.00000000000
  21
 9.1961500000000
  31
0.0
   0
LINE
   5
5D4
 100
AcDbEntity
   8
LEVEL003
 100
AcDbLine
   6
CONTINUOUS
  62
3
  10
 745.00000000000
  20
 10.000000000000
  30
0.0
  11
 748.00000000000
  21
 9.1961500000000
  31
0.0
   0
LINE
   5
5D5
 100
AcDbEntity
   8
LEVEL003
 100
AcDbLine
   6
CONTINUOUS
  62
3
  10
 745.00000000000
  20
 10.000000000000
  30
0.0
  11
 748.00000000000
  21
 10.803800000000
  31
0.0
   0
TEXT
   5
5D6
 100
AcDbEntity
   8
LEVEL003
  62
3
 100
AcDbText
  10
 774.00000000000
  20
 11.714300000000
  30
0.0
  40
 4.0000000000000
   1
M70×2
   7
STANDARD
  72
1
  11
 780.00000000000
  21
 11.714300000000
  31
0.0
 100
AcDbText
   0
LINE
   5
5D7
 100
AcDbEntity
   8
LEVEL003
 100
AcDbLine
   6
CONTINUOUS
  62
3
  10
 155.00000000000
  20
 1290.0000000000
  30
0.0
  11
 155.00000000000
  21
 1312.5000000000
  31
0.0
   0
LINE
   5
5D8
 100
AcDbEntity
   8
LEVEL003
 100
AcDbLine
   6
CONTINUOUS
  62
3
  10
 305.00000000000
  20
 1290.0000000000
  30
0.0
  11
 305.00000000000
  21
 1312.5000000000
  31
0.0
   0
LINE
   5
5D9
 100
AcDbEntity
   8
LEVEL003
 100
AcDbLine
   6
CONTINUOUS
  62
3
  10
 155.00000000000
  20
 1310.5000000000
  30
0.0
  11
 305.00000000000
  21
 1310.5000000000
  31
0.0
   0
LINE
   5
5DA
 100
AcDbEntity
   8
LEVEL003
 100
AcDbLine
   6
CONTINUOUS
  62
3
  10
 155.00000000000
  20
 1310.5000000000
  30
0.0
  11
 158.00000000000
  21
 1309.7000000000
  31
0.0
   0
LINE
   5
5DB
 100
AcDbEntity
   8
LEVEL003
 100
AcDbLine
   6
CONTINUOUS
  62
3
  10
 155.00000000000
  20
 1310.5000000000
  30
0.0
  11
 158.00000000000
  21
 1311.3100000000
  31
0.0
   0
LINE
   5
5DC
 100
AcDbEntity
   8
LEVEL003
 100
AcDbLine
   6
CONTINUOUS
  62
3
  10
 305.00000000000
  20
 1310.5000000000
  30
0.0
  11
 302.00000000000
  21
 1311.3100000000
  31
0.0
   0
LINE
   5
5DD
 100
AcDbEntity
   8
LEVEL003
 100
AcDbLine
   6
CONTINUOUS
  62
3
  10
 305.00000000000
  20
 1310.5000000000
  30
0.0
  11
 302.00000000000
  21
 1309.7000000000
  31
0.0
   0
MTEXT
   5
5DE
 100
AcDbEntity
   8
LEVEL003
  62
3
 100
AcDbMText
  10
 230.00000000000
  20
 1312.2200000000
  30
0.0
  40
 4.0000000000000
  41
0.0
  71
8
  72
1
   1
150
   7
GMM002
   0
LINE
   5
5DF
 100
AcDbEntity
   8
LEVEL004
 100
AcDbLine
   6
DOT
  62
3
  10
 939.00000000000
  20
 235.00000000000
  30
0.0
  11
 939.00000000000
  21
 234.00000000000
  31
0.0
   0
LINE
   5
5E0
 100
AcDbEntity
   8
LEVEL004
 100
AcDbLine
   6
DOT
  62
3
  10
 881.00000000000
  20
 235.00000000000
  30
0.0
  11
 881.00000000000
  21
 234.00000000000
  31
0.0
   0
LINE
   5
5E1
 100
AcDbEntity
   8
LEVEL004
 100
AcDbLine
   6
DOT
  62
3
  10
 881.00000000000
  20
 234.00000000000
  30
0.0
  11
 939.00000000000
  21
 234.00000000000
  31
0.0
   0
TEXT
   5
5E2
 100
AcDbEntity
   8
LEVEL003
  62
7
 100
AcDbText
  10
 1153.8000000000
  20
 81.340100000000
  30
0.0
  40
 18.000000000000
   1
Model : ＰＲ２５Ｄ
   7
STANDARD
 100
AcDbText
   0
ENDSEC
  0
SECTION
  2
OBJECTS
  0
DICTIONARY
  5
C
100
AcDbDictionary
  3
ACAD_GROUP
350
D
  3
ACAD_MLINESTYLE
350
1B
  0
DICTIONARY
  5
D
102
{ACAD_REACTORS
330
C
102
}
100
AcDbDictionary
  0
DICTIONARY
  5
1B
102
{ACAD_REACTORS
330
C
102
}
100
AcDbDictionary
  3
STANDARD
350
1C
  0
MLINESTYLE
  5
1C
102
{ACAD_REACTORS
330
1B
102
}
100
AcDbMlineStyle
  2
STANDARD
 70
     0
  3

 62
   256
 51
90.0
 52
90.0
 71
     2
 49
0.5
 62
   256
  6
BYLAYER
 49
-0.5
 62
   256
  6
BYLAYER
  0
ENDSEC
   0
EOF
