   0
SECTION
   2
HEADER
   9
$LIMMIN
  10
0.0
  20
0.0
   9
$LIMMAX
  10
 2376.00
  20
 1680.00
   9
$EXTMIN
  10
0.0
  20
0.0
   9
$EXTMAX
  10
 2376.00
  20
 1680.00
   9
$LTSCALE
  40
 47.5200
   0
ENDSEC
   0
SECTION
   2
TABLES
  0
TABLE
  2
LTYPE
 70
    25
  0
LTYPE
  2
CONTINUOUS
 70
    64
  3
Solid line
 72
    65
 73
     0
 40
0.0
  0
LTYPE
  2
BORDER
 70
    64
  3
__ __ . __ __ . __ __ . __ __ . __ __ . __ __ .
 72
    65
 73
     6
 40
1.75
 49
0.5
 49
-0.25
 49
0.5
 49
-0.25
 49
0.0
 49
-0.25
  0
LTYPE
  2
BORDER2
 70
    64
  3
__.__.__.__.__.__.__.__.__.__.__.__.__.__.__.__
 72
    65
 73
     6
 40
0.875
 49
0.25
 49
-0.125
 49
0.25
 49
-0.125
 49
0.0
 49
-0.125
  0
LTYPE
  2
BORDERX2
 70
    64
  3
____  ____  .  ____  ____  .  ____  ____  .  __
 72
    65
 73
     6
 40
3.5
 49
1.0
 49
-0.5
 49
1.0
 49
-0.5
 49
0.0
 49
-0.5
  0
LTYPE
  2
CENTER
 70
    64
  3
____ _ ____ _ ____ _ ____ _ ____ _ ____ _ ____ 
 72
    65
 73
     4
 40
2.0
 49
1.25
 49
-0.25
 49
0.25
 49
-0.25
  0
LTYPE
  2
CENTER2
 70
    64
  3
___ _ ___ _ ___ _ ___ _ ___ _ ___ _ ___ _ ___ _
 72
    65
 73
     4
 40
1.125
 49
0.75
 49
-0.125
 49
0.125
 49
-0.125
  0
LTYPE
  2
CENTERX2
 70
    64
  3
________  __  ________  __  ________  __  _____
 72
    65
 73
     4
 40
4.0
 49
2.5
 49
-0.5
 49
0.5
 49
-0.5
  0
LTYPE
  2
DASHDOT
 70
    64
  3
__ . __ . __ . __ . __ . __ . __ . __ . __ . __
 72
    65
 73
     4
 40
1.0
 49
0.5
 49
-0.25
 49
0.0
 49
-0.25
  0
LTYPE
  2
DASHDOT2
 70
    64
  3
_._._._._._._._._._._._._._._._._._._._._._._._
 72
    65
 73
     4
 40
0.5
 49
0.25
 49
-0.125
 49
0.0
 49
-0.125
  0
LTYPE
  2
DASHDOTX2
 70
    64
  3
____  .  ____  .  ____  .  ____  .  ____  .  __
 72
    65
 73
     4
 40
2.0
 49
1.0
 49
-0.5
 49
0.0
 49
-0.5
  0
LTYPE
  2
DASHED
 70
    64
  3
__ __ __ __ __ __ __ __ __ __ __ __ __ __ __ __
 72
    65
 73
     2
 40
0.75
 49
0.5
 49
-0.25
  0
LTYPE
  2
DASHED2
 70
    64
  3
_ _ _ _ _ _ _ _ _ _ _ _ _ _ _ _ _ _ _ _ _ _ _ _
 72
    65
 73
     2
 40
0.375
 49
0.25
 49
-0.125
  0
LTYPE
  2
DASHEDX2
 70
    64
  3
____  ____  ____  ____  ____  ____  ____  ____ 
 72
    65
 73
     2
 40
1.5
 49
1.0
 49
-0.5
  0
LTYPE
  2
DIVIDE
 70
    64
  3
____ . . ____ . . ____ . . ____ . . ____ . . __
 72
    65
 73
     6
 40
1.25
 49
0.5
 49
-0.25
 49
0.0
 49
-0.25
 49
0.0
 49
-0.25
  0
LTYPE
  2
DIVIDE2
 70
    64
  3
__..__..__..__..__..__..__..__..__..__..__..__.
 72
    65
 73
     6
 40
0.625
 49
0.25
 49
-0.125
 49
0.0
 49
-0.125
 49
0.0
 49
-0.125
  0
LTYPE
  2
DIVIDEX2
 70
    64
  3
________  .  .  ________  .  .  ________  .  . 
 72
    65
 73
     6
 40
2.5
 49
1.0
 49
-0.5
 49
0.0
 49
-0.5
 49
0.0
 49
-0.5
  0
LTYPE
  2
DOT
 70
    64
  3
. . . . . . . . . . . . . . . . . . . . . . . .
 72
    65
 73
     2
 40
0.25
 49
0.0
 49
-0.25
  0
LTYPE
  2
DOT2
 70
    64
  3
...............................................
 72
    65
 73
     2
 40
0.125
 49
0.0
 49
-0.125
  0
LTYPE
  2
DOTX2
 70
    64
  3
.  .  .  .  .  .  .  .  .  .  .  .  .  .  .  . 
 72
    65
 73
     2
 40
0.5
 49
0.0
 49
-0.5
  0
LTYPE
  2
HIDDEN
 70
    64
  3
__ __ __ __ __ __ __ __ __ __ __ __ __ __ __ __
 72
    65
 73
     2
 40
0.375
 49
0.25
 49
-0.125
  0
LTYPE
  2
HIDDEN2
 70
    64
  3
_ _ _ _ _ _ _ _ _ _ _ _ _ _ _ _ _ _ _ _ _ _ _ _
 72
    65
 73
     2
 40
0.1875
 49
0.125
 49
-0.0625
  0
LTYPE
  2
HIDDENX2
 70
    64
  3
____ ____ ____ ____ ____ ____ ____ ____ ____ __
 72
    65
 73
     2
 40
0.75
 49
0.5
 49
-0.25
  0
LTYPE
  2
PHANTOM
 70
    64
  3
______  __  __  ______  __  __  ______  __  __ 
 72
    65
 73
     6
 40
2.5
 49
1.25
 49
-0.25
 49
0.25
 49
-0.25
 49
0.25
 49
-0.25
  0
LTYPE
  2
PHANTOM2
 70
    64
  3
___ _ _ ___ _ _ ___ _ _ ___ _ _ ___ _ _ ___ _ _
 72
    65
 73
     6
 40
1.25
 49
0.625
 49
-0.125
 49
0.125
 49
-0.125
 49
0.125
 49
-0.125
  0
LTYPE
  2
PHANTOMX2
 70
    64
  3
____________    ____    ____    ____________   
 72
    65
 73
     6
 40
5.0
 49
2.5
 49
-0.5
 49
0.5
 49
-0.5
 49
0.5
 49
-0.5
  0
ENDTAB
  0
TABLE
  2
STYLE
 70
     2
  0
STYLE
  2
STANDARD
 70
0
 40
0.0
 41
1.0
 50
0.0
 71
0
 42
0.2
  3
TXT
  4
BIGFONT
  0
STYLE
  2
STANDARD1
 70
     4
 40
0.0
 41
1.0
 50
0.0
 71
     0
 42
0.2
  3
TXT
  4
BIGFONT
  0
ENDTAB
   0
TABLE
   2
LAYER
  70
4
   0
LAYER
   2
0
  70
0
  62
7
   6
CONTINUOUS
   0
LAYER
   2
LEVEL001
  70
0
  62
7
   6
CONTINUOUS
   0
LAYER
   2
LEVEL003
  70
0
  62
7
   6
CONTINUOUS
   0
LAYER
   2
LEVEL004
  70
0
  62
7
   6
CONTINUOUS
   0
ENDTAB
   0
ENDSEC
   0
SECTION
   2
ENTITIES
   0
LINE
   8
LEVEL001
   6
CONTINUOUS
  62
7
  10
 889.757
  20
 975.000
  30
0.0
  11
 890.656
  21
 975.900
  31
0.0
   0
LINE
   8
LEVEL001
   6
CONTINUOUS
  62
7
  10
 909.340
  20
 975.900
  30
0.0
  11
 910.242
  21
 975.000
  31
0.0
   0
LINE
   8
LEVEL001
   6
CONTINUOUS
  62
7
  10
 890.684
  20
 975.000
  30
0.0
  11
 890.656
  21
 975.900
  31
0.0
   0
LINE
   8
LEVEL001
   6
CONTINUOUS
  62
7
  10
 909.312
  20
 975.000
  30
0.0
  11
 909.340
  21
 975.900
  31
0.0
   0
LINE
   8
LEVEL001
   6
CONTINUOUS
  62
7
  10
 890.656
  20
 975.900
  30
0.0
  11
 909.340
  21
 975.900
  31
0.0
   0
LINE
   8
LEVEL001
   6
CONTINUOUS
  62
7
  10
 832.000
  20
 185.000
  30
0.0
  11
 968.000
  21
 185.000
  31
0.0
   0
LINE
   8
LEVEL001
   6
CONTINUOUS
  62
7
  10
 1095.00
  20
 277.000
  30
0.0
  11
 1095.00
  21
 240.000
  31
0.0
   0
LINE
   8
LEVEL001
   6
CONTINUOUS
  62
7
  10
 1095.00
  20
 240.000
  30
0.0
  11
 645.000
  21
 240.000
  31
0.0
   0
LINE
   8
LEVEL001
   6
CONTINUOUS
  62
7
  10
 1095.00
  20
 277.000
  30
0.0
  11
 648.000
  21
 277.000
  31
0.0
   0
ARC
   8
LEVEL001
   6
CONTINUOUS
  62
7
  10
 997.500
  20
 445.000
  30
0.0
  40
 30.0000
  50
0.0
  51
 90.0000
   0
LINE
   8
LEVEL001
   6
CONTINUOUS
  62
7
  10
 765.000
  20
 475.000
  30
0.0
  11
 997.500
  21
 475.000
  31
0.0
   0
LINE
   8
LEVEL001
   6
CONTINUOUS
  62
7
  10
 982.500
  20
 554.000
  30
0.0
  11
 982.500
  21
 494.750
  31
0.0
   0
LINE
   8
LEVEL001
   6
CONTINUOUS
  62
7
  10
 981.500
  20
 555.000
  30
0.0
  11
 818.500
  21
 555.000
  31
0.0
   0
LINE
   8
LEVEL001
   6
CONTINUOUS
  62
7
  10
 981.000
  20
 561.000
  30
0.0
  11
 819.000
  21
 561.000
  31
0.0
   0
LINE
   8
LEVEL001
   6
CONTINUOUS
  62
7
  10
 981.000
  20
 567.000
  30
0.0
  11
 981.000
  21
 555.000
  31
0.0
   0
LINE
   8
LEVEL001
   6
CONTINUOUS
  62
7
  10
 819.000
  20
 567.000
  30
0.0
  11
 981.000
  21
 567.000
  31
0.0
   0
LINE
   8
LEVEL001
   6
CONTINUOUS
  62
7
  10
 960.000
  20
 567.000
  30
0.0
  11
 960.000
  21
 970.500
  31
0.0
   0
LINE
   8
LEVEL001
   6
CONTINUOUS
  62
7
  10
 960.000
  20
 970.500
  30
0.0
  11
 957.500
  21
 975.000
  31
0.0
   0
LINE
   8
LEVEL001
   6
CONTINUOUS
  62
7
  10
 957.500
  20
 975.000
  30
0.0
  11
 842.500
  21
 975.000
  31
0.0
   0
LINE
   8
LEVEL001
   6
CONTINUOUS
  62
7
  10
 960.000
  20
 970.500
  30
0.0
  11
 840.000
  21
 970.500
  31
0.0
   0
LINE
   8
LEVEL001
   6
CONTINUOUS
  62
7
  10
 840.000
  20
 567.000
  30
0.0
  11
 840.000
  21
 970.500
  31
0.0
   0
LINE
   8
LEVEL001
   6
CONTINUOUS
  62
7
  10
 786.000
  20
 378.000
  30
0.0
  11
 774.000
  21
 378.000
  31
0.0
   0
LINE
   8
LEVEL001
   6
CONTINUOUS
  62
7
  10
 786.000
  20
 370.000
  30
0.0
  11
 786.000
  21
 378.000
  31
0.0
   0
LINE
   8
LEVEL001
   6
CONTINUOUS
  62
7
  10
 774.000
  20
 378.000
  30
0.0
  11
 774.000
  21
 370.000
  31
0.0
   0
LINE
   8
LEVEL001
   6
CONTINUOUS
  62
7
  10
 786.000
  20
 370.000
  30
0.0
  11
 774.000
  21
 370.000
  31
0.0
   0
ARC
   8
LEVEL001
   6
CONTINUOUS
  62
7
  10
 780.000
  20
 355.000
  30
0.0
  40
 20.0000
  50
 107.458
  51
 72.5430
   0
ARC
   8
LEVEL001
   6
CONTINUOUS
  62
7
  10
 822.500
  20
 236.000
  30
0.0
  40
 5.00000
  50
 0.703488E-10
  51
 53.1290
   0
ARC
   8
LEVEL001
   6
CONTINUOUS
  62
7
  10
 977.500
  20
 236.000
  30
0.0
  40
 5.00000
  50
 126.871
  51
 180.000
   0
LINE
   8
LEVEL001
   6
CONTINUOUS
  62
7
  10
 780.000
  20
 486.000
  30
0.0
  11
 789.649
  21
 483.960
  31
0.0
   0
LINE
   8
LEVEL001
   6
CONTINUOUS
  62
7
  10
 780.000
  20
 486.000
  30
0.0
  11
 770.351
  21
 483.960
  31
0.0
   0
LINE
   8
LEVEL001
   6
CONTINUOUS
  62
7
  10
 792.500
  20
 475.000
  30
0.0
  11
 791.205
  21
 482.350
  31
0.0
   0
LINE
   8
LEVEL001
   6
CONTINUOUS
  62
7
  10
 789.235
  20
 484.000
  30
0.0
  11
 770.765
  21
 484.000
  31
0.0
   0
ARC
   8
LEVEL001
   6
CONTINUOUS
  62
7
  10
 789.235
  20
 482.000
  30
0.0
  40
 2.00000
  50
 10.0010
  51
 90.0040
   0
LINE
   8
LEVEL001
   6
CONTINUOUS
  62
7
  10
 767.500
  20
 475.000
  30
0.0
  11
 768.795
  21
 482.350
  31
0.0
   0
ARC
   8
LEVEL001
   6
CONTINUOUS
  62
7
  10
 770.765
  20
 482.000
  30
0.0
  40
 2.00000
  50
 89.9960
  51
 169.999
   0
ARC
   8
LEVEL001
   6
CONTINUOUS
  62
7
  10
 798.406
  20
 476.060
  30
0.0
  40
 6.00000
  50
 126.425
  51
 190.001
   0
ARC
   8
LEVEL001
   6
CONTINUOUS
  62
7
  10
 761.594
  20
 476.060
  30
0.0
  40
 6.00000
  50
 350.000
  51
 53.5760
   0
ARC
   8
LEVEL001
   6
CONTINUOUS
  62
7
  10
 780.000
  20
 501.000
  30
0.0
  40
 25.0000
  50
 306.424
  51
 233.576
   0
CIRCLE
   8
LEVEL001
   6
CONTINUOUS
  62
7
  10
 780.000
  20
 501.000
  30
0.0
  40
 15.0000
   0
LINE
   8
LEVEL001
   6
CONTINUOUS
  62
7
  10
 712.602
  20
 362.000
  30
0.0
  11
 719.878
  21
 379.710
  31
0.0
   0
LINE
   8
LEVEL001
   6
CONTINUOUS
  62
7
  10
 693.348
  20
 315.150
  30
0.0
  11
 707.122
  21
 348.660
  31
0.0
   0
LINE
   8
LEVEL001
   6
CONTINUOUS
  62
7
  10
 715.000
  20
 360.720
  30
0.0
  11
 715.251
  21
 360.710
  31
0.0
   0
LINE
   8
LEVEL001
   6
CONTINUOUS
  62
7
  10
 714.116
  20
 361.610
  30
0.0
  11
 715.000
  21
 360.720
  31
0.0
   0
LINE
   8
LEVEL001
   6
CONTINUOUS
  62
7
  10
 715.000
  20
 349.280
  30
0.0
  11
 715.251
  21
 349.290
  31
0.0
   0
LINE
   8
LEVEL001
   6
CONTINUOUS
  62
7
  10
 714.116
  20
 348.390
  30
0.0
  11
 715.000
  21
 349.280
  31
0.0
   0
LINE
   8
LEVEL001
   6
CONTINUOUS
  62
7
  10
 715.332
  20
 361.570
  30
0.0
  11
 714.116
  21
 361.610
  31
0.0
   0
LINE
   8
LEVEL001
   6
CONTINUOUS
  62
7
  10
 714.116
  20
 348.390
  30
0.0
  11
 715.332
  21
 348.430
  31
0.0
   0
ARC
   8
LEVEL001
   6
CONTINUOUS
  62
7
  10
 704.007
  20
 351.500
  30
0.0
  40
 10.1093
  50
 339.744
  51
 20.2560
   0
ARC
   8
LEVEL001
   6
CONTINUOUS
  62
7
  10
 704.007
  20
 358.500
  30
0.0
  40
 10.1093
  50
 339.744
  51
 20.2560
   0
ARC
   8
LEVEL001
   6
CONTINUOUS
  62
7
  10
 699.614
  20
 364.980
  30
0.0
  40
 3.30000
  50
 202.500
  51
 228.418
   0
ARC
   8
LEVEL001
   6
CONTINUOUS
  62
7
  10
 696.893
  20
 361.920
  30
0.0
  40
 0.800000
  50
 357.576
  51
 48.4260
   0
LINE
   8
LEVEL001
   6
CONTINUOUS
  62
7
  10
 704.914
  20
 361.340
  30
0.0
  11
 709.366
  21
 361.340
  31
0.0
   0
LINE
   8
LEVEL001
   6
CONTINUOUS
  62
7
  10
 702.965
  20
 364.440
  30
0.0
  11
 697.641
  21
 362.230
  31
0.0
   0
LINE
   8
LEVEL001
   6
CONTINUOUS
  62
7
  10
 696.363
  20
 366.560
  30
0.0
  11
 698.581
  21
 367.480
  31
0.0
   0
LINE
   8
LEVEL001
   6
CONTINUOUS
  62
7
  10
 696.565
  20
 363.720
  30
0.0
  11
 696.363
  21
 366.560
  31
0.0
   0
LINE
   8
LEVEL001
   6
CONTINUOUS
  62
7
  10
 699.614
  20
 364.980
  30
0.0
  11
 696.565
  21
 363.720
  31
0.0
   0
LINE
   8
LEVEL001
   6
CONTINUOUS
  62
7
  10
 702.663
  20
 366.250
  30
0.0
  11
 699.614
  21
 364.980
  31
0.0
   0
LINE
   8
LEVEL001
   6
CONTINUOUS
  62
7
  10
 700.798
  20
 368.400
  30
0.0
  11
 702.663
  21
 366.250
  31
0.0
   0
LINE
   8
LEVEL001
   6
CONTINUOUS
  62
7
  10
 698.581
  20
 367.480
  30
0.0
  11
 700.798
  21
 368.400
  31
0.0
   0
ARC
   8
LEVEL001
   6
CONTINUOUS
  62
7
  10
 707.224
  20
 368.570
  30
0.0
  40
 6.00000
  50
 227.431
  51
 237.017
   0
ARC
   8
LEVEL001
   6
CONTINUOUS
  62
7
  10
 699.614
  20
 364.980
  30
0.0
  40
 3.30000
  50
 356.582
  51
 22.5000
   0
ARC
   8
LEVEL001
   6
CONTINUOUS
  62
7
  10
 703.321
  20
 356.030
  30
0.0
  40
 6.68738
  50
 94.9120
  51
 130.088
   0
ARC
   8
LEVEL001
   6
CONTINUOUS
  62
7
  10
 705.130
  20
 360.560
  30
0.0
  40
 3.20000
  50
 110.768
  51
 138.098
   0
ARC
   8
LEVEL001
   6
CONTINUOUS
  62
7
  10
 698.676
  20
 367.250
  30
0.0
  40
 1.00000
  50
 36.9770
  51
 188.021
   0
ARC
   8
LEVEL001
   6
CONTINUOUS
  62
7
  10
 703.707
  20
 364.740
  30
0.0
  40
 0.800000
  50
 176.573
  51
 227.428
   0
ARC
   8
LEVEL001
   6
CONTINUOUS
  62
7
  10
 691.698
  20
 362.140
  30
0.0
  40
 6.00000
  50
 347.981
  51
 357.567
   0
LINE
   8
LEVEL001
   6
CONTINUOUS
  62
7
  10
 701.604
  20
 348.660
  30
0.0
  11
 709.366
  21
 348.660
  31
0.0
   0
LINE
   8
LEVEL001
   6
CONTINUOUS
  62
7
  10
 699.694
  20
 359.510
  30
0.0
  11
 699.015
  21
 361.150
  31
0.0
   0
LINE
   8
LEVEL001
   6
CONTINUOUS
  62
7
  10
 703.428
  20
 361.060
  30
0.0
  11
 702.749
  21
 362.700
  31
0.0
   0
LINE
   8
LEVEL001
   6
CONTINUOUS
  62
7
  10
 704.615
  20
 363.470
  30
0.0
  11
 705.295
  21
 361.830
  31
0.0
   0
LINE
   8
LEVEL001
   6
CONTINUOUS
  62
7
  10
 703.996
  20
 363.550
  30
0.0
  11
 704.615
  21
 363.470
  31
0.0
   0
LINE
   8
LEVEL001
   6
CONTINUOUS
  62
7
  10
 697.528
  20
 360.870
  30
0.0
  11
 703.996
  21
 363.550
  31
0.0
   0
LINE
   8
LEVEL001
   6
CONTINUOUS
  62
7
  10
 697.148
  20
 360.380
  30
0.0
  11
 697.528
  21
 360.870
  31
0.0
   0
LINE
   8
LEVEL001
   6
CONTINUOUS
  62
7
  10
 697.827
  20
 358.740
  30
0.0
  11
 697.148
  21
 360.380
  31
0.0
   0
LINE
   8
LEVEL001
   6
CONTINUOUS
  62
7
  10
 698.447
  20
 358.660
  30
0.0
  11
 697.827
  21
 358.740
  31
0.0
   0
LINE
   8
LEVEL001
   6
CONTINUOUS
  62
7
  10
 704.914
  20
 361.340
  30
0.0
  11
 698.447
  21
 358.660
  31
0.0
   0
LINE
   8
LEVEL001
   6
CONTINUOUS
  62
7
  10
 705.295
  20
 361.830
  30
0.0
  11
 704.914
  21
 361.340
  31
0.0
   0
ARC
   8
LEVEL001
   6
CONTINUOUS
  62
7
  10
 707.688
  20
 355.000
  30
0.0
  40
 9.93811
  50
 158.413
  51
 208.731
   0
ARC
   8
LEVEL001
   6
CONTINUOUS
  62
7
  10
 701.604
  20
 351.660
  30
0.0
  40
 3.00000
  50
 208.731
  51
 270.000
   0
ARC
   8
LEVEL001
   6
CONTINUOUS
  62
7
  10
 699.614
  20
 364.980
  30
0.0
  40
 6.43506
  50
 259.551
  51
 325.449
   0
ARC
   8
LEVEL001
   6
CONTINUOUS
  62
7
  10
 699.121
  20
 366.170
  30
0.0
  40
 6.68738
  50
 274.912
  51
 310.088
   0
ARC
   8
LEVEL001
   6
CONTINUOUS
  62
7
  10
 698.842
  20
 357.960
  30
0.0
  40
 3.20000
  50
 86.9030
  51
 114.232
   0
ARC
   8
LEVEL001
   6
CONTINUOUS
  62
7
  10
 697.312
  20
 361.650
  30
0.0
  40
 3.20000
  50
 290.768
  51
 318.098
   0
ARC
   8
LEVEL001
   6
CONTINUOUS
  62
7
  10
 703.601
  20
 364.250
  30
0.0
  40
 3.20000
  50
 266.903
  51
 294.232
   0
LINE
   8
LEVEL001
   6
CONTINUOUS
  62
7
  10
 715.000
  20
 349.280
  30
0.0
  11
 715.000
  21
 360.720
  31
0.0
   0
LINE
   8
LEVEL001
   6
CONTINUOUS
  62
7
  10
 709.750
  20
 362.000
  30
0.0
  11
 709.366
  21
 361.340
  31
0.0
   0
LINE
   8
LEVEL001
   6
CONTINUOUS
  62
7
  10
 714.116
  20
 362.000
  30
0.0
  11
 709.750
  21
 362.000
  31
0.0
   0
LINE
   8
LEVEL001
   6
CONTINUOUS
  62
7
  10
 714.116
  20
 348.000
  30
0.0
  11
 714.116
  21
 362.000
  31
0.0
   0
LINE
   8
LEVEL001
   6
CONTINUOUS
  62
7
  10
 709.750
  20
 348.000
  30
0.0
  11
 714.116
  21
 348.000
  31
0.0
   0
LINE
   8
LEVEL001
   6
CONTINUOUS
  62
7
  10
 713.491
  20
 355.000
  30
0.0
  11
 710.341
  21
 355.000
  31
0.0
   0
LINE
   8
LEVEL001
   6
CONTINUOUS
  62
7
  10
 709.366
  20
 348.660
  30
0.0
  11
 709.366
  21
 361.340
  31
0.0
   0
LINE
   8
LEVEL001
   6
CONTINUOUS
  62
7
  10
 709.750
  20
 362.000
  30
0.0
  11
 709.750
  21
 348.000
  31
0.0
   0
LINE
   8
LEVEL001
   6
CONTINUOUS
  62
7
  10
 709.750
  20
 348.000
  30
0.0
  11
 709.366
  21
 348.660
  31
0.0
   0
ARC
   8
LEVEL001
   6
CONTINUOUS
  62
7
  10
 719.825
  20
 358.500
  30
0.0
  40
 10.1093
  50
 159.744
  51
 200.256
   0
ARC
   8
LEVEL001
   6
CONTINUOUS
  62
7
  10
 719.825
  20
 351.500
  30
0.0
  40
 10.1093
  50
 159.744
  51
 200.256
   0
LINE
   8
LEVEL001
   6
CONTINUOUS
  62
7
  10
 972.500
  20
 215.000
  30
0.0
  11
 827.500
  21
 215.000
  31
0.0
   0
ARC
   8
LEVEL001
   6
CONTINUOUS
  62
7
  10
 737.502
  20
 445.520
  30
0.0
  40
 35.0000
  50
 314.421
  51
 350.948
   0
ARC
   8
LEVEL001
   6
CONTINUOUS
  62
7
  10
 737.502
  20
 445.520
  30
0.0
  40
 35.0000
  50
 350.947
  51
 359.540
   0
ARC
   8
LEVEL001
   6
CONTINUOUS
  62
7
  10
 802.500
  20
 445.000
  30
0.0
  40
 30.0000
  50
 95.7390
  51
 179.541
   0
LINE
   8
LEVEL001
   6
CONTINUOUS
  62
7
  10
 1027.50
  20
 445.000
  30
0.0
  11
 1027.50
  21
 436.670
  31
0.0
   0
ARC
   8
LEVEL001
   6
CONTINUOUS
  62
7
  10
 780.000
  20
 355.000
  30
0.0
  40
 22.4999
  50
 105.466
  51
 74.5340
   0
CIRCLE
   8
LEVEL001
   6
CONTINUOUS
  62
7
  10
 780.000
  20
 355.000
  30
0.0
  40
 29.9999
   0
CIRCLE
   8
LEVEL001
   6
CONTINUOUS
  62
7
  10
 727.500
  20
 355.000
  30
0.0
  40
 5.00000
   0
CIRCLE
   8
LEVEL001
   6
CONTINUOUS
  62
7
  10
 832.500
  20
 355.000
  30
0.0
  40
 5.00000
   0
CIRCLE
   8
LEVEL001
   6
CONTINUOUS
  62
7
  10
 727.500
  20
 355.000
  30
0.0
  40
 4.25000
   0
CIRCLE
   8
LEVEL001
   6
CONTINUOUS
  62
7
  10
 832.500
  20
 355.000
  30
0.0
  40
 4.25000
   0
CIRCLE
   8
LEVEL001
   6
CONTINUOUS
  62
7
  10
 780.000
  20
 355.000
  30
0.0
  40
 63.4999
   0
LINE
   8
LEVEL001
   6
CONTINUOUS
  62
7
  10
 825.466
  20
 324.130
  30
0.0
  11
 829.466
  21
 326.440
  31
0.0
   0
LINE
   8
LEVEL001
   6
CONTINUOUS
  62
7
  10
 821.466
  20
 326.440
  30
0.0
  11
 825.466
  21
 324.130
  31
0.0
   0
LINE
   8
LEVEL001
   6
CONTINUOUS
  62
7
  10
 821.466
  20
 331.060
  30
0.0
  11
 821.466
  21
 326.440
  31
0.0
   0
LINE
   8
LEVEL001
   6
CONTINUOUS
  62
7
  10
 825.466
  20
 333.370
  30
0.0
  11
 821.466
  21
 331.060
  31
0.0
   0
LINE
   8
LEVEL001
   6
CONTINUOUS
  62
7
  10
 829.466
  20
 331.060
  30
0.0
  11
 825.466
  21
 333.370
  31
0.0
   0
LINE
   8
LEVEL001
   6
CONTINUOUS
  62
7
  10
 829.466
  20
 326.440
  30
0.0
  11
 829.466
  21
 331.060
  31
0.0
   0
CIRCLE
   8
LEVEL001
   6
CONTINUOUS
  62
7
  10
 825.466
  20
 328.750
  30
0.0
  40
 7.13397
   0
CIRCLE
   8
LEVEL001
   6
CONTINUOUS
  62
7
  10
 825.466
  20
 328.750
  30
0.0
  40
 8.00000
   0
LINE
   8
LEVEL001
   6
CONTINUOUS
  62
7
  10
 776.000
  20
 300.190
  30
0.0
  11
 780.000
  21
 297.880
  31
0.0
   0
LINE
   8
LEVEL001
   6
CONTINUOUS
  62
7
  10
 776.000
  20
 304.810
  30
0.0
  11
 776.000
  21
 300.190
  31
0.0
   0
LINE
   8
LEVEL001
   6
CONTINUOUS
  62
7
  10
 780.000
  20
 307.120
  30
0.0
  11
 776.000
  21
 304.810
  31
0.0
   0
LINE
   8
LEVEL001
   6
CONTINUOUS
  62
7
  10
 784.000
  20
 304.810
  30
0.0
  11
 780.000
  21
 307.120
  31
0.0
   0
LINE
   8
LEVEL001
   6
CONTINUOUS
  62
7
  10
 784.000
  20
 300.190
  30
0.0
  11
 784.000
  21
 304.810
  31
0.0
   0
LINE
   8
LEVEL001
   6
CONTINUOUS
  62
7
  10
 780.000
  20
 297.880
  30
0.0
  11
 784.000
  21
 300.190
  31
0.0
   0
CIRCLE
   8
LEVEL001
   6
CONTINUOUS
  62
7
  10
 780.000
  20
 302.500
  30
0.0
  40
 7.13397
   0
CIRCLE
   8
LEVEL001
   6
CONTINUOUS
  62
7
  10
 780.000
  20
 302.500
  30
0.0
  40
 8.00000
   0
LINE
   8
LEVEL001
   6
CONTINUOUS
  62
7
  10
 730.534
  20
 331.060
  30
0.0
  11
 730.534
  21
 326.440
  31
0.0
   0
LINE
   8
LEVEL001
   6
CONTINUOUS
  62
7
  10
 734.534
  20
 333.370
  30
0.0
  11
 730.534
  21
 331.060
  31
0.0
   0
LINE
   8
LEVEL001
   6
CONTINUOUS
  62
7
  10
 738.534
  20
 331.060
  30
0.0
  11
 734.534
  21
 333.370
  31
0.0
   0
LINE
   8
LEVEL001
   6
CONTINUOUS
  62
7
  10
 738.534
  20
 326.440
  30
0.0
  11
 738.534
  21
 331.060
  31
0.0
   0
LINE
   8
LEVEL001
   6
CONTINUOUS
  62
7
  10
 734.534
  20
 324.130
  30
0.0
  11
 738.534
  21
 326.440
  31
0.0
   0
LINE
   8
LEVEL001
   6
CONTINUOUS
  62
7
  10
 730.534
  20
 326.440
  30
0.0
  11
 734.534
  21
 324.130
  31
0.0
   0
CIRCLE
   8
LEVEL001
   6
CONTINUOUS
  62
7
  10
 734.534
  20
 328.750
  30
0.0
  40
 7.13397
   0
CIRCLE
   8
LEVEL001
   6
CONTINUOUS
  62
7
  10
 734.534
  20
 328.750
  30
0.0
  40
 8.00000
   0
LINE
   8
LEVEL001
   6
CONTINUOUS
  62
7
  10
 734.534
  20
 385.870
  30
0.0
  11
 730.534
  21
 383.560
  31
0.0
   0
LINE
   8
LEVEL001
   6
CONTINUOUS
  62
7
  10
 738.534
  20
 383.560
  30
0.0
  11
 734.534
  21
 385.870
  31
0.0
   0
LINE
   8
LEVEL001
   6
CONTINUOUS
  62
7
  10
 738.534
  20
 378.940
  30
0.0
  11
 738.534
  21
 383.560
  31
0.0
   0
LINE
   8
LEVEL001
   6
CONTINUOUS
  62
7
  10
 734.534
  20
 376.630
  30
0.0
  11
 738.534
  21
 378.940
  31
0.0
   0
LINE
   8
LEVEL001
   6
CONTINUOUS
  62
7
  10
 730.534
  20
 378.940
  30
0.0
  11
 734.534
  21
 376.630
  31
0.0
   0
LINE
   8
LEVEL001
   6
CONTINUOUS
  62
7
  10
 730.534
  20
 383.560
  30
0.0
  11
 730.534
  21
 378.940
  31
0.0
   0
CIRCLE
   8
LEVEL001
   6
CONTINUOUS
  62
7
  10
 734.534
  20
 381.250
  30
0.0
  40
 7.13397
   0
CIRCLE
   8
LEVEL001
   6
CONTINUOUS
  62
7
  10
 734.534
  20
 381.250
  30
0.0
  40
 8.00000
   0
LINE
   8
LEVEL001
   6
CONTINUOUS
  62
7
  10
 784.000
  20
 409.810
  30
0.0
  11
 780.000
  21
 412.120
  31
0.0
   0
LINE
   8
LEVEL001
   6
CONTINUOUS
  62
7
  10
 784.000
  20
 405.190
  30
0.0
  11
 784.000
  21
 409.810
  31
0.0
   0
LINE
   8
LEVEL001
   6
CONTINUOUS
  62
7
  10
 780.000
  20
 402.880
  30
0.0
  11
 784.000
  21
 405.190
  31
0.0
   0
LINE
   8
LEVEL001
   6
CONTINUOUS
  62
7
  10
 776.000
  20
 405.190
  30
0.0
  11
 780.000
  21
 402.880
  31
0.0
   0
LINE
   8
LEVEL001
   6
CONTINUOUS
  62
7
  10
 776.000
  20
 409.810
  30
0.0
  11
 776.000
  21
 405.190
  31
0.0
   0
LINE
   8
LEVEL001
   6
CONTINUOUS
  62
7
  10
 780.000
  20
 412.120
  30
0.0
  11
 776.000
  21
 409.810
  31
0.0
   0
CIRCLE
   8
LEVEL001
   6
CONTINUOUS
  62
7
  10
 780.000
  20
 407.500
  30
0.0
  40
 7.13397
   0
CIRCLE
   8
LEVEL001
   6
CONTINUOUS
  62
7
  10
 780.000
  20
 407.500
  30
0.0
  40
 8.00000
   0
LINE
   8
LEVEL001
   6
CONTINUOUS
  62
7
  10
 829.466
  20
 378.940
  30
0.0
  11
 829.466
  21
 383.560
  31
0.0
   0
LINE
   8
LEVEL001
   6
CONTINUOUS
  62
7
  10
 825.466
  20
 376.630
  30
0.0
  11
 829.466
  21
 378.940
  31
0.0
   0
LINE
   8
LEVEL001
   6
CONTINUOUS
  62
7
  10
 821.466
  20
 378.940
  30
0.0
  11
 825.466
  21
 376.630
  31
0.0
   0
LINE
   8
LEVEL001
   6
CONTINUOUS
  62
7
  10
 821.466
  20
 383.560
  30
0.0
  11
 821.466
  21
 378.940
  31
0.0
   0
LINE
   8
LEVEL001
   6
CONTINUOUS
  62
7
  10
 825.466
  20
 385.870
  30
0.0
  11
 821.466
  21
 383.560
  31
0.0
   0
LINE
   8
LEVEL001
   6
CONTINUOUS
  62
7
  10
 829.466
  20
 383.560
  30
0.0
  11
 825.466
  21
 385.870
  31
0.0
   0
CIRCLE
   8
LEVEL001
   6
CONTINUOUS
  62
7
  10
 825.466
  20
 381.250
  30
0.0
  40
 7.13397
   0
CIRCLE
   8
LEVEL001
   6
CONTINUOUS
  62
7
  10
 825.466
  20
 381.250
  30
0.0
  40
 8.00000
   0
ARC
   8
LEVEL001
   6
CONTINUOUS
  62
7
  10
 780.000
  20
 355.000
  30
0.0
  40
 65.0003
  50
 115.149
  51
 204.476
   0
CIRCLE
   8
LEVEL001
   6
CONTINUOUS
  62
7
  10
 900.000
  20
 505.000
  30
0.0
  40
 7.13397
   0
CIRCLE
   8
LEVEL001
   6
CONTINUOUS
  62
7
  10
 900.000
  20
 505.000
  30
0.0
  40
 8.00000
   0
CIRCLE
   8
LEVEL001
   6
CONTINUOUS
  62
7
  10
 900.000
  20
 525.000
  30
0.0
  40
 7.13397
   0
CIRCLE
   8
LEVEL001
   6
CONTINUOUS
  62
7
  10
 900.000
  20
 525.000
  30
0.0
  40
 8.00000
   0
LINE
   8
LEVEL001
   6
CONTINUOUS
  62
7
  10
 911.000
  20
 148.500
  30
0.0
  11
 911.000
  21
 185.000
  31
0.0
   0
LINE
   8
LEVEL001
   6
CONTINUOUS
  62
7
  10
 889.000
  20
 148.500
  30
0.0
  11
 889.000
  21
 185.000
  31
0.0
   0
LINE
   8
LEVEL001
   6
CONTINUOUS
  62
7
  10
 819.000
  20
 567.000
  30
0.0
  11
 819.000
  21
 555.000
  31
0.0
   0
LINE
   8
LEVEL001
   6
CONTINUOUS
  62
7
  10
 979.500
  20
 567.000
  30
0.0
  11
 966.500
  21
 567.000
  31
0.0
   0
LINE
   8
LEVEL001
   6
CONTINUOUS
  62
7
  10
 682.780
  20
 301.960
  30
0.0
  11
 646.282
  21
 276.460
  31
0.0
   0
ARC
   8
LEVEL001
   6
CONTINUOUS
  62
7
  10
 665.599
  20
 326.550
  30
0.0
  40
 30.0000
  50
 304.938
  51
 337.661
   0
LINE
   8
LEVEL001
   6
CONTINUOUS
  62
7
  10
 1060.95
  20
 306.540
  30
0.0
  11
 1094.03
  21
 276.210
  31
0.0
   0
LINE
   8
LEVEL001
   6
CONTINUOUS
  62
7
  10
 1027.50
  20
 400.000
  30
0.0
  11
 1052.59
  21
 319.710
  31
0.0
   0
ARC
   8
LEVEL001
   6
CONTINUOUS
  62
7
  10
 1081.23
  20
 328.650
  30
0.0
  40
 30.0000
  50
 197.354
  51
 227.479
   0
LINE
   8
LEVEL001
   6
CONTINUOUS
  62
7
  10
 1027.50
  20
 436.670
  30
0.0
  11
 1027.50
  21
 297.000
  31
0.0
   0
ARC
   8
LEVEL001
   6
CONTINUOUS
  62
7
  10
 1047.50
  20
 297.000
  30
0.0
  40
 20.0000
  50
 180.000
  51
 270.000
   0
LINE
   8
LEVEL001
   6
CONTINUOUS
  62
7
  10
 731.213
  20
 305.290
  30
0.0
  11
 720.841
  21
 328.070
  31
0.0
   0
ARC
   8
LEVEL001
   6
CONTINUOUS
  62
7
  10
 713.010
  20
 297.000
  30
0.0
  40
 20.0000
  50
 270.000
  51
 24.4760
   0
ARC
   8
LEVEL001
   6
CONTINUOUS
  62
7
  10
 1092.00
  20
 274.000
  30
0.0
  40
 3.00000
  50
0.0
  51
 90.0010
   0
LINE
   8
LEVEL001
   6
CONTINUOUS
  62
7
  10
 645.000
  20
 274.000
  30
0.0
  11
 645.000
  21
 240.000
  31
0.0
   0
ARC
   8
LEVEL001
   6
CONTINUOUS
  62
7
  10
 648.000
  20
 274.000
  30
0.0
  40
 3.00000
  50
 90.0010
  51
 180.001
   0
LINE
   8
LEVEL001
   6
CONTINUOUS
  62
7
  10
 830.000
  20
 212.500
  30
0.0
  11
 830.000
  21
 187.000
  31
0.0
   0
LINE
   8
LEVEL001
   6
CONTINUOUS
  62
7
  10
 970.000
  20
 212.500
  30
0.0
  11
 970.000
  21
 187.000
  31
0.0
   0
LINE
   8
LEVEL001
   6
CONTINUOUS
  62
7
  10
 827.500
  20
 236.000
  30
0.0
  11
 827.500
  21
 215.000
  31
0.0
   0
ARC
   8
LEVEL001
   6
CONTINUOUS
  62
7
  10
 827.500
  20
 212.500
  30
0.0
  40
 2.50000
  50
 359.996
  51
 90.0000
   0
LINE
   8
LEVEL001
   6
CONTINUOUS
  62
7
  10
 972.500
  20
 236.000
  30
0.0
  11
 972.500
  21
 215.000
  31
0.0
   0
ARC
   8
LEVEL001
   6
CONTINUOUS
  62
7
  10
 972.500
  20
 212.500
  30
0.0
  40
 2.50000
  50
 90.0000
  51
 180.003
   0
ARC
   8
LEVEL001
   6
CONTINUOUS
  62
7
  10
 832.000
  20
 187.000
  30
0.0
  40
 2.00000
  50
 180.001
  51
 270.000
   0
ARC
   8
LEVEL001
   6
CONTINUOUS
  62
7
  10
 968.000
  20
 187.000
  30
0.0
  40
 2.00000
  50
 270.001
  51
 0.127019E-9
   0
ARC
   8
LEVEL001
   6
CONTINUOUS
  62
7
  10
 737.502
  20
 445.520
  30
0.0
  40
 35.0000
  50
 295.149
  51
 314.421
   0
LINE
   8
LEVEL001
   6
CONTINUOUS
  62
7
  10
 765.000
  20
 475.000
  30
0.0
  11
 765.000
  21
 427.660
  31
0.0
   0
ARC
   8
LEVEL001
   6
CONTINUOUS
  62
7
  10
 755.000
  20
 427.660
  30
0.0
  40
 10.0000
  50
 314.421
  51
 0.172615E-10
   0
LINE
   8
LEVEL001
   6
CONTINUOUS
  62
7
  10
 1033.00
  20
 447.330
  30
0.0
  11
 1029.50
  21
 442.670
  31
0.0
   0
ARC
   8
LEVEL001
   6
CONTINUOUS
  62
7
  10
 1037.50
  20
 436.670
  30
0.0
  40
 10.0000
  50
 143.130
  51
 180.001
   0
LINE
   8
LEVEL001
   6
CONTINUOUS
  62
7
  10
 1035.00
  20
 475.000
  30
0.0
  11
 1035.00
  21
 453.330
  31
0.0
   0
ARC
   8
LEVEL001
   6
CONTINUOUS
  62
7
  10
 1025.00
  20
 453.330
  30
0.0
  40
 10.0000
  50
 323.130
  51
 0.600000E-3
   0
ARC
   8
LEVEL001
   6
CONTINUOUS
  62
7
  10
 1020.00
  20
 501.000
  30
0.0
  40
 25.0000
  50
 306.424
  51
 233.576
   0
LINE
   8
LEVEL001
   6
CONTINUOUS
  62
7
  10
 1020.00
  20
 486.000
  30
0.0
  11
 1010.35
  21
 483.960
  31
0.0
   0
LINE
   8
LEVEL001
   6
CONTINUOUS
  62
7
  10
 1020.00
  20
 486.000
  30
0.0
  11
 1029.65
  21
 483.960
  31
0.0
   0
LINE
   8
LEVEL001
   6
CONTINUOUS
  62
7
  10
 1007.50
  20
 475.000
  30
0.0
  11
 1008.80
  21
 482.350
  31
0.0
   0
LINE
   8
LEVEL001
   6
CONTINUOUS
  62
7
  10
 1010.77
  20
 484.000
  30
0.0
  11
 1029.23
  21
 484.000
  31
0.0
   0
ARC
   8
LEVEL001
   6
CONTINUOUS
  62
7
  10
 1010.77
  20
 482.000
  30
0.0
  40
 2.00000
  50
 89.9960
  51
 169.999
   0
LINE
   8
LEVEL001
   6
CONTINUOUS
  62
7
  10
 1032.50
  20
 475.000
  30
0.0
  11
 1031.20
  21
 482.350
  31
0.0
   0
ARC
   8
LEVEL001
   6
CONTINUOUS
  62
7
  10
 1029.23
  20
 482.000
  30
0.0
  40
 2.00000
  50
 10.0010
  51
 90.0040
   0
ARC
   8
LEVEL001
   6
CONTINUOUS
  62
7
  10
 1001.59
  20
 476.060
  30
0.0
  40
 6.00000
  50
 349.999
  51
 53.5750
   0
ARC
   8
LEVEL001
   6
CONTINUOUS
  62
7
  10
 1038.41
  20
 476.060
  30
0.0
  40
 6.00000
  50
 126.424
  51
 190.000
   0
CIRCLE
   8
LEVEL001
   6
CONTINUOUS
  62
7
  10
 1020.00
  20
 501.000
  30
0.0
  40
 15.0000
   0
LINE
   8
LEVEL001
   6
CONTINUOUS
  62
7
  10
 1035.00
  20
 475.000
  30
0.0
  11
 1032.50
  21
 475.000
  31
0.0
   0
LINE
   8
LEVEL001
   6
CONTINUOUS
  62
7
  10
 1007.50
  20
 475.000
  30
0.0
  11
 1000.50
  21
 475.000
  31
0.0
   0
ARC
   8
LEVEL001
   6
CONTINUOUS
  62
7
  10
 1002.50
  20
 494.750
  30
0.0
  40
 20.0000
  50
 180.000
  51
 264.261
   0
LINE
   8
LEVEL001
   6
CONTINUOUS
  62
7
  10
 817.500
  20
 554.000
  30
0.0
  11
 817.500
  21
 494.750
  31
0.0
   0
LINE
   8
LEVEL001
   6
CONTINUOUS
  62
7
  10
 818.500
  20
 555.000
  30
0.0
  11
 817.500
  21
 554.000
  31
0.0
   0
ARC
   8
LEVEL001
   6
CONTINUOUS
  62
7
  10
 797.500
  20
 494.750
  30
0.0
  40
 20.0000
  50
 275.739
  51
 0.569955E-11
   0
LINE
   8
LEVEL001
   6
CONTINUOUS
  62
7
  10
 981.500
  20
 555.000
  30
0.0
  11
 982.500
  21
 554.000
  31
0.0
   0
LINE
   8
LEVEL001
   6
CONTINUOUS
  62
7
  10
 940.000
  20
 71.5000
  30
0.0
  11
 860.000
  21
 71.5000
  31
0.0
   0
LINE
   8
LEVEL001
   6
CONTINUOUS
  62
7
  10
 889.000
  20
 150.000
  30
0.0
  11
 856.000
  21
 150.000
  31
0.0
   0
ARC
   8
LEVEL001
   6
CONTINUOUS
  62
7
  10
 856.000
  20
 151.000
  30
0.0
  40
 1.00000
  50
 179.997
  51
 270.003
   0
LINE
   8
LEVEL001
   6
CONTINUOUS
  62
7
  10
 940.000
  20
 145.000
  30
0.0
  11
 860.000
  21
 145.000
  31
0.0
   0
LINE
   8
LEVEL001
   6
CONTINUOUS
  62
7
  10
 938.500
  20
 70.0000
  30
0.0
  11
 861.500
  21
 70.0000
  31
0.0
   0
LINE
   8
LEVEL001
   6
CONTINUOUS
  62
7
  10
 860.000
  20
 71.5000
  30
0.0
  11
 860.000
  21
 145.000
  31
0.0
   0
LINE
   8
LEVEL001
   6
CONTINUOUS
  62
7
  10
 861.500
  20
 70.0000
  30
0.0
  11
 860.000
  21
 71.5000
  31
0.0
   0
LINE
   8
LEVEL001
   6
CONTINUOUS
  62
7
  10
 861.500
  20
 70.0000
  30
0.0
  11
 861.500
  21
 146.500
  31
0.0
   0
LINE
   8
LEVEL001
   6
CONTINUOUS
  62
7
  10
 861.500
  20
 146.500
  30
0.0
  11
 861.500
  21
 148.500
  31
0.0
   0
ARC
   8
LEVEL001
   6
CONTINUOUS
  62
7
  10
 860.000
  20
 148.500
  30
0.0
  40
 1.50000
  50
 359.996
  51
 89.9980
   0
ARC
   8
LEVEL001
   6
CONTINUOUS
  62
7
  10
 860.000
  20
 146.500
  30
0.0
  40
 1.50000
  50
 270.002
  51
 359.998
   0
LINE
   8
LEVEL001
   6
CONTINUOUS
  62
7
  10
 944.000
  20
 150.000
  30
0.0
  11
 911.000
  21
 150.000
  31
0.0
   0
ARC
   8
LEVEL001
   6
CONTINUOUS
  62
7
  10
 944.000
  20
 151.000
  30
0.0
  40
 1.00000
  50
 269.997
  51
 0.350000E-2
   0
LINE
   8
LEVEL001
   6
CONTINUOUS
  62
7
  10
 911.000
  20
 148.500
  30
0.0
  11
 889.000
  21
 148.500
  31
0.0
   0
LINE
   8
LEVEL001
   6
CONTINUOUS
  62
7
  10
 938.500
  20
 70.0000
  30
0.0
  11
 938.500
  21
 146.500
  31
0.0
   0
LINE
   8
LEVEL001
   6
CONTINUOUS
  62
7
  10
 938.500
  20
 146.500
  30
0.0
  11
 938.500
  21
 148.500
  31
0.0
   0
ARC
   8
LEVEL001
   6
CONTINUOUS
  62
7
  10
 940.000
  20
 148.500
  30
0.0
  40
 1.50000
  50
 90.0020
  51
 180.003
   0
ARC
   8
LEVEL001
   6
CONTINUOUS
  62
7
  10
 940.000
  20
 146.500
  30
0.0
  40
 1.50000
  50
 180.002
  51
 269.998
   0
LINE
   8
LEVEL001
   6
CONTINUOUS
  62
7
  10
 940.000
  20
 71.5000
  30
0.0
  11
 940.000
  21
 145.000
  31
0.0
   0
LINE
   8
LEVEL001
   6
CONTINUOUS
  62
7
  10
 938.500
  20
 70.0000
  30
0.0
  11
 940.000
  21
 71.5000
  31
0.0
   0
LINE
   8
LEVEL001
   6
CONTINUOUS
  62
7
  10
 840.000
  20
 970.500
  30
0.0
  11
 842.500
  21
 975.000
  31
0.0
   0
LINE
   8
LEVEL001
   6
CONTINUOUS
  62
7
  10
 896.000
  20
 527.309
  30
0.0
  11
 900.000
  21
 529.619
  31
0.0
   0
LINE
   8
LEVEL001
   6
CONTINUOUS
  62
7
  10
 896.000
  20
 522.691
  30
0.0
  11
 896.000
  21
 527.309
  31
0.0
   0
LINE
   8
LEVEL001
   6
CONTINUOUS
  62
7
  10
 900.000
  20
 520.381
  30
0.0
  11
 896.000
  21
 522.691
  31
0.0
   0
LINE
   8
LEVEL001
   6
CONTINUOUS
  62
7
  10
 904.000
  20
 522.691
  30
0.0
  11
 900.000
  21
 520.381
  31
0.0
   0
LINE
   8
LEVEL001
   6
CONTINUOUS
  62
7
  10
 904.000
  20
 527.309
  30
0.0
  11
 904.000
  21
 522.691
  31
0.0
   0
LINE
   8
LEVEL001
   6
CONTINUOUS
  62
7
  10
 900.000
  20
 529.619
  30
0.0
  11
 904.000
  21
 527.309
  31
0.0
   0
LINE
   8
LEVEL001
   6
CONTINUOUS
  62
7
  10
 896.000
  20
 507.309
  30
0.0
  11
 900.000
  21
 509.619
  31
0.0
   0
LINE
   8
LEVEL001
   6
CONTINUOUS
  62
7
  10
 896.000
  20
 502.691
  30
0.0
  11
 896.000
  21
 507.309
  31
0.0
   0
LINE
   8
LEVEL001
   6
CONTINUOUS
  62
7
  10
 900.000
  20
 500.381
  30
0.0
  11
 896.000
  21
 502.691
  31
0.0
   0
LINE
   8
LEVEL001
   6
CONTINUOUS
  62
7
  10
 904.000
  20
 502.691
  30
0.0
  11
 900.000
  21
 500.381
  31
0.0
   0
LINE
   8
LEVEL001
   6
CONTINUOUS
  62
7
  10
 904.000
  20
 507.309
  30
0.0
  11
 904.000
  21
 502.691
  31
0.0
   0
LINE
   8
LEVEL001
   6
CONTINUOUS
  62
7
  10
 900.000
  20
 509.619
  30
0.0
  11
 904.000
  21
 507.309
  31
0.0
   0
LINE
   8
LEVEL001
   6
CONTINUOUS
  62
7
  10
 289.757
  20
 975.000
  30
0.0
  11
 290.656
  21
 975.900
  31
0.0
   0
LINE
   8
LEVEL001
   6
CONTINUOUS
  62
7
  10
 309.340
  20
 975.900
  30
0.0
  11
 310.242
  21
 975.000
  31
0.0
   0
LINE
   8
LEVEL001
   6
CONTINUOUS
  62
7
  10
 290.684
  20
 975.000
  30
0.0
  11
 290.656
  21
 975.900
  31
0.0
   0
LINE
   8
LEVEL001
   6
CONTINUOUS
  62
7
  10
 309.312
  20
 975.000
  30
0.0
  11
 309.340
  21
 975.900
  31
0.0
   0
LINE
   8
LEVEL001
   6
CONTINUOUS
  62
7
  10
 290.656
  20
 975.900
  30
0.0
  11
 309.340
  21
 975.900
  31
0.0
   0
LINE
   8
LEVEL001
   6
CONTINUOUS
  62
7
  10
 232.000
  20
 185.000
  30
0.0
  11
 368.000
  21
 185.000
  31
0.0
   0
ARC
   8
LEVEL001
   6
CONTINUOUS
  62
7
  10
 397.500
  20
 445.000
  30
0.0
  40
 30.0000
  50
0.0
  51
 90.0000
   0
LINE
   8
LEVEL001
   6
CONTINUOUS
  62
7
  10
 382.500
  20
 554.000
  30
0.0
  11
 382.500
  21
 494.750
  31
0.0
   0
LINE
   8
LEVEL001
   6
CONTINUOUS
  62
7
  10
 381.500
  20
 555.000
  30
0.0
  11
 218.500
  21
 555.000
  31
0.0
   0
LINE
   8
LEVEL001
   6
CONTINUOUS
  62
7
  10
 381.000
  20
 561.000
  30
0.0
  11
 219.000
  21
 561.000
  31
0.0
   0
LINE
   8
LEVEL001
   6
CONTINUOUS
  62
7
  10
 381.000
  20
 567.000
  30
0.0
  11
 381.000
  21
 555.000
  31
0.0
   0
LINE
   8
LEVEL001
   6
CONTINUOUS
  62
7
  10
 219.000
  20
 567.000
  30
0.0
  11
 381.000
  21
 567.000
  31
0.0
   0
LINE
   8
LEVEL001
   6
CONTINUOUS
  62
7
  10
 360.000
  20
 567.000
  30
0.0
  11
 360.000
  21
 970.500
  31
0.0
   0
LINE
   8
LEVEL001
   6
CONTINUOUS
  62
7
  10
 360.000
  20
 970.500
  30
0.0
  11
 357.500
  21
 975.000
  31
0.0
   0
LINE
   8
LEVEL001
   6
CONTINUOUS
  62
7
  10
 357.500
  20
 975.000
  30
0.0
  11
 242.500
  21
 975.000
  31
0.0
   0
LINE
   8
LEVEL001
   6
CONTINUOUS
  62
7
  10
 360.000
  20
 970.500
  30
0.0
  11
 240.000
  21
 970.500
  31
0.0
   0
LINE
   8
LEVEL001
   6
CONTINUOUS
  62
7
  10
 240.000
  20
 567.000
  30
0.0
  11
 240.000
  21
 970.500
  31
0.0
   0
ARC
   8
LEVEL001
   6
CONTINUOUS
  62
7
  10
 222.500
  20
 236.000
  30
0.0
  40
 5.00000
  50
 0.227982E-11
  51
 53.1290
   0
ARC
   8
LEVEL001
   6
CONTINUOUS
  62
7
  10
 377.500
  20
 236.000
  30
0.0
  40
 5.00000
  50
 126.871
  51
 180.000
   0
LINE
   8
LEVEL001
   6
CONTINUOUS
  62
7
  10
 372.500
  20
 215.000
  30
0.0
  11
 227.500
  21
 215.000
  31
0.0
   0
ARC
   8
LEVEL001
   6
CONTINUOUS
  62
7
  10
 202.500
  20
 445.000
  30
0.0
  40
 30.0000
  50
 95.7390
  51
 179.541
   0
LINE
   8
LEVEL001
   6
CONTINUOUS
  62
7
  10
 219.000
  20
 567.000
  30
0.0
  11
 219.000
  21
 555.000
  31
0.0
   0
LINE
   8
LEVEL001
   6
CONTINUOUS
  62
7
  10
 379.500
  20
 567.000
  30
0.0
  11
 366.500
  21
 567.000
  31
0.0
   0
LINE
   8
LEVEL001
   6
CONTINUOUS
  62
7
  10
 230.000
  20
 212.500
  30
0.0
  11
 230.000
  21
 187.000
  31
0.0
   0
LINE
   8
LEVEL001
   6
CONTINUOUS
  62
7
  10
 370.000
  20
 212.500
  30
0.0
  11
 370.000
  21
 187.000
  31
0.0
   0
LINE
   8
LEVEL001
   6
CONTINUOUS
  62
7
  10
 227.500
  20
 236.000
  30
0.0
  11
 227.500
  21
 215.000
  31
0.0
   0
ARC
   8
LEVEL001
   6
CONTINUOUS
  62
7
  10
 227.500
  20
 212.500
  30
0.0
  40
 2.50000
  50
 359.996
  51
 90.0000
   0
LINE
   8
LEVEL001
   6
CONTINUOUS
  62
7
  10
 372.500
  20
 236.000
  30
0.0
  11
 372.500
  21
 215.000
  31
0.0
   0
ARC
   8
LEVEL001
   6
CONTINUOUS
  62
7
  10
 372.500
  20
 212.500
  30
0.0
  40
 2.50000
  50
 90.0000
  51
 180.003
   0
ARC
   8
LEVEL001
   6
CONTINUOUS
  62
7
  10
 232.000
  20
 187.000
  30
0.0
  40
 2.00000
  50
 180.001
  51
 270.000
   0
ARC
   8
LEVEL001
   6
CONTINUOUS
  62
7
  10
 368.000
  20
 187.000
  30
0.0
  40
 2.00000
  50
 270.001
  51
 0.602524E-10
   0
ARC
   8
LEVEL001
   6
CONTINUOUS
  62
7
  10
 402.500
  20
 494.750
  30
0.0
  40
 20.0000
  50
 180.000
  51
 264.261
   0
LINE
   8
LEVEL001
   6
CONTINUOUS
  62
7
  10
 217.500
  20
 554.000
  30
0.0
  11
 217.500
  21
 494.750
  31
0.0
   0
LINE
   8
LEVEL001
   6
CONTINUOUS
  62
7
  10
 218.500
  20
 555.000
  30
0.0
  11
 217.500
  21
 554.000
  31
0.0
   0
ARC
   8
LEVEL001
   6
CONTINUOUS
  62
7
  10
 197.500
  20
 494.750
  30
0.0
  40
 20.0000
  50
 275.739
  51
 0.814222E-12
   0
LINE
   8
LEVEL001
   6
CONTINUOUS
  62
7
  10
 381.500
  20
 555.000
  30
0.0
  11
 382.500
  21
 554.000
  31
0.0
   0
LINE
   8
LEVEL001
   6
CONTINUOUS
  62
7
  10
 340.000
  20
 71.5000
  30
0.0
  11
 260.000
  21
 71.5000
  31
0.0
   0
ARC
   8
LEVEL001
   6
CONTINUOUS
  62
7
  10
 256.000
  20
 151.000
  30
0.0
  40
 1.00000
  50
 179.997
  51
 270.003
   0
LINE
   8
LEVEL001
   6
CONTINUOUS
  62
7
  10
 340.000
  20
 145.000
  30
0.0
  11
 260.000
  21
 145.000
  31
0.0
   0
LINE
   8
LEVEL001
   6
CONTINUOUS
  62
7
  10
 338.500
  20
 70.0000
  30
0.0
  11
 261.500
  21
 70.0000
  31
0.0
   0
LINE
   8
LEVEL001
   6
CONTINUOUS
  62
7
  10
 260.000
  20
 71.5000
  30
0.0
  11
 260.000
  21
 145.000
  31
0.0
   0
LINE
   8
LEVEL001
   6
CONTINUOUS
  62
7
  10
 261.500
  20
 70.0000
  30
0.0
  11
 260.000
  21
 71.5000
  31
0.0
   0
LINE
   8
LEVEL001
   6
CONTINUOUS
  62
7
  10
 261.500
  20
 70.0000
  30
0.0
  11
 261.500
  21
 146.500
  31
0.0
   0
LINE
   8
LEVEL001
   6
CONTINUOUS
  62
7
  10
 261.500
  20
 146.500
  30
0.0
  11
 261.500
  21
 148.500
  31
0.0
   0
ARC
   8
LEVEL001
   6
CONTINUOUS
  62
7
  10
 260.000
  20
 148.500
  30
0.0
  40
 1.50000
  50
 359.997
  51
 89.9980
   0
ARC
   8
LEVEL001
   6
CONTINUOUS
  62
7
  10
 260.000
  20
 146.500
  30
0.0
  40
 1.50000
  50
 270.002
  51
 359.998
   0
ARC
   8
LEVEL001
   6
CONTINUOUS
  62
7
  10
 344.000
  20
 151.000
  30
0.0
  40
 1.00000
  50
 269.997
  51
 0.350000E-2
   0
LINE
   8
LEVEL001
   6
CONTINUOUS
  62
7
  10
 338.500
  20
 70.0000
  30
0.0
  11
 338.500
  21
 146.500
  31
0.0
   0
LINE
   8
LEVEL001
   6
CONTINUOUS
  62
7
  10
 338.500
  20
 146.500
  30
0.0
  11
 338.500
  21
 148.500
  31
0.0
   0
ARC
   8
LEVEL001
   6
CONTINUOUS
  62
7
  10
 340.000
  20
 148.500
  30
0.0
  40
 1.50000
  50
 90.0020
  51
 180.003
   0
ARC
   8
LEVEL001
   6
CONTINUOUS
  62
7
  10
 340.000
  20
 146.500
  30
0.0
  40
 1.50000
  50
 180.002
  51
 269.998
   0
LINE
   8
LEVEL001
   6
CONTINUOUS
  62
7
  10
 340.000
  20
 71.5000
  30
0.0
  11
 340.000
  21
 145.000
  31
0.0
   0
LINE
   8
LEVEL001
   6
CONTINUOUS
  62
7
  10
 338.500
  20
 70.0000
  30
0.0
  11
 340.000
  21
 71.5000
  31
0.0
   0
LINE
   8
LEVEL001
   6
CONTINUOUS
  62
7
  10
 240.000
  20
 970.500
  30
0.0
  11
 242.500
  21
 975.000
  31
0.0
   0
ARC
   8
LEVEL001
   6
CONTINUOUS
  62
7
  10
 780.000
  20
 355.000
  30
0.0
  40
 19.0000
  50
 108.562
  51
 72.5424
   0
ARC
   8
LEVEL001
   6
CONTINUOUS
  62
7
  10
 149.000
  20
 416.501
  30
0.0
  40
 2.00000
  50
 90.0000
  51
 180.000
   0
LINE
   8
LEVEL001
   6
CONTINUOUS
  62
7
  10
 165.250
  20
 418.501
  30
0.0
  11
 149.000
  21
 418.501
  31
0.0
   0
LINE
   8
LEVEL001
   6
CONTINUOUS
  62
7
  10
 165.250
  20
 291.501
  30
0.0
  11
 149.000
  21
 291.501
  31
0.0
   0
ARC
   8
LEVEL001
   6
CONTINUOUS
  62
7
  10
 149.000
  20
 293.501
  30
0.0
  40
 2.00000
  50
 180.001
  51
 270.001
   0
LINE
   8
LEVEL001
   6
CONTINUOUS
  62
7
  10
 165.450
  20
 292.497
  30
0.0
  11
 165.450
  21
 417.504
  31
0.0
   0
LINE
   8
LEVEL001
   6
CONTINUOUS
  62
7
  10
 147.000
  20
 293.501
  30
0.0
  11
 147.000
  21
 416.501
  31
0.0
   0
LINE
   8
LEVEL001
   6
CONTINUOUS
  62
7
  10
 165.250
  20
 418.501
  30
0.0
  11
 165.250
  21
 291.501
  31
0.0
   0
LINE
   8
LEVEL001
   6
CONTINUOUS
  62
7
  10
 434.550
  20
 292.496
  30
0.0
  11
 434.550
  21
 417.504
  31
0.0
   0
LINE
   8
LEVEL001
   6
CONTINUOUS
  62
7
  10
 453.000
  20
 293.500
  30
0.0
  11
 453.000
  21
 416.500
  31
0.0
   0
LINE
   8
LEVEL001
   6
CONTINUOUS
  62
7
  10
 434.750
  20
 418.500
  30
0.0
  11
 434.750
  21
 291.500
  31
0.0
   0
ARC
   8
LEVEL001
   6
CONTINUOUS
  62
7
  10
 451.000
  20
 416.500
  30
0.0
  40
 2.00000
  50
 1.00000E-3
  51
 90.0000
   0
LINE
   8
LEVEL001
   6
CONTINUOUS
  62
7
  10
 434.750
  20
 418.500
  30
0.0
  11
 451.000
  21
 418.500
  31
0.0
   0
LINE
   8
LEVEL001
   6
CONTINUOUS
  62
7
  10
 434.750
  20
 291.500
  30
0.0
  11
 451.000
  21
 291.500
  31
0.0
   0
ARC
   8
LEVEL001
   6
CONTINUOUS
  62
7
  10
 451.000
  20
 293.500
  30
0.0
  40
 2.00000
  50
 269.999
  51
 0.537387E-10
   0
LINE
   8
LEVEL001
   6
CONTINUOUS
  62
7
  10
 200.652
  20
 475.000
  30
0.0
  11
 397.500
  21
 475.000
  31
0.0
   0
LINE
   8
LEVEL001
   6
CONTINUOUS
  62
7
  10
 453.000
  20
 332.499
  30
0.0
  11
 458.000
  21
 332.499
  31
0.0
   0
LINE
   8
LEVEL001
   6
CONTINUOUS
  62
7
  10
 453.000
  20
 377.499
  30
0.0
  11
 458.000
  21
 377.499
  31
0.0
   0
LINE
   8
LEVEL001
   6
CONTINUOUS
  62
7
  10
 458.000
  20
 377.499
  30
0.0
  11
 458.000
  21
 332.499
  31
0.0
   0
LINE
   8
LEVEL001
   6
CONTINUOUS
  62
7
  10
 147.000
  20
 332.500
  30
0.0
  11
 142.000
  21
 332.500
  31
0.0
   0
LINE
   8
LEVEL001
   6
CONTINUOUS
  62
7
  10
 147.000
  20
 377.500
  30
0.0
  11
 142.000
  21
 377.500
  31
0.0
   0
LINE
   8
LEVEL001
   6
CONTINUOUS
  62
7
  10
 132.000
  20
 335.000
  30
0.0
  11
 51.0000
  21
 335.000
  31
0.0
   0
LINE
   8
LEVEL001
   6
CONTINUOUS
  62
7
  10
 51.0000
  20
 335.000
  30
0.0
  11
 50.0000
  21
 336.000
  31
0.0
   0
LINE
   8
LEVEL001
   6
CONTINUOUS
  62
7
  10
 142.000
  20
 332.500
  30
0.0
  11
 132.000
  21
 335.000
  31
0.0
   0
LINE
   8
LEVEL001
   6
CONTINUOUS
  62
7
  10
 142.000
  20
 377.500
  30
0.0
  11
 142.000
  21
 332.500
  31
0.0
   0
LINE
   8
LEVEL001
   6
CONTINUOUS
  62
7
  10
 50.0000
  20
 378.000
  30
0.0
  11
 120.000
  21
 378.000
  31
0.0
   0
LINE
   8
LEVEL001
   6
CONTINUOUS
  62
7
  10
 51.0000
  20
 374.079
  30
0.0
  11
 50.0000
  21
 373.028
  31
0.0
   0
LINE
   8
LEVEL001
   6
CONTINUOUS
  62
7
  10
 50.0000
  20
 373.028
  30
0.0
  11
 50.0000
  21
 336.000
  31
0.0
   0
LINE
   8
LEVEL001
   6
CONTINUOUS
  62
7
  10
 50.0000
  20
 378.000
  30
0.0
  11
 50.0000
  21
 373.028
  31
0.0
   0
LINE
   8
LEVEL001
   6
CONTINUOUS
  62
7
  10
 120.000
  20
 378.000
  30
0.0
  11
 120.000
  21
 374.079
  31
0.0
   0
LINE
   8
LEVEL001
   6
CONTINUOUS
  62
7
  10
 142.000
  20
 377.500
  30
0.0
  11
 132.000
  21
 374.079
  31
0.0
   0
LINE
   8
LEVEL001
   6
CONTINUOUS
  62
7
  10
 132.000
  20
 374.079
  30
0.0
  11
 132.000
  21
 335.000
  31
0.0
   0
LINE
   8
LEVEL001
   6
CONTINUOUS
  62
7
  10
 51.0000
  20
 374.079
  30
0.0
  11
 132.000
  21
 374.079
  31
0.0
   0
LINE
   8
LEVEL001
   6
CONTINUOUS
  62
7
  10
 51.0000
  20
 374.079
  30
0.0
  11
 51.0000
  21
 335.000
  31
0.0
   0
LINE
   8
LEVEL001
   6
CONTINUOUS
  62
7
  10
 468.000
  20
 335.000
  30
0.0
  11
 549.000
  21
 335.000
  31
0.0
   0
LINE
   8
LEVEL001
   6
CONTINUOUS
  62
7
  10
 549.000
  20
 335.000
  30
0.0
  11
 550.000
  21
 336.000
  31
0.0
   0
LINE
   8
LEVEL001
   6
CONTINUOUS
  62
7
  10
 458.000
  20
 332.500
  30
0.0
  11
 468.000
  21
 335.000
  31
0.0
   0
LINE
   8
LEVEL001
   6
CONTINUOUS
  62
7
  10
 550.000
  20
 378.000
  30
0.0
  11
 480.000
  21
 378.000
  31
0.0
   0
LINE
   8
LEVEL001
   6
CONTINUOUS
  62
7
  10
 549.000
  20
 374.079
  30
0.0
  11
 550.000
  21
 373.028
  31
0.0
   0
LINE
   8
LEVEL001
   6
CONTINUOUS
  62
7
  10
 550.000
  20
 373.028
  30
0.0
  11
 550.000
  21
 336.000
  31
0.0
   0
LINE
   8
LEVEL001
   6
CONTINUOUS
  62
7
  10
 550.000
  20
 378.000
  30
0.0
  11
 550.000
  21
 373.028
  31
0.0
   0
LINE
   8
LEVEL001
   6
CONTINUOUS
  62
7
  10
 480.000
  20
 378.000
  30
0.0
  11
 480.000
  21
 374.079
  31
0.0
   0
LINE
   8
LEVEL001
   6
CONTINUOUS
  62
7
  10
 458.000
  20
 377.500
  30
0.0
  11
 468.000
  21
 374.079
  31
0.0
   0
LINE
   8
LEVEL001
   6
CONTINUOUS
  62
7
  10
 468.000
  20
 374.079
  30
0.0
  11
 468.000
  21
 335.000
  31
0.0
   0
LINE
   8
LEVEL001
   6
CONTINUOUS
  62
7
  10
 549.000
  20
 374.079
  30
0.0
  11
 468.000
  21
 374.079
  31
0.0
   0
LINE
   8
LEVEL001
   6
CONTINUOUS
  62
7
  10
 549.000
  20
 374.079
  30
0.0
  11
 549.000
  21
 335.000
  31
0.0
   0
LINE
   8
LEVEL001
   6
CONTINUOUS
  62
7
  10
 435.000
  20
 277.000
  30
0.0
  11
 435.000
  21
 240.000
  31
0.0
   0
LINE
   8
LEVEL001
   6
CONTINUOUS
  62
7
  10
 165.000
  20
 277.000
  30
0.0
  11
 165.000
  21
 240.000
  31
0.0
   0
LINE
   8
LEVEL001
   6
CONTINUOUS
  62
7
  10
 435.000
  20
 240.000
  30
0.0
  11
 165.000
  21
 240.000
  31
0.0
   0
LINE
   8
LEVEL001
   6
CONTINUOUS
  62
7
  10
 427.500
  20
 445.000
  30
0.0
  11
 427.500
  21
 417.636
  31
0.0
   0
LINE
   8
LEVEL001
   6
CONTINUOUS
  62
7
  10
 172.500
  20
 445.000
  30
0.0
  11
 172.500
  21
 417.636
  31
0.0
   0
LINE
   8
LEVEL001
   6
CONTINUOUS
  62
7
  10
 287.500
  20
 475.000
  30
0.0
  11
 288.800
  21
 482.350
  31
0.0
   0
ARC
   8
LEVEL001
   6
CONTINUOUS
  62
7
  10
 290.770
  20
 482.000
  30
0.0
  40
 2.00000
  50
 89.9960
  51
 169.999
   0
LINE
   8
LEVEL001
   6
CONTINUOUS
  62
7
  10
 312.500
  20
 475.000
  30
0.0
  11
 311.200
  21
 482.350
  31
0.0
   0
ARC
   8
LEVEL001
   6
CONTINUOUS
  62
7
  10
 309.230
  20
 482.000
  30
0.0
  40
 2.00000
  50
 10.0010
  51
 90.0040
   0
ARC
   8
LEVEL001
   6
CONTINUOUS
  62
7
  10
 300.000
  20
 521.000
  30
0.0
  40
 5.00000
  50
0.0
  51
 180.000
   0
LINE
   8
LEVEL001
   6
CONTINUOUS
  62
7
  10
 295.000
  20
 521.000
  30
0.0
  11
 295.000
  21
 479.622
  31
0.0
   0
LINE
   8
LEVEL001
   6
CONTINUOUS
  62
7
  10
 305.000
  20
 521.000
  30
0.0
  11
 305.000
  21
 479.622
  31
0.0
   0
ARC
   8
LEVEL001
   6
CONTINUOUS
  62
7
  10
 300.000
  20
 481.716
  30
0.0
  40
 5.42072
  50
 202.722
  51
 337.278
   0
LINE
   8
LEVEL001
   6
CONTINUOUS
  62
7
  10
 290.770
  20
 484.000
  30
0.0
  11
 295.000
  21
 484.000
  31
0.0
   0
LINE
   8
LEVEL001
   6
CONTINUOUS
  62
7
  10
 305.000
  20
 484.000
  30
0.0
  11
 309.230
  21
 484.000
  31
0.0
   0
LINE
   8
LEVEL001
   6
CONTINUOUS
  62
7
  10
 305.000
  20
 484.943
  30
0.0
  11
 309.650
  21
 483.960
  31
0.0
   0
LINE
   8
LEVEL001
   6
CONTINUOUS
  62
7
  10
 295.000
  20
 484.943
  30
0.0
  11
 290.350
  21
 483.960
  31
0.0
   0
LINE
   8
LEVEL001
   6
CONTINUOUS
  62
7
  10
 334.436
  20
 574.600
  30
0.0
  11
 321.436
  21
 574.600
  31
0.0
   0
LINE
   8
LEVEL001
   6
CONTINUOUS
  62
7
  10
 334.436
  20
 574.600
  30
0.0
  11
 334.436
  21
 567.000
  31
0.0
   0
LINE
   8
LEVEL001
   6
CONTINUOUS
  62
7
  10
 333.746
  20
 575.000
  30
0.0
  11
 334.436
  21
 574.600
  31
0.0
   0
LINE
   8
LEVEL001
   6
CONTINUOUS
  62
7
  10
 322.129
  20
 575.000
  30
0.0
  11
 333.746
  21
 575.000
  31
0.0
   0
LINE
   8
LEVEL001
   6
CONTINUOUS
  62
7
  10
 321.436
  20
 574.600
  30
0.0
  11
 322.129
  21
 575.000
  31
0.0
   0
LINE
   8
LEVEL001
   6
CONTINUOUS
  62
7
  10
 321.436
  20
 567.000
  30
0.0
  11
 321.436
  21
 574.600
  31
0.0
   0
LINE
   8
LEVEL001
   6
CONTINUOUS
  62
7
  10
 278.564
  20
 574.600
  30
0.0
  11
 265.564
  21
 574.600
  31
0.0
   0
LINE
   8
LEVEL001
   6
CONTINUOUS
  62
7
  10
 278.564
  20
 574.600
  30
0.0
  11
 278.564
  21
 567.000
  31
0.0
   0
LINE
   8
LEVEL001
   6
CONTINUOUS
  62
7
  10
 277.874
  20
 575.000
  30
0.0
  11
 278.564
  21
 574.600
  31
0.0
   0
LINE
   8
LEVEL001
   6
CONTINUOUS
  62
7
  10
 266.257
  20
 575.000
  30
0.0
  11
 277.874
  21
 575.000
  31
0.0
   0
LINE
   8
LEVEL001
   6
CONTINUOUS
  62
7
  10
 265.564
  20
 574.600
  30
0.0
  11
 266.257
  21
 575.000
  31
0.0
   0
LINE
   8
LEVEL001
   6
CONTINUOUS
  62
7
  10
 265.564
  20
 567.000
  30
0.0
  11
 265.564
  21
 574.600
  31
0.0
   0
LINE
   8
LEVEL001
   6
CONTINUOUS
  62
7
  10
 239.057
  20
 574.600
  30
0.0
  11
 226.057
  21
 574.600
  31
0.0
   0
LINE
   8
LEVEL001
   6
CONTINUOUS
  62
7
  10
 239.057
  20
 574.600
  30
0.0
  11
 239.057
  21
 567.000
  31
0.0
   0
LINE
   8
LEVEL001
   6
CONTINUOUS
  62
7
  10
 238.367
  20
 575.000
  30
0.0
  11
 239.057
  21
 574.600
  31
0.0
   0
LINE
   8
LEVEL001
   6
CONTINUOUS
  62
7
  10
 226.750
  20
 575.000
  30
0.0
  11
 238.367
  21
 575.000
  31
0.0
   0
LINE
   8
LEVEL001
   6
CONTINUOUS
  62
7
  10
 226.057
  20
 574.600
  30
0.0
  11
 226.750
  21
 575.000
  31
0.0
   0
LINE
   8
LEVEL001
   6
CONTINUOUS
  62
7
  10
 226.057
  20
 567.000
  30
0.0
  11
 226.057
  21
 574.600
  31
0.0
   0
LINE
   8
LEVEL001
   6
CONTINUOUS
  62
7
  10
 373.943
  20
 574.600
  30
0.0
  11
 360.943
  21
 574.600
  31
0.0
   0
LINE
   8
LEVEL001
   6
CONTINUOUS
  62
7
  10
 373.943
  20
 574.600
  30
0.0
  11
 373.943
  21
 567.000
  31
0.0
   0
LINE
   8
LEVEL001
   6
CONTINUOUS
  62
7
  10
 373.253
  20
 575.000
  30
0.0
  11
 373.943
  21
 574.600
  31
0.0
   0
LINE
   8
LEVEL001
   6
CONTINUOUS
  62
7
  10
 361.636
  20
 575.000
  30
0.0
  11
 373.253
  21
 575.000
  31
0.0
   0
LINE
   8
LEVEL001
   6
CONTINUOUS
  62
7
  10
 360.943
  20
 574.600
  30
0.0
  11
 361.636
  21
 575.000
  31
0.0
   0
LINE
   8
LEVEL001
   6
CONTINUOUS
  62
7
  10
 360.943
  20
 567.000
  30
0.0
  11
 360.943
  21
 574.600
  31
0.0
   0
LINE
   8
LEVEL001
   6
CONTINUOUS
  62
7
  10
 285.000
  20
 475.000
  30
0.0
  11
 285.000
  21
 426.000
  31
0.0
   0
LINE
   8
LEVEL001
   6
CONTINUOUS
  62
7
  10
 315.000
  20
 475.000
  30
0.0
  11
 315.000
  21
 426.000
  31
0.0
   0
ARC
   8
LEVEL001
   6
CONTINUOUS
  62
7
  10
 300.000
  20
 434.330
  30
0.0
  40
 17.2444
  50
 221.073
  51
 318.927
   0
LINE
   8
LEVEL001
   6
CONTINUOUS
  62
7
  10
 344.000
  20
 150.000
  30
0.0
  11
 256.000
  21
 150.000
  31
0.0
   0
LINE
   8
LEVEL001
   6
CONTINUOUS
  62
7
  10
 855.500
  20
 185.000
  30
0.0
  11
 855.500
  21
 182.000
  31
0.0
   0
LINE
   8
LEVEL001
   6
CONTINUOUS
  62
7
  10
 855.000
  20
 151.000
  30
0.0
  11
 855.000
  21
 182.000
  31
0.0
   0
LINE
   8
LEVEL001
   6
CONTINUOUS
  62
7
  10
 889.000
  20
 182.000
  30
0.0
  11
 855.000
  21
 182.000
  31
0.0
   0
LINE
   8
LEVEL001
   6
CONTINUOUS
  62
7
  10
 944.500
  20
 185.000
  30
0.0
  11
 944.500
  21
 182.000
  31
0.0
   0
LINE
   8
LEVEL001
   6
CONTINUOUS
  62
7
  10
 945.000
  20
 182.000
  30
0.0
  11
 911.000
  21
 182.000
  31
0.0
   0
LINE
   8
LEVEL001
   6
CONTINUOUS
  62
7
  10
 945.000
  20
 151.000
  30
0.0
  11
 945.000
  21
 182.000
  31
0.0
   0
LINE
   8
LEVEL001
   6
CONTINUOUS
  62
7
  10
 255.500
  20
 185.000
  30
0.0
  11
 255.500
  21
 182.000
  31
0.0
   0
LINE
   8
LEVEL001
   6
CONTINUOUS
  62
7
  10
 255.000
  20
 151.000
  30
0.0
  11
 255.000
  21
 182.000
  31
0.0
   0
LINE
   8
LEVEL001
   6
CONTINUOUS
  62
7
  10
 345.000
  20
 182.000
  30
0.0
  11
 255.000
  21
 182.000
  31
0.0
   0
LINE
   8
LEVEL001
   6
CONTINUOUS
  62
7
  10
 345.000
  20
 151.000
  30
0.0
  11
 345.000
  21
 182.000
  31
0.0
   0
LINE
   8
LEVEL001
   6
CONTINUOUS
  62
7
  10
 344.500
  20
 185.000
  30
0.0
  11
 344.500
  21
 182.000
  31
0.0
   0
LINE
   8
LEVEL001
   6
CONTINUOUS
  62
7
  10
 425.000
  20
 287.411
  30
0.0
  11
 425.000
  21
 277.000
  31
0.0
   0
ARC
   8
LEVEL001
   6
CONTINUOUS
  62
7
  10
 430.000
  20
 287.411
  30
0.0
  40
 5.00000
  50
 91.0592
  51
 180.000
   0
LINE
   8
LEVEL001
   6
CONTINUOUS
  62
7
  10
 175.000
  20
 287.411
  30
0.0
  11
 175.000
  21
 277.000
  31
0.0
   0
ARC
   8
LEVEL001
   6
CONTINUOUS
  62
7
  10
 170.000
  20
 287.411
  30
0.0
  40
 5.00000
  50
0.0
  51
 88.9408
   0
LINE
   8
LEVEL001
   6
CONTINUOUS
  62
7
  10
 384.989
  20
 291.580
  30
0.0
  11
 434.750
  21
 292.500
  31
0.0
   0
LINE
   8
LEVEL001
   6
CONTINUOUS
  62
7
  10
 216.010
  20
 291.562
  30
0.0
  11
 165.250
  21
 292.500
  31
0.0
   0
ARC
   8
LEVEL001
   6
CONTINUOUS
  62
7
  10
 280.000
  20
 287.000
  30
0.0
  40
 10.0000
  50
 270.000
  51
0.0
   0
ARC
   8
LEVEL001
   6
CONTINUOUS
  62
7
  10
 320.000
  20
 287.000
  30
0.0
  40
 10.0000
  50
 180.000
  51
 270.000
   0
LINE
   8
LEVEL001
   6
CONTINUOUS
  62
7
  10
 310.000
  20
 362.596
  30
0.0
  11
 310.000
  21
 287.000
  31
0.0
   0
ARC
   8
LEVEL001
   6
CONTINUOUS
  62
7
  10
 320.000
  20
 362.596
  30
0.0
  40
 10.0000
  50
 90.0000
  51
 180.000
   0
LINE
   8
LEVEL001
   6
CONTINUOUS
  62
7
  10
 290.000
  20
 362.596
  30
0.0
  11
 290.000
  21
 287.000
  31
0.0
   0
ARC
   8
LEVEL001
   6
CONTINUOUS
  62
7
  10
 280.000
  20
 362.596
  30
0.0
  40
 10.0000
  50
0.0
  51
 90.0000
   0
LINE
   8
LEVEL001
   6
CONTINUOUS
  62
7
  10
 435.000
  20
 277.000
  30
0.0
  11
 320.000
  21
 277.000
  31
0.0
   0
LINE
   8
LEVEL001
   6
CONTINUOUS
  62
7
  10
 280.000
  20
 277.000
  30
0.0
  11
 165.000
  21
 277.000
  31
0.0
   0
LINE
   8
LEVEL001
   6
CONTINUOUS
  62
7
  10
 342.400
  20
 367.477
  30
0.0
  11
 342.391
  21
 367.557
  31
0.0
   0
LINE
   8
LEVEL001
   6
CONTINUOUS
  62
7
  10
 342.391
  20
 367.557
  30
0.0
  11
 342.364
  21
 367.637
  31
0.0
   0
LINE
   8
LEVEL001
   6
CONTINUOUS
  62
7
  10
 342.364
  20
 367.637
  30
0.0
  11
 342.318
  21
 367.715
  31
0.0
   0
LINE
   8
LEVEL001
   6
CONTINUOUS
  62
7
  10
 342.318
  20
 367.715
  30
0.0
  11
 342.255
  21
 367.792
  31
0.0
   0
LINE
   8
LEVEL001
   6
CONTINUOUS
  62
7
  10
 342.255
  20
 367.792
  30
0.0
  11
 342.175
  21
 367.866
  31
0.0
   0
LINE
   8
LEVEL001
   6
CONTINUOUS
  62
7
  10
 342.175
  20
 367.866
  30
0.0
  11
 342.078
  21
 367.937
  31
0.0
   0
LINE
   8
LEVEL001
   6
CONTINUOUS
  62
7
  10
 342.078
  20
 367.937
  30
0.0
  11
 341.966
  21
 368.004
  31
0.0
   0
LINE
   8
LEVEL001
   6
CONTINUOUS
  62
7
  10
 341.966
  20
 368.004
  30
0.0
  11
 341.839
  21
 368.068
  31
0.0
   0
LINE
   8
LEVEL001
   6
CONTINUOUS
  62
7
  10
 341.839
  20
 368.068
  30
0.0
  11
 341.697
  21
 368.127
  31
0.0
   0
LINE
   8
LEVEL001
   6
CONTINUOUS
  62
7
  10
 341.697
  20
 368.127
  30
0.0
  11
 341.543
  21
 368.181
  31
0.0
   0
LINE
   8
LEVEL001
   6
CONTINUOUS
  62
7
  10
 341.543
  20
 368.181
  30
0.0
  11
 341.377
  21
 368.230
  31
0.0
   0
LINE
   8
LEVEL001
   6
CONTINUOUS
  62
7
  10
 341.377
  20
 368.230
  30
0.0
  11
 341.200
  21
 368.273
  31
0.0
   0
LINE
   8
LEVEL001
   6
CONTINUOUS
  62
7
  10
 341.200
  20
 368.273
  30
0.0
  11
 341.014
  21
 368.310
  31
0.0
   0
LINE
   8
LEVEL001
   6
CONTINUOUS
  62
7
  10
 341.014
  20
 368.310
  30
0.0
  11
 340.821
  21
 368.340
  31
0.0
   0
LINE
   8
LEVEL001
   6
CONTINUOUS
  62
7
  10
 340.821
  20
 368.340
  30
0.0
  11
 340.621
  21
 368.365
  31
0.0
   0
LINE
   8
LEVEL001
   6
CONTINUOUS
  62
7
  10
 340.621
  20
 368.365
  30
0.0
  11
 340.417
  21
 368.382
  31
0.0
   0
LINE
   8
LEVEL001
   6
CONTINUOUS
  62
7
  10
 340.417
  20
 368.382
  30
0.0
  11
 340.209
  21
 368.392
  31
0.0
   0
LINE
   8
LEVEL001
   6
CONTINUOUS
  62
7
  10
 340.209
  20
 368.392
  30
0.0
  11
 340.000
  21
 368.396
  31
0.0
   0
LINE
   8
LEVEL001
   6
CONTINUOUS
  62
7
  10
 340.000
  20
 368.396
  30
0.0
  11
 339.791
  21
 368.392
  31
0.0
   0
LINE
   8
LEVEL001
   6
CONTINUOUS
  62
7
  10
 339.791
  20
 368.392
  30
0.0
  11
 339.583
  21
 368.382
  31
0.0
   0
LINE
   8
LEVEL001
   6
CONTINUOUS
  62
7
  10
 339.583
  20
 368.382
  30
0.0
  11
 339.379
  21
 368.365
  31
0.0
   0
LINE
   8
LEVEL001
   6
CONTINUOUS
  62
7
  10
 339.379
  20
 368.365
  30
0.0
  11
 339.179
  21
 368.340
  31
0.0
   0
LINE
   8
LEVEL001
   6
CONTINUOUS
  62
7
  10
 339.179
  20
 368.340
  30
0.0
  11
 338.986
  21
 368.310
  31
0.0
   0
LINE
   8
LEVEL001
   6
CONTINUOUS
  62
7
  10
 338.986
  20
 368.310
  30
0.0
  11
 338.800
  21
 368.273
  31
0.0
   0
LINE
   8
LEVEL001
   6
CONTINUOUS
  62
7
  10
 338.800
  20
 368.273
  30
0.0
  11
 338.623
  21
 368.230
  31
0.0
   0
LINE
   8
LEVEL001
   6
CONTINUOUS
  62
7
  10
 338.623
  20
 368.230
  30
0.0
  11
 338.457
  21
 368.181
  31
0.0
   0
LINE
   8
LEVEL001
   6
CONTINUOUS
  62
7
  10
 338.457
  20
 368.181
  30
0.0
  11
 338.303
  21
 368.127
  31
0.0
   0
LINE
   8
LEVEL001
   6
CONTINUOUS
  62
7
  10
 338.303
  20
 368.127
  30
0.0
  11
 338.161
  21
 368.068
  31
0.0
   0
LINE
   8
LEVEL001
   6
CONTINUOUS
  62
7
  10
 338.161
  20
 368.068
  30
0.0
  11
 338.034
  21
 368.004
  31
0.0
   0
LINE
   8
LEVEL001
   6
CONTINUOUS
  62
7
  10
 338.034
  20
 368.004
  30
0.0
  11
 337.922
  21
 367.937
  31
0.0
   0
LINE
   8
LEVEL001
   6
CONTINUOUS
  62
7
  10
 337.922
  20
 367.937
  30
0.0
  11
 337.825
  21
 367.866
  31
0.0
   0
LINE
   8
LEVEL001
   6
CONTINUOUS
  62
7
  10
 337.825
  20
 367.866
  30
0.0
  11
 337.745
  21
 367.792
  31
0.0
   0
LINE
   8
LEVEL001
   6
CONTINUOUS
  62
7
  10
 337.745
  20
 367.792
  30
0.0
  11
 337.682
  21
 367.715
  31
0.0
   0
LINE
   8
LEVEL001
   6
CONTINUOUS
  62
7
  10
 337.682
  20
 367.715
  30
0.0
  11
 337.636
  21
 367.637
  31
0.0
   0
LINE
   8
LEVEL001
   6
CONTINUOUS
  62
7
  10
 337.636
  20
 367.637
  30
0.0
  11
 337.609
  21
 367.557
  31
0.0
   0
LINE
   8
LEVEL001
   6
CONTINUOUS
  62
7
  10
 337.609
  20
 367.557
  30
0.0
  11
 337.600
  21
 367.477
  31
0.0
   0
LINE
   8
LEVEL001
   6
CONTINUOUS
  62
7
  10
 337.600
  20
 367.477
  30
0.0
  11
 337.609
  21
 367.397
  31
0.0
   0
LINE
   8
LEVEL001
   6
CONTINUOUS
  62
7
  10
 337.609
  20
 367.397
  30
0.0
  11
 337.636
  21
 367.318
  31
0.0
   0
LINE
   8
LEVEL001
   6
CONTINUOUS
  62
7
  10
 337.636
  20
 367.318
  30
0.0
  11
 337.682
  21
 367.240
  31
0.0
   0
LINE
   8
LEVEL001
   6
CONTINUOUS
  62
7
  10
 337.682
  20
 367.240
  30
0.0
  11
 337.745
  21
 367.163
  31
0.0
   0
LINE
   8
LEVEL001
   6
CONTINUOUS
  62
7
  10
 337.745
  20
 367.163
  30
0.0
  11
 337.825
  21
 367.089
  31
0.0
   0
LINE
   8
LEVEL001
   6
CONTINUOUS
  62
7
  10
 337.825
  20
 367.089
  30
0.0
  11
 337.922
  21
 367.018
  31
0.0
   0
LINE
   8
LEVEL001
   6
CONTINUOUS
  62
7
  10
 337.922
  20
 367.018
  30
0.0
  11
 338.034
  21
 366.951
  31
0.0
   0
LINE
   8
LEVEL001
   6
CONTINUOUS
  62
7
  10
 338.034
  20
 366.951
  30
0.0
  11
 338.161
  21
 366.887
  31
0.0
   0
LINE
   8
LEVEL001
   6
CONTINUOUS
  62
7
  10
 338.161
  20
 366.887
  30
0.0
  11
 338.303
  21
 366.828
  31
0.0
   0
LINE
   8
LEVEL001
   6
CONTINUOUS
  62
7
  10
 338.303
  20
 366.828
  30
0.0
  11
 338.457
  21
 366.774
  31
0.0
   0
LINE
   8
LEVEL001
   6
CONTINUOUS
  62
7
  10
 338.457
  20
 366.774
  30
0.0
  11
 338.623
  21
 366.725
  31
0.0
   0
LINE
   8
LEVEL001
   6
CONTINUOUS
  62
7
  10
 338.623
  20
 366.725
  30
0.0
  11
 338.800
  21
 366.682
  31
0.0
   0
LINE
   8
LEVEL001
   6
CONTINUOUS
  62
7
  10
 338.800
  20
 366.682
  30
0.0
  11
 338.986
  21
 366.645
  31
0.0
   0
LINE
   8
LEVEL001
   6
CONTINUOUS
  62
7
  10
 338.986
  20
 366.645
  30
0.0
  11
 339.179
  21
 366.614
  31
0.0
   0
LINE
   8
LEVEL001
   6
CONTINUOUS
  62
7
  10
 339.179
  20
 366.614
  30
0.0
  11
 339.379
  21
 366.590
  31
0.0
   0
LINE
   8
LEVEL001
   6
CONTINUOUS
  62
7
  10
 339.379
  20
 366.590
  30
0.0
  11
 339.583
  21
 366.573
  31
0.0
   0
LINE
   8
LEVEL001
   6
CONTINUOUS
  62
7
  10
 339.583
  20
 366.573
  30
0.0
  11
 339.791
  21
 366.562
  31
0.0
   0
LINE
   8
LEVEL001
   6
CONTINUOUS
  62
7
  10
 339.791
  20
 366.562
  30
0.0
  11
 340.000
  21
 366.559
  31
0.0
   0
LINE
   8
LEVEL001
   6
CONTINUOUS
  62
7
  10
 340.000
  20
 366.559
  30
0.0
  11
 340.209
  21
 366.562
  31
0.0
   0
LINE
   8
LEVEL001
   6
CONTINUOUS
  62
7
  10
 340.209
  20
 366.562
  30
0.0
  11
 340.417
  21
 366.573
  31
0.0
   0
LINE
   8
LEVEL001
   6
CONTINUOUS
  62
7
  10
 340.417
  20
 366.573
  30
0.0
  11
 340.621
  21
 366.590
  31
0.0
   0
LINE
   8
LEVEL001
   6
CONTINUOUS
  62
7
  10
 340.621
  20
 366.590
  30
0.0
  11
 340.821
  21
 366.614
  31
0.0
   0
LINE
   8
LEVEL001
   6
CONTINUOUS
  62
7
  10
 340.821
  20
 366.614
  30
0.0
  11
 341.014
  21
 366.645
  31
0.0
   0
LINE
   8
LEVEL001
   6
CONTINUOUS
  62
7
  10
 341.014
  20
 366.645
  30
0.0
  11
 341.200
  21
 366.682
  31
0.0
   0
LINE
   8
LEVEL001
   6
CONTINUOUS
  62
7
  10
 341.200
  20
 366.682
  30
0.0
  11
 341.377
  21
 366.725
  31
0.0
   0
LINE
   8
LEVEL001
   6
CONTINUOUS
  62
7
  10
 341.377
  20
 366.725
  30
0.0
  11
 341.543
  21
 366.774
  31
0.0
   0
LINE
   8
LEVEL001
   6
CONTINUOUS
  62
7
  10
 341.543
  20
 366.774
  30
0.0
  11
 341.697
  21
 366.828
  31
0.0
   0
LINE
   8
LEVEL001
   6
CONTINUOUS
  62
7
  10
 341.697
  20
 366.828
  30
0.0
  11
 341.839
  21
 366.887
  31
0.0
   0
LINE
   8
LEVEL001
   6
CONTINUOUS
  62
7
  10
 341.839
  20
 366.887
  30
0.0
  11
 341.966
  21
 366.951
  31
0.0
   0
LINE
   8
LEVEL001
   6
CONTINUOUS
  62
7
  10
 341.966
  20
 366.951
  30
0.0
  11
 342.078
  21
 367.018
  31
0.0
   0
LINE
   8
LEVEL001
   6
CONTINUOUS
  62
7
  10
 342.078
  20
 367.018
  30
0.0
  11
 342.175
  21
 367.089
  31
0.0
   0
LINE
   8
LEVEL001
   6
CONTINUOUS
  62
7
  10
 342.175
  20
 367.089
  30
0.0
  11
 342.255
  21
 367.163
  31
0.0
   0
LINE
   8
LEVEL001
   6
CONTINUOUS
  62
7
  10
 342.255
  20
 367.163
  30
0.0
  11
 342.318
  21
 367.240
  31
0.0
   0
LINE
   8
LEVEL001
   6
CONTINUOUS
  62
7
  10
 342.318
  20
 367.240
  30
0.0
  11
 342.364
  21
 367.318
  31
0.0
   0
LINE
   8
LEVEL001
   6
CONTINUOUS
  62
7
  10
 342.364
  20
 367.318
  30
0.0
  11
 342.391
  21
 367.397
  31
0.0
   0
LINE
   8
LEVEL001
   6
CONTINUOUS
  62
7
  10
 342.391
  20
 367.397
  30
0.0
  11
 342.400
  21
 367.477
  31
0.0
   0
LINE
   8
LEVEL001
   6
CONTINUOUS
  62
7
  10
 339.000
  20
 367.477
  30
0.0
  11
 339.001
  21
 367.461
  31
0.0
   0
LINE
   8
LEVEL001
   6
CONTINUOUS
  62
7
  10
 339.001
  20
 367.461
  30
0.0
  11
 339.004
  21
 367.444
  31
0.0
   0
LINE
   8
LEVEL001
   6
CONTINUOUS
  62
7
  10
 339.004
  20
 367.444
  30
0.0
  11
 339.009
  21
 367.427
  31
0.0
   0
LINE
   8
LEVEL001
   6
CONTINUOUS
  62
7
  10
 339.009
  20
 367.427
  30
0.0
  11
 339.015
  21
 367.411
  31
0.0
   0
LINE
   8
LEVEL001
   6
CONTINUOUS
  62
7
  10
 339.015
  20
 367.411
  30
0.0
  11
 339.024
  21
 367.395
  31
0.0
   0
LINE
   8
LEVEL001
   6
CONTINUOUS
  62
7
  10
 339.024
  20
 367.395
  30
0.0
  11
 339.034
  21
 367.378
  31
0.0
   0
LINE
   8
LEVEL001
   6
CONTINUOUS
  62
7
  10
 339.034
  20
 367.378
  30
0.0
  11
 339.046
  21
 367.362
  31
0.0
   0
LINE
   8
LEVEL001
   6
CONTINUOUS
  62
7
  10
 339.046
  20
 367.362
  30
0.0
  11
 339.060
  21
 367.347
  31
0.0
   0
LINE
   8
LEVEL001
   6
CONTINUOUS
  62
7
  10
 339.060
  20
 367.347
  30
0.0
  11
 339.076
  21
 367.331
  31
0.0
   0
LINE
   8
LEVEL001
   6
CONTINUOUS
  62
7
  10
 339.076
  20
 367.331
  30
0.0
  11
 339.094
  21
 367.316
  31
0.0
   0
LINE
   8
LEVEL001
   6
CONTINUOUS
  62
7
  10
 339.094
  20
 367.316
  30
0.0
  11
 339.113
  21
 367.301
  31
0.0
   0
LINE
   8
LEVEL001
   6
CONTINUOUS
  62
7
  10
 339.113
  20
 367.301
  30
0.0
  11
 339.134
  21
 367.286
  31
0.0
   0
LINE
   8
LEVEL001
   6
CONTINUOUS
  62
7
  10
 339.134
  20
 367.286
  30
0.0
  11
 339.157
  21
 367.272
  31
0.0
   0
LINE
   8
LEVEL001
   6
CONTINUOUS
  62
7
  10
 339.157
  20
 367.272
  30
0.0
  11
 339.181
  21
 367.258
  31
0.0
   0
LINE
   8
LEVEL001
   6
CONTINUOUS
  62
7
  10
 339.181
  20
 367.258
  30
0.0
  11
 339.207
  21
 367.244
  31
0.0
   0
LINE
   8
LEVEL001
   6
CONTINUOUS
  62
7
  10
 339.207
  20
 367.244
  30
0.0
  11
 339.234
  21
 367.231
  31
0.0
   0
LINE
   8
LEVEL001
   6
CONTINUOUS
  62
7
  10
 339.234
  20
 367.231
  30
0.0
  11
 339.263
  21
 367.219
  31
0.0
   0
LINE
   8
LEVEL001
   6
CONTINUOUS
  62
7
  10
 339.263
  20
 367.219
  30
0.0
  11
 339.293
  21
 367.207
  31
0.0
   0
LINE
   8
LEVEL001
   6
CONTINUOUS
  62
7
  10
 339.293
  20
 367.207
  30
0.0
  11
 339.324
  21
 367.195
  31
0.0
   0
LINE
   8
LEVEL001
   6
CONTINUOUS
  62
7
  10
 339.324
  20
 367.195
  30
0.0
  11
 339.357
  21
 367.184
  31
0.0
   0
LINE
   8
LEVEL001
   6
CONTINUOUS
  62
7
  10
 339.357
  20
 367.184
  30
0.0
  11
 339.391
  21
 367.174
  31
0.0
   0
LINE
   8
LEVEL001
   6
CONTINUOUS
  62
7
  10
 339.391
  20
 367.174
  30
0.0
  11
 339.426
  21
 367.164
  31
0.0
   0
LINE
   8
LEVEL001
   6
CONTINUOUS
  62
7
  10
 339.426
  20
 367.164
  30
0.0
  11
 339.463
  21
 367.155
  31
0.0
   0
LINE
   8
LEVEL001
   6
CONTINUOUS
  62
7
  10
 339.463
  20
 367.155
  30
0.0
  11
 339.500
  21
 367.146
  31
0.0
   0
LINE
   8
LEVEL001
   6
CONTINUOUS
  62
7
  10
 339.500
  20
 367.146
  30
0.0
  11
 339.538
  21
 367.138
  31
0.0
   0
LINE
   8
LEVEL001
   6
CONTINUOUS
  62
7
  10
 339.538
  20
 367.138
  30
0.0
  11
 339.577
  21
 367.131
  31
0.0
   0
LINE
   8
LEVEL001
   6
CONTINUOUS
  62
7
  10
 339.577
  20
 367.131
  30
0.0
  11
 339.617
  21
 367.124
  31
0.0
   0
LINE
   8
LEVEL001
   6
CONTINUOUS
  62
7
  10
 339.617
  20
 367.124
  30
0.0
  11
 339.658
  21
 367.118
  31
0.0
   0
LINE
   8
LEVEL001
   6
CONTINUOUS
  62
7
  10
 339.658
  20
 367.118
  30
0.0
  11
 339.699
  21
 367.112
  31
0.0
   0
LINE
   8
LEVEL001
   6
CONTINUOUS
  62
7
  10
 339.699
  20
 367.112
  30
0.0
  11
 339.741
  21
 367.108
  31
0.0
   0
LINE
   8
LEVEL001
   6
CONTINUOUS
  62
7
  10
 339.741
  20
 367.108
  30
0.0
  11
 339.784
  21
 367.104
  31
0.0
   0
LINE
   8
LEVEL001
   6
CONTINUOUS
  62
7
  10
 339.784
  20
 367.104
  30
0.0
  11
 339.826
  21
 367.101
  31
0.0
   0
LINE
   8
LEVEL001
   6
CONTINUOUS
  62
7
  10
 339.826
  20
 367.101
  30
0.0
  11
 339.869
  21
 367.098
  31
0.0
   0
LINE
   8
LEVEL001
   6
CONTINUOUS
  62
7
  10
 339.869
  20
 367.098
  30
0.0
  11
 339.913
  21
 367.096
  31
0.0
   0
LINE
   8
LEVEL001
   6
CONTINUOUS
  62
7
  10
 339.913
  20
 367.096
  30
0.0
  11
 339.956
  21
 367.095
  31
0.0
   0
LINE
   8
LEVEL001
   6
CONTINUOUS
  62
7
  10
 339.956
  20
 367.095
  30
0.0
  11
 340.000
  21
 367.095
  31
0.0
   0
LINE
   8
LEVEL001
   6
CONTINUOUS
  62
7
  10
 340.000
  20
 367.095
  30
0.0
  11
 340.044
  21
 367.095
  31
0.0
   0
LINE
   8
LEVEL001
   6
CONTINUOUS
  62
7
  10
 340.044
  20
 367.095
  30
0.0
  11
 340.087
  21
 367.096
  31
0.0
   0
LINE
   8
LEVEL001
   6
CONTINUOUS
  62
7
  10
 340.087
  20
 367.096
  30
0.0
  11
 340.131
  21
 367.098
  31
0.0
   0
LINE
   8
LEVEL001
   6
CONTINUOUS
  62
7
  10
 340.131
  20
 367.098
  30
0.0
  11
 340.174
  21
 367.101
  31
0.0
   0
LINE
   8
LEVEL001
   6
CONTINUOUS
  62
7
  10
 340.174
  20
 367.101
  30
0.0
  11
 340.216
  21
 367.104
  31
0.0
   0
LINE
   8
LEVEL001
   6
CONTINUOUS
  62
7
  10
 340.216
  20
 367.104
  30
0.0
  11
 340.259
  21
 367.108
  31
0.0
   0
LINE
   8
LEVEL001
   6
CONTINUOUS
  62
7
  10
 340.259
  20
 367.108
  30
0.0
  11
 340.301
  21
 367.112
  31
0.0
   0
LINE
   8
LEVEL001
   6
CONTINUOUS
  62
7
  10
 340.301
  20
 367.112
  30
0.0
  11
 340.342
  21
 367.118
  31
0.0
   0
LINE
   8
LEVEL001
   6
CONTINUOUS
  62
7
  10
 340.342
  20
 367.118
  30
0.0
  11
 340.383
  21
 367.124
  31
0.0
   0
LINE
   8
LEVEL001
   6
CONTINUOUS
  62
7
  10
 340.383
  20
 367.124
  30
0.0
  11
 340.423
  21
 367.131
  31
0.0
   0
LINE
   8
LEVEL001
   6
CONTINUOUS
  62
7
  10
 340.423
  20
 367.131
  30
0.0
  11
 340.462
  21
 367.138
  31
0.0
   0
LINE
   8
LEVEL001
   6
CONTINUOUS
  62
7
  10
 340.462
  20
 367.138
  30
0.0
  11
 340.500
  21
 367.146
  31
0.0
   0
LINE
   8
LEVEL001
   6
CONTINUOUS
  62
7
  10
 340.500
  20
 367.146
  30
0.0
  11
 340.537
  21
 367.155
  31
0.0
   0
LINE
   8
LEVEL001
   6
CONTINUOUS
  62
7
  10
 340.537
  20
 367.155
  30
0.0
  11
 340.574
  21
 367.164
  31
0.0
   0
LINE
   8
LEVEL001
   6
CONTINUOUS
  62
7
  10
 340.574
  20
 367.164
  30
0.0
  11
 340.609
  21
 367.174
  31
0.0
   0
LINE
   8
LEVEL001
   6
CONTINUOUS
  62
7
  10
 340.609
  20
 367.174
  30
0.0
  11
 340.643
  21
 367.184
  31
0.0
   0
LINE
   8
LEVEL001
   6
CONTINUOUS
  62
7
  10
 340.643
  20
 367.184
  30
0.0
  11
 340.676
  21
 367.195
  31
0.0
   0
LINE
   8
LEVEL001
   6
CONTINUOUS
  62
7
  10
 340.676
  20
 367.195
  30
0.0
  11
 340.707
  21
 367.207
  31
0.0
   0
LINE
   8
LEVEL001
   6
CONTINUOUS
  62
7
  10
 340.707
  20
 367.207
  30
0.0
  11
 340.737
  21
 367.219
  31
0.0
   0
LINE
   8
LEVEL001
   6
CONTINUOUS
  62
7
  10
 340.737
  20
 367.219
  30
0.0
  11
 340.766
  21
 367.231
  31
0.0
   0
LINE
   8
LEVEL001
   6
CONTINUOUS
  62
7
  10
 340.766
  20
 367.231
  30
0.0
  11
 340.793
  21
 367.244
  31
0.0
   0
LINE
   8
LEVEL001
   6
CONTINUOUS
  62
7
  10
 340.793
  20
 367.244
  30
0.0
  11
 340.819
  21
 367.258
  31
0.0
   0
LINE
   8
LEVEL001
   6
CONTINUOUS
  62
7
  10
 340.819
  20
 367.258
  30
0.0
  11
 340.843
  21
 367.272
  31
0.0
   0
LINE
   8
LEVEL001
   6
CONTINUOUS
  62
7
  10
 340.843
  20
 367.272
  30
0.0
  11
 340.866
  21
 367.286
  31
0.0
   0
LINE
   8
LEVEL001
   6
CONTINUOUS
  62
7
  10
 340.866
  20
 367.286
  30
0.0
  11
 340.887
  21
 367.301
  31
0.0
   0
LINE
   8
LEVEL001
   6
CONTINUOUS
  62
7
  10
 340.887
  20
 367.301
  30
0.0
  11
 340.906
  21
 367.316
  31
0.0
   0
LINE
   8
LEVEL001
   6
CONTINUOUS
  62
7
  10
 340.906
  20
 367.316
  30
0.0
  11
 340.924
  21
 367.331
  31
0.0
   0
LINE
   8
LEVEL001
   6
CONTINUOUS
  62
7
  10
 340.924
  20
 367.331
  30
0.0
  11
 340.940
  21
 367.347
  31
0.0
   0
LINE
   8
LEVEL001
   6
CONTINUOUS
  62
7
  10
 340.940
  20
 367.347
  30
0.0
  11
 340.954
  21
 367.362
  31
0.0
   0
LINE
   8
LEVEL001
   6
CONTINUOUS
  62
7
  10
 340.954
  20
 367.362
  30
0.0
  11
 340.966
  21
 367.378
  31
0.0
   0
LINE
   8
LEVEL001
   6
CONTINUOUS
  62
7
  10
 340.966
  20
 367.378
  30
0.0
  11
 340.976
  21
 367.395
  31
0.0
   0
LINE
   8
LEVEL001
   6
CONTINUOUS
  62
7
  10
 340.976
  20
 367.395
  30
0.0
  11
 340.985
  21
 367.411
  31
0.0
   0
LINE
   8
LEVEL001
   6
CONTINUOUS
  62
7
  10
 340.985
  20
 367.411
  30
0.0
  11
 340.991
  21
 367.427
  31
0.0
   0
LINE
   8
LEVEL001
   6
CONTINUOUS
  62
7
  10
 340.991
  20
 367.427
  30
0.0
  11
 340.996
  21
 367.444
  31
0.0
   0
LINE
   8
LEVEL001
   6
CONTINUOUS
  62
7
  10
 340.996
  20
 367.444
  30
0.0
  11
 340.999
  21
 367.461
  31
0.0
   0
LINE
   8
LEVEL001
   6
CONTINUOUS
  62
7
  10
 340.999
  20
 367.461
  30
0.0
  11
 341.000
  21
 367.477
  31
0.0
   0
ARC
   8
LEVEL001
   6
CONTINUOUS
  62
7
  10
 340.000
  20
 367.249
  30
0.0
  40
 1.00000
  50
 11.9426
  51
 167.156
   0
LINE
   8
LEVEL001
   6
CONTINUOUS
  62
7
  10
 336.700
  20
 364.983
  30
0.0
  11
 336.703
  21
 364.928
  31
0.0
   0
LINE
   8
LEVEL001
   6
CONTINUOUS
  62
7
  10
 336.703
  20
 364.928
  30
0.0
  11
 336.713
  21
 364.873
  31
0.0
   0
LINE
   8
LEVEL001
   6
CONTINUOUS
  62
7
  10
 336.713
  20
 364.873
  30
0.0
  11
 336.728
  21
 364.819
  31
0.0
   0
LINE
   8
LEVEL001
   6
CONTINUOUS
  62
7
  10
 336.728
  20
 364.819
  30
0.0
  11
 336.750
  21
 364.764
  31
0.0
   0
LINE
   8
LEVEL001
   6
CONTINUOUS
  62
7
  10
 336.750
  20
 364.764
  30
0.0
  11
 336.778
  21
 364.710
  31
0.0
   0
LINE
   8
LEVEL001
   6
CONTINUOUS
  62
7
  10
 336.778
  20
 364.710
  30
0.0
  11
 336.812
  21
 364.657
  31
0.0
   0
LINE
   8
LEVEL001
   6
CONTINUOUS
  62
7
  10
 336.812
  20
 364.657
  30
0.0
  11
 336.853
  21
 364.604
  31
0.0
   0
LINE
   8
LEVEL001
   6
CONTINUOUS
  62
7
  10
 336.853
  20
 364.604
  30
0.0
  11
 336.899
  21
 364.552
  31
0.0
   0
LINE
   8
LEVEL001
   6
CONTINUOUS
  62
7
  10
 336.899
  20
 364.552
  30
0.0
  11
 336.951
  21
 364.500
  31
0.0
   0
LINE
   8
LEVEL001
   6
CONTINUOUS
  62
7
  10
 336.951
  20
 364.500
  30
0.0
  11
 337.009
  21
 364.450
  31
0.0
   0
LINE
   8
LEVEL001
   6
CONTINUOUS
  62
7
  10
 337.009
  20
 364.450
  30
0.0
  11
 337.073
  21
 364.400
  31
0.0
   0
LINE
   8
LEVEL001
   6
CONTINUOUS
  62
7
  10
 337.073
  20
 364.400
  30
0.0
  11
 337.142
  21
 364.352
  31
0.0
   0
LINE
   8
LEVEL001
   6
CONTINUOUS
  62
7
  10
 337.142
  20
 364.352
  30
0.0
  11
 337.217
  21
 364.305
  31
0.0
   0
LINE
   8
LEVEL001
   6
CONTINUOUS
  62
7
  10
 337.217
  20
 364.305
  30
0.0
  11
 337.297
  21
 364.259
  31
0.0
   0
LINE
   8
LEVEL001
   6
CONTINUOUS
  62
7
  10
 337.297
  20
 364.259
  30
0.0
  11
 337.382
  21
 364.215
  31
0.0
   0
LINE
   8
LEVEL001
   6
CONTINUOUS
  62
7
  10
 337.382
  20
 364.215
  30
0.0
  11
 337.472
  21
 364.172
  31
0.0
   0
LINE
   8
LEVEL001
   6
CONTINUOUS
  62
7
  10
 337.472
  20
 364.172
  30
0.0
  11
 337.567
  21
 364.130
  31
0.0
   0
LINE
   8
LEVEL001
   6
CONTINUOUS
  62
7
  10
 337.567
  20
 364.130
  30
0.0
  11
 337.667
  21
 364.091
  31
0.0
   0
LINE
   8
LEVEL001
   6
CONTINUOUS
  62
7
  10
 337.667
  20
 364.091
  30
0.0
  11
 337.771
  21
 364.052
  31
0.0
   0
LINE
   8
LEVEL001
   6
CONTINUOUS
  62
7
  10
 337.771
  20
 364.052
  30
0.0
  11
 337.879
  21
 364.016
  31
0.0
   0
LINE
   8
LEVEL001
   6
CONTINUOUS
  62
7
  10
 337.879
  20
 364.016
  30
0.0
  11
 337.991
  21
 363.982
  31
0.0
   0
LINE
   8
LEVEL001
   6
CONTINUOUS
  62
7
  10
 337.991
  20
 363.982
  30
0.0
  11
 338.107
  21
 363.949
  31
0.0
   0
LINE
   8
LEVEL001
   6
CONTINUOUS
  62
7
  10
 338.107
  20
 363.949
  30
0.0
  11
 338.227
  21
 363.918
  31
0.0
   0
LINE
   8
LEVEL001
   6
CONTINUOUS
  62
7
  10
 338.227
  20
 363.918
  30
0.0
  11
 338.350
  21
 363.890
  31
0.0
   0
LINE
   8
LEVEL001
   6
CONTINUOUS
  62
7
  10
 338.350
  20
 363.890
  30
0.0
  11
 338.476
  21
 363.863
  31
0.0
   0
LINE
   8
LEVEL001
   6
CONTINUOUS
  62
7
  10
 338.476
  20
 363.863
  30
0.0
  11
 338.605
  21
 363.839
  31
0.0
   0
LINE
   8
LEVEL001
   6
CONTINUOUS
  62
7
  10
 338.605
  20
 363.839
  30
0.0
  11
 338.737
  21
 363.817
  31
0.0
   0
LINE
   8
LEVEL001
   6
CONTINUOUS
  62
7
  10
 338.737
  20
 363.817
  30
0.0
  11
 338.871
  21
 363.797
  31
0.0
   0
LINE
   8
LEVEL001
   6
CONTINUOUS
  62
7
  10
 338.871
  20
 363.797
  30
0.0
  11
 339.008
  21
 363.779
  31
0.0
   0
LINE
   8
LEVEL001
   6
CONTINUOUS
  62
7
  10
 339.008
  20
 363.779
  30
0.0
  11
 339.146
  21
 363.764
  31
0.0
   0
LINE
   8
LEVEL001
   6
CONTINUOUS
  62
7
  10
 339.146
  20
 363.764
  30
0.0
  11
 339.286
  21
 363.751
  31
0.0
   0
LINE
   8
LEVEL001
   6
CONTINUOUS
  62
7
  10
 339.286
  20
 363.751
  30
0.0
  11
 339.427
  21
 363.740
  31
0.0
   0
LINE
   8
LEVEL001
   6
CONTINUOUS
  62
7
  10
 339.427
  20
 363.740
  30
0.0
  11
 339.569
  21
 363.731
  31
0.0
   0
LINE
   8
LEVEL001
   6
CONTINUOUS
  62
7
  10
 339.569
  20
 363.731
  30
0.0
  11
 339.712
  21
 363.725
  31
0.0
   0
LINE
   8
LEVEL001
   6
CONTINUOUS
  62
7
  10
 339.712
  20
 363.725
  30
0.0
  11
 339.856
  21
 363.722
  31
0.0
   0
LINE
   8
LEVEL001
   6
CONTINUOUS
  62
7
  10
 339.856
  20
 363.722
  30
0.0
  11
 340.000
  21
 363.721
  31
0.0
   0
LINE
   8
LEVEL001
   6
CONTINUOUS
  62
7
  10
 340.000
  20
 363.721
  30
0.0
  11
 340.144
  21
 363.722
  31
0.0
   0
LINE
   8
LEVEL001
   6
CONTINUOUS
  62
7
  10
 340.144
  20
 363.722
  30
0.0
  11
 340.288
  21
 363.725
  31
0.0
   0
LINE
   8
LEVEL001
   6
CONTINUOUS
  62
7
  10
 340.288
  20
 363.725
  30
0.0
  11
 340.431
  21
 363.731
  31
0.0
   0
LINE
   8
LEVEL001
   6
CONTINUOUS
  62
7
  10
 340.431
  20
 363.731
  30
0.0
  11
 340.573
  21
 363.740
  31
0.0
   0
LINE
   8
LEVEL001
   6
CONTINUOUS
  62
7
  10
 340.573
  20
 363.740
  30
0.0
  11
 340.714
  21
 363.751
  31
0.0
   0
LINE
   8
LEVEL001
   6
CONTINUOUS
  62
7
  10
 340.714
  20
 363.751
  30
0.0
  11
 340.854
  21
 363.764
  31
0.0
   0
LINE
   8
LEVEL001
   6
CONTINUOUS
  62
7
  10
 340.854
  20
 363.764
  30
0.0
  11
 340.992
  21
 363.779
  31
0.0
   0
LINE
   8
LEVEL001
   6
CONTINUOUS
  62
7
  10
 340.992
  20
 363.779
  30
0.0
  11
 341.129
  21
 363.797
  31
0.0
   0
LINE
   8
LEVEL001
   6
CONTINUOUS
  62
7
  10
 341.129
  20
 363.797
  30
0.0
  11
 341.263
  21
 363.817
  31
0.0
   0
LINE
   8
LEVEL001
   6
CONTINUOUS
  62
7
  10
 341.263
  20
 363.817
  30
0.0
  11
 341.395
  21
 363.839
  31
0.0
   0
LINE
   8
LEVEL001
   6
CONTINUOUS
  62
7
  10
 341.395
  20
 363.839
  30
0.0
  11
 341.524
  21
 363.863
  31
0.0
   0
LINE
   8
LEVEL001
   6
CONTINUOUS
  62
7
  10
 341.524
  20
 363.863
  30
0.0
  11
 341.650
  21
 363.890
  31
0.0
   0
LINE
   8
LEVEL001
   6
CONTINUOUS
  62
7
  10
 341.650
  20
 363.890
  30
0.0
  11
 341.773
  21
 363.918
  31
0.0
   0
LINE
   8
LEVEL001
   6
CONTINUOUS
  62
7
  10
 341.773
  20
 363.918
  30
0.0
  11
 341.893
  21
 363.949
  31
0.0
   0
LINE
   8
LEVEL001
   6
CONTINUOUS
  62
7
  10
 341.893
  20
 363.949
  30
0.0
  11
 342.009
  21
 363.982
  31
0.0
   0
LINE
   8
LEVEL001
   6
CONTINUOUS
  62
7
  10
 342.009
  20
 363.982
  30
0.0
  11
 342.121
  21
 364.016
  31
0.0
   0
LINE
   8
LEVEL001
   6
CONTINUOUS
  62
7
  10
 342.121
  20
 364.016
  30
0.0
  11
 342.229
  21
 364.052
  31
0.0
   0
LINE
   8
LEVEL001
   6
CONTINUOUS
  62
7
  10
 342.229
  20
 364.052
  30
0.0
  11
 342.333
  21
 364.091
  31
0.0
   0
LINE
   8
LEVEL001
   6
CONTINUOUS
  62
7
  10
 342.333
  20
 364.091
  30
0.0
  11
 342.433
  21
 364.130
  31
0.0
   0
LINE
   8
LEVEL001
   6
CONTINUOUS
  62
7
  10
 342.433
  20
 364.130
  30
0.0
  11
 342.528
  21
 364.172
  31
0.0
   0
LINE
   8
LEVEL001
   6
CONTINUOUS
  62
7
  10
 342.528
  20
 364.172
  30
0.0
  11
 342.618
  21
 364.215
  31
0.0
   0
LINE
   8
LEVEL001
   6
CONTINUOUS
  62
7
  10
 342.618
  20
 364.215
  30
0.0
  11
 342.703
  21
 364.259
  31
0.0
   0
LINE
   8
LEVEL001
   6
CONTINUOUS
  62
7
  10
 342.703
  20
 364.259
  30
0.0
  11
 342.783
  21
 364.305
  31
0.0
   0
LINE
   8
LEVEL001
   6
CONTINUOUS
  62
7
  10
 342.783
  20
 364.305
  30
0.0
  11
 342.858
  21
 364.352
  31
0.0
   0
LINE
   8
LEVEL001
   6
CONTINUOUS
  62
7
  10
 342.858
  20
 364.352
  30
0.0
  11
 342.927
  21
 364.400
  31
0.0
   0
LINE
   8
LEVEL001
   6
CONTINUOUS
  62
7
  10
 342.927
  20
 364.400
  30
0.0
  11
 342.991
  21
 364.450
  31
0.0
   0
LINE
   8
LEVEL001
   6
CONTINUOUS
  62
7
  10
 342.991
  20
 364.450
  30
0.0
  11
 343.049
  21
 364.500
  31
0.0
   0
LINE
   8
LEVEL001
   6
CONTINUOUS
  62
7
  10
 343.049
  20
 364.500
  30
0.0
  11
 343.101
  21
 364.552
  31
0.0
   0
LINE
   8
LEVEL001
   6
CONTINUOUS
  62
7
  10
 343.101
  20
 364.552
  30
0.0
  11
 343.147
  21
 364.604
  31
0.0
   0
LINE
   8
LEVEL001
   6
CONTINUOUS
  62
7
  10
 343.147
  20
 364.604
  30
0.0
  11
 343.188
  21
 364.657
  31
0.0
   0
LINE
   8
LEVEL001
   6
CONTINUOUS
  62
7
  10
 343.188
  20
 364.657
  30
0.0
  11
 343.222
  21
 364.710
  31
0.0
   0
LINE
   8
LEVEL001
   6
CONTINUOUS
  62
7
  10
 343.222
  20
 364.710
  30
0.0
  11
 343.250
  21
 364.764
  31
0.0
   0
LINE
   8
LEVEL001
   6
CONTINUOUS
  62
7
  10
 343.250
  20
 364.764
  30
0.0
  11
 343.272
  21
 364.819
  31
0.0
   0
LINE
   8
LEVEL001
   6
CONTINUOUS
  62
7
  10
 343.272
  20
 364.819
  30
0.0
  11
 343.287
  21
 364.873
  31
0.0
   0
LINE
   8
LEVEL001
   6
CONTINUOUS
  62
7
  10
 343.287
  20
 364.873
  30
0.0
  11
 343.297
  21
 364.928
  31
0.0
   0
LINE
   8
LEVEL001
   6
CONTINUOUS
  62
7
  10
 343.297
  20
 364.928
  30
0.0
  11
 343.300
  21
 364.983
  31
0.0
   0
LINE
   8
LEVEL001
   6
CONTINUOUS
  62
7
  10
 336.700
  20
 364.983
  30
0.0
  11
 337.602
  21
 367.517
  31
0.0
   0
LINE
   8
LEVEL001
   6
CONTINUOUS
  62
7
  10
 343.297
  20
 364.928
  30
0.0
  11
 342.391
  21
 367.557
  31
0.0
   0
LINE
   8
LEVEL001
   6
CONTINUOUS
  62
7
  10
 337.120
  20
 363.334
  30
0.0
  11
 337.123
  21
 363.286
  31
0.0
   0
LINE
   8
LEVEL001
   6
CONTINUOUS
  62
7
  10
 337.123
  20
 363.286
  30
0.0
  11
 337.131
  21
 363.238
  31
0.0
   0
LINE
   8
LEVEL001
   6
CONTINUOUS
  62
7
  10
 337.131
  20
 363.238
  30
0.0
  11
 337.145
  21
 363.190
  31
0.0
   0
LINE
   8
LEVEL001
   6
CONTINUOUS
  62
7
  10
 337.145
  20
 363.190
  30
0.0
  11
 337.164
  21
 363.142
  31
0.0
   0
LINE
   8
LEVEL001
   6
CONTINUOUS
  62
7
  10
 337.164
  20
 363.142
  30
0.0
  11
 337.188
  21
 363.095
  31
0.0
   0
LINE
   8
LEVEL001
   6
CONTINUOUS
  62
7
  10
 337.188
  20
 363.095
  30
0.0
  11
 337.218
  21
 363.048
  31
0.0
   0
LINE
   8
LEVEL001
   6
CONTINUOUS
  62
7
  10
 337.218
  20
 363.048
  30
0.0
  11
 337.253
  21
 363.002
  31
0.0
   0
LINE
   8
LEVEL001
   6
CONTINUOUS
  62
7
  10
 337.253
  20
 363.002
  30
0.0
  11
 337.294
  21
 362.957
  31
0.0
   0
LINE
   8
LEVEL001
   6
CONTINUOUS
  62
7
  10
 337.294
  20
 362.957
  30
0.0
  11
 337.339
  21
 362.912
  31
0.0
   0
LINE
   8
LEVEL001
   6
CONTINUOUS
  62
7
  10
 337.339
  20
 362.912
  30
0.0
  11
 337.390
  21
 362.868
  31
0.0
   0
LINE
   8
LEVEL001
   6
CONTINUOUS
  62
7
  10
 337.390
  20
 362.868
  30
0.0
  11
 337.445
  21
 362.825
  31
0.0
   0
LINE
   8
LEVEL001
   6
CONTINUOUS
  62
7
  10
 337.445
  20
 362.825
  30
0.0
  11
 337.506
  21
 362.783
  31
0.0
   0
LINE
   8
LEVEL001
   6
CONTINUOUS
  62
7
  10
 337.506
  20
 362.783
  30
0.0
  11
 337.571
  21
 362.741
  31
0.0
   0
LINE
   8
LEVEL001
   6
CONTINUOUS
  62
7
  10
 337.571
  20
 362.741
  30
0.0
  11
 337.641
  21
 362.701
  31
0.0
   0
LINE
   8
LEVEL001
   6
CONTINUOUS
  62
7
  10
 337.641
  20
 362.701
  30
0.0
  11
 337.715
  21
 362.663
  31
0.0
   0
LINE
   8
LEVEL001
   6
CONTINUOUS
  62
7
  10
 337.715
  20
 362.663
  30
0.0
  11
 337.794
  21
 362.625
  31
0.0
   0
LINE
   8
LEVEL001
   6
CONTINUOUS
  62
7
  10
 337.794
  20
 362.625
  30
0.0
  11
 337.877
  21
 362.589
  31
0.0
   0
LINE
   8
LEVEL001
   6
CONTINUOUS
  62
7
  10
 337.877
  20
 362.589
  30
0.0
  11
 337.964
  21
 362.554
  31
0.0
   0
LINE
   8
LEVEL001
   6
CONTINUOUS
  62
7
  10
 337.964
  20
 362.554
  30
0.0
  11
 338.054
  21
 362.521
  31
0.0
   0
LINE
   8
LEVEL001
   6
CONTINUOUS
  62
7
  10
 338.054
  20
 362.521
  30
0.0
  11
 338.149
  21
 362.489
  31
0.0
   0
LINE
   8
LEVEL001
   6
CONTINUOUS
  62
7
  10
 338.149
  20
 362.489
  30
0.0
  11
 338.247
  21
 362.459
  31
0.0
   0
LINE
   8
LEVEL001
   6
CONTINUOUS
  62
7
  10
 338.247
  20
 362.459
  30
0.0
  11
 338.348
  21
 362.431
  31
0.0
   0
LINE
   8
LEVEL001
   6
CONTINUOUS
  62
7
  10
 338.348
  20
 362.431
  30
0.0
  11
 338.453
  21
 362.404
  31
0.0
   0
LINE
   8
LEVEL001
   6
CONTINUOUS
  62
7
  10
 338.453
  20
 362.404
  30
0.0
  11
 338.560
  21
 362.379
  31
0.0
   0
LINE
   8
LEVEL001
   6
CONTINUOUS
  62
7
  10
 338.560
  20
 362.379
  30
0.0
  11
 338.670
  21
 362.356
  31
0.0
   0
LINE
   8
LEVEL001
   6
CONTINUOUS
  62
7
  10
 338.670
  20
 362.356
  30
0.0
  11
 338.783
  21
 362.335
  31
0.0
   0
LINE
   8
LEVEL001
   6
CONTINUOUS
  62
7
  10
 338.783
  20
 362.335
  30
0.0
  11
 338.898
  21
 362.315
  31
0.0
   0
LINE
   8
LEVEL001
   6
CONTINUOUS
  62
7
  10
 338.898
  20
 362.315
  30
0.0
  11
 339.015
  21
 362.298
  31
0.0
   0
LINE
   8
LEVEL001
   6
CONTINUOUS
  62
7
  10
 339.015
  20
 362.298
  30
0.0
  11
 339.134
  21
 362.283
  31
0.0
   0
LINE
   8
LEVEL001
   6
CONTINUOUS
  62
7
  10
 339.134
  20
 362.283
  30
0.0
  11
 339.255
  21
 362.269
  31
0.0
   0
LINE
   8
LEVEL001
   6
CONTINUOUS
  62
7
  10
 339.255
  20
 362.269
  30
0.0
  11
 339.377
  21
 362.258
  31
0.0
   0
LINE
   8
LEVEL001
   6
CONTINUOUS
  62
7
  10
 339.377
  20
 362.258
  30
0.0
  11
 339.500
  21
 362.248
  31
0.0
   0
LINE
   8
LEVEL001
   6
CONTINUOUS
  62
7
  10
 339.500
  20
 362.248
  30
0.0
  11
 339.624
  21
 362.241
  31
0.0
   0
LINE
   8
LEVEL001
   6
CONTINUOUS
  62
7
  10
 339.624
  20
 362.241
  30
0.0
  11
 339.749
  21
 362.236
  31
0.0
   0
LINE
   8
LEVEL001
   6
CONTINUOUS
  62
7
  10
 339.749
  20
 362.236
  30
0.0
  11
 339.874
  21
 362.233
  31
0.0
   0
LINE
   8
LEVEL001
   6
CONTINUOUS
  62
7
  10
 339.874
  20
 362.233
  30
0.0
  11
 340.000
  21
 362.232
  31
0.0
   0
LINE
   8
LEVEL001
   6
CONTINUOUS
  62
7
  10
 340.000
  20
 362.232
  30
0.0
  11
 340.126
  21
 362.233
  31
0.0
   0
LINE
   8
LEVEL001
   6
CONTINUOUS
  62
7
  10
 340.126
  20
 362.233
  30
0.0
  11
 340.251
  21
 362.236
  31
0.0
   0
LINE
   8
LEVEL001
   6
CONTINUOUS
  62
7
  10
 340.251
  20
 362.236
  30
0.0
  11
 340.376
  21
 362.241
  31
0.0
   0
LINE
   8
LEVEL001
   6
CONTINUOUS
  62
7
  10
 340.376
  20
 362.241
  30
0.0
  11
 340.500
  21
 362.248
  31
0.0
   0
LINE
   8
LEVEL001
   6
CONTINUOUS
  62
7
  10
 340.500
  20
 362.248
  30
0.0
  11
 340.623
  21
 362.258
  31
0.0
   0
LINE
   8
LEVEL001
   6
CONTINUOUS
  62
7
  10
 340.623
  20
 362.258
  30
0.0
  11
 340.745
  21
 362.269
  31
0.0
   0
LINE
   8
LEVEL001
   6
CONTINUOUS
  62
7
  10
 340.745
  20
 362.269
  30
0.0
  11
 340.866
  21
 362.283
  31
0.0
   0
LINE
   8
LEVEL001
   6
CONTINUOUS
  62
7
  10
 340.866
  20
 362.283
  30
0.0
  11
 340.985
  21
 362.298
  31
0.0
   0
LINE
   8
LEVEL001
   6
CONTINUOUS
  62
7
  10
 340.985
  20
 362.298
  30
0.0
  11
 341.102
  21
 362.315
  31
0.0
   0
LINE
   8
LEVEL001
   6
CONTINUOUS
  62
7
  10
 341.102
  20
 362.315
  30
0.0
  11
 341.217
  21
 362.335
  31
0.0
   0
LINE
   8
LEVEL001
   6
CONTINUOUS
  62
7
  10
 341.217
  20
 362.335
  30
0.0
  11
 341.330
  21
 362.356
  31
0.0
   0
LINE
   8
LEVEL001
   6
CONTINUOUS
  62
7
  10
 341.330
  20
 362.356
  30
0.0
  11
 341.440
  21
 362.379
  31
0.0
   0
LINE
   8
LEVEL001
   6
CONTINUOUS
  62
7
  10
 341.440
  20
 362.379
  30
0.0
  11
 341.547
  21
 362.404
  31
0.0
   0
LINE
   8
LEVEL001
   6
CONTINUOUS
  62
7
  10
 341.547
  20
 362.404
  30
0.0
  11
 341.652
  21
 362.431
  31
0.0
   0
LINE
   8
LEVEL001
   6
CONTINUOUS
  62
7
  10
 341.652
  20
 362.431
  30
0.0
  11
 341.753
  21
 362.459
  31
0.0
   0
LINE
   8
LEVEL001
   6
CONTINUOUS
  62
7
  10
 341.753
  20
 362.459
  30
0.0
  11
 341.851
  21
 362.489
  31
0.0
   0
LINE
   8
LEVEL001
   6
CONTINUOUS
  62
7
  10
 341.851
  20
 362.489
  30
0.0
  11
 341.946
  21
 362.521
  31
0.0
   0
LINE
   8
LEVEL001
   6
CONTINUOUS
  62
7
  10
 341.946
  20
 362.521
  30
0.0
  11
 342.036
  21
 362.554
  31
0.0
   0
LINE
   8
LEVEL001
   6
CONTINUOUS
  62
7
  10
 342.036
  20
 362.554
  30
0.0
  11
 342.123
  21
 362.589
  31
0.0
   0
LINE
   8
LEVEL001
   6
CONTINUOUS
  62
7
  10
 342.123
  20
 362.589
  30
0.0
  11
 342.206
  21
 362.625
  31
0.0
   0
LINE
   8
LEVEL001
   6
CONTINUOUS
  62
7
  10
 342.206
  20
 362.625
  30
0.0
  11
 342.285
  21
 362.663
  31
0.0
   0
LINE
   8
LEVEL001
   6
CONTINUOUS
  62
7
  10
 342.285
  20
 362.663
  30
0.0
  11
 342.359
  21
 362.701
  31
0.0
   0
LINE
   8
LEVEL001
   6
CONTINUOUS
  62
7
  10
 342.359
  20
 362.701
  30
0.0
  11
 342.429
  21
 362.741
  31
0.0
   0
LINE
   8
LEVEL001
   6
CONTINUOUS
  62
7
  10
 342.429
  20
 362.741
  30
0.0
  11
 342.494
  21
 362.783
  31
0.0
   0
LINE
   8
LEVEL001
   6
CONTINUOUS
  62
7
  10
 342.494
  20
 362.783
  30
0.0
  11
 342.555
  21
 362.825
  31
0.0
   0
LINE
   8
LEVEL001
   6
CONTINUOUS
  62
7
  10
 342.555
  20
 362.825
  30
0.0
  11
 342.610
  21
 362.868
  31
0.0
   0
LINE
   8
LEVEL001
   6
CONTINUOUS
  62
7
  10
 342.610
  20
 362.868
  30
0.0
  11
 342.661
  21
 362.912
  31
0.0
   0
LINE
   8
LEVEL001
   6
CONTINUOUS
  62
7
  10
 342.661
  20
 362.912
  30
0.0
  11
 342.706
  21
 362.957
  31
0.0
   0
LINE
   8
LEVEL001
   6
CONTINUOUS
  62
7
  10
 342.706
  20
 362.957
  30
0.0
  11
 342.747
  21
 363.002
  31
0.0
   0
LINE
   8
LEVEL001
   6
CONTINUOUS
  62
7
  10
 342.747
  20
 363.002
  30
0.0
  11
 342.782
  21
 363.048
  31
0.0
   0
LINE
   8
LEVEL001
   6
CONTINUOUS
  62
7
  10
 342.782
  20
 363.048
  30
0.0
  11
 342.812
  21
 363.095
  31
0.0
   0
LINE
   8
LEVEL001
   6
CONTINUOUS
  62
7
  10
 342.812
  20
 363.095
  30
0.0
  11
 342.836
  21
 363.142
  31
0.0
   0
LINE
   8
LEVEL001
   6
CONTINUOUS
  62
7
  10
 342.836
  20
 363.142
  30
0.0
  11
 342.855
  21
 363.190
  31
0.0
   0
LINE
   8
LEVEL001
   6
CONTINUOUS
  62
7
  10
 342.855
  20
 363.190
  30
0.0
  11
 342.869
  21
 363.238
  31
0.0
   0
LINE
   8
LEVEL001
   6
CONTINUOUS
  62
7
  10
 342.869
  20
 363.238
  30
0.0
  11
 342.877
  21
 363.286
  31
0.0
   0
LINE
   8
LEVEL001
   6
CONTINUOUS
  62
7
  10
 342.877
  20
 363.286
  30
0.0
  11
 342.880
  21
 363.334
  31
0.0
   0
LINE
   8
LEVEL001
   6
CONTINUOUS
  62
7
  10
 336.540
  20
 362.212
  30
0.0
  11
 336.543
  21
 362.154
  31
0.0
   0
LINE
   8
LEVEL001
   6
CONTINUOUS
  62
7
  10
 336.543
  20
 362.154
  30
0.0
  11
 336.553
  21
 362.096
  31
0.0
   0
LINE
   8
LEVEL001
   6
CONTINUOUS
  62
7
  10
 336.553
  20
 362.096
  30
0.0
  11
 336.570
  21
 362.039
  31
0.0
   0
LINE
   8
LEVEL001
   6
CONTINUOUS
  62
7
  10
 336.570
  20
 362.039
  30
0.0
  11
 336.593
  21
 361.982
  31
0.0
   0
LINE
   8
LEVEL001
   6
CONTINUOUS
  62
7
  10
 336.593
  20
 361.982
  30
0.0
  11
 336.622
  21
 361.925
  31
0.0
   0
LINE
   8
LEVEL001
   6
CONTINUOUS
  62
7
  10
 336.622
  20
 361.925
  30
0.0
  11
 336.658
  21
 361.869
  31
0.0
   0
LINE
   8
LEVEL001
   6
CONTINUOUS
  62
7
  10
 336.658
  20
 361.869
  30
0.0
  11
 336.700
  21
 361.814
  31
0.0
   0
LINE
   8
LEVEL001
   6
CONTINUOUS
  62
7
  10
 336.700
  20
 361.814
  30
0.0
  11
 336.749
  21
 361.759
  31
0.0
   0
LINE
   8
LEVEL001
   6
CONTINUOUS
  62
7
  10
 336.749
  20
 361.759
  30
0.0
  11
 336.803
  21
 361.705
  31
0.0
   0
LINE
   8
LEVEL001
   6
CONTINUOUS
  62
7
  10
 336.803
  20
 361.705
  30
0.0
  11
 336.864
  21
 361.652
  31
0.0
   0
LINE
   8
LEVEL001
   6
CONTINUOUS
  62
7
  10
 336.864
  20
 361.652
  30
0.0
  11
 336.931
  21
 361.600
  31
0.0
   0
LINE
   8
LEVEL001
   6
CONTINUOUS
  62
7
  10
 336.931
  20
 361.600
  30
0.0
  11
 337.004
  21
 361.550
  31
0.0
   0
LINE
   8
LEVEL001
   6
CONTINUOUS
  62
7
  10
 337.004
  20
 361.550
  30
0.0
  11
 337.082
  21
 361.500
  31
0.0
   0
LINE
   8
LEVEL001
   6
CONTINUOUS
  62
7
  10
 337.082
  20
 361.500
  30
0.0
  11
 337.166
  21
 361.452
  31
0.0
   0
LINE
   8
LEVEL001
   6
CONTINUOUS
  62
7
  10
 337.166
  20
 361.452
  30
0.0
  11
 337.255
  21
 361.406
  31
0.0
   0
LINE
   8
LEVEL001
   6
CONTINUOUS
  62
7
  10
 337.255
  20
 361.406
  30
0.0
  11
 337.349
  21
 361.361
  31
0.0
   0
LINE
   8
LEVEL001
   6
CONTINUOUS
  62
7
  10
 337.349
  20
 361.361
  30
0.0
  11
 337.449
  21
 361.317
  31
0.0
   0
LINE
   8
LEVEL001
   6
CONTINUOUS
  62
7
  10
 337.449
  20
 361.317
  30
0.0
  11
 337.553
  21
 361.276
  31
0.0
   0
LINE
   8
LEVEL001
   6
CONTINUOUS
  62
7
  10
 337.553
  20
 361.276
  30
0.0
  11
 337.662
  21
 361.236
  31
0.0
   0
LINE
   8
LEVEL001
   6
CONTINUOUS
  62
7
  10
 337.662
  20
 361.236
  30
0.0
  11
 337.776
  21
 361.198
  31
0.0
   0
LINE
   8
LEVEL001
   6
CONTINUOUS
  62
7
  10
 337.776
  20
 361.198
  30
0.0
  11
 337.894
  21
 361.161
  31
0.0
   0
LINE
   8
LEVEL001
   6
CONTINUOUS
  62
7
  10
 337.894
  20
 361.161
  30
0.0
  11
 338.015
  21
 361.127
  31
0.0
   0
LINE
   8
LEVEL001
   6
CONTINUOUS
  62
7
  10
 338.015
  20
 361.127
  30
0.0
  11
 338.141
  21
 361.095
  31
0.0
   0
LINE
   8
LEVEL001
   6
CONTINUOUS
  62
7
  10
 338.141
  20
 361.095
  30
0.0
  11
 338.270
  21
 361.065
  31
0.0
   0
LINE
   8
LEVEL001
   6
CONTINUOUS
  62
7
  10
 338.270
  20
 361.065
  30
0.0
  11
 338.402
  21
 361.037
  31
0.0
   0
LINE
   8
LEVEL001
   6
CONTINUOUS
  62
7
  10
 338.402
  20
 361.037
  30
0.0
  11
 338.538
  21
 361.012
  31
0.0
   0
LINE
   8
LEVEL001
   6
CONTINUOUS
  62
7
  10
 338.538
  20
 361.012
  30
0.0
  11
 338.676
  21
 360.989
  31
0.0
   0
LINE
   8
LEVEL001
   6
CONTINUOUS
  62
7
  10
 338.676
  20
 360.989
  30
0.0
  11
 338.817
  21
 360.968
  31
0.0
   0
LINE
   8
LEVEL001
   6
CONTINUOUS
  62
7
  10
 338.817
  20
 360.968
  30
0.0
  11
 338.960
  21
 360.949
  31
0.0
   0
LINE
   8
LEVEL001
   6
CONTINUOUS
  62
7
  10
 338.960
  20
 360.949
  30
0.0
  11
 339.104
  21
 360.933
  31
0.0
   0
LINE
   8
LEVEL001
   6
CONTINUOUS
  62
7
  10
 339.104
  20
 360.933
  30
0.0
  11
 339.251
  21
 360.919
  31
0.0
   0
LINE
   8
LEVEL001
   6
CONTINUOUS
  62
7
  10
 339.251
  20
 360.919
  30
0.0
  11
 339.399
  21
 360.908
  31
0.0
   0
LINE
   8
LEVEL001
   6
CONTINUOUS
  62
7
  10
 339.399
  20
 360.908
  30
0.0
  11
 339.548
  21
 360.899
  31
0.0
   0
LINE
   8
LEVEL001
   6
CONTINUOUS
  62
7
  10
 339.548
  20
 360.899
  30
0.0
  11
 339.698
  21
 360.893
  31
0.0
   0
LINE
   8
LEVEL001
   6
CONTINUOUS
  62
7
  10
 339.698
  20
 360.893
  30
0.0
  11
 339.849
  21
 360.889
  31
0.0
   0
LINE
   8
LEVEL001
   6
CONTINUOUS
  62
7
  10
 339.849
  20
 360.889
  30
0.0
  11
 340.000
  21
 360.888
  31
0.0
   0
LINE
   8
LEVEL001
   6
CONTINUOUS
  62
7
  10
 340.000
  20
 360.888
  30
0.0
  11
 340.151
  21
 360.889
  31
0.0
   0
LINE
   8
LEVEL001
   6
CONTINUOUS
  62
7
  10
 340.151
  20
 360.889
  30
0.0
  11
 340.302
  21
 360.893
  31
0.0
   0
LINE
   8
LEVEL001
   6
CONTINUOUS
  62
7
  10
 340.302
  20
 360.893
  30
0.0
  11
 340.452
  21
 360.899
  31
0.0
   0
LINE
   8
LEVEL001
   6
CONTINUOUS
  62
7
  10
 340.452
  20
 360.899
  30
0.0
  11
 340.601
  21
 360.908
  31
0.0
   0
LINE
   8
LEVEL001
   6
CONTINUOUS
  62
7
  10
 340.601
  20
 360.908
  30
0.0
  11
 340.749
  21
 360.919
  31
0.0
   0
LINE
   8
LEVEL001
   6
CONTINUOUS
  62
7
  10
 340.749
  20
 360.919
  30
0.0
  11
 340.896
  21
 360.933
  31
0.0
   0
LINE
   8
LEVEL001
   6
CONTINUOUS
  62
7
  10
 340.896
  20
 360.933
  30
0.0
  11
 341.040
  21
 360.949
  31
0.0
   0
LINE
   8
LEVEL001
   6
CONTINUOUS
  62
7
  10
 341.040
  20
 360.949
  30
0.0
  11
 341.183
  21
 360.968
  31
0.0
   0
LINE
   8
LEVEL001
   6
CONTINUOUS
  62
7
  10
 341.183
  20
 360.968
  30
0.0
  11
 341.324
  21
 360.989
  31
0.0
   0
LINE
   8
LEVEL001
   6
CONTINUOUS
  62
7
  10
 341.324
  20
 360.989
  30
0.0
  11
 341.462
  21
 361.012
  31
0.0
   0
LINE
   8
LEVEL001
   6
CONTINUOUS
  62
7
  10
 341.462
  20
 361.012
  30
0.0
  11
 341.598
  21
 361.037
  31
0.0
   0
LINE
   8
LEVEL001
   6
CONTINUOUS
  62
7
  10
 341.598
  20
 361.037
  30
0.0
  11
 341.730
  21
 361.065
  31
0.0
   0
LINE
   8
LEVEL001
   6
CONTINUOUS
  62
7
  10
 341.730
  20
 361.065
  30
0.0
  11
 341.859
  21
 361.095
  31
0.0
   0
LINE
   8
LEVEL001
   6
CONTINUOUS
  62
7
  10
 341.859
  20
 361.095
  30
0.0
  11
 341.985
  21
 361.127
  31
0.0
   0
LINE
   8
LEVEL001
   6
CONTINUOUS
  62
7
  10
 341.985
  20
 361.127
  30
0.0
  11
 342.106
  21
 361.161
  31
0.0
   0
LINE
   8
LEVEL001
   6
CONTINUOUS
  62
7
  10
 342.106
  20
 361.161
  30
0.0
  11
 342.224
  21
 361.198
  31
0.0
   0
LINE
   8
LEVEL001
   6
CONTINUOUS
  62
7
  10
 342.224
  20
 361.198
  30
0.0
  11
 342.338
  21
 361.236
  31
0.0
   0
LINE
   8
LEVEL001
   6
CONTINUOUS
  62
7
  10
 342.338
  20
 361.236
  30
0.0
  11
 342.447
  21
 361.276
  31
0.0
   0
LINE
   8
LEVEL001
   6
CONTINUOUS
  62
7
  10
 342.447
  20
 361.276
  30
0.0
  11
 342.551
  21
 361.317
  31
0.0
   0
LINE
   8
LEVEL001
   6
CONTINUOUS
  62
7
  10
 342.551
  20
 361.317
  30
0.0
  11
 342.651
  21
 361.361
  31
0.0
   0
LINE
   8
LEVEL001
   6
CONTINUOUS
  62
7
  10
 342.651
  20
 361.361
  30
0.0
  11
 342.745
  21
 361.406
  31
0.0
   0
LINE
   8
LEVEL001
   6
CONTINUOUS
  62
7
  10
 342.745
  20
 361.406
  30
0.0
  11
 342.834
  21
 361.452
  31
0.0
   0
LINE
   8
LEVEL001
   6
CONTINUOUS
  62
7
  10
 342.834
  20
 361.452
  30
0.0
  11
 342.918
  21
 361.500
  31
0.0
   0
LINE
   8
LEVEL001
   6
CONTINUOUS
  62
7
  10
 342.918
  20
 361.500
  30
0.0
  11
 342.996
  21
 361.550
  31
0.0
   0
LINE
   8
LEVEL001
   6
CONTINUOUS
  62
7
  10
 342.996
  20
 361.550
  30
0.0
  11
 343.069
  21
 361.600
  31
0.0
   0
LINE
   8
LEVEL001
   6
CONTINUOUS
  62
7
  10
 343.069
  20
 361.600
  30
0.0
  11
 343.136
  21
 361.652
  31
0.0
   0
LINE
   8
LEVEL001
   6
CONTINUOUS
  62
7
  10
 343.136
  20
 361.652
  30
0.0
  11
 343.197
  21
 361.705
  31
0.0
   0
LINE
   8
LEVEL001
   6
CONTINUOUS
  62
7
  10
 343.197
  20
 361.705
  30
0.0
  11
 343.251
  21
 361.759
  31
0.0
   0
LINE
   8
LEVEL001
   6
CONTINUOUS
  62
7
  10
 343.251
  20
 361.759
  30
0.0
  11
 343.300
  21
 361.814
  31
0.0
   0
LINE
   8
LEVEL001
   6
CONTINUOUS
  62
7
  10
 343.300
  20
 361.814
  30
0.0
  11
 343.342
  21
 361.869
  31
0.0
   0
LINE
   8
LEVEL001
   6
CONTINUOUS
  62
7
  10
 343.342
  20
 361.869
  30
0.0
  11
 343.378
  21
 361.925
  31
0.0
   0
LINE
   8
LEVEL001
   6
CONTINUOUS
  62
7
  10
 343.378
  20
 361.925
  30
0.0
  11
 343.407
  21
 361.982
  31
0.0
   0
LINE
   8
LEVEL001
   6
CONTINUOUS
  62
7
  10
 343.407
  20
 361.982
  30
0.0
  11
 343.430
  21
 362.039
  31
0.0
   0
LINE
   8
LEVEL001
   6
CONTINUOUS
  62
7
  10
 343.430
  20
 362.039
  30
0.0
  11
 343.447
  21
 362.096
  31
0.0
   0
LINE
   8
LEVEL001
   6
CONTINUOUS
  62
7
  10
 343.447
  20
 362.096
  30
0.0
  11
 343.457
  21
 362.154
  31
0.0
   0
LINE
   8
LEVEL001
   6
CONTINUOUS
  62
7
  10
 343.457
  20
 362.154
  30
0.0
  11
 343.460
  21
 362.212
  31
0.0
   0
ARC
   8
LEVEL001
   6
CONTINUOUS
  62
7
  10
 337.061
  20
 365.697
  30
0.0
  40
 6.28019
  50
 337.893
  51
 352.464
   0
ARC
   8
LEVEL001
   6
CONTINUOUS
  62
7
  10
 344.013
  20
 363.209
  30
0.0
  40
 1.13965
  50
 173.696
  51
 240.986
   0
ARC
   8
LEVEL001
   6
CONTINUOUS
  62
7
  10
 342.939
  20
 365.697
  30
0.0
  40
 6.28019
  50
 187.536
  51
 202.107
   0
ARC
   8
LEVEL001
   6
CONTINUOUS
  62
7
  10
 335.987
  20
 363.209
  30
0.0
  40
 1.13965
  50
 299.014
  51
 6.30441
   0
LINE
   8
LEVEL001
   6
CONTINUOUS
  62
7
  10
 343.464
  20
 361.438
  30
0.0
  11
 340.000
  21
 360.665
  31
0.0
   0
LINE
   8
LEVEL001
   6
CONTINUOUS
  62
7
  10
 340.000
  20
 360.665
  30
0.0
  11
 336.536
  21
 361.438
  31
0.0
   0
LINE
   8
LEVEL001
   6
CONTINUOUS
  62
7
  10
 336.536
  20
 362.985
  30
0.0
  11
 337.123
  21
 363.116
  31
0.0
   0
LINE
   8
LEVEL001
   6
CONTINUOUS
  62
7
  10
 342.877
  20
 363.116
  30
0.0
  11
 343.464
  21
 362.985
  31
0.0
   0
LINE
   8
LEVEL001
   6
CONTINUOUS
  62
7
  10
 336.536
  20
 362.985
  30
0.0
  11
 336.536
  21
 359.221
  31
0.0
   0
LINE
   8
LEVEL001
   6
CONTINUOUS
  62
7
  10
 343.464
  20
 359.221
  30
0.0
  11
 343.464
  21
 362.985
  31
0.0
   0
LINE
   8
LEVEL001
   6
CONTINUOUS
  62
7
  10
 336.536
  20
 359.221
  30
0.0
  11
 340.000
  21
 358.448
  31
0.0
   0
LINE
   8
LEVEL001
   6
CONTINUOUS
  62
7
  10
 340.000
  20
 358.448
  30
0.0
  11
 343.464
  21
 359.221
  31
0.0
   0
ARC
   8
LEVEL001
   6
CONTINUOUS
  62
7
  10
 340.000
  20
 355.000
  30
0.0
  40
 6.33000
  50
 123.179
  51
 56.8213
   0
LINE
   8
LEVEL001
   6
CONTINUOUS
  62
7
  10
 348.083
  20
 355.000
  30
0.0
  11
 344.041
  21
 362.000
  31
0.0
   0
LINE
   8
LEVEL001
   6
CONTINUOUS
  62
7
  10
 335.959
  20
 362.000
  30
0.0
  11
 331.917
  21
 355.000
  31
0.0
   0
LINE
   8
LEVEL001
   6
CONTINUOUS
  62
7
  10
 331.917
  20
 355.000
  30
0.0
  11
 335.959
  21
 348.000
  31
0.0
   0
LINE
   8
LEVEL001
   6
CONTINUOUS
  62
7
  10
 335.959
  20
 348.000
  30
0.0
  11
 344.041
  21
 348.000
  31
0.0
   0
LINE
   8
LEVEL001
   6
CONTINUOUS
  62
7
  10
 344.041
  20
 348.000
  30
0.0
  11
 348.083
  21
 355.000
  31
0.0
   0
LINE
   8
LEVEL001
   6
CONTINUOUS
  62
7
  10
 344.041
  20
 362.000
  30
0.0
  11
 343.464
  21
 362.000
  31
0.0
   0
LINE
   8
LEVEL001
   6
CONTINUOUS
  62
7
  10
 336.536
  20
 362.000
  30
0.0
  11
 335.959
  21
 362.000
  31
0.0
   0
LINE
   8
LEVEL001
   6
CONTINUOUS
  62
7
  10
 340.000
  20
 360.665
  30
0.0
  11
 340.000
  21
 358.448
  31
0.0
   0
LINE
   8
LEVEL001
   6
CONTINUOUS
  62
7
  10
 934.436
  20
 574.600
  30
0.0
  11
 921.436
  21
 574.600
  31
0.0
   0
LINE
   8
LEVEL001
   6
CONTINUOUS
  62
7
  10
 934.436
  20
 574.600
  30
0.0
  11
 934.436
  21
 567.000
  31
0.0
   0
LINE
   8
LEVEL001
   6
CONTINUOUS
  62
7
  10
 933.746
  20
 575.000
  30
0.0
  11
 934.436
  21
 574.600
  31
0.0
   0
LINE
   8
LEVEL001
   6
CONTINUOUS
  62
7
  10
 922.129
  20
 575.000
  30
0.0
  11
 933.746
  21
 575.000
  31
0.0
   0
LINE
   8
LEVEL001
   6
CONTINUOUS
  62
7
  10
 921.436
  20
 574.600
  30
0.0
  11
 922.129
  21
 575.000
  31
0.0
   0
LINE
   8
LEVEL001
   6
CONTINUOUS
  62
7
  10
 921.436
  20
 567.000
  30
0.0
  11
 921.436
  21
 574.600
  31
0.0
   0
LINE
   8
LEVEL001
   6
CONTINUOUS
  62
7
  10
 878.564
  20
 574.600
  30
0.0
  11
 865.564
  21
 574.600
  31
0.0
   0
LINE
   8
LEVEL001
   6
CONTINUOUS
  62
7
  10
 878.564
  20
 574.600
  30
0.0
  11
 878.564
  21
 567.000
  31
0.0
   0
LINE
   8
LEVEL001
   6
CONTINUOUS
  62
7
  10
 877.874
  20
 575.000
  30
0.0
  11
 878.564
  21
 574.600
  31
0.0
   0
LINE
   8
LEVEL001
   6
CONTINUOUS
  62
7
  10
 866.257
  20
 575.000
  30
0.0
  11
 877.874
  21
 575.000
  31
0.0
   0
LINE
   8
LEVEL001
   6
CONTINUOUS
  62
7
  10
 865.564
  20
 574.600
  30
0.0
  11
 866.257
  21
 575.000
  31
0.0
   0
LINE
   8
LEVEL001
   6
CONTINUOUS
  62
7
  10
 865.564
  20
 567.000
  30
0.0
  11
 865.564
  21
 574.600
  31
0.0
   0
LINE
   8
LEVEL001
   6
CONTINUOUS
  62
7
  10
 839.057
  20
 574.600
  30
0.0
  11
 826.057
  21
 574.600
  31
0.0
   0
LINE
   8
LEVEL001
   6
CONTINUOUS
  62
7
  10
 839.057
  20
 574.600
  30
0.0
  11
 839.057
  21
 567.000
  31
0.0
   0
LINE
   8
LEVEL001
   6
CONTINUOUS
  62
7
  10
 838.367
  20
 575.000
  30
0.0
  11
 839.057
  21
 574.600
  31
0.0
   0
LINE
   8
LEVEL001
   6
CONTINUOUS
  62
7
  10
 826.750
  20
 575.000
  30
0.0
  11
 838.367
  21
 575.000
  31
0.0
   0
LINE
   8
LEVEL001
   6
CONTINUOUS
  62
7
  10
 826.057
  20
 574.600
  30
0.0
  11
 826.750
  21
 575.000
  31
0.0
   0
LINE
   8
LEVEL001
   6
CONTINUOUS
  62
7
  10
 826.057
  20
 567.000
  30
0.0
  11
 826.057
  21
 574.600
  31
0.0
   0
LINE
   8
LEVEL001
   6
CONTINUOUS
  62
7
  10
 973.943
  20
 574.600
  30
0.0
  11
 960.943
  21
 574.600
  31
0.0
   0
LINE
   8
LEVEL001
   6
CONTINUOUS
  62
7
  10
 973.943
  20
 574.600
  30
0.0
  11
 973.943
  21
 567.000
  31
0.0
   0
LINE
   8
LEVEL001
   6
CONTINUOUS
  62
7
  10
 973.253
  20
 575.000
  30
0.0
  11
 973.943
  21
 574.600
  31
0.0
   0
LINE
   8
LEVEL001
   6
CONTINUOUS
  62
7
  10
 961.636
  20
 575.000
  30
0.0
  11
 973.253
  21
 575.000
  31
0.0
   0
LINE
   8
LEVEL001
   6
CONTINUOUS
  62
7
  10
 960.943
  20
 574.600
  30
0.0
  11
 961.636
  21
 575.000
  31
0.0
   0
LINE
   8
LEVEL001
   6
CONTINUOUS
  62
7
  10
 960.943
  20
 567.000
  30
0.0
  11
 960.943
  21
 574.600
  31
0.0
   0
LINE
   8
LEVEL001
   6
CONTINUOUS
  62
7
  10
 1007.50
  20
 475.000
  30
0.0
  11
 1032.50
  21
 475.000
  31
0.0
   0
LINE
   8
LEVEL001
   6
CONTINUOUS
  62
7
  10
 273.009
  20
 419.500
  30
0.0
  11
 165.250
  21
 417.500
  31
0.0
   0
LINE
   8
LEVEL001
   6
CONTINUOUS
  62
7
  10
 327.972
  20
 419.482
  30
0.0
  11
 434.750
  21
 417.500
  31
0.0
   0
LINE
   8
LEVEL001
   6
CONTINUOUS
  62
7
  10
 839.048
  20
 297.000
  30
0.0
  11
 1007.62
  21
 297.000
  31
0.0
   0
LINE
   8
LEVEL001
   6
DASHDOT
  62
1
  10
 1058.00
  20
 287.000
  30
0.0
  11
 1058.00
  21
 230.000
  31
0.0
   0
LINE
   8
LEVEL001
   6
DASHDOT
  62
1
  10
 682.000
  20
 287.000
  30
0.0
  11
 682.000
  21
 230.000
  31
0.0
   0
LINE
   8
LEVEL001
   6
DASHDOT
  62
1
  10
 818.694
  20
 355.000
  30
0.0
  11
 738.653
  21
 355.000
  31
0.0
   0
LINE
   8
LEVEL001
   6
DASHDOT
  62
1
  10
 780.000
  20
 393.404
  30
0.0
  11
 780.000
  21
 314.996
  31
0.0
   0
LINE
   8
LEVEL001
   6
DASHDOT
  62
1
  10
 40.0000
  20
 355.000
  30
0.0
  11
 560.000
  21
 355.000
  31
0.0
   0
LINE
   8
LEVEL001
   6
DASHDOT
  62
1
  10
 215.000
  20
 285.560
  30
0.0
  11
 215.000
  21
 226.737
  31
0.0
   0
LINE
   8
LEVEL001
   6
DASHDOT
  62
1
  10
 385.000
  20
 285.166
  30
0.0
  11
 385.000
  21
 227.527
  31
0.0
   0
LINE
   8
LEVEL001
   6
DASHDOT
  62
1
  10
 900.000
  20
 50.0000
  30
0.0
  11
 900.000
  21
 994.000
  31
0.0
   0
LINE
   8
LEVEL001
   6
DASHDOT
  62
1
  10
 300.000
  20
 50.0000
  30
0.0
  11
 300.000
  21
 994.000
  31
0.0
   0
CIRCLE
   8
LEVEL001
   6
CONTINUOUS
  62
7
  10
 300.000
  20
 1380.00
  30
0.0
  40
 9.31550
   0
CIRCLE
   8
LEVEL001
   6
CONTINUOUS
  62
7
  10
 300.000
  20
 1380.00
  30
0.0
  40
 10.4775
   0
LINE
   8
LEVEL001
   6
CONTINUOUS
  62
7
  10
 295.000
  20
 1382.89
  30
0.0
  11
 300.000
  21
 1385.77
  31
0.0
   0
LINE
   8
LEVEL001
   6
CONTINUOUS
  62
7
  10
 295.000
  20
 1377.11
  30
0.0
  11
 295.000
  21
 1382.89
  31
0.0
   0
LINE
   8
LEVEL001
   6
CONTINUOUS
  62
7
  10
 300.000
  20
 1374.23
  30
0.0
  11
 295.000
  21
 1377.11
  31
0.0
   0
LINE
   8
LEVEL001
   6
CONTINUOUS
  62
7
  10
 305.000
  20
 1377.11
  30
0.0
  11
 300.000
  21
 1374.23
  31
0.0
   0
LINE
   8
LEVEL001
   6
CONTINUOUS
  62
7
  10
 305.000
  20
 1382.89
  30
0.0
  11
 305.000
  21
 1377.11
  31
0.0
   0
LINE
   8
LEVEL001
   6
CONTINUOUS
  62
7
  10
 300.000
  20
 1385.77
  30
0.0
  11
 305.000
  21
 1382.89
  31
0.0
   0
CIRCLE
   8
LEVEL001
   6
CONTINUOUS
  62
7
  10
 300.000
  20
 1380.00
  30
0.0
  40
 57.5000
   0
CIRCLE
   8
LEVEL001
   6
CONTINUOUS
  62
7
  10
 300.000
  20
 1380.00
  30
0.0
  40
 81.0001
   0
CIRCLE
   8
LEVEL001
   6
CONTINUOUS
  62
7
  10
 300.000
  20
 1380.00
  30
0.0
  40
 60.0000
   0
ARC
   8
LEVEL001
   6
CONTINUOUS
  62
7
  10
 451.000
  20
 1198.50
  30
0.0
  40
 2.00000
  50
 270.000
  51
0.0
   0
LINE
   8
LEVEL001
   6
CONTINUOUS
  62
7
  10
 434.750
  20
 1196.50
  30
0.0
  11
 451.000
  21
 1196.50
  31
0.0
   0
LINE
   8
LEVEL001
   6
CONTINUOUS
  62
7
  10
 453.000
  20
 1237.50
  30
0.0
  11
 458.000
  21
 1237.50
  31
0.0
   0
LINE
   8
LEVEL001
   6
CONTINUOUS
  62
7
  10
 549.000
  20
 1254.00
  30
0.0
  11
 549.000
  21
 1240.00
  31
0.0
   0
LINE
   8
LEVEL001
   6
CONTINUOUS
  62
7
  10
 468.000
  20
 1240.00
  30
0.0
  11
 549.000
  21
 1240.00
  31
0.0
   0
LINE
   8
LEVEL001
   6
CONTINUOUS
  62
7
  10
 549.000
  20
 1240.00
  30
0.0
  11
 550.000
  21
 1241.00
  31
0.0
   0
LINE
   8
LEVEL001
   6
CONTINUOUS
  62
7
  10
 468.000
  20
 1254.00
  30
0.0
  11
 468.000
  21
 1240.00
  31
0.0
   0
LINE
   8
LEVEL001
   6
CONTINUOUS
  62
7
  10
 461.059
  20
 1254.00
  30
0.0
  11
 550.000
  21
 1254.00
  31
0.0
   0
LINE
   8
LEVEL001
   6
CONTINUOUS
  62
7
  10
 458.000
  20
 1237.50
  30
0.0
  11
 468.000
  21
 1240.00
  31
0.0
   0
LINE
   8
LEVEL001
   6
CONTINUOUS
  62
7
  10
 434.750
  20
 1323.50
  30
0.0
  11
 451.000
  21
 1323.50
  31
0.0
   0
ARC
   8
LEVEL001
   6
CONTINUOUS
  62
7
  10
 451.000
  20
 1321.50
  30
0.0
  40
 2.00000
  50
 0.655000E-3
  51
 90.0011
   0
LINE
   8
LEVEL001
   6
CONTINUOUS
  62
7
  10
 434.550
  20
 1322.50
  30
0.0
  11
 434.550
  21
 1197.50
  31
0.0
   0
LINE
   8
LEVEL001
   6
CONTINUOUS
  62
7
  10
 453.000
  20
 1282.50
  30
0.0
  11
 458.000
  21
 1282.50
  31
0.0
   0
LINE
   8
LEVEL001
   6
CONTINUOUS
  62
7
  10
 453.000
  20
 1321.50
  30
0.0
  11
 453.000
  21
 1198.50
  31
0.0
   0
LINE
   8
LEVEL001
   6
CONTINUOUS
  62
7
  10
 434.750
  20
 1196.50
  30
0.0
  11
 434.750
  21
 1323.50
  31
0.0
   0
LINE
   8
LEVEL001
   6
CONTINUOUS
  62
7
  10
 549.000
  20
 1280.00
  30
0.0
  11
 549.000
  21
 1266.00
  31
0.0
   0
LINE
   8
LEVEL001
   6
CONTINUOUS
  62
7
  10
 550.000
  20
 1279.00
  30
0.0
  11
 550.000
  21
 1241.00
  31
0.0
   0
LINE
   8
LEVEL001
   6
CONTINUOUS
  62
7
  10
 549.000
  20
 1280.00
  30
0.0
  11
 468.000
  21
 1280.00
  31
0.0
   0
LINE
   8
LEVEL001
   6
CONTINUOUS
  62
7
  10
 549.000
  20
 1280.00
  30
0.0
  11
 550.000
  21
 1279.00
  31
0.0
   0
LINE
   8
LEVEL001
   6
CONTINUOUS
  62
7
  10
 480.000
  20
 1266.00
  30
0.0
  11
 480.000
  21
 1254.00
  31
0.0
   0
LINE
   8
LEVEL001
   6
CONTINUOUS
  62
7
  10
 468.000
  20
 1280.00
  30
0.0
  11
 468.000
  21
 1266.00
  31
0.0
   0
LINE
   8
LEVEL001
   6
CONTINUOUS
  62
7
  10
 461.059
  20
 1266.00
  30
0.0
  11
 461.059
  21
 1254.00
  31
0.0
   0
LINE
   8
LEVEL001
   6
CONTINUOUS
  62
7
  10
 461.059
  20
 1266.00
  30
0.0
  11
 550.000
  21
 1266.00
  31
0.0
   0
LINE
   8
LEVEL001
   6
CONTINUOUS
  62
7
  10
 458.000
  20
 1282.50
  30
0.0
  11
 468.000
  21
 1280.00
  31
0.0
   0
LINE
   8
LEVEL001
   6
CONTINUOUS
  62
7
  10
 458.000
  20
 1282.50
  30
0.0
  11
 458.000
  21
 1237.50
  31
0.0
   0
ARC
   8
LEVEL001
   6
CONTINUOUS
  62
7
  10
 300.000
  20
 1380.00
  30
0.0
  40
 127.500
  50
 277.099
  51
 340.988
   0
LINE
   8
LEVEL001
   6
CONTINUOUS
  62
7
  10
 165.450
  20
 1322.50
  30
0.0
  11
 165.450
  21
 1197.50
  31
0.0
   0
LINE
   8
LEVEL001
   6
CONTINUOUS
  62
7
  10
 346.606
  20
 1194.76
  30
0.0
  11
 345.723
  21
 1195.65
  31
0.0
   0
LINE
   8
LEVEL001
   6
CONTINUOUS
  62
7
  10
 333.394
  20
 1194.76
  30
0.0
  11
 334.277
  21
 1195.65
  31
0.0
   0
LINE
   8
LEVEL001
   6
CONTINUOUS
  62
7
  10
 346.572
  20
 1195.86
  30
0.0
  11
 346.606
  21
 1194.76
  31
0.0
   0
LINE
   8
LEVEL001
   6
CONTINUOUS
  62
7
  10
 333.394
  20
 1194.76
  30
0.0
  11
 333.421
  21
 1195.62
  31
0.0
   0
ARC
   8
LEVEL001
   6
CONTINUOUS
  62
7
  10
 331.726
  20
 1186.13
  30
0.0
  40
 8.73264
  50
 61.0757
  51
 81.6140
   0
ARC
   8
LEVEL001
   6
CONTINUOUS
  62
7
  10
 340.000
  20
 1186.03
  30
0.0
  40
 8.73264
  50
 62.3690
  51
 117.631
   0
ARC
   8
LEVEL001
   6
CONTINUOUS
  62
7
  10
 348.274
  20
 1186.13
  30
0.0
  40
 8.73264
  50
 98.3854
  51
 118.924
   0
ARC
   8
LEVEL001
   6
CONTINUOUS
  62
7
  10
 340.000
  20
 1188.34
  30
0.0
  40
 9.93811
  50
 287.065
  51
 298.731
   0
ARC
   8
LEVEL001
   6
CONTINUOUS
  62
7
  10
 343.335
  20
 1182.25
  30
0.0
  40
 3.00000
  50
 298.732
  51
 0.125400E-2
   0
LINE
   8
LEVEL001
   6
CONTINUOUS
  62
7
  10
 346.335
  20
 1182.25
  30
0.0
  11
 346.335
  21
 1190.01
  31
0.0
   0
ARC
   8
LEVEL001
   6
CONTINUOUS
  62
7
  10
 340.000
  20
 1188.34
  30
0.0
  40
 9.93811
  50
 241.269
  51
 252.935
   0
ARC
   8
LEVEL001
   6
CONTINUOUS
  62
7
  10
 336.665
  20
 1182.25
  30
0.0
  40
 3.00000
  50
 180.000
  51
 241.269
   0
LINE
   8
LEVEL001
   6
CONTINUOUS
  62
7
  10
 333.665
  20
 1182.25
  30
0.0
  11
 333.665
  21
 1190.01
  31
0.0
   0
LINE
   8
LEVEL001
   6
CONTINUOUS
  62
7
  10
 336.500
  20
 1179.54
  30
0.0
  11
 336.849
  21
 1179.36
  31
0.0
   0
LINE
   8
LEVEL001
   6
CONTINUOUS
  62
7
  10
 336.500
  20
 1183.28
  30
0.0
  11
 336.500
  21
 1179.54
  31
0.0
   0
LINE
   8
LEVEL001
   6
CONTINUOUS
  62
7
  10
 340.000
  20
 1185.15
  30
0.0
  11
 336.500
  21
 1183.28
  31
0.0
   0
LINE
   8
LEVEL001
   6
CONTINUOUS
  62
7
  10
 343.500
  20
 1183.28
  30
0.0
  11
 340.000
  21
 1185.15
  31
0.0
   0
LINE
   8
LEVEL001
   6
CONTINUOUS
  62
7
  10
 343.500
  20
 1179.54
  30
0.0
  11
 343.500
  21
 1183.28
  31
0.0
   0
LINE
   8
LEVEL001
   6
CONTINUOUS
  62
7
  10
 343.151
  20
 1179.36
  30
0.0
  11
 343.500
  21
 1179.54
  31
0.0
   0
LINE
   8
LEVEL001
   6
CONTINUOUS
  62
7
  10
 340.000
  20
 1185.15
  30
0.0
  11
 340.000
  21
 1186.06
  31
0.0
   0
LINE
   8
LEVEL001
   6
CONTINUOUS
  62
7
  10
 336.500
  20
 1184.20
  30
0.0
  11
 336.500
  21
 1183.28
  31
0.0
   0
LINE
   8
LEVEL001
   6
CONTINUOUS
  62
7
  10
 340.000
  20
 1186.06
  30
0.0
  11
 336.500
  21
 1184.20
  31
0.0
   0
LINE
   8
LEVEL001
   6
CONTINUOUS
  62
7
  10
 343.500
  20
 1184.20
  30
0.0
  11
 340.000
  21
 1186.06
  31
0.0
   0
LINE
   8
LEVEL001
   6
CONTINUOUS
  62
7
  10
 343.500
  20
 1183.28
  30
0.0
  11
 343.500
  21
 1184.20
  31
0.0
   0
LINE
   8
LEVEL001
   6
CONTINUOUS
  62
7
  10
 347.000
  20
 1190.40
  30
0.0
  11
 346.335
  21
 1190.01
  31
0.0
   0
LINE
   8
LEVEL001
   6
CONTINUOUS
  62
7
  10
 333.665
  20
 1190.01
  30
0.0
  11
 346.335
  21
 1190.01
  31
0.0
   0
LINE
   8
LEVEL001
   6
CONTINUOUS
  62
7
  10
 333.000
  20
 1190.40
  30
0.0
  11
 333.665
  21
 1190.01
  31
0.0
   0
LINE
   8
LEVEL001
   6
CONTINUOUS
  62
7
  10
 347.000
  20
 1190.40
  30
0.0
  11
 333.000
  21
 1190.40
  31
0.0
   0
ARC
   8
LEVEL001
   6
CONTINUOUS
  62
7
  10
 340.000
  20
 1199.13
  30
0.0
  40
 8.73264
  50
 242.369
  51
 297.631
   0
LINE
   8
LEVEL001
   6
CONTINUOUS
  62
7
  10
 333.000
  20
 1194.76
  30
0.0
  11
 347.000
  21
 1194.76
  31
0.0
   0
ARC
   8
LEVEL001
   6
CONTINUOUS
  62
7
  10
 348.274
  20
 1199.04
  30
0.0
  40
 8.73264
  50
 241.075
  51
 261.613
   0
ARC
   8
LEVEL001
   6
CONTINUOUS
  62
7
  10
 331.726
  20
 1199.04
  30
0.0
  40
 8.73264
  50
 278.387
  51
 298.926
   0
LINE
   8
LEVEL001
   6
CONTINUOUS
  62
7
  10
 331.900
  20
 1191.03
  30
0.0
  11
 333.000
  21
 1190.40
  31
0.0
   0
LINE
   8
LEVEL001
   6
CONTINUOUS
  62
7
  10
 331.900
  20
 1193.67
  30
0.0
  11
 331.900
  21
 1191.03
  31
0.0
   0
LINE
   8
LEVEL001
   6
CONTINUOUS
  62
7
  10
 333.000
  20
 1194.76
  30
0.0
  11
 331.900
  21
 1193.67
  31
0.0
   0
LINE
   8
LEVEL001
   6
CONTINUOUS
  62
7
  10
 348.100
  20
 1193.67
  30
0.0
  11
 347.000
  21
 1194.76
  31
0.0
   0
LINE
   8
LEVEL001
   6
CONTINUOUS
  62
7
  10
 348.100
  20
 1191.03
  30
0.0
  11
 348.100
  21
 1193.67
  31
0.0
   0
LINE
   8
LEVEL001
   6
CONTINUOUS
  62
7
  10
 347.000
  20
 1190.40
  30
0.0
  11
 348.100
  21
 1191.03
  31
0.0
   0
LINE
   8
LEVEL001
   6
CONTINUOUS
  62
7
  10
 344.050
  20
 1191.40
  30
0.0
  11
 344.050
  21
 1193.77
  31
0.0
   0
LINE
   8
LEVEL001
   6
CONTINUOUS
  62
7
  10
 335.950
  20
 1191.40
  30
0.0
  11
 335.950
  21
 1193.77
  31
0.0
   0
ARC
   8
LEVEL001
   6
CONTINUOUS
  62
7
  10
 280.000
  20
 1564.76
  30
0.0
  40
 10.0000
  50
0.0
  51
 90.6723
   0
LINE
   8
LEVEL001
   6
CONTINUOUS
  62
7
  10
 290.000
  20
 1564.76
  30
0.0
  11
 290.000
  21
 1516.04
  31
0.0
   0
ARC
   8
LEVEL001
   6
CONTINUOUS
  62
7
  10
 280.000
  20
 1516.04
  30
0.0
  40
 10.0000
  50
 278.364
  51
0.0
   0
LINE
   8
LEVEL001
   6
CONTINUOUS
  62
7
  10
 310.000
  20
 1564.76
  30
0.0
  11
 310.000
  21
 1516.04
  31
0.0
   0
ARC
   8
LEVEL001
   6
CONTINUOUS
  62
7
  10
 320.000
  20
 1564.76
  30
0.0
  40
 10.0000
  50
 89.3277
  51
 180.000
   0
ARC
   8
LEVEL001
   6
CONTINUOUS
  62
7
  10
 320.000
  20
 1516.04
  30
0.0
  40
 10.0000
  50
 180.000
  51
 261.636
   0
LINE
   8
LEVEL001
   6
CONTINUOUS
  62
7
  10
 290.000
  20
 1195.14
  30
0.0
  11
 290.000
  21
 1135.24
  31
0.0
   0
LINE
   8
LEVEL001
   6
CONTINUOUS
  62
7
  10
 310.000
  20
 1195.14
  30
0.0
  11
 310.000
  21
 1135.24
  31
0.0
   0
ARC
   8
LEVEL001
   6
CONTINUOUS
  62
7
  10
 280.000
  20
 1135.24
  30
0.0
  40
 10.0000
  50
 269.328
  51
 0.300000E-5
   0
ARC
   8
LEVEL001
   6
CONTINUOUS
  62
7
  10
 320.000
  20
 1135.24
  30
0.0
  40
 10.0000
  50
 180.000
  51
 270.672
   0
LINE
   8
LEVEL001
   6
CONTINUOUS
  62
7
  10
 280.185
  20
 1195.37
  30
0.0
  11
 165.250
  21
 1197.50
  31
0.0
   0
ARC
   8
LEVEL001
   6
CONTINUOUS
  62
7
  10
 280.000
  20
 1185.37
  30
0.0
  40
 10.0000
  50
 0.205000E-3
  51
 88.9373
   0
LINE
   8
LEVEL001
   6
CONTINUOUS
  62
7
  10
 319.814
  20
 1195.37
  30
0.0
  11
 434.750
  21
 1197.50
  31
0.0
   0
ARC
   8
LEVEL001
   6
CONTINUOUS
  62
7
  10
 320.000
  20
 1185.37
  30
0.0
  40
 10.0000
  50
 91.0632
  51
 180.000
   0
ARC
   8
LEVEL001
   6
CONTINUOUS
  62
7
  10
 280.000
  20
 1195.14
  30
0.0
  40
 10.0000
  50
 0.130276E-11
  51
 88.9373
   0
ARC
   8
LEVEL001
   6
CONTINUOUS
  62
7
  10
 320.000
  20
 1195.14
  30
0.0
  40
 10.0000
  50
 91.0632
  51
 180.000
   0
LINE
   8
LEVEL001
   6
CONTINUOUS
  62
7
  10
 176.623
  20
 1197.29
  30
0.0
  11
 179.076
  21
 1159.66
  31
0.0
   0
LINE
   8
LEVEL001
   6
CONTINUOUS
  62
7
  10
 165.286
  20
 1371.22
  30
0.0
  11
 168.457
  21
 1322.57
  31
0.0
   0
LINE
   8
LEVEL001
   6
CONTINUOUS
  62
7
  10
 431.543
  20
 1322.57
  30
0.0
  11
 434.714
  21
 1371.22
  31
0.0
   0
LINE
   8
LEVEL001
   6
CONTINUOUS
  62
7
  10
 420.924
  20
 1159.66
  30
0.0
  11
 423.377
  21
 1197.29
  31
0.0
   0
ARC
   8
LEVEL001
   6
CONTINUOUS
  62
7
  10
 300.000
  20
 1380.00
  30
0.0
  40
 127.500
  50
 97.0988
  51
 262.901
   0
ARC
   8
LEVEL001
   6
CONTINUOUS
  62
7
  10
 300.000
  20
 1260.00
  30
0.0
  40
 15.0000
  50
 289.471
  51
 0.580000E-4
   0
ARC
   8
LEVEL001
   6
CONTINUOUS
  62
7
  10
 300.000
  20
 1260.00
  30
0.0
  40
 15.0000
  50
 180.000
  51
 250.529
   0
ARC
   8
LEVEL001
   6
CONTINUOUS
  62
7
  10
 316.374
  20
 1248.52
  30
0.0
  40
 5.00000
  50
 97.0985
  51
 144.955
   0
ARC
   8
LEVEL001
   6
CONTINUOUS
  62
7
  10
 283.626
  20
 1248.52
  30
0.0
  40
 5.00000
  50
 35.0446
  51
 82.9015
   0
LINE
   8
LEVEL001
   6
CONTINUOUS
  62
7
  10
 315.000
  20
 1260.00
  30
0.0
  11
 315.000
  21
 1274.50
  31
0.0
   0
ARC
   8
LEVEL001
   6
CONTINUOUS
  62
7
  10
 320.000
  20
 1274.50
  30
0.0
  40
 5.00000
  50
 90.0000
  51
 180.000
   0
LINE
   8
LEVEL001
   6
CONTINUOUS
  62
7
  10
 285.000
  20
 1260.00
  30
0.0
  11
 285.000
  21
 1274.50
  31
0.0
   0
ARC
   8
LEVEL001
   6
CONTINUOUS
  62
7
  10
 280.000
  20
 1274.50
  30
0.0
  40
 5.00000
  50
 0.700000E-5
  51
 90.0000
   0
ARC
   8
LEVEL001
   6
CONTINUOUS
  62
7
  10
 300.000
  20
 1260.00
  30
0.0
  40
 12.5000
  50
 293.578
  51
 66.4219
   0
LINE
   8
LEVEL001
   6
CONTINUOUS
  62
7
  10
 305.000
  20
 1280.00
  30
0.0
  11
 305.000
  21
 1240.00
  31
0.0
   0
ARC
   8
LEVEL001
   6
CONTINUOUS
  62
7
  10
 300.000
  20
 1280.00
  30
0.0
  40
 5.00000
  50
 0.279757E-1
  51
 179.972
   0
ARC
   8
LEVEL001
   6
CONTINUOUS
  62
7
  10
 300.000
  20
 1260.00
  30
0.0
  40
 12.5000
  50
 113.578
  51
 246.422
   0
LINE
   8
LEVEL001
   6
CONTINUOUS
  62
7
  10
 295.000
  20
 1240.00
  30
0.0
  11
 295.000
  21
 1280.00
  31
0.0
   0
ARC
   8
LEVEL001
   6
CONTINUOUS
  62
7
  10
 300.000
  20
 1240.00
  30
0.0
  40
 5.00000
  50
 179.972
  51
 0.279773E-1
   0
ARC
   8
LEVEL001
   6
CONTINUOUS
  62
7
  10
 300.000
  20
 1380.00
  30
0.0
  40
 127.500
  50
 340.988
  51
 82.9014
   0
ARC
   8
LEVEL001
   6
CONTINUOUS
  62
7
  10
 316.374
  20
 1511.48
  30
0.0
  40
 5.00000
  50
 215.045
  51
 262.901
   0
ARC
   8
LEVEL001
   6
CONTINUOUS
  62
7
  10
 283.626
  20
 1511.48
  30
0.0
  40
 5.00000
  50
 277.099
  51
 324.955
   0
LINE
   8
LEVEL001
   6
CONTINUOUS
  62
7
  10
 285.000
  20
 1500.00
  30
0.0
  11
 285.000
  21
 1485.50
  31
0.0
   0
ARC
   8
LEVEL001
   6
CONTINUOUS
  62
7
  10
 280.000
  20
 1485.50
  30
0.0
  40
 5.00000
  50
 270.000
  51
0.0
   0
LINE
   8
LEVEL001
   6
CONTINUOUS
  62
7
  10
 315.000
  20
 1500.00
  30
0.0
  11
 315.000
  21
 1485.50
  31
0.0
   0
ARC
   8
LEVEL001
   6
CONTINUOUS
  62
7
  10
 320.000
  20
 1485.50
  30
0.0
  40
 5.00000
  50
 180.000
  51
 270.000
   0
ARC
   8
LEVEL001
   6
CONTINUOUS
  62
7
  10
 300.000
  20
 1500.00
  30
0.0
  40
 15.0000
  50
0.0
  51
 70.5288
   0
ARC
   8
LEVEL001
   6
CONTINUOUS
  62
7
  10
 300.000
  20
 1500.00
  30
0.0
  40
 15.0000
  50
 109.471
  51
 180.000
   0
ARC
   8
LEVEL001
   6
CONTINUOUS
  62
7
  10
 300.000
  20
 1500.00
  30
0.0
  40
 12.5000
  50
 293.578
  51
 66.4219
   0
LINE
   8
LEVEL001
   6
CONTINUOUS
  62
7
  10
 305.000
  20
 1520.00
  30
0.0
  11
 305.000
  21
 1480.00
  31
0.0
   0
ARC
   8
LEVEL001
   6
CONTINUOUS
  62
7
  10
 300.000
  20
 1480.00
  30
0.0
  40
 5.00000
  50
 179.972
  51
 0.279772E-1
   0
ARC
   8
LEVEL001
   6
CONTINUOUS
  62
7
  10
 300.000
  20
 1500.00
  30
0.0
  40
 12.5000
  50
 113.578
  51
 246.422
   0
LINE
   8
LEVEL001
   6
CONTINUOUS
  62
7
  10
 295.000
  20
 1480.00
  30
0.0
  11
 295.000
  21
 1520.00
  31
0.0
   0
ARC
   8
LEVEL001
   6
CONTINUOUS
  62
7
  10
 300.000
  20
 1520.00
  30
0.0
  40
 5.00000
  50
 0.279760E-1
  51
 179.972
   0
CIRCLE
   8
LEVEL001
   6
CONTINUOUS
  62
7
  10
 300.000
  20
 1380.00
  30
0.0
  40
 82.5000
   0
ARC
   8
LEVEL001
   6
CONTINUOUS
  62
7
  10
 385.000
  20
 1162.00
  30
0.0
  40
 36.0000
  50
 270.672
  51
 356.270
   0
ARC
   8
LEVEL001
   6
CONTINUOUS
  62
7
  10
 215.000
  20
 1162.00
  30
0.0
  40
 36.0000
  50
 183.730
  51
 269.328
   0
ARC
   8
LEVEL001
   6
CONTINUOUS
  62
7
  10
 300.000
  20
 1380.00
  30
0.0
  40
 135.000
  50
 356.270
  51
 5.21138
   0
ARC
   8
LEVEL001
   6
CONTINUOUS
  62
7
  10
 300.000
  20
 1380.00
  30
0.0
  40
 135.000
  50
 174.789
  51
 183.730
   0
ARC
   8
LEVEL001
   6
CONTINUOUS
  62
7
  10
 385.000
  20
 1538.00
  30
0.0
  40
 36.0000
  50
 5.21132
  51
 89.3271
   0
ARC
   8
LEVEL001
   6
CONTINUOUS
  62
7
  10
 215.000
  20
 1538.00
  30
0.0
  40
 36.0000
  50
 90.6730
  51
 174.788
   0
LINE
   8
LEVEL001
   6
CONTINUOUS
  62
7
  10
 420.851
  20
 1541.27
  30
0.0
  11
 434.442
  21
 1392.26
  31
0.0
   0
LINE
   8
LEVEL001
   6
CONTINUOUS
  62
7
  10
 179.149
  20
 1541.27
  30
0.0
  11
 165.558
  21
 1392.26
  31
0.0
   0
LINE
   8
LEVEL001
   6
CONTINUOUS
  62
7
  10
 168.333
  20
 1322.56
  30
0.0
  11
 165.250
  21
 1322.50
  31
0.0
   0
ARC
   8
LEVEL001
   6
CONTINUOUS
  62
7
  10
 168.110
  20
 1334.56
  30
0.0
  40
 12.0000
  50
 271.064
  51
 19.0120
   0
LINE
   8
LEVEL001
   6
CONTINUOUS
  62
7
  10
 431.667
  20
 1322.56
  30
0.0
  11
 434.750
  21
 1322.50
  31
0.0
   0
ARC
   8
LEVEL001
   6
CONTINUOUS
  62
7
  10
 431.890
  20
 1334.56
  30
0.0
  40
 12.0000
  50
 160.988
  51
 268.936
   0
LINE
   8
LEVEL001
   6
CONTINUOUS
  62
7
  10
 147.000
  20
 1237.50
  30
0.0
  11
 142.000
  21
 1237.50
  31
0.0
   0
LINE
   8
LEVEL001
   6
CONTINUOUS
  62
7
  10
 147.000
  20
 1282.50
  30
0.0
  11
 142.000
  21
 1282.50
  31
0.0
   0
LINE
   8
LEVEL001
   6
CONTINUOUS
  62
7
  10
 147.000
  20
 1321.50
  30
0.0
  11
 147.000
  21
 1198.50
  31
0.0
   0
LINE
   8
LEVEL001
   6
CONTINUOUS
  62
7
  10
 165.250
  20
 1196.50
  30
0.0
  11
 165.250
  21
 1323.50
  31
0.0
   0
ARC
   8
LEVEL001
   6
CONTINUOUS
  62
7
  10
 149.000
  20
 1198.50
  30
0.0
  40
 2.00000
  50
 180.001
  51
 270.000
   0
LINE
   8
LEVEL001
   6
CONTINUOUS
  62
7
  10
 165.250
  20
 1196.50
  30
0.0
  11
 149.000
  21
 1196.50
  31
0.0
   0
LINE
   8
LEVEL001
   6
CONTINUOUS
  62
7
  10
 51.0000
  20
 1254.00
  30
0.0
  11
 51.0000
  21
 1240.00
  31
0.0
   0
LINE
   8
LEVEL001
   6
CONTINUOUS
  62
7
  10
 132.000
  20
 1240.00
  30
0.0
  11
 51.0000
  21
 1240.00
  31
0.0
   0
LINE
   8
LEVEL001
   6
CONTINUOUS
  62
7
  10
 51.0000
  20
 1240.00
  30
0.0
  11
 50.0000
  21
 1241.00
  31
0.0
   0
LINE
   8
LEVEL001
   6
CONTINUOUS
  62
7
  10
 132.000
  20
 1254.00
  30
0.0
  11
 132.000
  21
 1240.00
  31
0.0
   0
LINE
   8
LEVEL001
   6
CONTINUOUS
  62
7
  10
 138.941
  20
 1254.00
  30
0.0
  11
 50.0000
  21
 1254.00
  31
0.0
   0
LINE
   8
LEVEL001
   6
CONTINUOUS
  62
7
  10
 142.000
  20
 1237.50
  30
0.0
  11
 132.000
  21
 1240.00
  31
0.0
   0
LINE
   8
LEVEL001
   6
CONTINUOUS
  62
7
  10
 51.0000
  20
 1280.00
  30
0.0
  11
 51.0000
  21
 1266.00
  31
0.0
   0
LINE
   8
LEVEL001
   6
CONTINUOUS
  62
7
  10
 50.0000
  20
 1279.00
  30
0.0
  11
 50.0000
  21
 1241.00
  31
0.0
   0
LINE
   8
LEVEL001
   6
CONTINUOUS
  62
7
  10
 51.0000
  20
 1280.00
  30
0.0
  11
 132.000
  21
 1280.00
  31
0.0
   0
LINE
   8
LEVEL001
   6
CONTINUOUS
  62
7
  10
 51.0000
  20
 1280.00
  30
0.0
  11
 50.0000
  21
 1279.00
  31
0.0
   0
LINE
   8
LEVEL001
   6
CONTINUOUS
  62
7
  10
 120.000
  20
 1266.00
  30
0.0
  11
 120.000
  21
 1254.00
  31
0.0
   0
LINE
   8
LEVEL001
   6
CONTINUOUS
  62
7
  10
 132.000
  20
 1280.00
  30
0.0
  11
 132.000
  21
 1266.00
  31
0.0
   0
LINE
   8
LEVEL001
   6
CONTINUOUS
  62
7
  10
 138.941
  20
 1266.00
  30
0.0
  11
 138.941
  21
 1254.00
  31
0.0
   0
LINE
   8
LEVEL001
   6
CONTINUOUS
  62
7
  10
 138.941
  20
 1266.00
  30
0.0
  11
 50.0000
  21
 1266.00
  31
0.0
   0
LINE
   8
LEVEL001
   6
CONTINUOUS
  62
7
  10
 142.000
  20
 1282.50
  30
0.0
  11
 132.000
  21
 1280.00
  31
0.0
   0
LINE
   8
LEVEL001
   6
CONTINUOUS
  62
7
  10
 142.000
  20
 1282.50
  30
0.0
  11
 142.000
  21
 1237.50
  31
0.0
   0
LINE
   8
LEVEL001
   6
CONTINUOUS
  62
7
  10
 165.250
  20
 1323.50
  30
0.0
  11
 149.000
  21
 1323.50
  31
0.0
   0
ARC
   8
LEVEL001
   6
CONTINUOUS
  62
7
  10
 149.000
  20
 1321.50
  30
0.0
  40
 2.00000
  50
 89.9987
  51
 179.999
   0
LINE
   8
LEVEL001
   6
CONTINUOUS
  62
7
  10
 300.000
  20
 1125.00
  30
0.0
  11
 214.578
  21
 1126.00
  31
0.0
   0
CIRCLE
   8
LEVEL001
   6
CONTINUOUS
  62
7
  10
 215.000
  20
 1162.00
  30
0.0
  40
 18.0000
   0
CIRCLE
   8
LEVEL001
   6
CONTINUOUS
  62
7
  10
 215.000
  20
 1162.00
  30
0.0
  40
 32.0000
   0
LINE
   8
LEVEL001
   6
CONTINUOUS
  62
7
  10
 300.000
  20
 1575.00
  30
0.0
  11
 214.577
  21
 1574.00
  31
0.0
   0
CIRCLE
   8
LEVEL001
   6
CONTINUOUS
  62
7
  10
 215.000
  20
 1538.00
  30
0.0
  40
 32.0000
   0
CIRCLE
   8
LEVEL001
   6
CONTINUOUS
  62
7
  10
 215.000
  20
 1538.00
  30
0.0
  40
 18.0000
   0
LINE
   8
LEVEL001
   6
CONTINUOUS
  62
7
  10
 300.000
  20
 1575.00
  30
0.0
  11
 385.423
  21
 1574.00
  31
0.0
   0
CIRCLE
   8
LEVEL001
   6
CONTINUOUS
  62
7
  10
 385.000
  20
 1538.00
  30
0.0
  40
 32.0000
   0
CIRCLE
   8
LEVEL001
   6
CONTINUOUS
  62
7
  10
 385.000
  20
 1538.00
  30
0.0
  40
 18.0000
   0
LINE
   8
LEVEL001
   6
CONTINUOUS
  62
7
  10
 300.000
  20
 1125.00
  30
0.0
  11
 385.422
  21
 1126.00
  31
0.0
   0
CIRCLE
   8
LEVEL001
   6
CONTINUOUS
  62
7
  10
 385.000
  20
 1162.00
  30
0.0
  40
 18.0000
   0
CIRCLE
   8
LEVEL001
   6
CONTINUOUS
  62
7
  10
 385.000
  20
 1162.00
  30
0.0
  40
 32.0000
   0
LINE
   8
LEVEL001
   6
CONTINUOUS
  62
7
  10
 370.192
  20
 1405.83
  30
0.0
  11
 370.644
  21
 1409.26
  31
0.0
   0
LINE
   8
LEVEL001
   6
CONTINUOUS
  62
7
  10
 366.991
  20
 1404.50
  30
0.0
  11
 370.192
  21
 1405.83
  31
0.0
   0
LINE
   8
LEVEL001
   6
CONTINUOUS
  62
7
  10
 364.243
  20
 1406.61
  30
0.0
  11
 366.991
  21
 1404.50
  31
0.0
   0
LINE
   8
LEVEL001
   6
CONTINUOUS
  62
7
  10
 364.695
  20
 1410.04
  30
0.0
  11
 364.243
  21
 1406.61
  31
0.0
   0
LINE
   8
LEVEL001
   6
CONTINUOUS
  62
7
  10
 367.895
  20
 1411.37
  30
0.0
  11
 364.695
  21
 1410.04
  31
0.0
   0
LINE
   8
LEVEL001
   6
CONTINUOUS
  62
7
  10
 370.644
  20
 1409.26
  30
0.0
  11
 367.895
  21
 1411.37
  31
0.0
   0
CIRCLE
   8
LEVEL001
   6
CONTINUOUS
  62
7
  10
 367.443
  20
 1407.94
  30
0.0
  40
 5.80718
   0
CIRCLE
   8
LEVEL001
   6
CONTINUOUS
  62
7
  10
 367.443
  20
 1407.94
  30
0.0
  40
 6.50000
   0
LINE
   8
LEVEL001
   6
CONTINUOUS
  62
7
  10
 331.370
  20
 1447.90
  30
0.0
  11
 329.262
  21
 1450.64
  31
0.0
   0
LINE
   8
LEVEL001
   6
CONTINUOUS
  62
7
  10
 330.045
  20
 1444.70
  30
0.0
  11
 331.370
  21
 1447.90
  31
0.0
   0
LINE
   8
LEVEL001
   6
CONTINUOUS
  62
7
  10
 326.610
  20
 1444.24
  30
0.0
  11
 330.045
  21
 1444.70
  31
0.0
   0
LINE
   8
LEVEL001
   6
CONTINUOUS
  62
7
  10
 324.502
  20
 1446.99
  30
0.0
  11
 326.610
  21
 1444.24
  31
0.0
   0
LINE
   8
LEVEL001
   6
CONTINUOUS
  62
7
  10
 325.827
  20
 1450.19
  30
0.0
  11
 324.502
  21
 1446.99
  31
0.0
   0
LINE
   8
LEVEL001
   6
CONTINUOUS
  62
7
  10
 329.262
  20
 1450.64
  30
0.0
  11
 325.827
  21
 1450.19
  31
0.0
   0
CIRCLE
   8
LEVEL001
   6
CONTINUOUS
  62
7
  10
 327.936
  20
 1447.44
  30
0.0
  40
 5.80718
   0
CIRCLE
   8
LEVEL001
   6
CONTINUOUS
  62
7
  10
 327.936
  20
 1447.44
  30
0.0
  40
 6.50000
   0
LINE
   8
LEVEL001
   6
CONTINUOUS
  62
7
  10
 274.173
  20
 1450.19
  30
0.0
  11
 270.738
  21
 1450.64
  31
0.0
   0
LINE
   8
LEVEL001
   6
CONTINUOUS
  62
7
  10
 275.498
  20
 1446.99
  30
0.0
  11
 274.173
  21
 1450.19
  31
0.0
   0
LINE
   8
LEVEL001
   6
CONTINUOUS
  62
7
  10
 273.390
  20
 1444.24
  30
0.0
  11
 275.498
  21
 1446.99
  31
0.0
   0
LINE
   8
LEVEL001
   6
CONTINUOUS
  62
7
  10
 269.955
  20
 1444.70
  30
0.0
  11
 273.390
  21
 1444.24
  31
0.0
   0
LINE
   8
LEVEL001
   6
CONTINUOUS
  62
7
  10
 268.630
  20
 1447.90
  30
0.0
  11
 269.955
  21
 1444.70
  31
0.0
   0
LINE
   8
LEVEL001
   6
CONTINUOUS
  62
7
  10
 270.738
  20
 1450.64
  30
0.0
  11
 268.630
  21
 1447.90
  31
0.0
   0
CIRCLE
   8
LEVEL001
   6
CONTINUOUS
  62
7
  10
 272.064
  20
 1447.44
  30
0.0
  40
 5.80718
   0
CIRCLE
   8
LEVEL001
   6
CONTINUOUS
  62
7
  10
 272.064
  20
 1447.44
  30
0.0
  40
 6.50000
   0
LINE
   8
LEVEL001
   6
CONTINUOUS
  62
7
  10
 232.104
  20
 1411.37
  30
0.0
  11
 229.356
  21
 1409.26
  31
0.0
   0
LINE
   8
LEVEL001
   6
CONTINUOUS
  62
7
  10
 235.305
  20
 1410.04
  30
0.0
  11
 232.104
  21
 1411.37
  31
0.0
   0
LINE
   8
LEVEL001
   6
CONTINUOUS
  62
7
  10
 235.757
  20
 1406.61
  30
0.0
  11
 235.305
  21
 1410.04
  31
0.0
   0
LINE
   8
LEVEL001
   6
CONTINUOUS
  62
7
  10
 233.009
  20
 1404.50
  30
0.0
  11
 235.757
  21
 1406.61
  31
0.0
   0
LINE
   8
LEVEL001
   6
CONTINUOUS
  62
7
  10
 229.809
  20
 1405.83
  30
0.0
  11
 233.009
  21
 1404.50
  31
0.0
   0
LINE
   8
LEVEL001
   6
CONTINUOUS
  62
7
  10
 229.356
  20
 1409.26
  30
0.0
  11
 229.809
  21
 1405.83
  31
0.0
   0
CIRCLE
   8
LEVEL001
   6
CONTINUOUS
  62
7
  10
 232.557
  20
 1407.94
  30
0.0
  40
 5.80718
   0
CIRCLE
   8
LEVEL001
   6
CONTINUOUS
  62
7
  10
 232.557
  20
 1407.94
  30
0.0
  40
 6.50000
   0
LINE
   8
LEVEL001
   6
CONTINUOUS
  62
7
  10
 229.808
  20
 1354.17
  30
0.0
  11
 229.356
  21
 1350.74
  31
0.0
   0
LINE
   8
LEVEL001
   6
CONTINUOUS
  62
7
  10
 233.009
  20
 1355.50
  30
0.0
  11
 229.808
  21
 1354.17
  31
0.0
   0
LINE
   8
LEVEL001
   6
CONTINUOUS
  62
7
  10
 235.757
  20
 1353.39
  30
0.0
  11
 233.009
  21
 1355.50
  31
0.0
   0
LINE
   8
LEVEL001
   6
CONTINUOUS
  62
7
  10
 235.305
  20
 1349.96
  30
0.0
  11
 235.757
  21
 1353.39
  31
0.0
   0
LINE
   8
LEVEL001
   6
CONTINUOUS
  62
7
  10
 232.105
  20
 1348.63
  30
0.0
  11
 235.305
  21
 1349.96
  31
0.0
   0
LINE
   8
LEVEL001
   6
CONTINUOUS
  62
7
  10
 229.356
  20
 1350.74
  30
0.0
  11
 232.105
  21
 1348.63
  31
0.0
   0
CIRCLE
   8
LEVEL001
   6
CONTINUOUS
  62
7
  10
 232.557
  20
 1352.06
  30
0.0
  40
 5.80718
   0
CIRCLE
   8
LEVEL001
   6
CONTINUOUS
  62
7
  10
 232.557
  20
 1352.06
  30
0.0
  40
 6.50000
   0
LINE
   8
LEVEL001
   6
CONTINUOUS
  62
7
  10
 268.630
  20
 1312.10
  30
0.0
  11
 270.738
  21
 1309.36
  31
0.0
   0
LINE
   8
LEVEL001
   6
CONTINUOUS
  62
7
  10
 269.955
  20
 1315.30
  30
0.0
  11
 268.630
  21
 1312.10
  31
0.0
   0
LINE
   8
LEVEL001
   6
CONTINUOUS
  62
7
  10
 273.390
  20
 1315.76
  30
0.0
  11
 269.955
  21
 1315.30
  31
0.0
   0
LINE
   8
LEVEL001
   6
CONTINUOUS
  62
7
  10
 275.498
  20
 1313.01
  30
0.0
  11
 273.390
  21
 1315.76
  31
0.0
   0
LINE
   8
LEVEL001
   6
CONTINUOUS
  62
7
  10
 274.173
  20
 1309.81
  30
0.0
  11
 275.498
  21
 1313.01
  31
0.0
   0
LINE
   8
LEVEL001
   6
CONTINUOUS
  62
7
  10
 270.738
  20
 1309.36
  30
0.0
  11
 274.173
  21
 1309.81
  31
0.0
   0
CIRCLE
   8
LEVEL001
   6
CONTINUOUS
  62
7
  10
 272.064
  20
 1312.56
  30
0.0
  40
 5.80718
   0
CIRCLE
   8
LEVEL001
   6
CONTINUOUS
  62
7
  10
 272.064
  20
 1312.56
  30
0.0
  40
 6.50000
   0
LINE
   8
LEVEL001
   6
CONTINUOUS
  62
7
  10
 325.827
  20
 1309.81
  30
0.0
  11
 329.262
  21
 1309.36
  31
0.0
   0
LINE
   8
LEVEL001
   6
CONTINUOUS
  62
7
  10
 324.502
  20
 1313.01
  30
0.0
  11
 325.827
  21
 1309.81
  31
0.0
   0
LINE
   8
LEVEL001
   6
CONTINUOUS
  62
7
  10
 326.610
  20
 1315.76
  30
0.0
  11
 324.502
  21
 1313.01
  31
0.0
   0
LINE
   8
LEVEL001
   6
CONTINUOUS
  62
7
  10
 330.045
  20
 1315.30
  30
0.0
  11
 326.610
  21
 1315.76
  31
0.0
   0
LINE
   8
LEVEL001
   6
CONTINUOUS
  62
7
  10
 331.370
  20
 1312.10
  30
0.0
  11
 330.045
  21
 1315.30
  31
0.0
   0
LINE
   8
LEVEL001
   6
CONTINUOUS
  62
7
  10
 329.262
  20
 1309.36
  30
0.0
  11
 331.370
  21
 1312.10
  31
0.0
   0
CIRCLE
   8
LEVEL001
   6
CONTINUOUS
  62
7
  10
 327.936
  20
 1312.56
  30
0.0
  40
 5.80718
   0
CIRCLE
   8
LEVEL001
   6
CONTINUOUS
  62
7
  10
 327.936
  20
 1312.56
  30
0.0
  40
 6.50000
   0
LINE
   8
LEVEL001
   6
CONTINUOUS
  62
7
  10
 367.896
  20
 1348.63
  30
0.0
  11
 370.644
  21
 1350.74
  31
0.0
   0
LINE
   8
LEVEL001
   6
CONTINUOUS
  62
7
  10
 364.695
  20
 1349.96
  30
0.0
  11
 367.896
  21
 1348.63
  31
0.0
   0
LINE
   8
LEVEL001
   6
CONTINUOUS
  62
7
  10
 364.243
  20
 1353.39
  30
0.0
  11
 364.695
  21
 1349.96
  31
0.0
   0
LINE
   8
LEVEL001
   6
CONTINUOUS
  62
7
  10
 366.991
  20
 1355.50
  30
0.0
  11
 364.243
  21
 1353.39
  31
0.0
   0
LINE
   8
LEVEL001
   6
CONTINUOUS
  62
7
  10
 370.191
  20
 1354.17
  30
0.0
  11
 366.991
  21
 1355.50
  31
0.0
   0
LINE
   8
LEVEL001
   6
CONTINUOUS
  62
7
  10
 370.644
  20
 1350.74
  30
0.0
  11
 370.191
  21
 1354.17
  31
0.0
   0
CIRCLE
   8
LEVEL001
   6
CONTINUOUS
  62
7
  10
 367.443
  20
 1352.06
  30
0.0
  40
 5.80718
   0
CIRCLE
   8
LEVEL001
   6
CONTINUOUS
  62
7
  10
 367.443
  20
 1352.06
  30
0.0
  40
 6.50000
   0
ARC
   8
LEVEL001
   6
CONTINUOUS
  62
7
  10
 340.000
  20
 1179.23
  30
0.0
  40
 1.00000
  50
 180.000
  51
0.0
   0
LINE
   8
LEVEL001
   6
CONTINUOUS
  62
7
  10
 341.000
  20
 1179.23
  30
0.0
  11
 340.999
  21
 1179.27
  31
0.0
   0
LINE
   8
LEVEL001
   6
CONTINUOUS
  62
7
  10
 340.999
  20
 1179.27
  30
0.0
  11
 340.996
  21
 1179.31
  31
0.0
   0
LINE
   8
LEVEL001
   6
CONTINUOUS
  62
7
  10
 340.996
  20
 1179.31
  30
0.0
  11
 340.991
  21
 1179.35
  31
0.0
   0
LINE
   8
LEVEL001
   6
CONTINUOUS
  62
7
  10
 340.991
  20
 1179.35
  30
0.0
  11
 340.985
  21
 1179.39
  31
0.0
   0
LINE
   8
LEVEL001
   6
CONTINUOUS
  62
7
  10
 340.985
  20
 1179.39
  30
0.0
  11
 340.976
  21
 1179.43
  31
0.0
   0
LINE
   8
LEVEL001
   6
CONTINUOUS
  62
7
  10
 340.976
  20
 1179.43
  30
0.0
  11
 340.966
  21
 1179.47
  31
0.0
   0
LINE
   8
LEVEL001
   6
CONTINUOUS
  62
7
  10
 340.966
  20
 1179.47
  30
0.0
  11
 340.954
  21
 1179.51
  31
0.0
   0
LINE
   8
LEVEL001
   6
CONTINUOUS
  62
7
  10
 340.954
  20
 1179.51
  30
0.0
  11
 340.940
  21
 1179.55
  31
0.0
   0
LINE
   8
LEVEL001
   6
CONTINUOUS
  62
7
  10
 340.940
  20
 1179.55
  30
0.0
  11
 340.924
  21
 1179.58
  31
0.0
   0
LINE
   8
LEVEL001
   6
CONTINUOUS
  62
7
  10
 340.924
  20
 1179.58
  30
0.0
  11
 340.906
  21
 1179.62
  31
0.0
   0
LINE
   8
LEVEL001
   6
CONTINUOUS
  62
7
  10
 340.906
  20
 1179.62
  30
0.0
  11
 340.887
  21
 1179.66
  31
0.0
   0
LINE
   8
LEVEL001
   6
CONTINUOUS
  62
7
  10
 340.887
  20
 1179.66
  30
0.0
  11
 340.866
  21
 1179.69
  31
0.0
   0
LINE
   8
LEVEL001
   6
CONTINUOUS
  62
7
  10
 340.866
  20
 1179.69
  30
0.0
  11
 340.843
  21
 1179.73
  31
0.0
   0
LINE
   8
LEVEL001
   6
CONTINUOUS
  62
7
  10
 340.843
  20
 1179.73
  30
0.0
  11
 340.819
  21
 1179.76
  31
0.0
   0
LINE
   8
LEVEL001
   6
CONTINUOUS
  62
7
  10
 340.819
  20
 1179.76
  30
0.0
  11
 340.793
  21
 1179.79
  31
0.0
   0
LINE
   8
LEVEL001
   6
CONTINUOUS
  62
7
  10
 340.793
  20
 1179.79
  30
0.0
  11
 340.766
  21
 1179.82
  31
0.0
   0
LINE
   8
LEVEL001
   6
CONTINUOUS
  62
7
  10
 340.766
  20
 1179.82
  30
0.0
  11
 340.737
  21
 1179.85
  31
0.0
   0
LINE
   8
LEVEL001
   6
CONTINUOUS
  62
7
  10
 340.737
  20
 1179.85
  30
0.0
  11
 340.707
  21
 1179.88
  31
0.0
   0
LINE
   8
LEVEL001
   6
CONTINUOUS
  62
7
  10
 340.707
  20
 1179.88
  30
0.0
  11
 340.676
  21
 1179.91
  31
0.0
   0
LINE
   8
LEVEL001
   6
CONTINUOUS
  62
7
  10
 340.676
  20
 1179.91
  30
0.0
  11
 340.643
  21
 1179.94
  31
0.0
   0
LINE
   8
LEVEL001
   6
CONTINUOUS
  62
7
  10
 340.643
  20
 1179.94
  30
0.0
  11
 340.609
  21
 1179.96
  31
0.0
   0
LINE
   8
LEVEL001
   6
CONTINUOUS
  62
7
  10
 340.609
  20
 1179.96
  30
0.0
  11
 340.574
  21
 1179.99
  31
0.0
   0
LINE
   8
LEVEL001
   6
CONTINUOUS
  62
7
  10
 340.574
  20
 1179.99
  30
0.0
  11
 340.537
  21
 1180.01
  31
0.0
   0
LINE
   8
LEVEL001
   6
CONTINUOUS
  62
7
  10
 340.537
  20
 1180.01
  30
0.0
  11
 340.500
  21
 1180.03
  31
0.0
   0
LINE
   8
LEVEL001
   6
CONTINUOUS
  62
7
  10
 340.500
  20
 1180.03
  30
0.0
  11
 340.462
  21
 1180.05
  31
0.0
   0
LINE
   8
LEVEL001
   6
CONTINUOUS
  62
7
  10
 340.462
  20
 1180.05
  30
0.0
  11
 340.423
  21
 1180.07
  31
0.0
   0
LINE
   8
LEVEL001
   6
CONTINUOUS
  62
7
  10
 340.423
  20
 1180.07
  30
0.0
  11
 340.383
  21
 1180.08
  31
0.0
   0
LINE
   8
LEVEL001
   6
CONTINUOUS
  62
7
  10
 340.383
  20
 1180.08
  30
0.0
  11
 340.342
  21
 1180.10
  31
0.0
   0
LINE
   8
LEVEL001
   6
CONTINUOUS
  62
7
  10
 340.342
  20
 1180.10
  30
0.0
  11
 340.301
  21
 1180.11
  31
0.0
   0
LINE
   8
LEVEL001
   6
CONTINUOUS
  62
7
  10
 340.301
  20
 1180.11
  30
0.0
  11
 340.259
  21
 1180.12
  31
0.0
   0
LINE
   8
LEVEL001
   6
CONTINUOUS
  62
7
  10
 340.259
  20
 1180.12
  30
0.0
  11
 340.216
  21
 1180.13
  31
0.0
   0
LINE
   8
LEVEL001
   6
CONTINUOUS
  62
7
  10
 340.216
  20
 1180.13
  30
0.0
  11
 340.174
  21
 1180.14
  31
0.0
   0
LINE
   8
LEVEL001
   6
CONTINUOUS
  62
7
  10
 340.174
  20
 1180.14
  30
0.0
  11
 340.131
  21
 1180.14
  31
0.0
   0
LINE
   8
LEVEL001
   6
CONTINUOUS
  62
7
  10
 340.131
  20
 1180.14
  30
0.0
  11
 340.087
  21
 1180.15
  31
0.0
   0
LINE
   8
LEVEL001
   6
CONTINUOUS
  62
7
  10
 340.087
  20
 1180.15
  30
0.0
  11
 340.044
  21
 1180.15
  31
0.0
   0
LINE
   8
LEVEL001
   6
CONTINUOUS
  62
7
  10
 340.044
  20
 1180.15
  30
0.0
  11
 340.000
  21
 1180.15
  31
0.0
   0
LINE
   8
LEVEL001
   6
CONTINUOUS
  62
7
  10
 340.000
  20
 1180.15
  30
0.0
  11
 339.956
  21
 1180.15
  31
0.0
   0
LINE
   8
LEVEL001
   6
CONTINUOUS
  62
7
  10
 339.956
  20
 1180.15
  30
0.0
  11
 339.913
  21
 1180.15
  31
0.0
   0
LINE
   8
LEVEL001
   6
CONTINUOUS
  62
7
  10
 339.913
  20
 1180.15
  30
0.0
  11
 339.869
  21
 1180.14
  31
0.0
   0
LINE
   8
LEVEL001
   6
CONTINUOUS
  62
7
  10
 339.869
  20
 1180.14
  30
0.0
  11
 339.826
  21
 1180.14
  31
0.0
   0
LINE
   8
LEVEL001
   6
CONTINUOUS
  62
7
  10
 339.826
  20
 1180.14
  30
0.0
  11
 339.784
  21
 1180.13
  31
0.0
   0
LINE
   8
LEVEL001
   6
CONTINUOUS
  62
7
  10
 339.784
  20
 1180.13
  30
0.0
  11
 339.741
  21
 1180.12
  31
0.0
   0
LINE
   8
LEVEL001
   6
CONTINUOUS
  62
7
  10
 339.741
  20
 1180.12
  30
0.0
  11
 339.699
  21
 1180.11
  31
0.0
   0
LINE
   8
LEVEL001
   6
CONTINUOUS
  62
7
  10
 339.699
  20
 1180.11
  30
0.0
  11
 339.658
  21
 1180.10
  31
0.0
   0
LINE
   8
LEVEL001
   6
CONTINUOUS
  62
7
  10
 339.658
  20
 1180.10
  30
0.0
  11
 339.617
  21
 1180.08
  31
0.0
   0
LINE
   8
LEVEL001
   6
CONTINUOUS
  62
7
  10
 339.617
  20
 1180.08
  30
0.0
  11
 339.577
  21
 1180.07
  31
0.0
   0
LINE
   8
LEVEL001
   6
CONTINUOUS
  62
7
  10
 339.577
  20
 1180.07
  30
0.0
  11
 339.538
  21
 1180.05
  31
0.0
   0
LINE
   8
LEVEL001
   6
CONTINUOUS
  62
7
  10
 339.538
  20
 1180.05
  30
0.0
  11
 339.500
  21
 1180.03
  31
0.0
   0
LINE
   8
LEVEL001
   6
CONTINUOUS
  62
7
  10
 339.500
  20
 1180.03
  30
0.0
  11
 339.463
  21
 1180.01
  31
0.0
   0
LINE
   8
LEVEL001
   6
CONTINUOUS
  62
7
  10
 339.463
  20
 1180.01
  30
0.0
  11
 339.426
  21
 1179.99
  31
0.0
   0
LINE
   8
LEVEL001
   6
CONTINUOUS
  62
7
  10
 339.426
  20
 1179.99
  30
0.0
  11
 339.391
  21
 1179.96
  31
0.0
   0
LINE
   8
LEVEL001
   6
CONTINUOUS
  62
7
  10
 339.391
  20
 1179.96
  30
0.0
  11
 339.357
  21
 1179.94
  31
0.0
   0
LINE
   8
LEVEL001
   6
CONTINUOUS
  62
7
  10
 339.357
  20
 1179.94
  30
0.0
  11
 339.324
  21
 1179.91
  31
0.0
   0
LINE
   8
LEVEL001
   6
CONTINUOUS
  62
7
  10
 339.324
  20
 1179.91
  30
0.0
  11
 339.293
  21
 1179.88
  31
0.0
   0
LINE
   8
LEVEL001
   6
CONTINUOUS
  62
7
  10
 339.293
  20
 1179.88
  30
0.0
  11
 339.263
  21
 1179.85
  31
0.0
   0
LINE
   8
LEVEL001
   6
CONTINUOUS
  62
7
  10
 339.263
  20
 1179.85
  30
0.0
  11
 339.234
  21
 1179.82
  31
0.0
   0
LINE
   8
LEVEL001
   6
CONTINUOUS
  62
7
  10
 339.234
  20
 1179.82
  30
0.0
  11
 339.207
  21
 1179.79
  31
0.0
   0
LINE
   8
LEVEL001
   6
CONTINUOUS
  62
7
  10
 339.207
  20
 1179.79
  30
0.0
  11
 339.181
  21
 1179.76
  31
0.0
   0
LINE
   8
LEVEL001
   6
CONTINUOUS
  62
7
  10
 339.181
  20
 1179.76
  30
0.0
  11
 339.157
  21
 1179.73
  31
0.0
   0
LINE
   8
LEVEL001
   6
CONTINUOUS
  62
7
  10
 339.157
  20
 1179.73
  30
0.0
  11
 339.134
  21
 1179.69
  31
0.0
   0
LINE
   8
LEVEL001
   6
CONTINUOUS
  62
7
  10
 339.134
  20
 1179.69
  30
0.0
  11
 339.113
  21
 1179.66
  31
0.0
   0
LINE
   8
LEVEL001
   6
CONTINUOUS
  62
7
  10
 339.113
  20
 1179.66
  30
0.0
  11
 339.094
  21
 1179.62
  31
0.0
   0
LINE
   8
LEVEL001
   6
CONTINUOUS
  62
7
  10
 339.094
  20
 1179.62
  30
0.0
  11
 339.076
  21
 1179.58
  31
0.0
   0
LINE
   8
LEVEL001
   6
CONTINUOUS
  62
7
  10
 339.076
  20
 1179.58
  30
0.0
  11
 339.060
  21
 1179.55
  31
0.0
   0
LINE
   8
LEVEL001
   6
CONTINUOUS
  62
7
  10
 339.060
  20
 1179.55
  30
0.0
  11
 339.046
  21
 1179.51
  31
0.0
   0
LINE
   8
LEVEL001
   6
CONTINUOUS
  62
7
  10
 339.046
  20
 1179.51
  30
0.0
  11
 339.034
  21
 1179.47
  31
0.0
   0
LINE
   8
LEVEL001
   6
CONTINUOUS
  62
7
  10
 339.034
  20
 1179.47
  30
0.0
  11
 339.024
  21
 1179.43
  31
0.0
   0
LINE
   8
LEVEL001
   6
CONTINUOUS
  62
7
  10
 339.024
  20
 1179.43
  30
0.0
  11
 339.015
  21
 1179.39
  31
0.0
   0
LINE
   8
LEVEL001
   6
CONTINUOUS
  62
7
  10
 339.015
  20
 1179.39
  30
0.0
  11
 339.009
  21
 1179.35
  31
0.0
   0
LINE
   8
LEVEL001
   6
CONTINUOUS
  62
7
  10
 339.009
  20
 1179.35
  30
0.0
  11
 339.004
  21
 1179.31
  31
0.0
   0
LINE
   8
LEVEL001
   6
CONTINUOUS
  62
7
  10
 339.004
  20
 1179.31
  30
0.0
  11
 339.001
  21
 1179.27
  31
0.0
   0
LINE
   8
LEVEL001
   6
CONTINUOUS
  62
7
  10
 339.001
  20
 1179.27
  30
0.0
  11
 339.000
  21
 1179.23
  31
0.0
   0
LINE
   8
LEVEL001
   6
CONTINUOUS
  62
7
  10
 337.600
  20
 1179.23
  30
0.0
  11
 337.609
  21
 1179.04
  31
0.0
   0
LINE
   8
LEVEL001
   6
CONTINUOUS
  62
7
  10
 337.609
  20
 1179.04
  30
0.0
  11
 337.636
  21
 1178.85
  31
0.0
   0
LINE
   8
LEVEL001
   6
CONTINUOUS
  62
7
  10
 337.636
  20
 1178.85
  30
0.0
  11
 337.682
  21
 1178.66
  31
0.0
   0
LINE
   8
LEVEL001
   6
CONTINUOUS
  62
7
  10
 337.682
  20
 1178.66
  30
0.0
  11
 337.745
  21
 1178.47
  31
0.0
   0
LINE
   8
LEVEL001
   6
CONTINUOUS
  62
7
  10
 337.745
  20
 1178.47
  30
0.0
  11
 337.825
  21
 1178.29
  31
0.0
   0
LINE
   8
LEVEL001
   6
CONTINUOUS
  62
7
  10
 337.825
  20
 1178.29
  30
0.0
  11
 337.922
  21
 1178.12
  31
0.0
   0
LINE
   8
LEVEL001
   6
CONTINUOUS
  62
7
  10
 337.922
  20
 1178.12
  30
0.0
  11
 338.034
  21
 1177.96
  31
0.0
   0
LINE
   8
LEVEL001
   6
CONTINUOUS
  62
7
  10
 338.034
  20
 1177.96
  30
0.0
  11
 338.161
  21
 1177.81
  31
0.0
   0
LINE
   8
LEVEL001
   6
CONTINUOUS
  62
7
  10
 338.161
  20
 1177.81
  30
0.0
  11
 338.303
  21
 1177.66
  31
0.0
   0
LINE
   8
LEVEL001
   6
CONTINUOUS
  62
7
  10
 338.303
  20
 1177.66
  30
0.0
  11
 338.457
  21
 1177.53
  31
0.0
   0
LINE
   8
LEVEL001
   6
CONTINUOUS
  62
7
  10
 338.457
  20
 1177.53
  30
0.0
  11
 338.623
  21
 1177.42
  31
0.0
   0
LINE
   8
LEVEL001
   6
CONTINUOUS
  62
7
  10
 338.623
  20
 1177.42
  30
0.0
  11
 338.800
  21
 1177.31
  31
0.0
   0
LINE
   8
LEVEL001
   6
CONTINUOUS
  62
7
  10
 338.800
  20
 1177.31
  30
0.0
  11
 338.986
  21
 1177.22
  31
0.0
   0
LINE
   8
LEVEL001
   6
CONTINUOUS
  62
7
  10
 338.986
  20
 1177.22
  30
0.0
  11
 339.179
  21
 1177.15
  31
0.0
   0
LINE
   8
LEVEL001
   6
CONTINUOUS
  62
7
  10
 339.179
  20
 1177.15
  30
0.0
  11
 339.379
  21
 1177.09
  31
0.0
   0
LINE
   8
LEVEL001
   6
CONTINUOUS
  62
7
  10
 339.379
  20
 1177.09
  30
0.0
  11
 339.583
  21
 1177.05
  31
0.0
   0
LINE
   8
LEVEL001
   6
CONTINUOUS
  62
7
  10
 339.583
  20
 1177.05
  30
0.0
  11
 339.791
  21
 1177.02
  31
0.0
   0
LINE
   8
LEVEL001
   6
CONTINUOUS
  62
7
  10
 339.791
  20
 1177.02
  30
0.0
  11
 340.000
  21
 1177.02
  31
0.0
   0
LINE
   8
LEVEL001
   6
CONTINUOUS
  62
7
  10
 340.000
  20
 1177.02
  30
0.0
  11
 340.209
  21
 1177.02
  31
0.0
   0
LINE
   8
LEVEL001
   6
CONTINUOUS
  62
7
  10
 340.209
  20
 1177.02
  30
0.0
  11
 340.417
  21
 1177.05
  31
0.0
   0
LINE
   8
LEVEL001
   6
CONTINUOUS
  62
7
  10
 340.417
  20
 1177.05
  30
0.0
  11
 340.621
  21
 1177.09
  31
0.0
   0
LINE
   8
LEVEL001
   6
CONTINUOUS
  62
7
  10
 340.621
  20
 1177.09
  30
0.0
  11
 340.821
  21
 1177.15
  31
0.0
   0
LINE
   8
LEVEL001
   6
CONTINUOUS
  62
7
  10
 340.821
  20
 1177.15
  30
0.0
  11
 341.014
  21
 1177.22
  31
0.0
   0
LINE
   8
LEVEL001
   6
CONTINUOUS
  62
7
  10
 341.014
  20
 1177.22
  30
0.0
  11
 341.200
  21
 1177.31
  31
0.0
   0
LINE
   8
LEVEL001
   6
CONTINUOUS
  62
7
  10
 341.200
  20
 1177.31
  30
0.0
  11
 341.377
  21
 1177.42
  31
0.0
   0
LINE
   8
LEVEL001
   6
CONTINUOUS
  62
7
  10
 341.377
  20
 1177.42
  30
0.0
  11
 341.543
  21
 1177.53
  31
0.0
   0
LINE
   8
LEVEL001
   6
CONTINUOUS
  62
7
  10
 341.543
  20
 1177.53
  30
0.0
  11
 341.697
  21
 1177.66
  31
0.0
   0
LINE
   8
LEVEL001
   6
CONTINUOUS
  62
7
  10
 341.697
  20
 1177.66
  30
0.0
  11
 341.839
  21
 1177.81
  31
0.0
   0
LINE
   8
LEVEL001
   6
CONTINUOUS
  62
7
  10
 341.839
  20
 1177.81
  30
0.0
  11
 341.966
  21
 1177.96
  31
0.0
   0
LINE
   8
LEVEL001
   6
CONTINUOUS
  62
7
  10
 341.966
  20
 1177.96
  30
0.0
  11
 342.078
  21
 1178.12
  31
0.0
   0
LINE
   8
LEVEL001
   6
CONTINUOUS
  62
7
  10
 342.078
  20
 1178.12
  30
0.0
  11
 342.175
  21
 1178.29
  31
0.0
   0
LINE
   8
LEVEL001
   6
CONTINUOUS
  62
7
  10
 342.175
  20
 1178.29
  30
0.0
  11
 342.255
  21
 1178.47
  31
0.0
   0
LINE
   8
LEVEL001
   6
CONTINUOUS
  62
7
  10
 342.255
  20
 1178.47
  30
0.0
  11
 342.318
  21
 1178.66
  31
0.0
   0
LINE
   8
LEVEL001
   6
CONTINUOUS
  62
7
  10
 342.318
  20
 1178.66
  30
0.0
  11
 342.364
  21
 1178.85
  31
0.0
   0
LINE
   8
LEVEL001
   6
CONTINUOUS
  62
7
  10
 342.364
  20
 1178.85
  30
0.0
  11
 342.391
  21
 1179.04
  31
0.0
   0
LINE
   8
LEVEL001
   6
CONTINUOUS
  62
7
  10
 342.391
  20
 1179.04
  30
0.0
  11
 342.400
  21
 1179.23
  31
0.0
   0
LINE
   8
LEVEL001
   6
CONTINUOUS
  62
7
  10
 342.400
  20
 1179.23
  30
0.0
  11
 342.391
  21
 1179.42
  31
0.0
   0
LINE
   8
LEVEL001
   6
CONTINUOUS
  62
7
  10
 342.391
  20
 1179.42
  30
0.0
  11
 342.364
  21
 1179.61
  31
0.0
   0
LINE
   8
LEVEL001
   6
CONTINUOUS
  62
7
  10
 342.364
  20
 1179.61
  30
0.0
  11
 342.318
  21
 1179.80
  31
0.0
   0
LINE
   8
LEVEL001
   6
CONTINUOUS
  62
7
  10
 342.318
  20
 1179.80
  30
0.0
  11
 342.255
  21
 1179.99
  31
0.0
   0
LINE
   8
LEVEL001
   6
CONTINUOUS
  62
7
  10
 342.255
  20
 1179.99
  30
0.0
  11
 342.175
  21
 1180.17
  31
0.0
   0
LINE
   8
LEVEL001
   6
CONTINUOUS
  62
7
  10
 342.175
  20
 1180.17
  30
0.0
  11
 342.078
  21
 1180.34
  31
0.0
   0
LINE
   8
LEVEL001
   6
CONTINUOUS
  62
7
  10
 342.078
  20
 1180.34
  30
0.0
  11
 341.966
  21
 1180.50
  31
0.0
   0
LINE
   8
LEVEL001
   6
CONTINUOUS
  62
7
  10
 341.966
  20
 1180.50
  30
0.0
  11
 341.839
  21
 1180.65
  31
0.0
   0
LINE
   8
LEVEL001
   6
CONTINUOUS
  62
7
  10
 341.839
  20
 1180.65
  30
0.0
  11
 341.697
  21
 1180.80
  31
0.0
   0
LINE
   8
LEVEL001
   6
CONTINUOUS
  62
7
  10
 341.697
  20
 1180.80
  30
0.0
  11
 341.543
  21
 1180.93
  31
0.0
   0
LINE
   8
LEVEL001
   6
CONTINUOUS
  62
7
  10
 341.543
  20
 1180.93
  30
0.0
  11
 341.377
  21
 1181.04
  31
0.0
   0
LINE
   8
LEVEL001
   6
CONTINUOUS
  62
7
  10
 341.377
  20
 1181.04
  30
0.0
  11
 341.200
  21
 1181.15
  31
0.0
   0
LINE
   8
LEVEL001
   6
CONTINUOUS
  62
7
  10
 341.200
  20
 1181.15
  30
0.0
  11
 341.014
  21
 1181.24
  31
0.0
   0
LINE
   8
LEVEL001
   6
CONTINUOUS
  62
7
  10
 341.014
  20
 1181.24
  30
0.0
  11
 340.821
  21
 1181.31
  31
0.0
   0
LINE
   8
LEVEL001
   6
CONTINUOUS
  62
7
  10
 340.821
  20
 1181.31
  30
0.0
  11
 340.621
  21
 1181.37
  31
0.0
   0
LINE
   8
LEVEL001
   6
CONTINUOUS
  62
7
  10
 340.621
  20
 1181.37
  30
0.0
  11
 340.417
  21
 1181.41
  31
0.0
   0
LINE
   8
LEVEL001
   6
CONTINUOUS
  62
7
  10
 340.417
  20
 1181.41
  30
0.0
  11
 340.209
  21
 1181.44
  31
0.0
   0
LINE
   8
LEVEL001
   6
CONTINUOUS
  62
7
  10
 340.209
  20
 1181.44
  30
0.0
  11
 340.000
  21
 1181.44
  31
0.0
   0
LINE
   8
LEVEL001
   6
CONTINUOUS
  62
7
  10
 340.000
  20
 1181.44
  30
0.0
  11
 339.791
  21
 1181.44
  31
0.0
   0
LINE
   8
LEVEL001
   6
CONTINUOUS
  62
7
  10
 339.791
  20
 1181.44
  30
0.0
  11
 339.583
  21
 1181.41
  31
0.0
   0
LINE
   8
LEVEL001
   6
CONTINUOUS
  62
7
  10
 339.583
  20
 1181.41
  30
0.0
  11
 339.379
  21
 1181.37
  31
0.0
   0
LINE
   8
LEVEL001
   6
CONTINUOUS
  62
7
  10
 339.379
  20
 1181.37
  30
0.0
  11
 339.179
  21
 1181.31
  31
0.0
   0
LINE
   8
LEVEL001
   6
CONTINUOUS
  62
7
  10
 339.179
  20
 1181.31
  30
0.0
  11
 338.986
  21
 1181.24
  31
0.0
   0
LINE
   8
LEVEL001
   6
CONTINUOUS
  62
7
  10
 338.986
  20
 1181.24
  30
0.0
  11
 338.800
  21
 1181.15
  31
0.0
   0
LINE
   8
LEVEL001
   6
CONTINUOUS
  62
7
  10
 338.800
  20
 1181.15
  30
0.0
  11
 338.623
  21
 1181.04
  31
0.0
   0
LINE
   8
LEVEL001
   6
CONTINUOUS
  62
7
  10
 338.623
  20
 1181.04
  30
0.0
  11
 338.457
  21
 1180.93
  31
0.0
   0
LINE
   8
LEVEL001
   6
CONTINUOUS
  62
7
  10
 338.457
  20
 1180.93
  30
0.0
  11
 338.303
  21
 1180.80
  31
0.0
   0
LINE
   8
LEVEL001
   6
CONTINUOUS
  62
7
  10
 338.303
  20
 1180.80
  30
0.0
  11
 338.161
  21
 1180.65
  31
0.0
   0
LINE
   8
LEVEL001
   6
CONTINUOUS
  62
7
  10
 338.161
  20
 1180.65
  30
0.0
  11
 338.034
  21
 1180.50
  31
0.0
   0
LINE
   8
LEVEL001
   6
CONTINUOUS
  62
7
  10
 338.034
  20
 1180.50
  30
0.0
  11
 337.922
  21
 1180.34
  31
0.0
   0
LINE
   8
LEVEL001
   6
CONTINUOUS
  62
7
  10
 337.922
  20
 1180.34
  30
0.0
  11
 337.825
  21
 1180.17
  31
0.0
   0
LINE
   8
LEVEL001
   6
CONTINUOUS
  62
7
  10
 337.825
  20
 1180.17
  30
0.0
  11
 337.745
  21
 1179.99
  31
0.0
   0
LINE
   8
LEVEL001
   6
CONTINUOUS
  62
7
  10
 337.745
  20
 1179.99
  30
0.0
  11
 337.682
  21
 1179.80
  31
0.0
   0
LINE
   8
LEVEL001
   6
CONTINUOUS
  62
7
  10
 337.682
  20
 1179.80
  30
0.0
  11
 337.636
  21
 1179.61
  31
0.0
   0
LINE
   8
LEVEL001
   6
CONTINUOUS
  62
7
  10
 337.636
  20
 1179.61
  30
0.0
  11
 337.609
  21
 1179.42
  31
0.0
   0
LINE
   8
LEVEL001
   6
CONTINUOUS
  62
7
  10
 337.609
  20
 1179.42
  30
0.0
  11
 337.600
  21
 1179.23
  31
0.0
   0
LINE
   8
LEVEL001
   6
CONTINUOUS
  62
7
  10
 341.640
  20
 1177.61
  30
0.0
  11
 341.843
  21
 1177.73
  31
0.0
   0
LINE
   8
LEVEL001
   6
CONTINUOUS
  62
7
  10
 341.843
  20
 1177.73
  30
0.0
  11
 342.037
  21
 1177.86
  31
0.0
   0
LINE
   8
LEVEL001
   6
CONTINUOUS
  62
7
  10
 342.037
  20
 1177.86
  30
0.0
  11
 342.219
  21
 1178.00
  31
0.0
   0
LINE
   8
LEVEL001
   6
CONTINUOUS
  62
7
  10
 342.219
  20
 1178.00
  30
0.0
  11
 342.390
  21
 1178.16
  31
0.0
   0
LINE
   8
LEVEL001
   6
CONTINUOUS
  62
7
  10
 342.390
  20
 1178.16
  30
0.0
  11
 342.549
  21
 1178.33
  31
0.0
   0
LINE
   8
LEVEL001
   6
CONTINUOUS
  62
7
  10
 342.549
  20
 1178.33
  30
0.0
  11
 342.694
  21
 1178.50
  31
0.0
   0
LINE
   8
LEVEL001
   6
CONTINUOUS
  62
7
  10
 342.694
  20
 1178.50
  30
0.0
  11
 342.824
  21
 1178.69
  31
0.0
   0
LINE
   8
LEVEL001
   6
CONTINUOUS
  62
7
  10
 342.824
  20
 1178.69
  30
0.0
  11
 342.940
  21
 1178.88
  31
0.0
   0
LINE
   8
LEVEL001
   6
CONTINUOUS
  62
7
  10
 342.940
  20
 1178.88
  30
0.0
  11
 343.040
  21
 1179.09
  31
0.0
   0
LINE
   8
LEVEL001
   6
CONTINUOUS
  62
7
  10
 343.040
  20
 1179.09
  30
0.0
  11
 343.124
  21
 1179.29
  31
0.0
   0
LINE
   8
LEVEL001
   6
CONTINUOUS
  62
7
  10
 343.124
  20
 1179.29
  30
0.0
  11
 343.192
  21
 1179.51
  31
0.0
   0
LINE
   8
LEVEL001
   6
CONTINUOUS
  62
7
  10
 343.192
  20
 1179.51
  30
0.0
  11
 343.242
  21
 1179.72
  31
0.0
   0
LINE
   8
LEVEL001
   6
CONTINUOUS
  62
7
  10
 343.242
  20
 1179.72
  30
0.0
  11
 343.276
  21
 1179.94
  31
0.0
   0
LINE
   8
LEVEL001
   6
CONTINUOUS
  62
7
  10
 343.276
  20
 1179.94
  30
0.0
  11
 343.292
  21
 1180.16
  31
0.0
   0
LINE
   8
LEVEL001
   6
CONTINUOUS
  62
7
  10
 343.292
  20
 1180.16
  30
0.0
  11
 343.291
  21
 1180.39
  31
0.0
   0
LINE
   8
LEVEL001
   6
CONTINUOUS
  62
7
  10
 343.291
  20
 1180.39
  30
0.0
  11
 343.272
  21
 1180.61
  31
0.0
   0
LINE
   8
LEVEL001
   6
CONTINUOUS
  62
7
  10
 343.272
  20
 1180.61
  30
0.0
  11
 343.236
  21
 1180.83
  31
0.0
   0
LINE
   8
LEVEL001
   6
CONTINUOUS
  62
7
  10
 343.236
  20
 1180.83
  30
0.0
  11
 343.183
  21
 1181.04
  31
0.0
   0
LINE
   8
LEVEL001
   6
CONTINUOUS
  62
7
  10
 343.183
  20
 1181.04
  30
0.0
  11
 343.113
  21
 1181.26
  31
0.0
   0
LINE
   8
LEVEL001
   6
CONTINUOUS
  62
7
  10
 343.113
  20
 1181.26
  30
0.0
  11
 343.026
  21
 1181.46
  31
0.0
   0
LINE
   8
LEVEL001
   6
CONTINUOUS
  62
7
  10
 343.026
  20
 1181.46
  30
0.0
  11
 342.924
  21
 1181.66
  31
0.0
   0
LINE
   8
LEVEL001
   6
CONTINUOUS
  62
7
  10
 342.924
  20
 1181.66
  30
0.0
  11
 342.806
  21
 1181.86
  31
0.0
   0
LINE
   8
LEVEL001
   6
CONTINUOUS
  62
7
  10
 342.806
  20
 1181.86
  30
0.0
  11
 342.673
  21
 1182.04
  31
0.0
   0
LINE
   8
LEVEL001
   6
CONTINUOUS
  62
7
  10
 342.673
  20
 1182.04
  30
0.0
  11
 342.526
  21
 1182.22
  31
0.0
   0
LINE
   8
LEVEL001
   6
CONTINUOUS
  62
7
  10
 342.526
  20
 1182.22
  30
0.0
  11
 342.366
  21
 1182.38
  31
0.0
   0
LINE
   8
LEVEL001
   6
CONTINUOUS
  62
7
  10
 342.366
  20
 1182.38
  30
0.0
  11
 342.193
  21
 1182.54
  31
0.0
   0
LINE
   8
LEVEL001
   6
CONTINUOUS
  62
7
  10
 342.193
  20
 1182.54
  30
0.0
  11
 342.009
  21
 1182.68
  31
0.0
   0
LINE
   8
LEVEL001
   6
CONTINUOUS
  62
7
  10
 342.009
  20
 1182.68
  30
0.0
  11
 341.814
  21
 1182.81
  31
0.0
   0
LINE
   8
LEVEL001
   6
CONTINUOUS
  62
7
  10
 341.814
  20
 1182.81
  30
0.0
  11
 341.609
  21
 1182.92
  31
0.0
   0
LINE
   8
LEVEL001
   6
CONTINUOUS
  62
7
  10
 341.609
  20
 1182.92
  30
0.0
  11
 341.396
  21
 1183.02
  31
0.0
   0
LINE
   8
LEVEL001
   6
CONTINUOUS
  62
7
  10
 341.396
  20
 1183.02
  30
0.0
  11
 341.175
  21
 1183.11
  31
0.0
   0
LINE
   8
LEVEL001
   6
CONTINUOUS
  62
7
  10
 341.175
  20
 1183.11
  30
0.0
  11
 340.949
  21
 1183.18
  31
0.0
   0
LINE
   8
LEVEL001
   6
CONTINUOUS
  62
7
  10
 340.949
  20
 1183.18
  30
0.0
  11
 340.717
  21
 1183.24
  31
0.0
   0
LINE
   8
LEVEL001
   6
CONTINUOUS
  62
7
  10
 340.717
  20
 1183.24
  30
0.0
  11
 340.481
  21
 1183.28
  31
0.0
   0
LINE
   8
LEVEL001
   6
CONTINUOUS
  62
7
  10
 340.481
  20
 1183.28
  30
0.0
  11
 340.243
  21
 1183.30
  31
0.0
   0
LINE
   8
LEVEL001
   6
CONTINUOUS
  62
7
  10
 340.243
  20
 1183.30
  30
0.0
  11
 340.004
  21
 1183.31
  31
0.0
   0
LINE
   8
LEVEL001
   6
CONTINUOUS
  62
7
  10
 340.004
  20
 1183.31
  30
0.0
  11
 339.764
  21
 1183.30
  31
0.0
   0
LINE
   8
LEVEL001
   6
CONTINUOUS
  62
7
  10
 339.764
  20
 1183.30
  30
0.0
  11
 339.526
  21
 1183.28
  31
0.0
   0
LINE
   8
LEVEL001
   6
CONTINUOUS
  62
7
  10
 339.526
  20
 1183.28
  30
0.0
  11
 339.290
  21
 1183.24
  31
0.0
   0
LINE
   8
LEVEL001
   6
CONTINUOUS
  62
7
  10
 339.290
  20
 1183.24
  30
0.0
  11
 339.059
  21
 1183.18
  31
0.0
   0
LINE
   8
LEVEL001
   6
CONTINUOUS
  62
7
  10
 339.059
  20
 1183.18
  30
0.0
  11
 338.832
  21
 1183.11
  31
0.0
   0
LINE
   8
LEVEL001
   6
CONTINUOUS
  62
7
  10
 338.832
  20
 1183.11
  30
0.0
  11
 338.611
  21
 1183.03
  31
0.0
   0
LINE
   8
LEVEL001
   6
CONTINUOUS
  62
7
  10
 338.611
  20
 1183.03
  30
0.0
  11
 338.397
  21
 1182.92
  31
0.0
   0
LINE
   8
LEVEL001
   6
CONTINUOUS
  62
7
  10
 338.397
  20
 1182.92
  30
0.0
  11
 338.193
  21
 1182.81
  31
0.0
   0
LINE
   8
LEVEL001
   6
CONTINUOUS
  62
7
  10
 338.193
  20
 1182.81
  30
0.0
  11
 337.997
  21
 1182.68
  31
0.0
   0
LINE
   8
LEVEL001
   6
CONTINUOUS
  62
7
  10
 337.997
  20
 1182.68
  30
0.0
  11
 337.812
  21
 1182.54
  31
0.0
   0
LINE
   8
LEVEL001
   6
CONTINUOUS
  62
7
  10
 337.812
  20
 1182.54
  30
0.0
  11
 337.639
  21
 1182.39
  31
0.0
   0
LINE
   8
LEVEL001
   6
CONTINUOUS
  62
7
  10
 337.639
  20
 1182.39
  30
0.0
  11
 337.479
  21
 1182.22
  31
0.0
   0
LINE
   8
LEVEL001
   6
CONTINUOUS
  62
7
  10
 337.479
  20
 1182.22
  30
0.0
  11
 337.331
  21
 1182.05
  31
0.0
   0
LINE
   8
LEVEL001
   6
CONTINUOUS
  62
7
  10
 337.331
  20
 1182.05
  30
0.0
  11
 337.198
  21
 1181.86
  31
0.0
   0
LINE
   8
LEVEL001
   6
CONTINUOUS
  62
7
  10
 337.198
  20
 1181.86
  30
0.0
  11
 337.080
  21
 1181.67
  31
0.0
   0
LINE
   8
LEVEL001
   6
CONTINUOUS
  62
7
  10
 337.080
  20
 1181.67
  30
0.0
  11
 336.977
  21
 1181.47
  31
0.0
   0
LINE
   8
LEVEL001
   6
CONTINUOUS
  62
7
  10
 336.977
  20
 1181.47
  30
0.0
  11
 336.890
  21
 1181.26
  31
0.0
   0
LINE
   8
LEVEL001
   6
CONTINUOUS
  62
7
  10
 336.890
  20
 1181.26
  30
0.0
  11
 336.819
  21
 1181.05
  31
0.0
   0
LINE
   8
LEVEL001
   6
CONTINUOUS
  62
7
  10
 336.819
  20
 1181.05
  30
0.0
  11
 336.765
  21
 1180.83
  31
0.0
   0
LINE
   8
LEVEL001
   6
CONTINUOUS
  62
7
  10
 336.765
  20
 1180.83
  30
0.0
  11
 336.729
  21
 1180.61
  31
0.0
   0
LINE
   8
LEVEL001
   6
CONTINUOUS
  62
7
  10
 336.729
  20
 1180.61
  30
0.0
  11
 336.710
  21
 1180.39
  31
0.0
   0
LINE
   8
LEVEL001
   6
CONTINUOUS
  62
7
  10
 336.710
  20
 1180.39
  30
0.0
  11
 336.708
  21
 1180.17
  31
0.0
   0
LINE
   8
LEVEL001
   6
CONTINUOUS
  62
7
  10
 336.708
  20
 1180.17
  30
0.0
  11
 336.723
  21
 1179.95
  31
0.0
   0
LINE
   8
LEVEL001
   6
CONTINUOUS
  62
7
  10
 336.723
  20
 1179.95
  30
0.0
  11
 336.756
  21
 1179.73
  31
0.0
   0
LINE
   8
LEVEL001
   6
CONTINUOUS
  62
7
  10
 336.756
  20
 1179.73
  30
0.0
  11
 336.806
  21
 1179.51
  31
0.0
   0
LINE
   8
LEVEL001
   6
CONTINUOUS
  62
7
  10
 336.806
  20
 1179.51
  30
0.0
  11
 336.873
  21
 1179.30
  31
0.0
   0
LINE
   8
LEVEL001
   6
CONTINUOUS
  62
7
  10
 336.873
  20
 1179.30
  30
0.0
  11
 336.957
  21
 1179.09
  31
0.0
   0
LINE
   8
LEVEL001
   6
CONTINUOUS
  62
7
  10
 336.957
  20
 1179.09
  30
0.0
  11
 337.057
  21
 1178.89
  31
0.0
   0
LINE
   8
LEVEL001
   6
CONTINUOUS
  62
7
  10
 337.057
  20
 1178.89
  30
0.0
  11
 337.172
  21
 1178.70
  31
0.0
   0
LINE
   8
LEVEL001
   6
CONTINUOUS
  62
7
  10
 337.172
  20
 1178.70
  30
0.0
  11
 337.302
  21
 1178.51
  31
0.0
   0
LINE
   8
LEVEL001
   6
CONTINUOUS
  62
7
  10
 337.302
  20
 1178.51
  30
0.0
  11
 337.446
  21
 1178.33
  31
0.0
   0
LINE
   8
LEVEL001
   6
CONTINUOUS
  62
7
  10
 337.446
  20
 1178.33
  30
0.0
  11
 337.604
  21
 1178.16
  31
0.0
   0
LINE
   8
LEVEL001
   6
CONTINUOUS
  62
7
  10
 337.604
  20
 1178.16
  30
0.0
  11
 337.775
  21
 1178.01
  31
0.0
   0
LINE
   8
LEVEL001
   6
CONTINUOUS
  62
7
  10
 337.775
  20
 1178.01
  30
0.0
  11
 337.957
  21
 1177.86
  31
0.0
   0
LINE
   8
LEVEL001
   6
CONTINUOUS
  62
7
  10
 337.957
  20
 1177.86
  30
0.0
  11
 338.151
  21
 1177.73
  31
0.0
   0
LINE
   8
LEVEL001
   6
CONTINUOUS
  62
7
  10
 338.151
  20
 1177.73
  30
0.0
  11
 338.354
  21
 1177.62
  31
0.0
   0
LINE
   8
LEVEL001
   6
DASHDOT
  62
1
  10
 300.000
  20
 1590.00
  30
0.0
  11
 300.000
  21
 1110.00
  31
0.0
   0
LINE
   8
LEVEL001
   6
DASHDOT
  62
1
  10
 185.507
  20
 1380.00
  30
0.0
  11
 417.278
  21
 1380.00
  31
0.0
   0
LINE
   8
LEVEL001
   6
DASHDOT
  62
1
  10
 385.000
  20
 1207.00
  30
0.0
  11
 385.000
  21
 1117.00
  31
0.0
   0
LINE
   8
LEVEL001
   6
DASHDOT
  62
1
  10
 340.000
  20
 1162.00
  30
0.0
  11
 430.000
  21
 1162.00
  31
0.0
   0
LINE
   8
LEVEL001
   6
DASHDOT
  62
1
  10
 215.000
  20
 1207.00
  30
0.0
  11
 215.000
  21
 1117.00
  31
0.0
   0
LINE
   8
LEVEL001
   6
DASHDOT
  62
1
  10
 260.000
  20
 1162.00
  30
0.0
  11
 170.000
  21
 1162.00
  31
0.0
   0
LINE
   8
LEVEL001
   6
DASHDOT
  62
1
  10
 40.0000
  20
 1260.00
  30
0.0
  11
 560.000
  21
 1260.00
  31
0.0
   0
LINE
   8
LEVEL001
   6
DASHDOT
  62
1
  10
 215.000
  20
 1583.00
  30
0.0
  11
 215.000
  21
 1493.00
  31
0.0
   0
LINE
   8
LEVEL001
   6
DASHDOT
  62
1
  10
 170.000
  20
 1538.00
  30
0.0
  11
 260.000
  21
 1538.00
  31
0.0
   0
LINE
   8
LEVEL001
   6
DASHDOT
  62
1
  10
 385.000
  20
 1583.00
  30
0.0
  11
 385.000
  21
 1493.00
  31
0.0
   0
LINE
   8
LEVEL001
   6
DASHDOT
  62
1
  10
 340.000
  20
 1538.00
  30
0.0
  11
 430.000
  21
 1538.00
  31
0.0
   0
TEXT
   8
LEVEL003
  62
7
  10
 1335.07
  20
 50.6599
  30
0.0
  40
 30.0000
   1
ＯＳＡＫＡ ＪＡＣＫ
   7
STANDARD
   0
CIRCLE
   8
LEVEL003
   6
CONTINUOUS
  62
7
  10
 1299.16
  20
 71.8120
  30
0.0
  40
 9.00000
   0
LINE
   8
LEVEL003
   6
CONTINUOUS
  62
7
  10
 1316.82
  20
 80.8120
  30
0.0
  11
 1305.39
  21
 61.0120
  31
0.0
   0
LINE
   8
LEVEL003
   6
CONTINUOUS
  62
7
  10
 1305.39
  20
 61.0120
  30
0.0
  11
 1282.53
  21
 61.0120
  31
0.0
   0
LINE
   8
LEVEL003
   6
CONTINUOUS
  62
7
  10
 1279.93
  20
 56.5120
  30
0.0
  11
 1320.79
  21
 56.5120
  31
0.0
   0
LINE
   8
LEVEL003
   6
CONTINUOUS
  62
7
  10
 1320.79
  20
 56.5120
  30
0.0
  11
 1334.82
  21
 80.8120
  31
0.0
   0
LINE
   8
LEVEL003
   6
CONTINUOUS
  62
7
  10
 1334.82
  20
 80.8120
  30
0.0
  11
 1316.82
  21
 80.8120
  31
0.0
   0
LINE
   8
LEVEL003
   6
CONTINUOUS
  62
7
  10
 1282.53
  20
 61.0120
  30
0.0
  11
 1279.93
  21
 56.5120
  31
0.0
   0
TEXT
   8
LEVEL003
  62
7
  10
 1343.80
  20
 101.340
  30
0.0
  40
 18.0000
   1
Model : ＰＲ３５Ｄ
   7
STANDARD
   0
LINE
   8
LEVEL003
   6
CONTINUOUS
  62
3
  10
 819.694
  20
 355.000
  30
0.0
  11
 1212.00
  21
 355.000
  31
0.0
   0
LINE
   8
LEVEL003
   6
CONTINUOUS
  62
3
  10
 1096.00
  20
 240.000
  30
0.0
  11
 1212.00
  21
 240.000
  31
0.0
   0
LINE
   8
LEVEL003
   6
CONTINUOUS
  62
3
  10
 1210.00
  20
 355.000
  30
0.0
  11
 1210.00
  21
 240.000
  31
0.0
   0
LINE
   8
LEVEL003
   6
CONTINUOUS
  62
3
  10
 1210.00
  20
 355.000
  30
0.0
  11
 1209.20
  21
 352.000
  31
0.0
   0
LINE
   8
LEVEL003
   6
CONTINUOUS
  62
3
  10
 1210.00
  20
 355.000
  30
0.0
  11
 1210.80
  21
 352.000
  31
0.0
   0
LINE
   8
LEVEL003
   6
CONTINUOUS
  62
3
  10
 1210.00
  20
 240.000
  30
0.0
  11
 1210.80
  21
 243.000
  31
0.0
   0
LINE
   8
LEVEL003
   6
CONTINUOUS
  62
3
  10
 1210.00
  20
 240.000
  30
0.0
  11
 1209.20
  21
 243.000
  31
0.0
   0
TEXT
   8
LEVEL003
  62
3
  10
 1208.29
  20
 294.500
  30
0.0
  40
 4.00000
   1
115
  50
 90.0000
  41
 0.500000
   7
STANDARD
  72
1
  11
 1208.29
  21
 297.500
  31
0.0
   0
LINE
   8
LEVEL003
   6
CONTINUOUS
  62
3
  10
 1091.00
  20
 275.000
  30
0.0
  11
 1152.00
  21
 275.000
  31
0.0
   0
LINE
   8
LEVEL003
   6
CONTINUOUS
  62
3
  10
 1096.00
  20
 240.000
  30
0.0
  11
 1152.00
  21
 240.000
  31
0.0
   0
LINE
   8
LEVEL003
   6
CONTINUOUS
  62
3
  10
 1150.00
  20
 275.000
  30
0.0
  11
 1150.00
  21
 240.000
  31
0.0
   0
LINE
   8
LEVEL003
   6
CONTINUOUS
  62
3
  10
 1150.00
  20
 275.000
  30
0.0
  11
 1149.20
  21
 272.000
  31
0.0
   0
LINE
   8
LEVEL003
   6
CONTINUOUS
  62
3
  10
 1150.00
  20
 275.000
  30
0.0
  11
 1150.80
  21
 272.000
  31
0.0
   0
LINE
   8
LEVEL003
   6
CONTINUOUS
  62
3
  10
 1150.00
  20
 240.000
  30
0.0
  11
 1150.80
  21
 243.000
  31
0.0
   0
LINE
   8
LEVEL003
   6
CONTINUOUS
  62
3
  10
 1150.00
  20
 240.000
  30
0.0
  11
 1149.20
  21
 243.000
  31
0.0
   0
TEXT
   8
LEVEL003
  62
3
  10
 1148.29
  20
 255.500
  30
0.0
  40
 4.00000
   1
35
  50
 90.0000
  41
 0.500000
   7
STANDARD
  72
1
  11
 1148.29
  21
 257.500
  31
0.0
   0
LINE
   8
LEVEL003
   6
CONTINUOUS
  62
3
  10
 945.000
  20
 150.000
  30
0.0
  11
 1092.00
  21
 150.000
  31
0.0
   0
LINE
   8
LEVEL003
   6
CONTINUOUS
  62
3
  10
 939.500
  20
 70.0000
  30
0.0
  11
 1092.00
  21
 70.0000
  31
0.0
   0
LINE
   8
LEVEL003
   6
CONTINUOUS
  62
3
  10
 1090.00
  20
 150.000
  30
0.0
  11
 1090.00
  21
 70.0000
  31
0.0
   0
LINE
   8
LEVEL003
   6
CONTINUOUS
  62
3
  10
 1090.00
  20
 150.000
  30
0.0
  11
 1089.20
  21
 147.000
  31
0.0
   0
LINE
   8
LEVEL003
   6
CONTINUOUS
  62
3
  10
 1090.00
  20
 150.000
  30
0.0
  11
 1090.80
  21
 147.000
  31
0.0
   0
LINE
   8
LEVEL003
   6
CONTINUOUS
  62
3
  10
 1090.00
  20
 70.0000
  30
0.0
  11
 1090.80
  21
 73.0000
  31
0.0
   0
LINE
   8
LEVEL003
   6
CONTINUOUS
  62
3
  10
 1090.00
  20
 70.0000
  30
0.0
  11
 1089.20
  21
 73.0000
  31
0.0
   0
TEXT
   8
LEVEL003
  62
3
  10
 1088.29
  20
 108.000
  30
0.0
  40
 4.00000
   1
80
  50
 90.0000
  41
 0.500000
   7
STANDARD
  72
1
  11
 1088.29
  21
 110.000
  31
0.0
   0
LINE
   8
LEVEL003
   6
CONTINUOUS
  62
3
  10
 480.000
  20
 379.000
  30
0.0
  11
 480.000
  21
 412.000
  31
0.0
   0
LINE
   8
LEVEL003
   6
CONTINUOUS
  62
3
  10
 550.000
  20
 379.000
  30
0.0
  11
 550.000
  21
 412.000
  31
0.0
   0
LINE
   8
LEVEL003
   6
CONTINUOUS
  62
3
  10
 480.000
  20
 410.000
  30
0.0
  11
 550.000
  21
 410.000
  31
0.0
   0
LINE
   8
LEVEL003
   6
CONTINUOUS
  62
3
  10
 480.000
  20
 410.000
  30
0.0
  11
 483.000
  21
 409.196
  31
0.0
   0
LINE
   8
LEVEL003
   6
CONTINUOUS
  62
3
  10
 480.000
  20
 410.000
  30
0.0
  11
 483.000
  21
 410.804
  31
0.0
   0
LINE
   8
LEVEL003
   6
CONTINUOUS
  62
3
  10
 550.000
  20
 410.000
  30
0.0
  11
 547.000
  21
 410.804
  31
0.0
   0
LINE
   8
LEVEL003
   6
CONTINUOUS
  62
3
  10
 550.000
  20
 410.000
  30
0.0
  11
 547.000
  21
 409.196
  31
0.0
   0
TEXT
   8
LEVEL003
  62
3
  10
 513.000
  20
 411.714
  30
0.0
  40
 4.00000
   1
70
  41
 0.500000
   7
STANDARD
  72
1
  11
 515.000
  21
 411.714
  31
0.0
   0
LINE
   8
LEVEL003
   6
CONTINUOUS
  62
3
  10
 468.000
  20
 375.079
  30
0.0
  11
 468.000
  21
 442.000
  31
0.0
   0
LINE
   8
LEVEL003
   6
CONTINUOUS
  62
3
  10
 550.000
  20
 379.000
  30
0.0
  11
 550.000
  21
 442.000
  31
0.0
   0
LINE
   8
LEVEL003
   6
CONTINUOUS
  62
3
  10
 468.000
  20
 440.000
  30
0.0
  11
 550.000
  21
 440.000
  31
0.0
   0
LINE
   8
LEVEL003
   6
CONTINUOUS
  62
3
  10
 468.000
  20
 440.000
  30
0.0
  11
 471.000
  21
 439.196
  31
0.0
   0
LINE
   8
LEVEL003
   6
CONTINUOUS
  62
3
  10
 468.000
  20
 440.000
  30
0.0
  11
 471.000
  21
 440.804
  31
0.0
   0
LINE
   8
LEVEL003
   6
CONTINUOUS
  62
3
  10
 550.000
  20
 440.000
  30
0.0
  11
 547.000
  21
 440.804
  31
0.0
   0
LINE
   8
LEVEL003
   6
CONTINUOUS
  62
3
  10
 550.000
  20
 440.000
  30
0.0
  11
 547.000
  21
 439.196
  31
0.0
   0
TEXT
   8
LEVEL003
  62
3
  10
 507.000
  20
 441.714
  30
0.0
  40
 4.00000
   1
82
  41
 0.500000
   7
STANDARD
  72
1
  11
 509.000
  21
 441.714
  31
0.0
   0
LINE
   8
LEVEL003
   6
CONTINUOUS
  62
3
  10
 215.000
  20
 1584.00
  30
0.0
  11
 215.000
  21
 1612.00
  31
0.0
   0
LINE
   8
LEVEL003
   6
CONTINUOUS
  62
3
  10
 385.000
  20
 1584.00
  30
0.0
  11
 385.000
  21
 1612.00
  31
0.0
   0
LINE
   8
LEVEL003
   6
CONTINUOUS
  62
3
  10
 215.000
  20
 1610.00
  30
0.0
  11
 385.000
  21
 1610.00
  31
0.0
   0
LINE
   8
LEVEL003
   6
CONTINUOUS
  62
3
  10
 215.000
  20
 1610.00
  30
0.0
  11
 218.000
  21
 1609.20
  31
0.0
   0
LINE
   8
LEVEL003
   6
CONTINUOUS
  62
3
  10
 215.000
  20
 1610.00
  30
0.0
  11
 218.000
  21
 1610.80
  31
0.0
   0
LINE
   8
LEVEL003
   6
CONTINUOUS
  62
3
  10
 385.000
  20
 1610.00
  30
0.0
  11
 382.000
  21
 1610.80
  31
0.0
   0
LINE
   8
LEVEL003
   6
CONTINUOUS
  62
3
  10
 385.000
  20
 1610.00
  30
0.0
  11
 382.000
  21
 1609.20
  31
0.0
   0
TEXT
   8
LEVEL003
  62
3
  10
 297.000
  20
 1611.71
  30
0.0
  40
 4.00000
   1
170
  41
 0.500000
   7
STANDARD
  72
1
  11
 300.000
  21
 1611.71
  31
0.0
   0
LINE
   8
LEVEL003
   6
CONTINUOUS
  62
3
  10
 431.000
  20
 1538.00
  30
0.0
  11
 582.000
  21
 1538.00
  31
0.0
   0
LINE
   8
LEVEL003
   6
CONTINUOUS
  62
3
  10
 418.278
  20
 1380.00
  30
0.0
  11
 582.000
  21
 1380.00
  31
0.0
   0
LINE
   8
LEVEL003
   6
CONTINUOUS
  62
3
  10
 580.000
  20
 1538.00
  30
0.0
  11
 580.000
  21
 1380.00
  31
0.0
   0
LINE
   8
LEVEL003
   6
CONTINUOUS
  62
3
  10
 580.000
  20
 1538.00
  30
0.0
  11
 579.196
  21
 1535.00
  31
0.0
   0
LINE
   8
LEVEL003
   6
CONTINUOUS
  62
3
  10
 580.000
  20
 1538.00
  30
0.0
  11
 580.804
  21
 1535.00
  31
0.0
   0
LINE
   8
LEVEL003
   6
CONTINUOUS
  62
3
  10
 580.000
  20
 1380.00
  30
0.0
  11
 580.804
  21
 1383.00
  31
0.0
   0
LINE
   8
LEVEL003
   6
CONTINUOUS
  62
3
  10
 580.000
  20
 1380.00
  30
0.0
  11
 579.196
  21
 1383.00
  31
0.0
   0
TEXT
   8
LEVEL003
  62
3
  10
 578.286
  20
 1456.00
  30
0.0
  40
 4.00000
   1
158
  50
 90.0000
  41
 0.500000
   7
STANDARD
  72
1
  11
 578.286
  21
 1459.00
  31
0.0
   0
LINE
   8
LEVEL003
   6
CONTINUOUS
  62
3
  10
 418.278
  20
 1380.00
  30
0.0
  11
 582.000
  21
 1380.00
  31
0.0
   0
LINE
   8
LEVEL003
   6
CONTINUOUS
  62
3
  10
 561.000
  20
 1260.00
  30
0.0
  11
 582.000
  21
 1260.00
  31
0.0
   0
LINE
   8
LEVEL003
   6
CONTINUOUS
  62
3
  10
 580.000
  20
 1380.00
  30
0.0
  11
 580.000
  21
 1260.00
  31
0.0
   0
LINE
   8
LEVEL003
   6
CONTINUOUS
  62
3
  10
 580.000
  20
 1380.00
  30
0.0
  11
 579.196
  21
 1377.00
  31
0.0
   0
LINE
   8
LEVEL003
   6
CONTINUOUS
  62
3
  10
 580.000
  20
 1380.00
  30
0.0
  11
 580.804
  21
 1377.00
  31
0.0
   0
LINE
   8
LEVEL003
   6
CONTINUOUS
  62
3
  10
 580.000
  20
 1260.00
  30
0.0
  11
 580.804
  21
 1263.00
  31
0.0
   0
LINE
   8
LEVEL003
   6
CONTINUOUS
  62
3
  10
 580.000
  20
 1260.00
  30
0.0
  11
 579.196
  21
 1263.00
  31
0.0
   0
TEXT
   8
LEVEL003
  62
3
  10
 578.286
  20
 1317.00
  30
0.0
  40
 4.00000
   1
120
  50
 90.0000
  41
 0.500000
   7
STANDARD
  72
1
  11
 578.286
  21
 1320.00
  31
0.0
   0
LINE
   8
LEVEL003
   6
CONTINUOUS
  62
3
  10
 550.000
  20
 1240.00
  30
0.0
  11
 550.000
  21
 1078.00
  31
0.0
   0
LINE
   8
LEVEL003
   6
CONTINUOUS
  62
3
  10
 50.0000
  20
 1240.00
  30
0.0
  11
 50.0000
  21
 1078.00
  31
0.0
   0
LINE
   8
LEVEL003
   6
CONTINUOUS
  62
3
  10
 550.000
  20
 1080.00
  30
0.0
  11
 50.0000
  21
 1080.00
  31
0.0
   0
LINE
   8
LEVEL003
   6
CONTINUOUS
  62
3
  10
 550.000
  20
 1080.00
  30
0.0
  11
 547.000
  21
 1080.80
  31
0.0
   0
LINE
   8
LEVEL003
   6
CONTINUOUS
  62
3
  10
 550.000
  20
 1080.00
  30
0.0
  11
 547.000
  21
 1079.20
  31
0.0
   0
LINE
   8
LEVEL003
   6
CONTINUOUS
  62
3
  10
 50.0000
  20
 1080.00
  30
0.0
  11
 53.0000
  21
 1079.20
  31
0.0
   0
LINE
   8
LEVEL003
   6
CONTINUOUS
  62
3
  10
 50.0000
  20
 1080.00
  30
0.0
  11
 53.0000
  21
 1080.80
  31
0.0
   0
TEXT
   8
LEVEL003
  62
3
  10
 297.000
  20
 1081.71
  30
0.0
  40
 4.00000
   1
500
  41
 0.500000
   7
STANDARD
  72
1
  11
 300.000
  21
 1081.71
  31
0.0
   0
LINE
   8
LEVEL003
   6
CONTINUOUS
  62
3
  10
 940.000
  20
 70.5000
  30
0.0
  11
 940.000
  21
 18.0000
  31
0.0
   0
LINE
   8
LEVEL003
   6
CONTINUOUS
  62
3
  10
 860.000
  20
 70.5000
  30
0.0
  11
 860.000
  21
 18.0000
  31
0.0
   0
LINE
   8
LEVEL003
   6
CONTINUOUS
  62
3
  10
 940.000
  20
 20.0000
  30
0.0
  11
 860.000
  21
 20.0000
  31
0.0
   0
LINE
   8
LEVEL003
   6
CONTINUOUS
  62
3
  10
 940.000
  20
 20.0000
  30
0.0
  11
 937.000
  21
 20.8038
  31
0.0
   0
LINE
   8
LEVEL003
   6
CONTINUOUS
  62
3
  10
 940.000
  20
 20.0000
  30
0.0
  11
 937.000
  21
 19.1962
  31
0.0
   0
LINE
   8
LEVEL003
   6
CONTINUOUS
  62
3
  10
 860.000
  20
 20.0000
  30
0.0
  11
 863.000
  21
 19.1962
  31
0.0
   0
LINE
   8
LEVEL003
   6
CONTINUOUS
  62
3
  10
 860.000
  20
 20.0000
  30
0.0
  11
 863.000
  21
 20.8038
  31
0.0
   0
TEXT
   8
LEVEL003
  62
3
  10
 894.000
  20
 21.7143
  30
0.0
  40
 4.00000
   1
M80×3
   7
STANDARD
  72
1
  11
 900.000
  21
 21.7143
  31
0.0
   0
LINE
   8
LEVEL003
   6
CONTINUOUS
  62
3
  10
 436.000
  20
 240.000
  30
0.0
  11
 592.000
  21
 240.000
  31
0.0
   0
LINE
   8
LEVEL003
   6
CONTINUOUS
  62
3
  10
 358.500
  20
 975.000
  30
0.0
  11
 592.000
  21
 975.000
  31
0.0
   0
LINE
   8
LEVEL003
   6
CONTINUOUS
  62
3
  10
 590.000
  20
 240.000
  30
0.0
  11
 590.000
  21
 975.000
  31
0.0
   0
LINE
   8
LEVEL003
   6
CONTINUOUS
  62
3
  10
 590.000
  20
 240.000
  30
0.0
  11
 590.804
  21
 243.000
  31
0.0
   0
LINE
   8
LEVEL003
   6
CONTINUOUS
  62
3
  10
 590.000
  20
 240.000
  30
0.0
  11
 589.196
  21
 243.000
  31
0.0
   0
LINE
   8
LEVEL003
   6
CONTINUOUS
  62
3
  10
 590.000
  20
 975.000
  30
0.0
  11
 589.196
  21
 972.000
  31
0.0
   0
LINE
   8
LEVEL003
   6
CONTINUOUS
  62
3
  10
 590.000
  20
 975.000
  30
0.0
  11
 590.804
  21
 972.000
  31
0.0
   0
TEXT
   8
LEVEL003
  62
3
  10
 588.286
  20
 593.500
  30
0.0
  40
 4.00000
   1
385+ストローク
  50
 90.0000
   7
STANDARD
  72
1
  11
 588.286
  21
 607.500
  31
0.0
   0
LINE
   8
LEVEL004
   6
DOT
  62
3
  10
 1026.00
  20
 277.000
  30
0.0
  11
 1026.00
  21
 275.000
  31
0.0
   0
LINE
   8
LEVEL004
   6
DOT
  62
3
  10
 1026.00
  20
 275.000
  30
0.0
  11
 1090.00
  21
 275.000
  31
0.0
   0
LINE
   8
LEVEL004
   6
DOT
  62
3
  10
 1090.00
  20
 277.000
  30
0.0
  11
 1090.00
  21
 275.000
  31
0.0
   0
ENDSEC
   0
EOF
