   0
SECTION
   2
HEADER
   9
$LIMMIN
  10
0.0
  20
0.0
   9
$LIMMAX
  10
 420.000
  20
 297.000
   9
$EXTMIN
  10
0.0
  20
0.0
   9
$EXTMAX
  10
 420.000
  20
 297.000
   9
$LTSCALE
  40
 8.40000
   0
ENDSEC
   0
SECTION
   2
TABLES
  0
TABLE
  2
LTYPE
 70
    25
  0
LTYPE
  2
CONTINUOUS
 70
    64
  3
Solid line
 72
    65
 73
     0
 40
0.0
  0
LTYPE
  2
BORDER
 70
    64
  3
__ __ . __ __ . __ __ . __ __ . __ __ . __ __ .
 72
    65
 73
     6
 40
1.75
 49
0.5
 49
-0.25
 49
0.5
 49
-0.25
 49
0.0
 49
-0.25
  0
LTYPE
  2
BORDER2
 70
    64
  3
__.__.__.__.__.__.__.__.__.__.__.__.__.__.__.__
 72
    65
 73
     6
 40
0.875
 49
0.25
 49
-0.125
 49
0.25
 49
-0.125
 49
0.0
 49
-0.125
  0
LTYPE
  2
BORDERX2
 70
    64
  3
____  ____  .  ____  ____  .  ____  ____  .  __
 72
    65
 73
     6
 40
3.5
 49
1.0
 49
-0.5
 49
1.0
 49
-0.5
 49
0.0
 49
-0.5
  0
LTYPE
  2
CENTER
 70
    64
  3
____ _ ____ _ ____ _ ____ _ ____ _ ____ _ ____ 
 72
    65
 73
     4
 40
2.0
 49
1.25
 49
-0.25
 49
0.25
 49
-0.25
  0
LTYPE
  2
CENTER2
 70
    64
  3
___ _ ___ _ ___ _ ___ _ ___ _ ___ _ ___ _ ___ _
 72
    65
 73
     4
 40
1.125
 49
0.75
 49
-0.125
 49
0.125
 49
-0.125
  0
LTYPE
  2
CENTERX2
 70
    64
  3
________  __  ________  __  ________  __  _____
 72
    65
 73
     4
 40
4.0
 49
2.5
 49
-0.5
 49
0.5
 49
-0.5
  0
LTYPE
  2
DASHDOT
 70
    64
  3
__ . __ . __ . __ . __ . __ . __ . __ . __ . __
 72
    65
 73
     4
 40
1.0
 49
0.5
 49
-0.25
 49
0.0
 49
-0.25
  0
LTYPE
  2
DASHDOT2
 70
    64
  3
_._._._._._._._._._._._._._._._._._._._._._._._
 72
    65
 73
     4
 40
0.5
 49
0.25
 49
-0.125
 49
0.0
 49
-0.125
  0
LTYPE
  2
DASHDOTX2
 70
    64
  3
____  .  ____  .  ____  .  ____  .  ____  .  __
 72
    65
 73
     4
 40
2.0
 49
1.0
 49
-0.5
 49
0.0
 49
-0.5
  0
LTYPE
  2
DASHED
 70
    64
  3
__ __ __ __ __ __ __ __ __ __ __ __ __ __ __ __
 72
    65
 73
     2
 40
0.75
 49
0.5
 49
-0.25
  0
LTYPE
  2
DASHED2
 70
    64
  3
_ _ _ _ _ _ _ _ _ _ _ _ _ _ _ _ _ _ _ _ _ _ _ _
 72
    65
 73
     2
 40
0.375
 49
0.25
 49
-0.125
  0
LTYPE
  2
DASHEDX2
 70
    64
  3
____  ____  ____  ____  ____  ____  ____  ____ 
 72
    65
 73
     2
 40
1.5
 49
1.0
 49
-0.5
  0
LTYPE
  2
DIVIDE
 70
    64
  3
____ . . ____ . . ____ . . ____ . . ____ . . __
 72
    65
 73
     6
 40
1.25
 49
0.5
 49
-0.25
 49
0.0
 49
-0.25
 49
0.0
 49
-0.25
  0
LTYPE
  2
DIVIDE2
 70
    64
  3
__..__..__..__..__..__..__..__..__..__..__..__.
 72
    65
 73
     6
 40
0.625
 49
0.25
 49
-0.125
 49
0.0
 49
-0.125
 49
0.0
 49
-0.125
  0
LTYPE
  2
DIVIDEX2
 70
    64
  3
________  .  .  ________  .  .  ________  .  . 
 72
    65
 73
     6
 40
2.5
 49
1.0
 49
-0.5
 49
0.0
 49
-0.5
 49
0.0
 49
-0.5
  0
LTYPE
  2
DOT
 70
    64
  3
. . . . . . . . . . . . . . . . . . . . . . . .
 72
    65
 73
     2
 40
0.25
 49
0.0
 49
-0.25
  0
LTYPE
  2
DOT2
 70
    64
  3
...............................................
 72
    65
 73
     2
 40
0.125
 49
0.0
 49
-0.125
  0
LTYPE
  2
DOTX2
 70
    64
  3
.  .  .  .  .  .  .  .  .  .  .  .  .  .  .  . 
 72
    65
 73
     2
 40
0.5
 49
0.0
 49
-0.5
  0
LTYPE
  2
HIDDEN
 70
    64
  3
__ __ __ __ __ __ __ __ __ __ __ __ __ __ __ __
 72
    65
 73
     2
 40
0.375
 49
0.25
 49
-0.125
  0
LTYPE
  2
HIDDEN2
 70
    64
  3
_ _ _ _ _ _ _ _ _ _ _ _ _ _ _ _ _ _ _ _ _ _ _ _
 72
    65
 73
     2
 40
0.1875
 49
0.125
 49
-0.0625
  0
LTYPE
  2
HIDDENX2
 70
    64
  3
____ ____ ____ ____ ____ ____ ____ ____ ____ __
 72
    65
 73
     2
 40
0.75
 49
0.5
 49
-0.25
  0
LTYPE
  2
PHANTOM
 70
    64
  3
______  __  __  ______  __  __  ______  __  __ 
 72
    65
 73
     6
 40
2.5
 49
1.25
 49
-0.25
 49
0.25
 49
-0.25
 49
0.25
 49
-0.25
  0
LTYPE
  2
PHANTOM2
 70
    64
  3
___ _ _ ___ _ _ ___ _ _ ___ _ _ ___ _ _ ___ _ _
 72
    65
 73
     6
 40
1.25
 49
0.625
 49
-0.125
 49
0.125
 49
-0.125
 49
0.125
 49
-0.125
  0
LTYPE
  2
PHANTOMX2
 70
    64
  3
____________    ____    ____    ____________   
 72
    65
 73
     6
 40
5.0
 49
2.5
 49
-0.5
 49
0.5
 49
-0.5
 49
0.5
 49
-0.5
  0
ENDTAB
  0
TABLE
  2
STYLE
 70
     2
  0
STYLE
  2
STANDARD
 70
0
 40
0.0
 41
1.0
 50
0.0
 71
0
 42
0.2
  3
TXT
  4
BIGFONT
  0
STYLE
  2
STANDARD1
 70
     4
 40
0.0
 41
1.0
 50
0.0
 71
     0
 42
0.2
  3
TXT
  4
BIGFONT
  0
ENDTAB
   0
TABLE
   2
LAYER
  70
4
   0
LAYER
   2
0
  70
0
  62
7
   6
CONTINUOUS
   0
LAYER
   2
LEVEL001
  70
0
  62
7
   6
CONTINUOUS
   0
LAYER
   2
LEVEL003
  70
0
  62
7
   6
CONTINUOUS
   0
LAYER
   2
LEVEL004
  70
0
  62
7
   6
CONTINUOUS
   0
ENDTAB
   0
ENDSEC
   0
SECTION
   2
ENTITIES
   0
ARC
   8
LEVEL001
   6
CONTINUOUS
  62
7
  10
 115.500
  20
 189.500
  30
0.0
  40
 1.00000
  50
 90.0000
  51
 180.000
   0
ARC
   8
LEVEL001
   6
CONTINUOUS
  62
7
  10
 119.500
  20
 189.500
  30
0.0
  40
 1.00000
  50
0.0
  51
 90.0000
   0
LINE
   8
LEVEL001
   6
CONTINUOUS
  62
7
  10
 119.500
  20
 190.500
  30
0.0
  11
 115.500
  21
 190.500
  31
0.0
   0
ARC
   8
LEVEL001
   6
CONTINUOUS
  62
7
  10
 114.000
  20
 189.000
  30
0.0
  40
 0.500000
  50
 270.000
  51
0.0
   0
ARC
   8
LEVEL001
   6
CONTINUOUS
  62
7
  10
 115.500
  20
 160.500
  30
0.0
  40
 1.00000
  50
 180.000
  51
 270.000
   0
ARC
   8
LEVEL001
   6
CONTINUOUS
  62
7
  10
 119.500
  20
 160.500
  30
0.0
  40
 1.00000
  50
 270.000
  51
0.0
   0
LINE
   8
LEVEL001
   6
CONTINUOUS
  62
7
  10
 119.500
  20
 159.500
  30
0.0
  11
 115.500
  21
 159.500
  31
0.0
   0
ARC
   8
LEVEL001
   6
CONTINUOUS
  62
7
  10
 114.000
  20
 161.000
  30
0.0
  40
 0.500000
  50
0.0
  51
 90.0000
   0
CIRCLE
   8
LEVEL001
   6
CONTINUOUS
  62
7
  10
 75.0000
  20
 175.000
  30
0.0
  40
 20.5000
   0
CIRCLE
   8
LEVEL001
   6
CONTINUOUS
  62
7
  10
 75.0000
  20
 175.000
  30
0.0
  40
 16.0000
   0
CIRCLE
   8
LEVEL001
   6
CONTINUOUS
  62
7
  10
 75.0000
  20
 175.000
  30
0.0
  40
 15.2500
   0
CIRCLE
   8
LEVEL001
   6
CONTINUOUS
  62
7
  10
 75.0000
  20
 175.000
  30
0.0
  40
 14.3000
   0
CIRCLE
   8
LEVEL001
   6
CONTINUOUS
  62
7
  10
 75.0000
  20
 175.000
  30
0.0
  40
 13.8000
   0
LINE
   8
LEVEL001
   6
CONTINUOUS
  62
7
  10
 120.500
  20
 189.500
  30
0.0
  11
 120.500
  21
 160.500
  31
0.0
   0
LINE
   8
LEVEL001
   6
CONTINUOUS
  62
7
  10
 114.500
  20
 160.500
  30
0.0
  11
 114.500
  21
 189.500
  31
0.0
   0
ARC
   8
LEVEL001
   6
CONTINUOUS
  62
7
  10
 97.5588
  20
 198.500
  30
0.0
  40
 10.0000
  50
 246.733
  51
 270.000
   0
LINE
   8
LEVEL001
   6
CONTINUOUS
  62
7
  10
 93.6086
  20
 189.313
  30
0.0
  11
 83.0979
  21
 193.833
  31
0.0
   0
LINE
   8
LEVEL001
   6
CONTINUOUS
  62
7
  10
 114.000
  20
 188.500
  30
0.0
  11
 97.5588
  21
 188.500
  31
0.0
   0
ARC
   8
LEVEL001
   6
CONTINUOUS
  62
7
  10
 97.5588
  20
 151.500
  30
0.0
  40
 10.0000
  50
 89.9999
  51
 113.267
   0
LINE
   8
LEVEL001
   6
CONTINUOUS
  62
7
  10
 93.6086
  20
 160.687
  30
0.0
  11
 83.0979
  21
 156.167
  31
0.0
   0
LINE
   8
LEVEL001
   6
CONTINUOUS
  62
7
  10
 114.000
  20
 161.500
  30
0.0
  11
 97.5588
  21
 161.500
  31
0.0
   0
LINE
   8
LEVEL001
   6
CONTINUOUS
  62
7
  10
 154.000
  20
 190.000
  30
0.0
  11
 165.000
  21
 190.000
  31
0.0
   0
LINE
   8
LEVEL001
   6
CONTINUOUS
  62
7
  10
 154.000
  20
 160.000
  30
0.0
  11
 165.000
  21
 160.000
  31
0.0
   0
LINE
   8
LEVEL001
   6
CONTINUOUS
  62
7
  10
 154.000
  20
 190.000
  30
0.0
  11
 154.000
  21
 160.000
  31
0.0
   0
LINE
   8
LEVEL001
   6
CONTINUOUS
  62
7
  10
 165.000
  20
 160.000
  30
0.0
  11
 165.000
  21
 190.000
  31
0.0
   0
ARC
   8
LEVEL001
   6
CONTINUOUS
  62
7
  10
 149.000
  20
 188.000
  30
0.0
  40
 1.50000
  50
 90.0000
  51
 180.000
   0
LINE
   8
LEVEL001
   6
CONTINUOUS
  62
7
  10
 149.000
  20
 189.500
  30
0.0
  11
 154.000
  21
 189.500
  31
0.0
   0
ARC
   8
LEVEL001
   6
CONTINUOUS
  62
7
  10
 149.000
  20
 162.000
  30
0.0
  40
 1.50000
  50
 180.000
  51
 270.000
   0
LINE
   8
LEVEL001
   6
CONTINUOUS
  62
7
  10
 147.500
  20
 162.000
  30
0.0
  11
 147.500
  21
 188.000
  31
0.0
   0
LINE
   8
LEVEL001
   6
CONTINUOUS
  62
7
  10
 149.000
  20
 160.500
  30
0.0
  11
 154.000
  21
 160.500
  31
0.0
   0
ARC
   8
LEVEL001
   6
CONTINUOUS
  62
7
  10
 170.000
  20
 188.000
  30
0.0
  40
 1.50000
  50
0.0
  51
 90.0000
   0
LINE
   8
LEVEL001
   6
CONTINUOUS
  62
7
  10
 165.000
  20
 189.500
  30
0.0
  11
 170.000
  21
 189.500
  31
0.0
   0
ARC
   8
LEVEL001
   6
CONTINUOUS
  62
7
  10
 170.000
  20
 162.000
  30
0.0
  40
 1.50000
  50
 270.000
  51
0.0
   0
LINE
   8
LEVEL001
   6
CONTINUOUS
  62
7
  10
 165.000
  20
 160.500
  30
0.0
  11
 170.000
  21
 160.500
  31
0.0
   0
LINE
   8
LEVEL001
   6
CONTINUOUS
  62
7
  10
 171.500
  20
 188.000
  30
0.0
  11
 171.500
  21
 162.000
  31
0.0
   0
ARC
   8
LEVEL001
   6
DASHDOT
  62
1
  10
 180.500
  20
 188.000
  30
0.0
  40
 1.00000
  50
0.0
  51
 90.0000
   0
LINE
   8
LEVEL001
   6
DASHDOT
  62
1
  10
 172.500
  20
 189.000
  30
0.0
  11
 180.500
  21
 189.000
  31
0.0
   0
ARC
   8
LEVEL001
   6
DASHDOT
  62
1
  10
 180.500
  20
 162.000
  30
0.0
  40
 1.00000
  50
 270.000
  51
0.0
   0
LINE
   8
LEVEL001
   6
DASHDOT
  62
1
  10
 172.500
  20
 161.000
  30
0.0
  11
 180.500
  21
 161.000
  31
0.0
   0
LINE
   8
LEVEL001
   6
DASHDOT
  62
1
  10
 181.500
  20
 188.000
  30
0.0
  11
 181.500
  21
 162.000
  31
0.0
   0
ARC
   8
LEVEL001
   6
DASHDOT
  62
1
  10
 172.500
  20
 162.000
  30
0.0
  40
 1.00000
  50
 180.000
  51
 270.000
   0
ARC
   8
LEVEL001
   6
DASHDOT
  62
1
  10
 172.500
  20
 188.000
  30
0.0
  40
 1.00000
  50
 90.0000
  51
 180.000
   0
LINE
   8
LEVEL001
   6
CONTINUOUS
  62
7
  10
 126.500
  20
 182.500
  30
0.0
  11
 140.500
  21
 182.500
  31
0.0
   0
LINE
   8
LEVEL001
   6
CONTINUOUS
  62
7
  10
 126.500
  20
 167.500
  30
0.0
  11
 140.500
  21
 167.500
  31
0.0
   0
LINE
   8
LEVEL001
   6
CONTINUOUS
  62
7
  10
 140.500
  20
 182.500
  30
0.0
  11
 140.500
  21
 184.500
  31
0.0
   0
LINE
   8
LEVEL001
   6
CONTINUOUS
  62
7
  10
 140.500
  20
 167.500
  30
0.0
  11
 140.500
  21
 165.500
  31
0.0
   0
LINE
   8
LEVEL001
   6
CONTINUOUS
  62
7
  10
 126.500
  20
 167.500
  30
0.0
  11
 126.500
  21
 166.481
  31
0.0
   0
LINE
   8
LEVEL001
   6
CONTINUOUS
  62
7
  10
 126.500
  20
 182.500
  30
0.0
  11
 126.500
  21
 183.519
  31
0.0
   0
LINE
   8
LEVEL001
   6
CONTINUOUS
  62
7
  10
 147.500
  20
 184.500
  30
0.0
  11
 140.500
  21
 184.500
  31
0.0
   0
LINE
   8
LEVEL001
   6
CONTINUOUS
  62
7
  10
 147.500
  20
 165.500
  30
0.0
  11
 140.500
  21
 165.500
  31
0.0
   0
LINE
   8
LEVEL001
   6
CONTINUOUS
  62
3
  10
 126.884
  20
 182.500
  30
0.0
  11
 126.884
  21
 167.500
  31
0.0
   0
LINE
   8
LEVEL001
   6
CONTINUOUS
  62
7
  10
 130.500
  20
 182.500
  30
0.0
  11
 130.500
  21
 167.500
  31
0.0
   0
LINE
   8
LEVEL001
   6
CONTINUOUS
  62
7
  10
 131.984
  20
 167.500
  30
0.0
  11
 131.984
  21
 182.500
  31
0.0
   0
LINE
   8
LEVEL001
   6
CONTINUOUS
  62
3
  10
 154.000
  20
 162.000
  30
0.0
  11
 165.000
  21
 162.000
  31
0.0
   0
LINE
   8
LEVEL001
   6
CONTINUOUS
  62
3
  10
 154.000
  20
 164.000
  30
0.0
  11
 165.000
  21
 164.000
  31
0.0
   0
LINE
   8
LEVEL001
   6
CONTINUOUS
  62
3
  10
 154.000
  20
 166.000
  30
0.0
  11
 165.000
  21
 166.000
  31
0.0
   0
LINE
   8
LEVEL001
   6
CONTINUOUS
  62
3
  10
 154.000
  20
 168.000
  30
0.0
  11
 165.000
  21
 168.000
  31
0.0
   0
LINE
   8
LEVEL001
   6
CONTINUOUS
  62
3
  10
 154.000
  20
 170.000
  30
0.0
  11
 165.000
  21
 170.000
  31
0.0
   0
LINE
   8
LEVEL001
   6
CONTINUOUS
  62
3
  10
 154.000
  20
 172.000
  30
0.0
  11
 165.000
  21
 172.000
  31
0.0
   0
LINE
   8
LEVEL001
   6
CONTINUOUS
  62
3
  10
 154.000
  20
 174.000
  30
0.0
  11
 165.000
  21
 174.000
  31
0.0
   0
LINE
   8
LEVEL001
   6
CONTINUOUS
  62
3
  10
 154.000
  20
 176.000
  30
0.0
  11
 165.000
  21
 176.000
  31
0.0
   0
LINE
   8
LEVEL001
   6
CONTINUOUS
  62
3
  10
 154.000
  20
 178.000
  30
0.0
  11
 165.000
  21
 178.000
  31
0.0
   0
LINE
   8
LEVEL001
   6
CONTINUOUS
  62
3
  10
 154.000
  20
 180.000
  30
0.0
  11
 165.000
  21
 180.000
  31
0.0
   0
LINE
   8
LEVEL001
   6
CONTINUOUS
  62
3
  10
 154.000
  20
 182.000
  30
0.0
  11
 165.000
  21
 182.000
  31
0.0
   0
LINE
   8
LEVEL001
   6
CONTINUOUS
  62
3
  10
 154.000
  20
 184.000
  30
0.0
  11
 165.000
  21
 184.000
  31
0.0
   0
LINE
   8
LEVEL001
   6
CONTINUOUS
  62
3
  10
 154.000
  20
 186.000
  30
0.0
  11
 165.000
  21
 186.000
  31
0.0
   0
LINE
   8
LEVEL001
   6
CONTINUOUS
  62
3
  10
 154.000
  20
 188.000
  30
0.0
  11
 165.000
  21
 188.000
  31
0.0
   0
LINE
   8
LEVEL001
   6
CONTINUOUS
  62
7
  10
 126.500
  20
 183.519
  30
0.0
  11
 120.500
  21
 183.331
  31
0.0
   0
LINE
   8
LEVEL001
   6
CONTINUOUS
  62
3
  10
 126.500
  20
 182.663
  30
0.0
  11
 120.500
  21
 182.475
  31
0.0
   0
LINE
   8
LEVEL001
   6
CONTINUOUS
  62
3
  10
 126.495
  20
 167.338
  30
0.0
  11
 120.500
  21
 167.525
  31
0.0
   0
LINE
   8
LEVEL001
   6
CONTINUOUS
  62
7
  10
 126.500
  20
 166.481
  30
0.0
  11
 120.500
  21
 166.669
  31
0.0
   0
LINE
   8
LEVEL001
   6
DASHDOT
  62
1
  10
 190.500
  20
 175.000
  30
0.0
  11
 50.0000
  21
 175.000
  31
0.0
   0
LINE
   8
LEVEL001
   6
DASHDOT
  62
1
  10
 75.0000
  20
 150.000
  30
0.0
  11
 75.0000
  21
 200.000
  31
0.0
   0
ARC
   8
LEVEL001
   6
CONTINUOUS
  62
7
  10
 55.5000
  20
 51.0000
  30
0.0
  40
 1.00000
  50
 180.000
  51
 270.000
   0
ARC
   8
LEVEL001
   6
CONTINUOUS
  62
7
  10
 55.5000
  20
 92.0000
  30
0.0
  40
 1.00000
  50
 90.0000
  51
 180.000
   0
LINE
   8
LEVEL001
   6
CONTINUOUS
  62
7
  10
 54.5000
  20
 51.0000
  30
0.0
  11
 54.5000
  21
 92.0000
  31
0.0
   0
LINE
   8
LEVEL001
   6
CONTINUOUS
  62
7
  10
 65.0000
  20
 93.0000
  30
0.0
  11
 65.5000
  21
 94.0000
  31
0.0
   0
ARC
   8
LEVEL001
   6
CONTINUOUS
  62
7
  10
 94.5000
  20
 92.0000
  30
0.0
  40
 1.00000
  50
0.0
  51
 90.0000
   0
LINE
   8
LEVEL001
   6
CONTINUOUS
  62
7
  10
 85.0000
  20
 93.0000
  30
0.0
  11
 84.5000
  21
 94.0000
  31
0.0
   0
LINE
   8
LEVEL001
   6
CONTINUOUS
  62
7
  10
 65.5000
  20
 94.0000
  30
0.0
  11
 84.5000
  21
 94.0000
  31
0.0
   0
ARC
   8
LEVEL001
   6
CONTINUOUS
  62
7
  10
 99.5000
  20
 87.5000
  30
0.0
  40
 4.00000
  50
 180.000
  51
 270.000
   0
LINE
   8
LEVEL001
   6
CONTINUOUS
  62
7
  10
 95.5000
  20
 87.5000
  30
0.0
  11
 95.5000
  21
 92.0000
  31
0.0
   0
ARC
   8
LEVEL001
   6
CONTINUOUS
  62
7
  10
 115.500
  20
 84.5000
  30
0.0
  40
 1.00000
  50
 90.0000
  51
 180.000
   0
ARC
   8
LEVEL001
   6
CONTINUOUS
  62
7
  10
 119.500
  20
 84.5000
  30
0.0
  40
 1.00000
  50
0.0
  51
 90.0000
   0
LINE
   8
LEVEL001
   6
CONTINUOUS
  62
7
  10
 119.500
  20
 85.5000
  30
0.0
  11
 115.500
  21
 85.5000
  31
0.0
   0
ARC
   8
LEVEL001
   6
CONTINUOUS
  62
7
  10
 114.000
  20
 84.0000
  30
0.0
  40
 0.500000
  50
 270.000
  51
0.0
   0
LINE
   8
LEVEL001
   6
CONTINUOUS
  62
7
  10
 114.000
  20
 83.5000
  30
0.0
  11
 99.5000
  21
 83.5000
  31
0.0
   0
ARC
   8
LEVEL001
   6
CONTINUOUS
  62
7
  10
 115.500
  20
 55.5000
  30
0.0
  40
 1.00000
  50
 180.000
  51
 270.000
   0
ARC
   8
LEVEL001
   6
CONTINUOUS
  62
7
  10
 119.500
  20
 55.5000
  30
0.0
  40
 1.00000
  50
 270.000
  51
0.0
   0
LINE
   8
LEVEL001
   6
CONTINUOUS
  62
7
  10
 119.500
  20
 54.5000
  30
0.0
  11
 115.500
  21
 54.5000
  31
0.0
   0
ARC
   8
LEVEL001
   6
CONTINUOUS
  62
7
  10
 114.000
  20
 56.0000
  30
0.0
  40
 0.500000
  50
0.0
  51
 90.0000
   0
ARC
   8
LEVEL001
   6
CONTINUOUS
  62
7
  10
 103.657
  20
 52.5000
  30
0.0
  40
 4.00000
  50
 89.9999
  51
 135.000
   0
LINE
   8
LEVEL001
   6
CONTINUOUS
  62
7
  10
 114.000
  20
 56.5000
  30
0.0
  11
 103.657
  21
 56.5000
  31
0.0
   0
ARC
   8
LEVEL001
   6
CONTINUOUS
  62
7
  10
 95.0858
  20
 51.0000
  30
0.0
  40
 1.00000
  50
 270.000
  51
 315.000
   0
LINE
   8
LEVEL001
   6
CONTINUOUS
  62
7
  10
 95.0858
  20
 50.0000
  30
0.0
  11
 55.5000
  21
 50.0000
  31
0.0
   0
LINE
   8
LEVEL001
   6
CONTINUOUS
  62
7
  10
 95.7929
  20
 50.2929
  30
0.0
  11
 100.828
  21
 55.3284
  31
0.0
   0
LINE
   8
LEVEL001
   6
CONTINUOUS
  62
3
  10
 130.500
  20
 78.6435
  30
0.0
  11
 126.884
  21
 77.6745
  31
0.0
   0
LINE
   8
LEVEL001
   6
CONTINUOUS
  62
3
  10
 130.500
  20
 61.3565
  30
0.0
  11
 126.884
  21
 62.3255
  31
0.0
   0
LINE
   8
LEVEL001
   6
CONTINUOUS
  62
7
  10
 130.500
  20
 78.6435
  30
0.0
  11
 131.984
  21
 79.5000
  31
0.0
   0
LINE
   8
LEVEL001
   6
CONTINUOUS
  62
7
  10
 147.500
  20
 79.5000
  30
0.0
  11
 131.984
  21
 79.5000
  31
0.0
   0
LINE
   8
LEVEL001
   6
CONTINUOUS
  62
7
  10
 130.500
  20
 61.3565
  30
0.0
  11
 131.984
  21
 60.5000
  31
0.0
   0
LINE
   8
LEVEL001
   6
CONTINUOUS
  62
7
  10
 147.500
  20
 60.5000
  30
0.0
  11
 131.984
  21
 60.5000
  31
0.0
   0
ARC
   8
LEVEL001
   6
CONTINUOUS
  62
7
  10
 149.000
  20
 83.0000
  30
0.0
  40
 1.50000
  50
 90.0000
  51
 180.000
   0
LINE
   8
LEVEL001
   6
CONTINUOUS
  62
7
  10
 149.000
  20
 84.5000
  30
0.0
  11
 154.000
  21
 84.5000
  31
0.0
   0
ARC
   8
LEVEL001
   6
CONTINUOUS
  62
7
  10
 149.000
  20
 57.0000
  30
0.0
  40
 1.50000
  50
 180.000
  51
 270.000
   0
LINE
   8
LEVEL001
   6
CONTINUOUS
  62
7
  10
 147.500
  20
 57.0000
  30
0.0
  11
 147.500
  21
 83.0000
  31
0.0
   0
LINE
   8
LEVEL001
   6
CONTINUOUS
  62
7
  10
 149.000
  20
 55.5000
  30
0.0
  11
 154.000
  21
 55.5000
  31
0.0
   0
ARC
   8
LEVEL001
   6
CONTINUOUS
  62
7
  10
 170.000
  20
 83.0000
  30
0.0
  40
 1.50000
  50
0.0
  51
 90.0000
   0
LINE
   8
LEVEL001
   6
CONTINUOUS
  62
7
  10
 165.000
  20
 84.5000
  30
0.0
  11
 170.000
  21
 84.5000
  31
0.0
   0
ARC
   8
LEVEL001
   6
CONTINUOUS
  62
7
  10
 170.000
  20
 57.0000
  30
0.0
  40
 1.50000
  50
 270.000
  51
0.0
   0
LINE
   8
LEVEL001
   6
CONTINUOUS
  62
7
  10
 165.000
  20
 55.5000
  30
0.0
  11
 170.000
  21
 55.5000
  31
0.0
   0
LINE
   8
LEVEL001
   6
CONTINUOUS
  62
7
  10
 171.500
  20
 83.0000
  30
0.0
  11
 171.500
  21
 57.0000
  31
0.0
   0
ARC
   8
LEVEL001
   6
DASHDOT
  62
1
  10
 180.500
  20
 83.0000
  30
0.0
  40
 1.00000
  50
0.0
  51
 90.0000
   0
LINE
   8
LEVEL001
   6
DASHDOT
  62
1
  10
 172.500
  20
 84.0000
  30
0.0
  11
 180.500
  21
 84.0000
  31
0.0
   0
ARC
   8
LEVEL001
   6
DASHDOT
  62
1
  10
 180.500
  20
 57.0000
  30
0.0
  40
 1.00000
  50
 270.000
  51
0.0
   0
LINE
   8
LEVEL001
   6
DASHDOT
  62
1
  10
 172.500
  20
 56.0000
  30
0.0
  11
 180.500
  21
 56.0000
  31
0.0
   0
LINE
   8
LEVEL001
   6
DASHDOT
  62
1
  10
 181.500
  20
 83.0000
  30
0.0
  11
 181.500
  21
 57.0000
  31
0.0
   0
CIRCLE
   8
LEVEL001
   6
DASHDOT
  62
1
  10
 184.500
  20
 70.0000
  30
0.0
  40
 1.50000
   0
ARC
   8
LEVEL001
   6
DASHDOT
  62
1
  10
 172.500
  20
 57.0000
  30
0.0
  40
 1.00000
  50
 180.000
  51
 270.000
   0
ARC
   8
LEVEL001
   6
DASHDOT
  62
1
  10
 172.500
  20
 83.0000
  30
0.0
  40
 1.00000
  50
 90.0000
  51
 180.000
   0
ARC
   8
LEVEL001
   6
DASHDOT
  62
1
  10
 183.500
  20
 75.5000
  30
0.0
  40
 2.00000
  50
 180.000
  51
 270.000
   0
ARC
   8
LEVEL001
   6
DASHDOT
  62
1
  10
 183.500
  20
 64.5000
  30
0.0
  40
 2.00000
  50
 90.0000
  51
 180.000
   0
LINE
   8
LEVEL001
   6
DASHDOT
  62
1
  10
 183.500
  20
 73.5000
  30
0.0
  11
 184.000
  21
 73.5000
  31
0.0
   0
LINE
   8
LEVEL001
   6
DASHDOT
  62
1
  10
 183.500
  20
 66.5000
  30
0.0
  11
 184.000
  21
 66.5000
  31
0.0
   0
ARC
   8
LEVEL001
   6
DASHDOT
  62
1
  10
 184.000
  20
 70.0000
  30
0.0
  40
 3.50000
  50
 270.000
  51
 90.0000
   0
LINE
   8
LEVEL001
   6
CONTINUOUS
  62
7
  10
 131.984
  20
 60.5000
  30
0.0
  11
 131.984
  21
 64.1691
  31
0.0
   0
LINE
   8
LEVEL001
   6
CONTINUOUS
  62
7
  10
 131.984
  20
 75.8309
  30
0.0
  11
 131.984
  21
 79.5000
  31
0.0
   0
LINE
   8
LEVEL001
   6
CONTINUOUS
  62
7
  10
 126.500
  20
 65.9608
  30
0.0
  11
 140.500
  21
 75.8309
  31
0.0
   0
LINE
   8
LEVEL001
   6
CONTINUOUS
  62
7
  10
 126.500
  20
 74.0392
  30
0.0
  11
 140.500
  21
 64.1691
  31
0.0
   0
LINE
   8
LEVEL001
   6
CONTINUOUS
  62
3
  10
 126.884
  20
 77.6745
  30
0.0
  11
 126.884
  21
 74.0392
  31
0.0
   0
LINE
   8
LEVEL001
   6
CONTINUOUS
  62
3
  10
 126.884
  20
 65.9608
  30
0.0
  11
 126.884
  21
 62.3255
  31
0.0
   0
LINE
   8
LEVEL001
   6
CONTINUOUS
  62
7
  10
 130.500
  20
 78.6435
  30
0.0
  11
 130.500
  21
 74.2965
  31
0.0
   0
LINE
   8
LEVEL001
   6
CONTINUOUS
  62
7
  10
 130.500
  20
 65.7035
  30
0.0
  11
 130.500
  21
 61.3565
  31
0.0
   0
LINE
   8
LEVEL001
   6
CONTINUOUS
  62
3
  10
 154.000
  20
 57.0000
  30
0.0
  11
 165.000
  21
 57.0000
  31
0.0
   0
LINE
   8
LEVEL001
   6
CONTINUOUS
  62
3
  10
 154.000
  20
 59.0000
  30
0.0
  11
 165.000
  21
 59.0000
  31
0.0
   0
LINE
   8
LEVEL001
   6
CONTINUOUS
  62
3
  10
 154.000
  20
 61.0000
  30
0.0
  11
 165.000
  21
 61.0000
  31
0.0
   0
LINE
   8
LEVEL001
   6
CONTINUOUS
  62
3
  10
 154.000
  20
 63.0000
  30
0.0
  11
 165.000
  21
 63.0000
  31
0.0
   0
LINE
   8
LEVEL001
   6
CONTINUOUS
  62
3
  10
 154.000
  20
 65.0000
  30
0.0
  11
 165.000
  21
 65.0000
  31
0.0
   0
LINE
   8
LEVEL001
   6
CONTINUOUS
  62
3
  10
 154.000
  20
 67.0000
  30
0.0
  11
 165.000
  21
 67.0000
  31
0.0
   0
LINE
   8
LEVEL001
   6
CONTINUOUS
  62
3
  10
 154.000
  20
 69.0000
  30
0.0
  11
 165.000
  21
 69.0000
  31
0.0
   0
LINE
   8
LEVEL001
   6
CONTINUOUS
  62
3
  10
 154.000
  20
 71.0000
  30
0.0
  11
 165.000
  21
 71.0000
  31
0.0
   0
LINE
   8
LEVEL001
   6
CONTINUOUS
  62
3
  10
 154.000
  20
 73.0000
  30
0.0
  11
 165.000
  21
 73.0000
  31
0.0
   0
LINE
   8
LEVEL001
   6
CONTINUOUS
  62
3
  10
 154.000
  20
 75.0000
  30
0.0
  11
 165.000
  21
 75.0000
  31
0.0
   0
LINE
   8
LEVEL001
   6
CONTINUOUS
  62
3
  10
 154.000
  20
 77.0000
  30
0.0
  11
 165.000
  21
 77.0000
  31
0.0
   0
LINE
   8
LEVEL001
   6
CONTINUOUS
  62
3
  10
 154.000
  20
 79.0000
  30
0.0
  11
 165.000
  21
 79.0000
  31
0.0
   0
LINE
   8
LEVEL001
   6
CONTINUOUS
  62
3
  10
 154.000
  20
 81.0000
  30
0.0
  11
 165.000
  21
 81.0000
  31
0.0
   0
LINE
   8
LEVEL001
   6
CONTINUOUS
  62
3
  10
 154.000
  20
 83.0000
  30
0.0
  11
 165.000
  21
 83.0000
  31
0.0
   0
LINE
   8
LEVEL001
   6
DASHDOT
  62
1
  10
 190.500
  20
 70.0000
  30
0.0
  11
 95.0000
  21
 70.0000
  31
0.0
   0
LINE
   8
LEVEL003
   6
CONTINUOUS
  62
3
  10
 60.7000
  20
 77.3521
  30
0.0
  11
 60.7000
  21
 77.3521
  31
0.0
   0
LINE
   8
LEVEL003
   6
CONTINUOUS
  62
3
  10
 89.3000
  20
 77.3521
  30
0.0
  11
 89.3000
  21
 77.3521
  31
0.0
   0
LINE
   8
LEVEL003
   6
CONTINUOUS
  62
3
  10
 64.5000
  20
 94.0000
  30
0.0
  11
 43.0000
  21
 94.0000
  31
0.0
   0
LINE
   8
LEVEL003
   6
CONTINUOUS
  62
3
  10
 54.5000
  20
 93.0000
  30
0.0
  11
 43.0000
  21
 93.0000
  31
0.0
   0
LINE
   8
LEVEL003
   6
CONTINUOUS
  62
3
  10
 45.0000
  20
 94.0000
  30
0.0
  11
 45.0000
  21
 93.0000
  31
0.0
   0
LINE
   8
LEVEL003
   6
CONTINUOUS
  62
3
  10
 45.0000
  20
 94.0000
  30
0.0
  11
 45.0000
  21
 99.0000
  31
0.0
   0
LINE
   8
LEVEL003
   6
CONTINUOUS
  62
3
  10
 45.0000
  20
 94.0000
  30
0.0
  11
 45.5290
  21
 97.0000
  31
0.0
   0
LINE
   8
LEVEL003
   6
CONTINUOUS
  62
3
  10
 45.0000
  20
 94.0000
  30
0.0
  11
 44.4710
  21
 97.0000
  31
0.0
   0
LINE
   8
LEVEL003
   6
CONTINUOUS
  62
3
  10
 45.0000
  20
 93.0000
  30
0.0
  11
 44.4710
  21
 90.0000
  31
0.0
   0
LINE
   8
LEVEL003
   6
CONTINUOUS
  62
3
  10
 45.0000
  20
 93.0000
  30
0.0
  11
 45.5290
  21
 90.0000
  31
0.0
   0
LINE
   8
LEVEL003
   6
CONTINUOUS
  62
3
  10
 45.0000
  20
 94.0000
  30
0.0
  11
 45.0000
  21
 99.0000
  31
0.0
   0
LINE
   8
LEVEL003
   6
CONTINUOUS
  62
3
  10
 45.0000
  20
 93.0000
  30
0.0
  11
 45.0000
  21
 89.2500
  31
0.0
   0
TEXT
   8
LEVEL003
  62
3
  10
 44.2000
  20
 95.0000
  30
0.0
  40
 4.00000
   1
1
  50
 90.0000
   7
STANDARD
  72
1
  11
 44.2000
  21
 97.0000
  31
0.0
   0
LINE
   8
LEVEL003
   6
CONTINUOUS
  62
3
  10
 64.5000
  20
 94.0000
  30
0.0
  11
 33.0000
  21
 94.0000
  31
0.0
   0
LINE
   8
LEVEL003
   6
CONTINUOUS
  62
3
  10
 54.5000
  20
 50.0000
  30
0.0
  11
 33.0000
  21
 50.0000
  31
0.0
   0
LINE
   8
LEVEL003
   6
CONTINUOUS
  62
3
  10
 35.0000
  20
 94.0000
  30
0.0
  11
 35.0000
  21
 50.0000
  31
0.0
   0
LINE
   8
LEVEL003
   6
CONTINUOUS
  62
3
  10
 35.0000
  20
 94.0000
  30
0.0
  11
 34.4710
  21
 91.0000
  31
0.0
   0
LINE
   8
LEVEL003
   6
CONTINUOUS
  62
3
  10
 35.0000
  20
 94.0000
  30
0.0
  11
 35.5290
  21
 91.0000
  31
0.0
   0
LINE
   8
LEVEL003
   6
CONTINUOUS
  62
3
  10
 35.0000
  20
 50.0000
  30
0.0
  11
 35.5290
  21
 53.0000
  31
0.0
   0
LINE
   8
LEVEL003
   6
CONTINUOUS
  62
3
  10
 35.0000
  20
 50.0000
  30
0.0
  11
 34.4710
  21
 53.0000
  31
0.0
   0
TEXT
   8
LEVEL003
  62
3
  10
 34.2000
  20
 68.0000
  30
0.0
  40
 4.00000
   1
44
  50
 90.0000
   7
STANDARD
  72
1
  11
 34.2000
  21
 72.0000
  31
0.0
   0
LINE
   8
LEVEL003
   6
CONTINUOUS
  62
3
  10
 96.0858
  20
 50.0000
  30
0.0
  11
 207.000
  21
 50.0000
  31
0.0
   0
LINE
   8
LEVEL003
   6
CONTINUOUS
  62
3
  10
 191.500
  20
 70.0000
  30
0.0
  11
 207.000
  21
 70.0000
  31
0.0
   0
LINE
   8
LEVEL003
   6
CONTINUOUS
  62
3
  10
 205.000
  20
 50.0000
  30
0.0
  11
 205.000
  21
 70.0000
  31
0.0
   0
LINE
   8
LEVEL003
   6
CONTINUOUS
  62
3
  10
 205.000
  20
 50.0000
  30
0.0
  11
 205.529
  21
 53.0000
  31
0.0
   0
LINE
   8
LEVEL003
   6
CONTINUOUS
  62
3
  10
 205.000
  20
 50.0000
  30
0.0
  11
 204.471
  21
 53.0000
  31
0.0
   0
LINE
   8
LEVEL003
   6
CONTINUOUS
  62
3
  10
 205.000
  20
 70.0000
  30
0.0
  11
 204.471
  21
 67.0000
  31
0.0
   0
LINE
   8
LEVEL003
   6
CONTINUOUS
  62
3
  10
 205.000
  20
 70.0000
  30
0.0
  11
 205.529
  21
 67.0000
  31
0.0
   0
TEXT
   8
LEVEL003
  62
3
  10
 204.200
  20
 56.0000
  30
0.0
  40
 4.00000
   1
20
  50
 90.0000
   7
STANDARD
  72
1
  11
 204.200
  21
 60.0000
  31
0.0
   0
LINE
   8
LEVEL003
   6
CONTINUOUS
  62
3
  10
 54.5000
  20
 50.0000
  30
0.0
  11
 54.5000
  21
 28.0000
  31
0.0
   0
LINE
   8
LEVEL003
   6
CONTINUOUS
  62
3
  10
 120.500
  20
 54.5000
  30
0.0
  11
 120.500
  21
 28.0000
  31
0.0
   0
LINE
   8
LEVEL003
   6
CONTINUOUS
  62
3
  10
 54.5000
  20
 30.0000
  30
0.0
  11
 120.500
  21
 30.0000
  31
0.0
   0
LINE
   8
LEVEL003
   6
CONTINUOUS
  62
3
  10
 54.5000
  20
 30.0000
  30
0.0
  11
 57.5000
  21
 29.4710
  31
0.0
   0
LINE
   8
LEVEL003
   6
CONTINUOUS
  62
3
  10
 54.5000
  20
 30.0000
  30
0.0
  11
 57.5000
  21
 30.5290
  31
0.0
   0
LINE
   8
LEVEL003
   6
CONTINUOUS
  62
3
  10
 120.500
  20
 30.0000
  30
0.0
  11
 117.500
  21
 30.5290
  31
0.0
   0
LINE
   8
LEVEL003
   6
CONTINUOUS
  62
3
  10
 120.500
  20
 30.0000
  30
0.0
  11
 117.500
  21
 29.4710
  31
0.0
   0
TEXT
   8
LEVEL003
  62
3
  10
 83.5000
  20
 30.8000
  30
0.0
  40
 4.00000
   1
66
   7
STANDARD
  72
1
  11
 87.5000
  21
 30.8000
  31
0.0
   0
LINE
   8
LEVEL003
   6
CONTINUOUS
  62
3
  10
 74.0000
  20
 195.500
  30
0.0
  11
 33.0000
  21
 195.500
  31
0.0
   0
LINE
   8
LEVEL003
   6
CONTINUOUS
  62
3
  10
 74.0000
  20
 154.500
  30
0.0
  11
 33.0000
  21
 154.500
  31
0.0
   0
LINE
   8
LEVEL003
   6
CONTINUOUS
  62
3
  10
 35.0000
  20
 195.500
  30
0.0
  11
 35.0000
  21
 154.500
  31
0.0
   0
LINE
   8
LEVEL003
   6
CONTINUOUS
  62
3
  10
 35.0000
  20
 195.500
  30
0.0
  11
 34.4710
  21
 192.500
  31
0.0
   0
LINE
   8
LEVEL003
   6
CONTINUOUS
  62
3
  10
 35.0000
  20
 195.500
  30
0.0
  11
 35.5290
  21
 192.500
  31
0.0
   0
LINE
   8
LEVEL003
   6
CONTINUOUS
  62
3
  10
 35.0000
  20
 154.500
  30
0.0
  11
 35.5290
  21
 157.500
  31
0.0
   0
LINE
   8
LEVEL003
   6
CONTINUOUS
  62
3
  10
 35.0000
  20
 154.500
  30
0.0
  11
 34.4710
  21
 157.500
  31
0.0
   0
TEXT
   8
LEVEL003
  62
3
  10
 34.2000
  20
 171.000
  30
0.0
  40
 4.00000
   1
41
  50
 90.0000
   7
STANDARD
  72
1
  11
 34.2000
  21
 175.000
  31
0.0
   0
POLYLINE
   8
LEVEL003
   6
CONTINUOUS
  62
3
  66
1
  10
0.0
  20
0.0
  30
0.0
  70
0
   0
VERTEX
   8
LEVEL003
   6
CONTINUOUS
  62
3
  10
 125.000
  20
 61.5284
  30
0.0
   0
VERTEX
   8
LEVEL003
   6
CONTINUOUS
  62
3
  10
 140.000
  20
 40.0000
  30
0.0
   0
VERTEX
   8
LEVEL003
   6
CONTINUOUS
  62
3
  10
 160.000
  20
 40.0000
  30
0.0
   0
SEQEND
   0
LINE
   8
LEVEL003
   6
CONTINUOUS
  62
3
  10
 125.000
  20
 61.5284
  30
0.0
  11
 126.281
  21
 58.7645
  31
0.0
   0
LINE
   8
LEVEL003
   6
CONTINUOUS
  62
3
  10
 125.000
  20
 61.5284
  30
0.0
  11
 127.149
  21
 59.3693
  31
0.0
   0
LINE
   8
LEVEL001
   6
CONTINUOUS
  62
7
  10
 120.500
  20
 55.5000
  30
0.0
  11
 120.500
  21
 84.5000
  31
0.0
   0
LINE
   8
LEVEL001
   6
CONTINUOUS
  62
7
  10
 114.500
  20
 55.5000
  30
0.0
  11
 114.500
  21
 84.5000
  31
0.0
   0
LINE
   8
LEVEL001
   6
CONTINUOUS
  62
7
  10
 130.500
  20
 78.6435
  30
0.0
  11
 120.500
  21
 78.3310
  31
0.0
   0
LINE
   8
LEVEL001
   6
CONTINUOUS
  62
7
  10
 130.500
  20
 61.3565
  30
0.0
  11
 120.500
  21
 61.6690
  31
0.0
   0
LINE
   8
LEVEL001
   6
CONTINUOUS
  62
3
  10
 126.884
  20
 77.6745
  30
0.0
  11
 120.500
  21
 77.4750
  31
0.0
   0
LINE
   8
LEVEL001
   6
CONTINUOUS
  62
3
  10
 126.884
  20
 62.3255
  30
0.0
  11
 120.500
  21
 62.5250
  31
0.0
   0
LINE
   8
LEVEL001
   6
CONTINUOUS
  62
7
  10
 55.5000
  20
 93.0000
  30
0.0
  11
 94.5000
  21
 93.0000
  31
0.0
   0
ARC
   8
LEVEL001
   6
CONTINUOUS
  62
7
  10
 143.643
  20
 70.0000
  30
0.0
  40
 50.0000
  50
 164.336
  51
 195.664
   0
LINE
   8
LEVEL003
   6
CONTINUOUS
  62
3
  10
 65.0000
  20
 80.0000
  30
0.0
  11
 65.0000
  21
 80.0000
  31
0.0
   0
LINE
   8
LEVEL003
   6
CONTINUOUS
  62
3
  10
 85.0000
  20
 80.0000
  30
0.0
  11
 85.0000
  21
 80.0000
  31
0.0
   0
LINE
   8
LEVEL003
   6
CONTINUOUS
  62
3
  10
 65.0000
  20
 80.0000
  30
0.0
  11
 85.0000
  21
 80.0000
  31
0.0
   0
LINE
   8
LEVEL003
   6
CONTINUOUS
  62
3
  10
 65.0000
  20
 80.0000
  30
0.0
  11
 68.0000
  21
 79.4710
  31
0.0
   0
LINE
   8
LEVEL003
   6
CONTINUOUS
  62
3
  10
 65.0000
  20
 80.0000
  30
0.0
  11
 68.0000
  21
 80.5290
  31
0.0
   0
LINE
   8
LEVEL003
   6
CONTINUOUS
  62
3
  10
 85.0000
  20
 80.0000
  30
0.0
  11
 82.0000
  21
 80.5290
  31
0.0
   0
LINE
   8
LEVEL003
   6
CONTINUOUS
  62
3
  10
 85.0000
  20
 80.0000
  30
0.0
  11
 82.0000
  21
 79.4710
  31
0.0
   0
TEXT
   8
LEVEL003
  62
3
  10
 65.0000
  20
 80.8000
  30
0.0
  40
 4.00000
   1
%%c20
   7
STANDARD
  72
1
  11
 75.0000
  21
 80.8000
  31
0.0
   0
LINE
   8
LEVEL003
   6
CONTINUOUS
  62
3
  10
 60.7000
  20
 70.0000
  30
0.0
  11
 60.7000
  21
 70.0000
  31
0.0
   0
LINE
   8
LEVEL003
   6
CONTINUOUS
  62
3
  10
 89.3000
  20
 70.0000
  30
0.0
  11
 89.3000
  21
 70.0000
  31
0.0
   0
LINE
   8
LEVEL003
   6
CONTINUOUS
  62
3
  10
 60.7000
  20
 70.0000
  30
0.0
  11
 89.3000
  21
 70.0000
  31
0.0
   0
LINE
   8
LEVEL003
   6
CONTINUOUS
  62
3
  10
 60.7000
  20
 70.0000
  30
0.0
  11
 63.7000
  21
 69.4710
  31
0.0
   0
LINE
   8
LEVEL003
   6
CONTINUOUS
  62
3
  10
 60.7000
  20
 70.0000
  30
0.0
  11
 63.7000
  21
 70.5290
  31
0.0
   0
LINE
   8
LEVEL003
   6
CONTINUOUS
  62
3
  10
 89.3000
  20
 70.0000
  30
0.0
  11
 86.3000
  21
 70.5290
  31
0.0
   0
LINE
   8
LEVEL003
   6
CONTINUOUS
  62
3
  10
 89.3000
  20
 70.0000
  30
0.0
  11
 86.3000
  21
 69.4710
  31
0.0
   0
TEXT
   8
LEVEL003
  62
3
  10
 60.0000
  20
 70.8000
  30
0.0
  40
 4.00000
   1
%%c28.6
   7
STANDARD
  72
1
  11
 74.0000
  21
 70.8000
  31
0.0
   0
LINE
   8
LEVEL001
   6
DASHDOT
  62
1
  10
 75.0000
  20
 45.0000
  30
0.0
  11
 75.0000
  21
 70.0000
  31
0.0
   0
LINE
   8
LEVEL001
   6
DASHDOT
  62
1
  10
 75.0000
  20
 75.0000
  30
0.0
  11
 75.0000
  21
 80.0000
  31
0.0
   0
LINE
   8
LEVEL001
   6
DASHDOT
  62
1
  10
 75.0000
  20
 85.0000
  30
0.0
  11
 75.0000
  21
 100.000
  31
0.0
   0
POLYLINE
   8
LEVEL001
   6
DASHDOT
  62
1
  66
1
  10
0.0
  20
0.0
  30
0.0
  70
0
   0
VERTEX
   8
LEVEL001
   6
DASHDOT
  62
1
  10
 181.500
  20
 177.000
  30
0.0
   0
VERTEX
   8
LEVEL001
   6
DASHDOT
  62
1
  10
 187.500
  20
 177.000
  30
0.0
   0
VERTEX
   8
LEVEL001
   6
DASHDOT
  62
1
  10
 187.500
  20
 173.000
  30
0.0
   0
VERTEX
   8
LEVEL001
   6
DASHDOT
  62
1
  10
 181.500
  20
 173.000
  30
0.0
   0
SEQEND
   0
TEXT
   8
LEVEL003
  62
3
  10
 140.000
  20
 40.0000
  30
0.0
  40
 4.00000
   1
Ｒ　３／８
   7
STANDARD
   0
POLYLINE
   8
LEVEL001
   6
CONTINUOUS
  62
7
  66
1
  10
0.0
  20
0.0
  30
0.0
  70
0
   0
VERTEX
   8
LEVEL001
   6
CONTINUOUS
  62
7
  10
 126.500
  20
 65.9608
  30
0.0
   0
VERTEX
   8
LEVEL001
   6
CONTINUOUS
  62
7
  10
 126.500
  20
 74.0392
  30
0.0
   0
VERTEX
   8
LEVEL001
   6
CONTINUOUS
  62
7
  10
 130.500
  20
 74.2965
  30
0.0
   0
VERTEX
   8
LEVEL001
   6
CONTINUOUS
  62
7
  10
 131.984
  20
 75.8309
  30
0.0
   0
VERTEX
   8
LEVEL001
   6
CONTINUOUS
  62
7
  10
 140.500
  20
 75.8309
  30
0.0
   0
VERTEX
   8
LEVEL001
   6
CONTINUOUS
  62
7
  10
 140.500
  20
 64.1691
  30
0.0
   0
VERTEX
   8
LEVEL001
   6
CONTINUOUS
  62
7
  10
 131.984
  20
 64.1691
  30
0.0
   0
VERTEX
   8
LEVEL001
   6
CONTINUOUS
  62
7
  10
 130.500
  20
 65.7035
  30
0.0
   0
VERTEX
   8
LEVEL001
   6
CONTINUOUS
  62
7
  10
 126.500
  20
 65.9608
  30
0.0
   0
SEQEND
   0
POLYLINE
   8
LEVEL001
   6
CONTINUOUS
  62
7
  66
1
  10
0.0
  20
0.0
  30
0.0
  70
0
   0
VERTEX
   8
LEVEL001
   6
CONTINUOUS
  62
7
  10
 154.000
  20
 55.0000
  30
0.0
   0
VERTEX
   8
LEVEL001
   6
CONTINUOUS
  62
7
  10
 154.000
  20
 85.0000
  30
0.0
   0
VERTEX
   8
LEVEL001
   6
CONTINUOUS
  62
7
  10
 165.000
  20
 85.0000
  30
0.0
   0
VERTEX
   8
LEVEL001
   6
CONTINUOUS
  62
7
  10
 165.000
  20
 55.0000
  30
0.0
   0
VERTEX
   8
LEVEL001
   6
CONTINUOUS
  62
7
  10
 154.000
  20
 55.0000
  30
0.0
   0
SEQEND
   0
TEXT
   8
LEVEL003
  62
7
  10
 211.691
  20
 15.2200
  30
0.0
  40
 10.0000
   1
ＯＳＡＫＡ ＪＡＣＫ
   7
STANDARD
   0
CIRCLE
   8
LEVEL003
   6
CONTINUOUS
  62
7
  10
 199.718
  20
 22.2707
  30
0.0
  40
 3.00000
   0
LINE
   8
LEVEL003
   6
CONTINUOUS
  62
7
  10
 205.606
  20
 25.2707
  30
0.0
  11
 201.797
  21
 18.6707
  31
0.0
   0
LINE
   8
LEVEL003
   6
CONTINUOUS
  62
7
  10
 201.797
  20
 18.6707
  30
0.0
  11
 194.176
  21
 18.6707
  31
0.0
   0
LINE
   8
LEVEL003
   6
CONTINUOUS
  62
7
  10
 193.309
  20
 17.1707
  30
0.0
  11
 206.930
  21
 17.1707
  31
0.0
   0
LINE
   8
LEVEL003
   6
CONTINUOUS
  62
7
  10
 206.930
  20
 17.1707
  30
0.0
  11
 211.606
  21
 25.2707
  31
0.0
   0
LINE
   8
LEVEL003
   6
CONTINUOUS
  62
7
  10
 211.606
  20
 25.2707
  30
0.0
  11
 205.606
  21
 25.2707
  31
0.0
   0
LINE
   8
LEVEL003
   6
CONTINUOUS
  62
7
  10
 194.176
  20
 18.6707
  30
0.0
  11
 193.309
  21
 17.1707
  31
0.0
   0
TEXT
   8
LEVEL003
  62
7
  10
 214.602
  20
 32.1134
  30
0.0
  40
 6.00000
   1
Model : Ｔ０４Ｇ１.５
   7
STANDARD
   0
LINE
   8
LEVEL004
   6
DOT
  62
3
  10
 85.0000
  20
 73.5000
  30
0.0
  11
 85.0000
  21
 93.0000
  31
0.0
   0
LINE
   8
LEVEL004
   6
DOT
  62
3
  10
 89.3000
  20
 65.0000
  30
0.0
  11
 89.3000
  21
 85.0000
  31
0.0
   0
LINE
   8
LEVEL004
   6
DOT
  62
3
  10
 65.0000
  20
 73.5000
  30
0.0
  11
 65.0000
  21
 93.0000
  31
0.0
   0
LINE
   8
LEVEL004
   6
DOT
  62
3
  10
 60.7000
  20
 65.0000
  30
0.0
  11
 60.7000
  21
 85.0000
  31
0.0
   0
ENDSEC
   0
EOF
