   0
SECTION
   2
HEADER
   9
$LIMMIN
  10
0.0
  20
0.0
   9
$LIMMAX
  10
 630.000
  20
 446.000
   9
$EXTMIN
  10
0.0
  20
0.0
   9
$EXTMAX
  10
 630.000
  20
 446.000
   9
$LTSCALE
  40
 12.6000
   0
ENDSEC
   0
SECTION
   2
TABLES
  0
TABLE
  2
LTYPE
 70
    25
  0
LTYPE
  2
CONTINUOUS
 70
    64
  3
Solid line
 72
    65
 73
     0
 40
0.0
  0
LTYPE
  2
BORDER
 70
    64
  3
__ __ . __ __ . __ __ . __ __ . __ __ . __ __ .
 72
    65
 73
     6
 40
1.75
 49
0.5
 49
-0.25
 49
0.5
 49
-0.25
 49
0.0
 49
-0.25
  0
LTYPE
  2
BORDER2
 70
    64
  3
__.__.__.__.__.__.__.__.__.__.__.__.__.__.__.__
 72
    65
 73
     6
 40
0.875
 49
0.25
 49
-0.125
 49
0.25
 49
-0.125
 49
0.0
 49
-0.125
  0
LTYPE
  2
BORDERX2
 70
    64
  3
____  ____  .  ____  ____  .  ____  ____  .  __
 72
    65
 73
     6
 40
3.5
 49
1.0
 49
-0.5
 49
1.0
 49
-0.5
 49
0.0
 49
-0.5
  0
LTYPE
  2
CENTER
 70
    64
  3
____ _ ____ _ ____ _ ____ _ ____ _ ____ _ ____ 
 72
    65
 73
     4
 40
2.0
 49
1.25
 49
-0.25
 49
0.25
 49
-0.25
  0
LTYPE
  2
CENTER2
 70
    64
  3
___ _ ___ _ ___ _ ___ _ ___ _ ___ _ ___ _ ___ _
 72
    65
 73
     4
 40
1.125
 49
0.75
 49
-0.125
 49
0.125
 49
-0.125
  0
LTYPE
  2
CENTERX2
 70
    64
  3
________  __  ________  __  ________  __  _____
 72
    65
 73
     4
 40
4.0
 49
2.5
 49
-0.5
 49
0.5
 49
-0.5
  0
LTYPE
  2
DASHDOT
 70
    64
  3
__ . __ . __ . __ . __ . __ . __ . __ . __ . __
 72
    65
 73
     4
 40
1.0
 49
0.5
 49
-0.25
 49
0.0
 49
-0.25
  0
LTYPE
  2
DASHDOT2
 70
    64
  3
_._._._._._._._._._._._._._._._._._._._._._._._
 72
    65
 73
     4
 40
0.5
 49
0.25
 49
-0.125
 49
0.0
 49
-0.125
  0
LTYPE
  2
DASHDOTX2
 70
    64
  3
____  .  ____  .  ____  .  ____  .  ____  .  __
 72
    65
 73
     4
 40
2.0
 49
1.0
 49
-0.5
 49
0.0
 49
-0.5
  0
LTYPE
  2
DASHED
 70
    64
  3
__ __ __ __ __ __ __ __ __ __ __ __ __ __ __ __
 72
    65
 73
     2
 40
0.75
 49
0.5
 49
-0.25
  0
LTYPE
  2
DASHED2
 70
    64
  3
_ _ _ _ _ _ _ _ _ _ _ _ _ _ _ _ _ _ _ _ _ _ _ _
 72
    65
 73
     2
 40
0.375
 49
0.25
 49
-0.125
  0
LTYPE
  2
DASHEDX2
 70
    64
  3
____  ____  ____  ____  ____  ____  ____  ____ 
 72
    65
 73
     2
 40
1.5
 49
1.0
 49
-0.5
  0
LTYPE
  2
DIVIDE
 70
    64
  3
____ . . ____ . . ____ . . ____ . . ____ . . __
 72
    65
 73
     6
 40
1.25
 49
0.5
 49
-0.25
 49
0.0
 49
-0.25
 49
0.0
 49
-0.25
  0
LTYPE
  2
DIVIDE2
 70
    64
  3
__..__..__..__..__..__..__..__..__..__..__..__.
 72
    65
 73
     6
 40
0.625
 49
0.25
 49
-0.125
 49
0.0
 49
-0.125
 49
0.0
 49
-0.125
  0
LTYPE
  2
DIVIDEX2
 70
    64
  3
________  .  .  ________  .  .  ________  .  . 
 72
    65
 73
     6
 40
2.5
 49
1.0
 49
-0.5
 49
0.0
 49
-0.5
 49
0.0
 49
-0.5
  0
LTYPE
  2
DOT
 70
    64
  3
. . . . . . . . . . . . . . . . . . . . . . . .
 72
    65
 73
     2
 40
0.25
 49
0.0
 49
-0.25
  0
LTYPE
  2
DOT2
 70
    64
  3
...............................................
 72
    65
 73
     2
 40
0.125
 49
0.0
 49
-0.125
  0
LTYPE
  2
DOTX2
 70
    64
  3
.  .  .  .  .  .  .  .  .  .  .  .  .  .  .  . 
 72
    65
 73
     2
 40
0.5
 49
0.0
 49
-0.5
  0
LTYPE
  2
HIDDEN
 70
    64
  3
__ __ __ __ __ __ __ __ __ __ __ __ __ __ __ __
 72
    65
 73
     2
 40
0.375
 49
0.25
 49
-0.125
  0
LTYPE
  2
HIDDEN2
 70
    64
  3
_ _ _ _ _ _ _ _ _ _ _ _ _ _ _ _ _ _ _ _ _ _ _ _
 72
    65
 73
     2
 40
0.1875
 49
0.125
 49
-0.0625
  0
LTYPE
  2
HIDDENX2
 70
    64
  3
____ ____ ____ ____ ____ ____ ____ ____ ____ __
 72
    65
 73
     2
 40
0.75
 49
0.5
 49
-0.25
  0
LTYPE
  2
PHANTOM
 70
    64
  3
______  __  __  ______  __  __  ______  __  __ 
 72
    65
 73
     6
 40
2.5
 49
1.25
 49
-0.25
 49
0.25
 49
-0.25
 49
0.25
 49
-0.25
  0
LTYPE
  2
PHANTOM2
 70
    64
  3
___ _ _ ___ _ _ ___ _ _ ___ _ _ ___ _ _ ___ _ _
 72
    65
 73
     6
 40
1.25
 49
0.625
 49
-0.125
 49
0.125
 49
-0.125
 49
0.125
 49
-0.125
  0
LTYPE
  2
PHANTOMX2
 70
    64
  3
____________    ____    ____    ____________   
 72
    65
 73
     6
 40
5.0
 49
2.5
 49
-0.5
 49
0.5
 49
-0.5
 49
0.5
 49
-0.5
  0
ENDTAB
  0
TABLE
  2
STYLE
 70
     2
  0
STYLE
  2
STANDARD
 70
0
 40
0.0
 41
1.0
 50
0.0
 71
0
 42
0.2
  3
TXT
  4
BIGFONT
  0
STYLE
  2
STANDARD1
 70
     4
 40
0.0
 41
1.0
 50
0.0
 71
     0
 42
0.2
  3
TXT
  4
BIGFONT
  0
ENDTAB
   0
TABLE
   2
LAYER
  70
4
   0
LAYER
   2
0
  70
0
  62
7
   6
CONTINUOUS
   0
LAYER
   2
LEVEL001
  70
0
  62
7
   6
CONTINUOUS
   0
LAYER
   2
LEVEL003
  70
0
  62
7
   6
CONTINUOUS
   0
LAYER
   2
LEVEL004
  70
0
  62
7
   6
CONTINUOUS
   0
ENDTAB
   0
ENDSEC
   0
SECTION
   2
ENTITIES
   0
LINE
   8
LEVEL001
   6
CONTINUOUS
  62
7
  10
 257.500
  20
 252.000
  30
0.0
  11
 257.500
  21
 252.750
  31
0.0
   0
LINE
   8
LEVEL001
   6
CONTINUOUS
  62
3
  10
 257.500
  20
 252.750
  30
0.0
  11
 282.500
  21
 252.750
  31
0.0
   0
LINE
   8
LEVEL001
   6
CONTINUOUS
  62
3
  10
 282.500
  20
 252.750
  30
0.0
  11
 282.500
  21
 253.500
  31
0.0
   0
LINE
   8
LEVEL001
   6
CONTINUOUS
  62
7
  10
 252.500
  20
 251.000
  30
0.0
  11
 253.500
  21
 252.000
  31
0.0
   0
LINE
   8
LEVEL001
   6
CONTINUOUS
  62
7
  10
 253.500
  20
 252.000
  30
0.0
  11
 257.500
  21
 252.000
  31
0.0
   0
LINE
   8
LEVEL001
   6
CONTINUOUS
  62
7
  10
 257.500
  20
 198.000
  30
0.0
  11
 257.500
  21
 197.250
  31
0.0
   0
LINE
   8
LEVEL001
   6
CONTINUOUS
  62
7
  10
 257.500
  20
 197.250
  30
0.0
  11
 258.250
  21
 196.500
  31
0.0
   0
LINE
   8
LEVEL001
   6
CONTINUOUS
  62
7
  10
 258.250
  20
 196.500
  30
0.0
  11
 285.299
  21
 196.500
  31
0.0
   0
LINE
   8
LEVEL001
   6
CONTINUOUS
  62
3
  10
 257.500
  20
 197.250
  30
0.0
  11
 282.500
  21
 197.250
  31
0.0
   0
LINE
   8
LEVEL001
   6
CONTINUOUS
  62
3
  10
 282.500
  20
 197.250
  30
0.0
  11
 282.500
  21
 196.500
  31
0.0
   0
LINE
   8
LEVEL001
   6
CONTINUOUS
  62
7
  10
 252.500
  20
 199.000
  30
0.0
  11
 253.500
  21
 198.000
  31
0.0
   0
LINE
   8
LEVEL001
   6
CONTINUOUS
  62
7
  10
 253.500
  20
 198.000
  30
0.0
  11
 257.500
  21
 198.000
  31
0.0
   0
LINE
   8
LEVEL001
   6
CONTINUOUS
  62
3
  10
 282.500
  20
 197.250
  30
0.0
  11
 285.299
  21
 196.500
  31
0.0
   0
LINE
   8
LEVEL001
   6
CONTINUOUS
  62
7
  10
 257.500
  20
 252.750
  30
0.0
  11
 258.250
  21
 253.500
  31
0.0
   0
LINE
   8
LEVEL001
   6
CONTINUOUS
  62
7
  10
 258.250
  20
 253.500
  30
0.0
  11
 283.103
  21
 253.500
  31
0.0
   0
LINE
   8
LEVEL001
   6
CONTINUOUS
  62
3
  10
 282.500
  20
 252.750
  30
0.0
  11
 284.158
  21
 253.194
  31
0.0
   0
ARC
   8
LEVEL001
   6
CONTINUOUS
  62
7
  10
 292.000
  20
 274.500
  30
0.0
  40
 2.00000
  50
 89.9996
  51
 180.000
   0
ARC
   8
LEVEL001
   6
CONTINUOUS
  62
7
  10
 313.000
  20
 274.500
  30
0.0
  40
 2.00000
  50
0.0
  51
 89.9998
   0
LINE
   8
LEVEL001
   6
CONTINUOUS
  62
7
  10
 283.103
  20
 253.500
  30
0.0
  11
 290.000
  21
 258.500
  31
0.0
   0
LINE
   8
LEVEL001
   6
CONTINUOUS
  62
7
  10
 315.000
  20
 258.500
  30
0.0
  11
 321.897
  21
 253.500
  31
0.0
   0
LINE
   8
LEVEL001
   6
CONTINUOUS
  62
7
  10
 290.000
  20
 258.500
  30
0.0
  11
 290.000
  21
 274.500
  31
0.0
   0
LINE
   8
LEVEL001
   6
CONTINUOUS
  62
7
  10
 315.000
  20
 258.500
  30
0.0
  11
 315.000
  21
 274.500
  31
0.0
   0
LINE
   8
LEVEL001
   6
CONTINUOUS
  62
3
  10
 293.856
  20
 286.500
  30
0.0
  11
 294.825
  21
 282.884
  31
0.0
   0
LINE
   8
LEVEL001
   6
CONTINUOUS
  62
3
  10
 311.143
  20
 286.500
  30
0.0
  11
 310.174
  21
 282.884
  31
0.0
   0
LINE
   8
LEVEL001
   6
CONTINUOUS
  62
7
  10
 287.500
  20
 310.000
  30
0.0
  11
 287.500
  21
 321.000
  31
0.0
   0
LINE
   8
LEVEL001
   6
CONTINUOUS
  62
7
  10
 317.500
  20
 310.000
  30
0.0
  11
 317.500
  21
 321.000
  31
0.0
   0
LINE
   8
LEVEL001
   6
CONTINUOUS
  62
7
  10
 287.500
  20
 310.000
  30
0.0
  11
 317.500
  21
 310.000
  31
0.0
   0
LINE
   8
LEVEL001
   6
CONTINUOUS
  62
7
  10
 317.500
  20
 321.000
  30
0.0
  11
 287.500
  21
 321.000
  31
0.0
   0
LINE
   8
LEVEL001
   6
CONTINUOUS
  62
7
  10
 293.856
  20
 286.500
  30
0.0
  11
 293.000
  21
 287.984
  31
0.0
   0
LINE
   8
LEVEL001
   6
CONTINUOUS
  62
7
  10
 293.000
  20
 303.500
  30
0.0
  11
 293.000
  21
 287.984
  31
0.0
   0
LINE
   8
LEVEL001
   6
CONTINUOUS
  62
7
  10
 311.143
  20
 286.500
  30
0.0
  11
 312.000
  21
 287.984
  31
0.0
   0
LINE
   8
LEVEL001
   6
CONTINUOUS
  62
7
  10
 312.000
  20
 303.500
  30
0.0
  11
 312.000
  21
 287.984
  31
0.0
   0
ARC
   8
LEVEL001
   6
CONTINUOUS
  62
7
  10
 289.500
  20
 305.000
  30
0.0
  40
 1.50000
  50
 180.000
  51
 270.000
   0
LINE
   8
LEVEL001
   6
CONTINUOUS
  62
7
  10
 288.000
  20
 305.000
  30
0.0
  11
 288.000
  21
 310.000
  31
0.0
   0
ARC
   8
LEVEL001
   6
CONTINUOUS
  62
7
  10
 315.500
  20
 305.000
  30
0.0
  40
 1.50000
  50
 270.000
  51
0.0
   0
LINE
   8
LEVEL001
   6
CONTINUOUS
  62
7
  10
 315.500
  20
 303.500
  30
0.0
  11
 289.500
  21
 303.500
  31
0.0
   0
LINE
   8
LEVEL001
   6
CONTINUOUS
  62
7
  10
 317.000
  20
 305.000
  30
0.0
  11
 317.000
  21
 310.000
  31
0.0
   0
ARC
   8
LEVEL001
   6
CONTINUOUS
  62
7
  10
 289.500
  20
 326.000
  30
0.0
  40
 1.50000
  50
 90.0000
  51
 180.000
   0
LINE
   8
LEVEL001
   6
CONTINUOUS
  62
7
  10
 288.000
  20
 321.000
  30
0.0
  11
 288.000
  21
 326.000
  31
0.0
   0
ARC
   8
LEVEL001
   6
CONTINUOUS
  62
7
  10
 315.500
  20
 326.000
  30
0.0
  40
 1.50000
  50
 0.683019E-5
  51
 90.0000
   0
LINE
   8
LEVEL001
   6
CONTINUOUS
  62
7
  10
 317.000
  20
 321.000
  30
0.0
  11
 317.000
  21
 326.000
  31
0.0
   0
LINE
   8
LEVEL001
   6
CONTINUOUS
  62
7
  10
 289.500
  20
 327.500
  30
0.0
  11
 315.500
  21
 327.500
  31
0.0
   0
ARC
   8
LEVEL001
   6
DASHDOT
  62
1
  10
 289.500
  20
 336.500
  30
0.0
  40
 1.00000
  50
 89.9996
  51
 179.999
   0
LINE
   8
LEVEL001
   6
DASHDOT
  62
1
  10
 288.500
  20
 328.500
  30
0.0
  11
 288.500
  21
 336.500
  31
0.0
   0
ARC
   8
LEVEL001
   6
DASHDOT
  62
1
  10
 315.500
  20
 336.500
  30
0.0
  40
 1.00000
  50
 0.881088E-3
  51
 89.9991
   0
LINE
   8
LEVEL001
   6
DASHDOT
  62
1
  10
 316.500
  20
 328.500
  30
0.0
  11
 316.500
  21
 336.500
  31
0.0
   0
LINE
   8
LEVEL001
   6
DASHDOT
  62
1
  10
 289.500
  20
 337.500
  30
0.0
  11
 315.500
  21
 337.500
  31
0.0
   0
CIRCLE
   8
LEVEL001
   6
DASHDOT
  62
1
  10
 302.500
  20
 340.500
  30
0.0
  40
 1.50000
   0
ARC
   8
LEVEL001
   6
DASHDOT
  62
1
  10
 315.500
  20
 328.500
  30
0.0
  40
 1.00000
  50
 270.001
  51
0.0
   0
ARC
   8
LEVEL001
   6
DASHDOT
  62
1
  10
 289.500
  20
 328.500
  30
0.0
  40
 1.00000
  50
 180.001
  51
 270.000
   0
ARC
   8
LEVEL001
   6
DASHDOT
  62
1
  10
 297.000
  20
 339.500
  30
0.0
  40
 2.00000
  50
 270.000
  51
 0.430303E-3
   0
ARC
   8
LEVEL001
   6
DASHDOT
  62
1
  10
 308.000
  20
 339.500
  30
0.0
  40
 2.00000
  50
 180.000
  51
 270.000
   0
LINE
   8
LEVEL001
   6
DASHDOT
  62
1
  10
 299.000
  20
 339.500
  30
0.0
  11
 299.000
  21
 340.000
  31
0.0
   0
LINE
   8
LEVEL001
   6
DASHDOT
  62
1
  10
 306.000
  20
 339.500
  30
0.0
  11
 306.000
  21
 340.000
  31
0.0
   0
ARC
   8
LEVEL001
   6
DASHDOT
  62
1
  10
 302.500
  20
 339.993
  30
0.0
  40
 3.50000
  50
 0.121487
  51
 179.879
   0
LINE
   8
LEVEL001
   6
CONTINUOUS
  62
7
  10
 298.203
  20
 286.500
  30
0.0
  11
 296.669
  21
 287.984
  31
0.0
   0
LINE
   8
LEVEL001
   6
CONTINUOUS
  62
7
  10
 306.797
  20
 286.500
  30
0.0
  11
 308.331
  21
 287.984
  31
0.0
   0
LINE
   8
LEVEL001
   6
CONTINUOUS
  62
7
  10
 296.669
  20
 296.500
  30
0.0
  11
 308.331
  21
 296.500
  31
0.0
   0
LINE
   8
LEVEL001
   6
CONTINUOUS
  62
7
  10
 312.000
  20
 287.984
  30
0.0
  11
 308.331
  21
 287.984
  31
0.0
   0
LINE
   8
LEVEL001
   6
CONTINUOUS
  62
7
  10
 296.669
  20
 287.984
  30
0.0
  11
 293.000
  21
 287.984
  31
0.0
   0
LINE
   8
LEVEL001
   6
CONTINUOUS
  62
7
  10
 306.539
  20
 282.500
  30
0.0
  11
 306.797
  21
 286.500
  31
0.0
   0
LINE
   8
LEVEL001
   6
CONTINUOUS
  62
7
  10
 298.461
  20
 282.500
  30
0.0
  11
 298.203
  21
 286.500
  31
0.0
   0
LINE
   8
LEVEL001
   6
CONTINUOUS
  62
7
  10
 296.669
  20
 287.984
  30
0.0
  11
 296.669
  21
 296.500
  31
0.0
   0
LINE
   8
LEVEL001
   6
CONTINUOUS
  62
7
  10
 308.331
  20
 287.984
  30
0.0
  11
 308.331
  21
 296.500
  31
0.0
   0
LINE
   8
LEVEL001
   6
CONTINUOUS
  62
7
  10
 298.461
  20
 282.500
  30
0.0
  11
 306.539
  21
 282.500
  31
0.0
   0
LINE
   8
LEVEL001
   6
CONTINUOUS
  62
7
  10
 306.539
  20
 282.500
  30
0.0
  11
 296.669
  21
 296.500
  31
0.0
   0
LINE
   8
LEVEL001
   6
CONTINUOUS
  62
7
  10
 298.461
  20
 282.500
  30
0.0
  11
 308.331
  21
 296.500
  31
0.0
   0
LINE
   8
LEVEL001
   6
CONTINUOUS
  62
3
  10
 294.825
  20
 282.884
  30
0.0
  11
 298.461
  21
 282.884
  31
0.0
   0
LINE
   8
LEVEL001
   6
CONTINUOUS
  62
3
  10
 306.539
  20
 282.884
  30
0.0
  11
 310.174
  21
 282.884
  31
0.0
   0
LINE
   8
LEVEL001
   6
CONTINUOUS
  62
7
  10
 293.856
  20
 286.500
  30
0.0
  11
 298.203
  21
 286.500
  31
0.0
   0
LINE
   8
LEVEL001
   6
CONTINUOUS
  62
7
  10
 306.797
  20
 286.500
  30
0.0
  11
 311.143
  21
 286.500
  31
0.0
   0
LINE
   8
LEVEL001
   6
CONTINUOUS
  62
3
  10
 315.500
  20
 310.000
  30
0.0
  11
 315.500
  21
 321.000
  31
0.0
   0
LINE
   8
LEVEL001
   6
CONTINUOUS
  62
3
  10
 313.500
  20
 310.000
  30
0.0
  11
 313.500
  21
 321.000
  31
0.0
   0
LINE
   8
LEVEL001
   6
CONTINUOUS
  62
3
  10
 311.500
  20
 310.000
  30
0.0
  11
 311.500
  21
 321.000
  31
0.0
   0
LINE
   8
LEVEL001
   6
CONTINUOUS
  62
3
  10
 309.500
  20
 310.000
  30
0.0
  11
 309.500
  21
 321.000
  31
0.0
   0
LINE
   8
LEVEL001
   6
CONTINUOUS
  62
3
  10
 307.500
  20
 310.000
  30
0.0
  11
 307.500
  21
 321.000
  31
0.0
   0
LINE
   8
LEVEL001
   6
CONTINUOUS
  62
3
  10
 305.500
  20
 310.000
  30
0.0
  11
 305.500
  21
 321.000
  31
0.0
   0
LINE
   8
LEVEL001
   6
CONTINUOUS
  62
3
  10
 303.500
  20
 310.000
  30
0.0
  11
 303.500
  21
 321.000
  31
0.0
   0
LINE
   8
LEVEL001
   6
CONTINUOUS
  62
3
  10
 301.500
  20
 310.000
  30
0.0
  11
 301.500
  21
 321.000
  31
0.0
   0
LINE
   8
LEVEL001
   6
CONTINUOUS
  62
3
  10
 299.500
  20
 310.000
  30
0.0
  11
 299.500
  21
 321.000
  31
0.0
   0
LINE
   8
LEVEL001
   6
CONTINUOUS
  62
3
  10
 297.500
  20
 310.000
  30
0.0
  11
 297.500
  21
 321.000
  31
0.0
   0
LINE
   8
LEVEL001
   6
CONTINUOUS
  62
3
  10
 295.500
  20
 310.000
  30
0.0
  11
 295.500
  21
 321.000
  31
0.0
   0
LINE
   8
LEVEL001
   6
CONTINUOUS
  62
3
  10
 293.500
  20
 310.000
  30
0.0
  11
 293.500
  21
 321.000
  31
0.0
   0
LINE
   8
LEVEL001
   6
CONTINUOUS
  62
3
  10
 291.500
  20
 310.000
  30
0.0
  11
 291.500
  21
 321.000
  31
0.0
   0
LINE
   8
LEVEL001
   6
CONTINUOUS
  62
3
  10
 289.500
  20
 310.000
  30
0.0
  11
 289.500
  21
 321.000
  31
0.0
   0
LINE
   8
LEVEL001
   6
DASHDOT
  62
1
  10
 302.500
  20
 346.500
  30
0.0
  11
 302.500
  21
 245.000
  31
0.0
   0
ARC
   8
LEVEL001
   6
DASHDOT
  62
1
  10
 256.500
  20
 256.000
  30
0.0
  40
 1.00000
  50
 89.9996
  51
 179.999
   0
LINE
   8
LEVEL001
   6
DASHDOT
  62
1
  10
 255.500
  20
 252.000
  30
0.0
  11
 255.500
  21
 256.000
  31
0.0
   0
LINE
   8
LEVEL001
   6
DASHDOT
  62
1
  10
 256.500
  20
 257.000
  30
0.0
  11
 261.500
  21
 257.000
  31
0.0
   0
LINE
   8
LEVEL001
   6
DASHDOT
  62
1
  10
 261.500
  20
 257.000
  30
0.0
  11
 261.500
  21
 257.500
  31
0.0
   0
LINE
   8
LEVEL001
   6
DASHDOT
  62
1
  10
 261.500
  20
 257.500
  30
0.0
  11
 282.500
  21
 257.500
  31
0.0
   0
ARC
   8
LEVEL001
   6
DASHDOT
  62
1
  10
 282.500
  20
 256.500
  30
0.0
  40
 1.00000
  50
 0.325689E-11
  51
 90.0004
   0
LINE
   8
LEVEL001
   6
DASHDOT
  62
1
  10
 283.500
  20
 256.500
  30
0.0
  11
 283.500
  21
 253.788
  31
0.0
   0
ARC
   8
LEVEL001
   6
DASHDOT
  62
1
  10
 256.500
  20
 194.000
  30
0.0
  40
 1.00000
  50
 180.000
  51
 270.000
   0
LINE
   8
LEVEL001
   6
DASHDOT
  62
1
  10
 255.500
  20
 198.000
  30
0.0
  11
 255.500
  21
 194.000
  31
0.0
   0
LINE
   8
LEVEL001
   6
DASHDOT
  62
1
  10
 256.500
  20
 193.000
  30
0.0
  11
 261.500
  21
 193.000
  31
0.0
   0
LINE
   8
LEVEL001
   6
DASHDOT
  62
1
  10
 261.500
  20
 193.000
  30
0.0
  11
 261.500
  21
 192.500
  31
0.0
   0
LINE
   8
LEVEL001
   6
DASHDOT
  62
1
  10
 261.500
  20
 192.500
  30
0.0
  11
 282.500
  21
 192.500
  31
0.0
   0
ARC
   8
LEVEL001
   6
DASHDOT
  62
1
  10
 282.500
  20
 193.500
  30
0.0
  40
 1.00000
  50
 270.000
  51
 0.430303E-3
   0
LINE
   8
LEVEL001
   6
DASHDOT
  62
1
  10
 283.500
  20
 193.500
  30
0.0
  11
 283.500
  21
 196.212
  31
0.0
   0
LINE
   8
LEVEL001
   6
CONTINUOUS
  62
7
  10
 99.5000
  20
 244.476
  30
0.0
  11
 98.0658
  21
 245.910
  31
0.0
   0
LINE
   8
LEVEL001
   6
CONTINUOUS
  62
7
  10
 67.5000
  20
 243.476
  30
0.0
  11
 69.0267
  21
 245.003
  31
0.0
   0
LINE
   8
LEVEL001
   6
CONTINUOUS
  62
7
  10
 69.0267
  20
 245.003
  30
0.0
  11
 98.0658
  21
 245.910
  31
0.0
   0
LINE
   8
LEVEL001
   6
CONTINUOUS
  62
3
  10
 68.2500
  20
 235.000
  30
0.0
  11
 67.5000
  21
 235.000
  31
0.0
   0
LINE
   8
LEVEL001
   6
CONTINUOUS
  62
7
  10
 67.5000
  20
 235.000
  30
0.0
  11
 68.2500
  21
 234.250
  31
0.0
   0
LINE
   8
LEVEL001
   6
CONTINUOUS
  62
7
  10
 95.5000
  20
 235.000
  30
0.0
  11
 94.7500
  21
 234.250
  31
0.0
   0
LINE
   8
LEVEL001
   6
CONTINUOUS
  62
7
  10
 68.2500
  20
 234.250
  30
0.0
  11
 94.7500
  21
 234.250
  31
0.0
   0
LINE
   8
LEVEL001
   6
CONTINUOUS
  62
3
  10
 67.5000
  20
 234.250
  30
0.0
  11
 68.2500
  21
 234.250
  31
0.0
   0
LINE
   8
LEVEL001
   6
CONTINUOUS
  62
3
  10
 94.7500
  20
 234.250
  30
0.0
  11
 96.5000
  21
 234.250
  31
0.0
   0
LINE
   8
LEVEL001
   6
CONTINUOUS
  62
3
  10
 96.5000
  20
 234.250
  30
0.0
  11
 96.5000
  21
 235.000
  31
0.0
   0
LINE
   8
LEVEL001
   6
CONTINUOUS
  62
7
  10
 91.5000
  20
 234.250
  30
0.0
  11
 91.5000
  21
 245.705
  31
0.0
   0
LINE
   8
LEVEL001
   6
CONTINUOUS
  62
7
  10
 83.5000
  20
 234.250
  30
0.0
  11
 83.5000
  21
 245.455
  31
0.0
   0
LINE
   8
LEVEL001
   6
DASHDOT
  62
1
  10
 87.5000
  20
 230.000
  30
0.0
  11
 87.5000
  21
 250.000
  31
0.0
   0
LINE
   8
LEVEL001
   6
CONTINUOUS
  62
7
  10
 99.5000
  20
 239.250
  30
0.0
  11
 102.500
  21
 240.000
  31
0.0
   0
LINE
   8
LEVEL001
   6
DASHDOT
  62
1
  10
 78.5000
  20
 234.625
  30
0.0
  11
 64.5000
  21
 234.625
  31
0.0
   0
LINE
   8
LEVEL001
   6
CONTINUOUS
  62
3
  10
 99.5000
  20
 244.476
  30
0.0
  11
 67.5000
  21
 243.476
  31
0.0
   0
LINE
   8
LEVEL001
   6
CONTINUOUS
  62
7
  10
 531.500
  20
 253.500
  30
0.0
  11
 532.500
  21
 252.500
  31
0.0
   0
LINE
   8
LEVEL001
   6
CONTINUOUS
  62
7
  10
 321.897
  20
 253.500
  30
0.0
  11
 531.500
  21
 253.500
  31
0.0
   0
LINE
   8
LEVEL001
   6
CONTINUOUS
  62
7
  10
 531.500
  20
 196.500
  30
0.0
  11
 532.500
  21
 197.500
  31
0.0
   0
LINE
   8
LEVEL001
   6
CONTINUOUS
  62
7
  10
 285.299
  20
 196.500
  30
0.0
  11
 531.500
  21
 196.500
  31
0.0
   0
LINE
   8
LEVEL001
   6
CONTINUOUS
  62
7
  10
 532.500
  20
 252.500
  30
0.0
  11
 532.500
  21
 197.500
  31
0.0
   0
LINE
   8
LEVEL001
   6
CONTINUOUS
  62
7
  10
 67.5000
  20
 206.524
  30
0.0
  11
 69.0267
  21
 204.997
  31
0.0
   0
LINE
   8
LEVEL001
   6
CONTINUOUS
  62
7
  10
 69.0267
  20
 204.997
  30
0.0
  11
 98.0658
  21
 204.090
  31
0.0
   0
LINE
   8
LEVEL001
   6
CONTINUOUS
  62
3
  10
 99.5000
  20
 205.524
  30
0.0
  11
 67.5000
  21
 206.524
  31
0.0
   0
LINE
   8
LEVEL001
   6
CONTINUOUS
  62
7
  10
 99.5000
  20
 205.524
  30
0.0
  11
 98.0658
  21
 204.090
  31
0.0
   0
LINE
   8
LEVEL001
   6
CONTINUOUS
  62
7
  10
 99.5000
  20
 210.750
  30
0.0
  11
 102.500
  21
 210.000
  31
0.0
   0
LINE
   8
LEVEL001
   6
CONTINUOUS
  62
7
  10
 69.0267
  20
 204.997
  30
0.0
  11
 69.0267
  21
 225.000
  31
0.0
   0
LINE
   8
LEVEL001
   6
CONTINUOUS
  62
7
  10
 98.0658
  20
 204.090
  30
0.0
  11
 98.0658
  21
 225.000
  31
0.0
   0
LINE
   8
LEVEL001
   6
CONTINUOUS
  62
7
  10
 67.5000
  20
 234.250
  30
0.0
  11
 68.2500
  21
 235.000
  31
0.0
   0
ARC
   8
LEVEL001
   6
CONTINUOUS
  62
7
  10
 98.5000
  20
 236.000
  30
0.0
  40
 1.00000
  50
 270.000
  51
 0.435425E-3
   0
LINE
   8
LEVEL001
   6
CONTINUOUS
  62
7
  10
 68.2500
  20
 235.000
  30
0.0
  11
 98.5000
  21
 235.000
  31
0.0
   0
LINE
   8
LEVEL001
   6
CONTINUOUS
  62
3
  10
 96.5000
  20
 234.250
  30
0.0
  11
 98.8278
  21
 235.055
  31
0.0
   0
LINE
   8
LEVEL001
   6
CONTINUOUS
  62
7
  10
 98.5000
  20
 235.000
  30
0.0
  11
 99.5000
  21
 236.000
  31
0.0
   0
LINE
   8
LEVEL001
   6
CONTINUOUS
  62
7
  10
 252.500
  20
 210.000
  30
0.0
  11
 102.500
  21
 210.000
  31
0.0
   0
LINE
   8
LEVEL003
   6
CONTINUOUS
  62
3
  10
 165.000
  20
 210.000
  30
0.0
  11
 165.000
  21
 240.000
  31
0.0
   0
LINE
   8
LEVEL003
   6
CONTINUOUS
  62
3
  10
 165.000
  20
 210.000
  30
0.0
  11
 165.793
  21
 214.500
  31
0.0
   0
LINE
   8
LEVEL003
   6
CONTINUOUS
  62
3
  10
 165.000
  20
 210.000
  30
0.0
  11
 164.207
  21
 214.500
  31
0.0
   0
LINE
   8
LEVEL003
   6
CONTINUOUS
  62
3
  10
 165.000
  20
 240.000
  30
0.0
  11
 164.207
  21
 235.500
  31
0.0
   0
LINE
   8
LEVEL003
   6
CONTINUOUS
  62
3
  10
 165.000
  20
 240.000
  30
0.0
  11
 165.793
  21
 235.500
  31
0.0
   0
TEXT
   8
LEVEL003
  62
3
  10
 163.800
  20
 219.000
  30
0.0
  40
 6.00000
   1
%%c30
  50
 90.0000
   7
STANDARD
  72
1
  11
 163.800
  21
 225.000
  31
0.0
   0
LINE
   8
LEVEL001
   6
DASHDOT
  62
1
  10
 60.0000
  20
 225.000
  30
0.0
  11
 157.500
  21
 225.000
  31
0.0
   0
LINE
   8
LEVEL003
   6
CONTINUOUS
  62
3
  10
 412.500
  20
 196.500
  30
0.0
  11
 412.500
  21
 253.500
  31
0.0
   0
LINE
   8
LEVEL003
   6
CONTINUOUS
  62
3
  10
 412.500
  20
 196.500
  30
0.0
  11
 413.293
  21
 201.000
  31
0.0
   0
LINE
   8
LEVEL003
   6
CONTINUOUS
  62
3
  10
 412.500
  20
 196.500
  30
0.0
  11
 411.707
  21
 201.000
  31
0.0
   0
LINE
   8
LEVEL003
   6
CONTINUOUS
  62
3
  10
 412.500
  20
 253.500
  30
0.0
  11
 411.707
  21
 249.000
  31
0.0
   0
LINE
   8
LEVEL003
   6
CONTINUOUS
  62
3
  10
 412.500
  20
 253.500
  30
0.0
  11
 413.293
  21
 249.000
  31
0.0
   0
TEXT
   8
LEVEL003
  62
3
  10
 411.300
  20
 219.000
  30
0.0
  40
 6.00000
   1
%%c57
  50
 90.0000
   7
STANDARD
  72
1
  11
 411.300
  21
 225.000
  31
0.0
   0
LINE
   8
LEVEL001
   6
DASHDOT
  62
1
  10
 165.000
  20
 225.000
  30
0.0
  11
 405.000
  21
 225.000
  31
0.0
   0
LINE
   8
LEVEL003
   6
CONTINUOUS
  62
3
  10
 67.5000
  20
 205.024
  30
0.0
  11
 67.5000
  21
 169.500
  31
0.0
   0
LINE
   8
LEVEL003
   6
CONTINUOUS
  62
3
  10
 99.5000
  20
 204.024
  30
0.0
  11
 99.5000
  21
 169.500
  31
0.0
   0
LINE
   8
LEVEL003
   6
CONTINUOUS
  62
3
  10
 67.5000
  20
 172.500
  30
0.0
  11
 99.5000
  21
 172.500
  31
0.0
   0
LINE
   8
LEVEL003
   6
CONTINUOUS
  62
3
  10
 67.5000
  20
 172.500
  30
0.0
  11
 72.0000
  21
 171.707
  31
0.0
   0
LINE
   8
LEVEL003
   6
CONTINUOUS
  62
3
  10
 67.5000
  20
 172.500
  30
0.0
  11
 72.0000
  21
 173.293
  31
0.0
   0
LINE
   8
LEVEL003
   6
CONTINUOUS
  62
3
  10
 99.5000
  20
 172.500
  30
0.0
  11
 95.0000
  21
 173.293
  31
0.0
   0
LINE
   8
LEVEL003
   6
CONTINUOUS
  62
3
  10
 99.5000
  20
 172.500
  30
0.0
  11
 95.0000
  21
 171.707
  31
0.0
   0
TEXT
   8
LEVEL003
  62
3
  10
 80.5000
  20
 173.700
  30
0.0
  40
 6.00000
   1
32
  41
 0.500000
   7
STANDARD
  72
1
  11
 83.5000
  21
 173.700
  31
0.0
   0
LINE
   8
LEVEL003
   6
CONTINUOUS
  62
3
  10
 99.5000
  20
 204.024
  30
0.0
  11
 99.5000
  21
 169.500
  31
0.0
   0
LINE
   8
LEVEL003
   6
CONTINUOUS
  62
3
  10
 252.500
  20
 197.500
  30
0.0
  11
 252.500
  21
 169.500
  31
0.0
   0
LINE
   8
LEVEL003
   6
CONTINUOUS
  62
3
  10
 99.5000
  20
 172.500
  30
0.0
  11
 252.500
  21
 172.500
  31
0.0
   0
LINE
   8
LEVEL003
   6
CONTINUOUS
  62
3
  10
 99.5000
  20
 172.500
  30
0.0
  11
 104.000
  21
 171.707
  31
0.0
   0
LINE
   8
LEVEL003
   6
CONTINUOUS
  62
3
  10
 99.5000
  20
 172.500
  30
0.0
  11
 104.000
  21
 173.293
  31
0.0
   0
LINE
   8
LEVEL003
   6
CONTINUOUS
  62
3
  10
 252.500
  20
 172.500
  30
0.0
  11
 248.000
  21
 173.293
  31
0.0
   0
LINE
   8
LEVEL003
   6
CONTINUOUS
  62
3
  10
 252.500
  20
 172.500
  30
0.0
  11
 248.000
  21
 171.707
  31
0.0
   0
TEXT
   8
LEVEL003
  62
3
  10
 171.500
  20
 173.700
  30
0.0
  40
 6.00000
   1
153
  41
 0.500000
   7
STANDARD
  72
1
  11
 176.000
  21
 173.700
  31
0.0
   0
LINE
   8
LEVEL003
   6
CONTINUOUS
  62
3
  10
 252.500
  20
 197.500
  30
0.0
  11
 252.500
  21
 169.500
  31
0.0
   0
LINE
   8
LEVEL003
   6
CONTINUOUS
  62
3
  10
 282.500
  20
 195.000
  30
0.0
  11
 282.500
  21
 169.500
  31
0.0
   0
LINE
   8
LEVEL003
   6
CONTINUOUS
  62
3
  10
 252.500
  20
 172.500
  30
0.0
  11
 282.500
  21
 172.500
  31
0.0
   0
LINE
   8
LEVEL003
   6
CONTINUOUS
  62
3
  10
 252.500
  20
 172.500
  30
0.0
  11
 257.000
  21
 171.707
  31
0.0
   0
LINE
   8
LEVEL003
   6
CONTINUOUS
  62
3
  10
 252.500
  20
 172.500
  30
0.0
  11
 257.000
  21
 173.293
  31
0.0
   0
LINE
   8
LEVEL003
   6
CONTINUOUS
  62
3
  10
 282.500
  20
 172.500
  30
0.0
  11
 278.000
  21
 173.293
  31
0.0
   0
LINE
   8
LEVEL003
   6
CONTINUOUS
  62
3
  10
 282.500
  20
 172.500
  30
0.0
  11
 278.000
  21
 171.707
  31
0.0
   0
TEXT
   8
LEVEL003
  62
3
  10
 264.500
  20
 173.700
  30
0.0
  40
 6.00000
   1
30
  41
 0.500000
   7
STANDARD
  72
1
  11
 267.500
  21
 173.700
  31
0.0
   0
LINE
   8
LEVEL003
   6
CONTINUOUS
  62
3
  10
 67.5000
  20
 205.024
  30
0.0
  11
 67.5000
  21
 154.500
  31
0.0
   0
LINE
   8
LEVEL003
   6
CONTINUOUS
  62
3
  10
 532.500
  20
 196.000
  30
0.0
  11
 532.500
  21
 154.500
  31
0.0
   0
LINE
   8
LEVEL003
   6
CONTINUOUS
  62
3
  10
 67.5000
  20
 157.500
  30
0.0
  11
 532.500
  21
 157.500
  31
0.0
   0
LINE
   8
LEVEL003
   6
CONTINUOUS
  62
3
  10
 67.5000
  20
 157.500
  30
0.0
  11
 72.0000
  21
 156.707
  31
0.0
   0
LINE
   8
LEVEL003
   6
CONTINUOUS
  62
3
  10
 67.5000
  20
 157.500
  30
0.0
  11
 72.0000
  21
 158.293
  31
0.0
   0
LINE
   8
LEVEL003
   6
CONTINUOUS
  62
3
  10
 532.500
  20
 157.500
  30
0.0
  11
 528.000
  21
 158.293
  31
0.0
   0
LINE
   8
LEVEL003
   6
CONTINUOUS
  62
3
  10
 532.500
  20
 157.500
  30
0.0
  11
 528.000
  21
 156.707
  31
0.0
   0
TEXT
   8
LEVEL003
  62
3
  10
 295.500
  20
 158.700
  30
0.0
  40
 6.00000
   1
465
  41
 0.500000
   7
STANDARD
  72
1
  11
 300.000
  21
 158.700
  31
0.0
   0
LINE
   8
LEVEL003
   6
CONTINUOUS
  62
3
  10
 500.500
  20
 205.484
  30
0.0
  11
 500.500
  21
 184.500
  31
0.0
   0
LINE
   8
LEVEL003
   6
CONTINUOUS
  62
3
  10
 505.500
  20
 204.868
  30
0.0
  11
 505.500
  21
 184.500
  31
0.0
   0
LINE
   8
LEVEL003
   6
CONTINUOUS
  62
3
  10
 500.500
  20
 187.500
  30
0.0
  11
 505.500
  21
 187.500
  31
0.0
   0
LINE
   8
LEVEL003
   6
CONTINUOUS
  62
3
  10
 505.500
  20
 187.500
  30
0.0
  11
 516.000
  21
 187.500
  31
0.0
   0
LINE
   8
LEVEL003
   6
CONTINUOUS
  62
3
  10
 500.500
  20
 187.500
  30
0.0
  11
 496.000
  21
 188.293
  31
0.0
   0
LINE
   8
LEVEL003
   6
CONTINUOUS
  62
3
  10
 500.500
  20
 187.500
  30
0.0
  11
 496.000
  21
 186.707
  31
0.0
   0
LINE
   8
LEVEL003
   6
CONTINUOUS
  62
3
  10
 505.500
  20
 187.500
  30
0.0
  11
 510.000
  21
 186.707
  31
0.0
   0
LINE
   8
LEVEL003
   6
CONTINUOUS
  62
3
  10
 505.500
  20
 187.500
  30
0.0
  11
 510.000
  21
 188.293
  31
0.0
   0
LINE
   8
LEVEL003
   6
CONTINUOUS
  62
3
  10
 500.500
  20
 187.500
  30
0.0
  11
 494.875
  21
 187.500
  31
0.0
   0
LINE
   8
LEVEL003
   6
CONTINUOUS
  62
3
  10
 505.500
  20
 187.500
  30
0.0
  11
 516.000
  21
 187.500
  31
0.0
   0
TEXT
   8
LEVEL003
  62
3
  10
 511.500
  20
 188.700
  30
0.0
  40
 6.00000
   1
5
  41
 0.500000
   7
STANDARD
  72
1
  11
 513.000
  21
 188.700
  31
0.0
   0
LINE
   8
LEVEL003
   6
CONTINUOUS
  62
3
  10
 500.500
  20
 205.484
  30
0.0
  11
 500.500
  21
 169.500
  31
0.0
   0
LINE
   8
LEVEL003
   6
CONTINUOUS
  62
3
  10
 532.500
  20
 196.000
  30
0.0
  11
 532.500
  21
 169.500
  31
0.0
   0
LINE
   8
LEVEL003
   6
CONTINUOUS
  62
3
  10
 500.500
  20
 172.500
  30
0.0
  11
 532.500
  21
 172.500
  31
0.0
   0
LINE
   8
LEVEL003
   6
CONTINUOUS
  62
3
  10
 500.500
  20
 172.500
  30
0.0
  11
 505.000
  21
 171.707
  31
0.0
   0
LINE
   8
LEVEL003
   6
CONTINUOUS
  62
3
  10
 500.500
  20
 172.500
  30
0.0
  11
 505.000
  21
 173.293
  31
0.0
   0
LINE
   8
LEVEL003
   6
CONTINUOUS
  62
3
  10
 532.500
  20
 172.500
  30
0.0
  11
 528.000
  21
 173.293
  31
0.0
   0
LINE
   8
LEVEL003
   6
CONTINUOUS
  62
3
  10
 532.500
  20
 172.500
  30
0.0
  11
 528.000
  21
 171.707
  31
0.0
   0
TEXT
   8
LEVEL003
  62
3
  10
 513.500
  20
 173.700
  30
0.0
  40
 6.00000
   1
32
  41
 0.500000
   7
STANDARD
  72
1
  11
 516.500
  21
 173.700
  31
0.0
   0
LINE
   8
LEVEL003
   6
CONTINUOUS
  62
3
  10
 302.500
  20
 348.000
  30
0.0
  11
 302.500
  21
 355.500
  31
0.0
   0
LINE
   8
LEVEL003
   6
CONTINUOUS
  62
3
  10
 532.500
  20
 254.000
  30
0.0
  11
 532.500
  21
 355.500
  31
0.0
   0
LINE
   8
LEVEL003
   6
CONTINUOUS
  62
3
  10
 302.500
  20
 352.500
  30
0.0
  11
 532.500
  21
 352.500
  31
0.0
   0
LINE
   8
LEVEL003
   6
CONTINUOUS
  62
3
  10
 302.500
  20
 352.500
  30
0.0
  11
 307.000
  21
 351.707
  31
0.0
   0
LINE
   8
LEVEL003
   6
CONTINUOUS
  62
3
  10
 302.500
  20
 352.500
  30
0.0
  11
 307.000
  21
 353.293
  31
0.0
   0
LINE
   8
LEVEL003
   6
CONTINUOUS
  62
3
  10
 532.500
  20
 352.500
  30
0.0
  11
 528.000
  21
 353.293
  31
0.0
   0
LINE
   8
LEVEL003
   6
CONTINUOUS
  62
3
  10
 532.500
  20
 352.500
  30
0.0
  11
 528.000
  21
 351.707
  31
0.0
   0
TEXT
   8
LEVEL003
  62
3
  10
 413.000
  20
 353.700
  30
0.0
  40
 6.00000
   1
230
  41
 0.500000
   7
STANDARD
  72
1
  11
 417.500
  21
 353.700
  31
0.0
   0
TEXT
   8
LEVEL003
  62
3
  10
 22.5000
  20
 255.000
  30
0.0
  40
 6.00000
   1
Ｍ２０×１．５
   7
STANDARD
   0
LINE
   8
LEVEL003
   6
CONTINUOUS
  62
3
  10
 80.3044
  20
 235.000
  30
0.0
  11
 67.5000
  21
 255.000
  31
0.0
   0
LINE
   8
LEVEL003
   6
CONTINUOUS
  62
3
  10
 67.5000
  20
 255.000
  30
0.0
  11
 22.5000
  21
 255.000
  31
0.0
   0
LINE
   8
LEVEL003
   6
CONTINUOUS
  62
3
  10
 80.3044
  20
 235.000
  30
0.0
  11
 78.5463
  21
 239.218
  31
0.0
   0
LINE
   8
LEVEL003
   6
CONTINUOUS
  62
3
  10
 80.3044
  20
 235.000
  30
0.0
  11
 77.2098
  21
 238.362
  31
0.0
   0
LINE
   8
LEVEL003
   6
CONTINUOUS
  62
3
  10
 294.138
  20
 277.500
  30
0.0
  11
 277.500
  21
 292.500
  31
0.0
   0
LINE
   8
LEVEL003
   6
CONTINUOUS
  62
3
  10
 277.500
  20
 292.500
  30
0.0
  11
 247.500
  21
 292.500
  31
0.0
   0
LINE
   8
LEVEL003
   6
CONTINUOUS
  62
3
  10
 294.138
  20
 277.500
  30
0.0
  11
 291.327
  21
 281.103
  31
0.0
   0
LINE
   8
LEVEL003
   6
CONTINUOUS
  62
3
  10
 294.138
  20
 277.500
  30
0.0
  11
 290.264
  21
 279.924
  31
0.0
   0
LINE
   8
LEVEL003
   6
CONTINUOUS
  62
3
  10
 525.000
  20
 245.721
  30
0.0
  11
 547.500
  21
 285.000
  31
0.0
   0
LINE
   8
LEVEL003
   6
CONTINUOUS
  62
3
  10
 525.000
  20
 245.721
  30
0.0
  11
 527.925
  21
 249.231
  31
0.0
   0
LINE
   8
LEVEL003
   6
CONTINUOUS
  62
3
  10
 525.000
  20
 245.721
  30
0.0
  11
 526.548
  21
 250.020
  31
0.0
   0
LINE
   8
LEVEL001
   6
CONTINUOUS
  62
7
  10
 102.500
  20
 210.000
  30
0.0
  11
 102.500
  21
 240.000
  31
0.0
   0
LINE
   8
LEVEL001
   6
CONTINUOUS
  62
7
  10
 99.5000
  20
 205.524
  30
0.0
  11
 99.5000
  21
 244.476
  31
0.0
   0
LINE
   8
LEVEL001
   6
CONTINUOUS
  62
7
  10
 252.500
  20
 240.000
  30
0.0
  11
 102.500
  21
 240.000
  31
0.0
   0
LINE
   8
LEVEL001
   6
CONTINUOUS
  62
7
  10
 313.000
  20
 276.500
  30
0.0
  11
 292.000
  21
 276.500
  31
0.0
   0
LINE
   8
LEVEL001
   6
CONTINUOUS
  62
7
  10
 293.856
  20
 286.500
  30
0.0
  11
 294.169
  21
 276.500
  31
0.0
   0
LINE
   8
LEVEL001
   6
CONTINUOUS
  62
7
  10
 311.143
  20
 286.500
  30
0.0
  11
 310.831
  21
 276.500
  31
0.0
   0
LINE
   8
LEVEL001
   6
CONTINUOUS
  62
3
  10
 294.825
  20
 282.884
  30
0.0
  11
 295.025
  21
 276.500
  31
0.0
   0
LINE
   8
LEVEL001
   6
CONTINUOUS
  62
3
  10
 310.174
  20
 282.884
  30
0.0
  11
 309.975
  21
 276.500
  31
0.0
   0
ARC
   8
LEVEL001
   6
CONTINUOUS
  62
7
  10
 302.500
  20
 299.584
  30
0.0
  40
 42.9437
  50
 253.077
  51
 286.923
   0
ARC
   8
LEVEL001
   6
CONTINUOUS
  62
7
  10
 302.500
  20
 299.584
  30
0.0
  40
 50.0000
  50
 247.173
  51
 292.827
   0
LINE
   8
LEVEL001
   6
DASHDOT
  62
1
  10
 412.500
  20
 225.000
  30
0.0
  11
 540.000
  21
 225.000
  31
0.0
   0
LINE
   8
LEVEL001
   6
CONTINUOUS
  62
7
  10
 531.500
  20
 196.500
  30
0.0
  11
 531.500
  21
 253.500
  31
0.0
   0
LINE
   8
LEVEL001
   6
CONTINUOUS
  62
7
  10
 252.500
  20
 251.000
  30
0.0
  11
 252.500
  21
 199.000
  31
0.0
   0
LINE
   8
LEVEL001
   6
CONTINUOUS
  62
7
  10
 253.500
  20
 198.000
  30
0.0
  11
 253.500
  21
 252.000
  31
0.0
   0
LINE
   8
LEVEL001
   6
CONTINUOUS
  62
7
  10
 257.500
  20
 198.000
  30
0.0
  11
 257.500
  21
 252.000
  31
0.0
   0
LINE
   8
LEVEL001
   6
CONTINUOUS
  62
7
  10
 258.250
  20
 196.500
  30
0.0
  11
 258.250
  21
 253.500
  31
0.0
   0
LINE
   8
LEVEL001
   6
CONTINUOUS
  62
7
  10
 282.500
  20
 197.250
  30
0.0
  11
 282.500
  21
 252.750
  31
0.0
   0
LINE
   8
LEVEL001
   6
CONTINUOUS
  62
7
  10
 285.299
  20
 196.500
  30
0.0
  11
 285.299
  21
 252.636
  31
0.0
   0
LINE
   8
LEVEL003
   6
CONTINUOUS
  62
3
  10
 397.500
  20
 203.565
  30
0.0
  11
 397.500
  21
 246.435
  31
0.0
   0
LINE
   8
LEVEL003
   6
CONTINUOUS
  62
3
  10
 397.500
  20
 203.565
  30
0.0
  11
 398.293
  21
 208.065
  31
0.0
   0
LINE
   8
LEVEL003
   6
CONTINUOUS
  62
3
  10
 397.500
  20
 203.565
  30
0.0
  11
 396.707
  21
 208.065
  31
0.0
   0
LINE
   8
LEVEL003
   6
CONTINUOUS
  62
3
  10
 397.500
  20
 246.435
  30
0.0
  11
 396.707
  21
 241.935
  31
0.0
   0
LINE
   8
LEVEL003
   6
CONTINUOUS
  62
3
  10
 397.500
  20
 246.435
  30
0.0
  11
 398.293
  21
 241.935
  31
0.0
   0
TEXT
   8
LEVEL003
  62
3
  10
 396.300
  20
 213.000
  30
0.0
  40
 6.00000
   1
%%c42.87
  50
 90.0000
   7
STANDARD
  72
1
  11
 396.300
  21
 223.500
  31
0.0
   0
LINE
   8
LEVEL001
   6
CONTINUOUS
  62
7
  10
 68.2500
  20
 235.000
  30
0.0
  11
 68.2500
  21
 225.000
  31
0.0
   0
LINE
   8
LEVEL001
   6
CONTINUOUS
  62
3
  10
 96.5000
  20
 234.250
  30
0.0
  11
 96.5000
  21
 225.000
  31
0.0
   0
LINE
   8
LEVEL003
   6
CONTINUOUS
  62
3
  10
 80.3044
  20
 245.355
  30
0.0
  11
 90.0000
  21
 277.500
  31
0.0
   0
LINE
   8
LEVEL003
   6
CONTINUOUS
  62
3
  10
 80.3044
  20
 245.355
  30
0.0
  11
 82.3636
  21
 249.434
  31
0.0
   0
LINE
   8
LEVEL003
   6
CONTINUOUS
  62
3
  10
 80.3044
  20
 245.355
  30
0.0
  11
 80.8442
  21
 249.893
  31
0.0
   0
LINE
   8
LEVEL003
   6
CONTINUOUS
  62
3
  10
 270.000
  20
 196.500
  30
0.0
  11
 292.500
  21
 180.000
  31
0.0
   0
LINE
   8
LEVEL003
   6
CONTINUOUS
  62
3
  10
 270.000
  20
 196.500
  30
0.0
  11
 273.160
  21
 193.199
  31
0.0
   0
LINE
   8
LEVEL003
   6
CONTINUOUS
  62
3
  10
 270.000
  20
 196.500
  30
0.0
  11
 274.098
  21
 194.479
  31
0.0
   0
TEXT
   8
LEVEL003
  62
3
  10
 292.500
  20
 180.000
  30
0.0
  40
 6.00000
   1
ＮＳ２－１／４山１４
   7
STANDARD
   0
LINE
   8
LEVEL001
   6
DOT
  62
3
  10
 67.5000
  20
 237.125
  30
0.0
  11
 68.0000
  21
 237.625
  31
0.0
   0
LINE
   8
LEVEL001
   6
DOT
  62
3
  10
 68.0000
  20
 237.625
  30
0.0
  11
 75.0000
  21
 237.625
  31
0.0
   0
LINE
   8
LEVEL001
   6
DOT
  62
3
  10
 75.0000
  20
 237.625
  30
0.0
  11
 75.5000
  21
 237.125
  31
0.0
   0
LINE
   8
LEVEL001
   6
DOT
  62
3
  10
 75.5000
  20
 237.125
  30
0.0
  11
 75.5000
  21
 232.125
  31
0.0
   0
LINE
   8
LEVEL001
   6
DOT
  62
3
  10
 75.5000
  20
 232.125
  30
0.0
  11
 75.0000
  21
 231.625
  31
0.0
   0
LINE
   8
LEVEL001
   6
DOT
  62
3
  10
 75.0000
  20
 231.625
  30
0.0
  11
 68.0000
  21
 231.625
  31
0.0
   0
LINE
   8
LEVEL001
   6
DOT
  62
3
  10
 68.0000
  20
 231.625
  30
0.0
  11
 67.5000
  21
 232.125
  31
0.0
   0
LINE
   8
LEVEL001
   6
DOT
  62
3
  10
 67.5000
  20
 232.125
  30
0.0
  11
 67.5000
  21
 237.125
  31
0.0
   0
LINE
   8
LEVEL001
   6
DOT
  62
3
  10
 68.0000
  20
 237.625
  30
0.0
  11
 68.0000
  21
 231.625
  31
0.0
   0
LINE
   8
LEVEL001
   6
DOT
  62
3
  10
 75.0000
  20
 231.625
  30
0.0
  11
 75.0000
  21
 237.625
  31
0.0
   0
LINE
   8
LEVEL001
   6
DOT
  62
3
  10
 75.5000
  20
 237.125
  30
0.0
  11
 67.5000
  21
 237.125
  31
0.0
   0
LINE
   8
LEVEL001
   6
DOT
  62
3
  10
 67.5000
  20
 232.125
  30
0.0
  11
 75.5000
  21
 232.125
  31
0.0
   0
LINE
   8
LEVEL001
   6
CONTINUOUS
  62
7
  10
 67.5000
  20
 243.476
  30
0.0
  11
 67.5000
  21
 206.524
  31
0.0
   0
TEXT
   8
LEVEL003
  62
7
  10
 456.691
  20
 80.2200
  30
0.0
  40
 10.0000
   1
ＯＳＡＫＡ ＪＡＣＫ
   7
STANDARD
   0
CIRCLE
   8
LEVEL003
   6
CONTINUOUS
  62
7
  10
 444.718
  20
 87.2707
  30
0.0
  40
 3.00000
   0
LINE
   8
LEVEL003
   6
CONTINUOUS
  62
7
  10
 450.606
  20
 90.2707
  30
0.0
  11
 446.797
  21
 83.6707
  31
0.0
   0
LINE
   8
LEVEL003
   6
CONTINUOUS
  62
7
  10
 446.797
  20
 83.6707
  30
0.0
  11
 439.176
  21
 83.6707
  31
0.0
   0
LINE
   8
LEVEL003
   6
CONTINUOUS
  62
7
  10
 438.309
  20
 82.1707
  30
0.0
  11
 451.930
  21
 82.1707
  31
0.0
   0
LINE
   8
LEVEL003
   6
CONTINUOUS
  62
7
  10
 451.930
  20
 82.1707
  30
0.0
  11
 456.606
  21
 90.2707
  31
0.0
   0
LINE
   8
LEVEL003
   6
CONTINUOUS
  62
7
  10
 456.606
  20
 90.2707
  30
0.0
  11
 450.606
  21
 90.2707
  31
0.0
   0
LINE
   8
LEVEL003
   6
CONTINUOUS
  62
7
  10
 439.176
  20
 83.6707
  30
0.0
  11
 438.309
  21
 82.1707
  31
0.0
   0
TEXT
   8
LEVEL003
  62
7
  10
 459.602
  20
 97.1134
  30
0.0
  40
 6.00000
   1
Model : Ｔ０５Ｓ１５
   7
STANDARD
   0
LINE
   8
LEVEL004
   6
DOT
  62
3
  10
 345.000
  20
 246.435
  30
0.0
  11
 472.500
  21
 246.435
  31
0.0
   0
LINE
   8
LEVEL004
   6
DOT
  62
3
  10
 345.000
  20
 203.565
  30
0.0
  11
 472.500
  21
 203.565
  31
0.0
   0
ARC
   8
LEVEL004
   6
DOT
  62
3
  10
 502.500
  20
 243.016
  30
0.0
  40
 2.00000
  50
 91.7899
  51
 180.000
   0
ARC
   8
LEVEL004
   6
DOT
  62
3
  10
 504.022
  20
 243.586
  30
0.0
  40
 1.47896
  50
 1.79084
  51
 91.7903
   0
LINE
   8
LEVEL004
   6
DOT
  62
3
  10
 530.973
  20
 244.428
  30
0.0
  11
 505.500
  21
 243.632
  31
0.0
   0
LINE
   8
LEVEL004
   6
DOT
  62
3
  10
 503.976
  20
 245.064
  30
0.0
  11
 502.438
  21
 245.015
  31
0.0
   0
LINE
   8
LEVEL004
   6
DOT
  62
3
  10
 505.500
  20
 206.368
  30
0.0
  11
 505.500
  21
 243.632
  31
0.0
   0
LINE
   8
LEVEL004
   6
DOT
  62
3
  10
 503.976
  20
 245.064
  30
0.0
  11
 532.500
  21
 245.955
  31
0.0
   0
LINE
   8
LEVEL004
   6
DOT
  62
3
  10
 500.500
  20
 206.984
  30
0.0
  11
 500.500
  21
 243.016
  31
0.0
   0
ARC
   8
LEVEL004
   6
DOT
  62
3
  10
 502.500
  20
 206.984
  30
0.0
  40
 2.00000
  50
 180.000
  51
 268.210
   0
ARC
   8
LEVEL004
   6
DOT
  62
3
  10
 504.022
  20
 206.414
  30
0.0
  40
 1.47896
  50
 268.210
  51
 358.209
   0
LINE
   8
LEVEL004
   6
DOT
  62
3
  10
 503.976
  20
 204.936
  30
0.0
  11
 502.438
  21
 204.985
  31
0.0
   0
LINE
   8
LEVEL004
   6
DOT
  62
3
  10
 503.976
  20
 204.936
  30
0.0
  11
 532.500
  21
 204.045
  31
0.0
   0
LINE
   8
LEVEL004
   6
DOT
  62
3
  10
 530.973
  20
 205.572
  30
0.0
  11
 505.500
  21
 206.368
  31
0.0
   0
LINE
   8
LEVEL004
   6
DOT
  62
3
  10
 532.500
  20
 204.045
  30
0.0
  11
 530.973
  21
 205.572
  31
0.0
   0
LINE
   8
LEVEL004
   6
DOT
  62
3
  10
 530.973
  20
 205.572
  30
0.0
  11
 530.973
  21
 244.428
  31
0.0
   0
LINE
   8
LEVEL004
   6
DOT
  62
3
  10
 532.500
  20
 245.955
  30
0.0
  11
 530.973
  21
 244.428
  31
0.0
   0
TEXT
   8
LEVEL003
  62
3
  10
 247.500
  20
 292.500
  30
0.0
  40
 6.00000
   1
Ｒ３／８
   7
STANDARD
   0
TEXT
   8
LEVEL003
  62
3
  10
 435.000
  20
 285.000
  30
0.0
  40
 6.00000
   1
ＮＰＴ１－１／４山１１。５
   7
STANDARD
   0
LINE
   8
LEVEL003
   6
CONTINUOUS
  62
3
  10
 547.500
  20
 285.000
  30
0.0
  11
 434.557
  21
 285.000
  31
0.0
   0
LINE
   8
LEVEL003
   6
CONTINUOUS
  62
3
  10
 292.500
  20
 180.000
  30
0.0
  11
 363.484
  21
 180.000
  31
0.0
   0
TEXT
   8
LEVEL003
  62
3
  10
-2.50000
  20
 277.500
  30
0.0
  40
 6.00000
   1
ＮＰＴ１－１／４山１１。５
   7
STANDARD
   0
LINE
   8
LEVEL003
   6
CONTINUOUS
  62
3
  10
 90.0000
  20
 277.500
  30
0.0
  11
-1.48767
  21
 277.500
  31
0.0
   0
ENDSEC
   0
EOF
