   0
SECTION
   2
HEADER
   9
$LIMMIN
  10
0.0
  20
0.0
   9
$LIMMAX
  10
 420.000
  20
 297.000
   9
$EXTMIN
  10
0.0
  20
0.0
   9
$EXTMAX
  10
 420.000
  20
 297.000
   9
$LTSCALE
  40
 8.40000
   0
ENDSEC
   0
SECTION
   2
TABLES
  0
TABLE
  2
LTYPE
 70
    25
  0
LTYPE
  2
CONTINUOUS
 70
    64
  3
Solid line
 72
    65
 73
     0
 40
0.0
  0
LTYPE
  2
BORDER
 70
    64
  3
__ __ . __ __ . __ __ . __ __ . __ __ . __ __ .
 72
    65
 73
     6
 40
1.75
 49
0.5
 49
-0.25
 49
0.5
 49
-0.25
 49
0.0
 49
-0.25
  0
LTYPE
  2
BORDER2
 70
    64
  3
__.__.__.__.__.__.__.__.__.__.__.__.__.__.__.__
 72
    65
 73
     6
 40
0.875
 49
0.25
 49
-0.125
 49
0.25
 49
-0.125
 49
0.0
 49
-0.125
  0
LTYPE
  2
BORDERX2
 70
    64
  3
____  ____  .  ____  ____  .  ____  ____  .  __
 72
    65
 73
     6
 40
3.5
 49
1.0
 49
-0.5
 49
1.0
 49
-0.5
 49
0.0
 49
-0.5
  0
LTYPE
  2
CENTER
 70
    64
  3
____ _ ____ _ ____ _ ____ _ ____ _ ____ _ ____ 
 72
    65
 73
     4
 40
2.0
 49
1.25
 49
-0.25
 49
0.25
 49
-0.25
  0
LTYPE
  2
CENTER2
 70
    64
  3
___ _ ___ _ ___ _ ___ _ ___ _ ___ _ ___ _ ___ _
 72
    65
 73
     4
 40
1.125
 49
0.75
 49
-0.125
 49
0.125
 49
-0.125
  0
LTYPE
  2
CENTERX2
 70
    64
  3
________  __  ________  __  ________  __  _____
 72
    65
 73
     4
 40
4.0
 49
2.5
 49
-0.5
 49
0.5
 49
-0.5
  0
LTYPE
  2
DASHDOT
 70
    64
  3
__ . __ . __ . __ . __ . __ . __ . __ . __ . __
 72
    65
 73
     4
 40
1.0
 49
0.5
 49
-0.25
 49
0.0
 49
-0.25
  0
LTYPE
  2
DASHDOT2
 70
    64
  3
_._._._._._._._._._._._._._._._._._._._._._._._
 72
    65
 73
     4
 40
0.5
 49
0.25
 49
-0.125
 49
0.0
 49
-0.125
  0
LTYPE
  2
DASHDOTX2
 70
    64
  3
____  .  ____  .  ____  .  ____  .  ____  .  __
 72
    65
 73
     4
 40
2.0
 49
1.0
 49
-0.5
 49
0.0
 49
-0.5
  0
LTYPE
  2
DASHED
 70
    64
  3
__ __ __ __ __ __ __ __ __ __ __ __ __ __ __ __
 72
    65
 73
     2
 40
0.75
 49
0.5
 49
-0.25
  0
LTYPE
  2
DASHED2
 70
    64
  3
_ _ _ _ _ _ _ _ _ _ _ _ _ _ _ _ _ _ _ _ _ _ _ _
 72
    65
 73
     2
 40
0.375
 49
0.25
 49
-0.125
  0
LTYPE
  2
DASHEDX2
 70
    64
  3
____  ____  ____  ____  ____  ____  ____  ____ 
 72
    65
 73
     2
 40
1.5
 49
1.0
 49
-0.5
  0
LTYPE
  2
DIVIDE
 70
    64
  3
____ . . ____ . . ____ . . ____ . . ____ . . __
 72
    65
 73
     6
 40
1.25
 49
0.5
 49
-0.25
 49
0.0
 49
-0.25
 49
0.0
 49
-0.25
  0
LTYPE
  2
DIVIDE2
 70
    64
  3
__..__..__..__..__..__..__..__..__..__..__..__.
 72
    65
 73
     6
 40
0.625
 49
0.25
 49
-0.125
 49
0.0
 49
-0.125
 49
0.0
 49
-0.125
  0
LTYPE
  2
DIVIDEX2
 70
    64
  3
________  .  .  ________  .  .  ________  .  . 
 72
    65
 73
     6
 40
2.5
 49
1.0
 49
-0.5
 49
0.0
 49
-0.5
 49
0.0
 49
-0.5
  0
LTYPE
  2
DOT
 70
    64
  3
. . . . . . . . . . . . . . . . . . . . . . . .
 72
    65
 73
     2
 40
0.25
 49
0.0
 49
-0.25
  0
LTYPE
  2
DOT2
 70
    64
  3
...............................................
 72
    65
 73
     2
 40
0.125
 49
0.0
 49
-0.125
  0
LTYPE
  2
DOTX2
 70
    64
  3
.  .  .  .  .  .  .  .  .  .  .  .  .  .  .  . 
 72
    65
 73
     2
 40
0.5
 49
0.0
 49
-0.5
  0
LTYPE
  2
HIDDEN
 70
    64
  3
__ __ __ __ __ __ __ __ __ __ __ __ __ __ __ __
 72
    65
 73
     2
 40
0.375
 49
0.25
 49
-0.125
  0
LTYPE
  2
HIDDEN2
 70
    64
  3
_ _ _ _ _ _ _ _ _ _ _ _ _ _ _ _ _ _ _ _ _ _ _ _
 72
    65
 73
     2
 40
0.1875
 49
0.125
 49
-0.0625
  0
LTYPE
  2
HIDDENX2
 70
    64
  3
____ ____ ____ ____ ____ ____ ____ ____ ____ __
 72
    65
 73
     2
 40
0.75
 49
0.5
 49
-0.25
  0
LTYPE
  2
PHANTOM
 70
    64
  3
______  __  __  ______  __  __  ______  __  __ 
 72
    65
 73
     6
 40
2.5
 49
1.25
 49
-0.25
 49
0.25
 49
-0.25
 49
0.25
 49
-0.25
  0
LTYPE
  2
PHANTOM2
 70
    64
  3
___ _ _ ___ _ _ ___ _ _ ___ _ _ ___ _ _ ___ _ _
 72
    65
 73
     6
 40
1.25
 49
0.625
 49
-0.125
 49
0.125
 49
-0.125
 49
0.125
 49
-0.125
  0
LTYPE
  2
PHANTOMX2
 70
    64
  3
____________    ____    ____    ____________   
 72
    65
 73
     6
 40
5.0
 49
2.5
 49
-0.5
 49
0.5
 49
-0.5
 49
0.5
 49
-0.5
  0
ENDTAB
  0
TABLE
  2
STYLE
 70
     2
  0
STYLE
  2
STANDARD
 70
0
 40
0.0
 41
1.0
 50
0.0
 71
0
 42
0.2
  3
TXT
  4
BIGFONT
  0
STYLE
  2
STANDARD1
 70
     4
 40
0.0
 41
1.0
 50
0.0
 71
     0
 42
0.2
  3
TXT
  4
BIGFONT
  0
ENDTAB
   0
TABLE
   2
LAYER
  70
4
   0
LAYER
   2
0
  70
0
  62
7
   6
CONTINUOUS
   0
LAYER
   2
LEVEL001
  70
0
  62
7
   6
CONTINUOUS
   0
LAYER
   2
LEVEL003
  70
0
  62
7
   6
CONTINUOUS
   0
LAYER
   2
LEVEL004
  70
0
  62
7
   6
CONTINUOUS
   0
ENDTAB
   0
ENDSEC
   0
SECTION
   2
ENTITIES
   0
LINE
   8
LEVEL001
   6
CONTINUOUS
  62
7
  10
 73.4250
  20
 50.0000
  30
0.0
  11
 71.4250
  21
 52.0000
  31
0.0
   0
LINE
   8
LEVEL001
   6
CONTINUOUS
  62
7
  10
 126.575
  20
 50.0000
  30
0.0
  11
 128.575
  21
 52.0000
  31
0.0
   0
LINE
   8
LEVEL001
   6
CONTINUOUS
  62
7
  10
 126.575
  20
 50.0000
  30
0.0
  11
 73.4250
  21
 50.0000
  31
0.0
   0
LINE
   8
LEVEL003
   6
CONTINUOUS
  62
3
  10
 71.4250
  20
 51.0000
  30
0.0
  11
 71.4250
  21
 28.0000
  31
0.0
   0
LINE
   8
LEVEL003
   6
CONTINUOUS
  62
3
  10
 128.575
  20
 51.0000
  30
0.0
  11
 128.575
  21
 28.0000
  31
0.0
   0
LINE
   8
LEVEL003
   6
CONTINUOUS
  62
3
  10
 71.4250
  20
 30.0000
  30
0.0
  11
 128.575
  21
 30.0000
  31
0.0
   0
LINE
   8
LEVEL003
   6
CONTINUOUS
  62
3
  10
 71.4250
  20
 30.0000
  30
0.0
  11
 74.4250
  21
 29.4710
  31
0.0
   0
LINE
   8
LEVEL003
   6
CONTINUOUS
  62
3
  10
 71.4250
  20
 30.0000
  30
0.0
  11
 74.4250
  21
 30.5290
  31
0.0
   0
LINE
   8
LEVEL003
   6
CONTINUOUS
  62
3
  10
 128.575
  20
 30.0000
  30
0.0
  11
 125.575
  21
 30.5290
  31
0.0
   0
LINE
   8
LEVEL003
   6
CONTINUOUS
  62
3
  10
 128.575
  20
 30.0000
  30
0.0
  11
 125.575
  21
 29.4710
  31
0.0
   0
TEXT
   8
LEVEL003
  62
3
  10
 96.0000
  20
 30.8000
  30
0.0
  40
 4.00000
   1
%%c57
   7
STANDARD
  72
1
  11
 100.000
  21
 30.8000
  31
0.0
   0
LINE
   8
LEVEL001
   6
CONTINUOUS
  62
7
  10
 71.4250
  20
 52.0000
  30
0.0
  11
 128.575
  21
 52.0000
  31
0.0
   0
ARC
   8
LEVEL001
   6
CONTINUOUS
  62
7
  10
 149.575
  20
 80.5000
  30
0.0
  40
 2.00000
  50
0.0
  51
 90.0000
   0
ARC
   8
LEVEL001
   6
CONTINUOUS
  62
7
  10
 149.575
  20
 59.5000
  30
0.0
  40
 2.00000
  50
 270.000
  51
 0.488533E-11
   0
LINE
   8
LEVEL001
   6
CONTINUOUS
  62
7
  10
 128.575
  20
 89.3972
  30
0.0
  11
 133.575
  21
 82.5000
  31
0.0
   0
LINE
   8
LEVEL001
   6
CONTINUOUS
  62
7
  10
 133.575
  20
 82.5000
  30
0.0
  11
 149.575
  21
 82.5000
  31
0.0
   0
LINE
   8
LEVEL001
   6
CONTINUOUS
  62
7
  10
 133.575
  20
 57.5000
  30
0.0
  11
 149.575
  21
 57.5000
  31
0.0
   0
LINE
   8
LEVEL001
   6
CONTINUOUS
  62
3
  10
 161.575
  20
 78.6435
  30
0.0
  11
 157.959
  21
 77.6745
  31
0.0
   0
LINE
   8
LEVEL001
   6
CONTINUOUS
  62
3
  10
 161.575
  20
 61.3565
  30
0.0
  11
 157.959
  21
 62.3255
  31
0.0
   0
LINE
   8
LEVEL001
   6
CONTINUOUS
  62
7
  10
 161.575
  20
 78.6435
  30
0.0
  11
 163.059
  21
 79.5000
  31
0.0
   0
LINE
   8
LEVEL001
   6
CONTINUOUS
  62
7
  10
 178.575
  20
 79.5000
  30
0.0
  11
 163.059
  21
 79.5000
  31
0.0
   0
LINE
   8
LEVEL001
   6
CONTINUOUS
  62
7
  10
 161.575
  20
 61.3565
  30
0.0
  11
 163.059
  21
 60.5000
  31
0.0
   0
LINE
   8
LEVEL001
   6
CONTINUOUS
  62
7
  10
 178.575
  20
 60.5000
  30
0.0
  11
 163.059
  21
 60.5000
  31
0.0
   0
ARC
   8
LEVEL001
   6
CONTINUOUS
  62
7
  10
 180.075
  20
 83.0000
  30
0.0
  40
 1.50000
  50
 90.0000
  51
 180.000
   0
LINE
   8
LEVEL001
   6
CONTINUOUS
  62
7
  10
 180.075
  20
 84.5000
  30
0.0
  11
 185.075
  21
 84.5000
  31
0.0
   0
ARC
   8
LEVEL001
   6
CONTINUOUS
  62
7
  10
 180.075
  20
 57.0000
  30
0.0
  40
 1.50000
  50
 180.000
  51
 270.000
   0
LINE
   8
LEVEL001
   6
CONTINUOUS
  62
7
  10
 178.575
  20
 57.0000
  30
0.0
  11
 178.575
  21
 83.0000
  31
0.0
   0
LINE
   8
LEVEL001
   6
CONTINUOUS
  62
7
  10
 180.075
  20
 55.5000
  30
0.0
  11
 185.075
  21
 55.5000
  31
0.0
   0
ARC
   8
LEVEL001
   6
CONTINUOUS
  62
7
  10
 201.075
  20
 83.0000
  30
0.0
  40
 1.50000
  50
 0.108563E-11
  51
 90.0000
   0
LINE
   8
LEVEL001
   6
CONTINUOUS
  62
7
  10
 196.075
  20
 84.5000
  30
0.0
  11
 201.075
  21
 84.5000
  31
0.0
   0
ARC
   8
LEVEL001
   6
CONTINUOUS
  62
7
  10
 201.075
  20
 57.0000
  30
0.0
  40
 1.50000
  50
 270.000
  51
0.0
   0
LINE
   8
LEVEL001
   6
CONTINUOUS
  62
7
  10
 196.075
  20
 55.5000
  30
0.0
  11
 201.075
  21
 55.5000
  31
0.0
   0
LINE
   8
LEVEL001
   6
CONTINUOUS
  62
7
  10
 202.575
  20
 83.0000
  30
0.0
  11
 202.575
  21
 57.0000
  31
0.0
   0
ARC
   8
LEVEL001
   6
DASHDOT
  62
1
  10
 211.575
  20
 83.0000
  30
0.0
  40
 1.00000
  50
0.0
  51
 90.0000
   0
LINE
   8
LEVEL001
   6
DASHDOT
  62
1
  10
 203.575
  20
 84.0000
  30
0.0
  11
 211.575
  21
 84.0000
  31
0.0
   0
ARC
   8
LEVEL001
   6
DASHDOT
  62
1
  10
 211.575
  20
 57.0000
  30
0.0
  40
 1.00000
  50
 270.000
  51
0.0
   0
LINE
   8
LEVEL001
   6
DASHDOT
  62
1
  10
 203.575
  20
 56.0000
  30
0.0
  11
 211.575
  21
 56.0000
  31
0.0
   0
LINE
   8
LEVEL001
   6
DASHDOT
  62
1
  10
 212.575
  20
 83.0000
  30
0.0
  11
 212.575
  21
 57.0000
  31
0.0
   0
CIRCLE
   8
LEVEL001
   6
DASHDOT
  62
1
  10
 215.575
  20
 70.0000
  30
0.0
  40
 1.50000
   0
ARC
   8
LEVEL001
   6
DASHDOT
  62
1
  10
 203.575
  20
 57.0000
  30
0.0
  40
 1.00000
  50
 180.000
  51
 270.000
   0
ARC
   8
LEVEL001
   6
DASHDOT
  62
1
  10
 203.575
  20
 83.0000
  30
0.0
  40
 1.00000
  50
 90.0000
  51
 180.000
   0
ARC
   8
LEVEL001
   6
DASHDOT
  62
1
  10
 214.575
  20
 75.5000
  30
0.0
  40
 2.00000
  50
 180.000
  51
 270.000
   0
ARC
   8
LEVEL001
   6
DASHDOT
  62
1
  10
 214.575
  20
 64.5000
  30
0.0
  40
 2.00000
  50
 90.0000
  51
 180.000
   0
LINE
   8
LEVEL001
   6
DASHDOT
  62
1
  10
 214.575
  20
 73.5000
  30
0.0
  11
 215.075
  21
 73.5000
  31
0.0
   0
LINE
   8
LEVEL001
   6
DASHDOT
  62
1
  10
 214.575
  20
 66.5000
  30
0.0
  11
 215.075
  21
 66.5000
  31
0.0
   0
ARC
   8
LEVEL001
   6
DASHDOT
  62
1
  10
 215.075
  20
 70.0000
  30
0.0
  40
 3.50000
  50
 270.000
  51
 90.0000
   0
LINE
   8
LEVEL001
   6
CONTINUOUS
  62
7
  10
 163.059
  20
 60.5000
  30
0.0
  11
 163.059
  21
 64.1691
  31
0.0
   0
LINE
   8
LEVEL001
   6
CONTINUOUS
  62
7
  10
 163.059
  20
 75.8309
  30
0.0
  11
 163.059
  21
 79.5000
  31
0.0
   0
LINE
   8
LEVEL001
   6
CONTINUOUS
  62
7
  10
 157.575
  20
 65.9608
  30
0.0
  11
 171.575
  21
 75.8309
  31
0.0
   0
LINE
   8
LEVEL001
   6
CONTINUOUS
  62
7
  10
 157.575
  20
 74.0392
  30
0.0
  11
 171.575
  21
 64.1691
  31
0.0
   0
LINE
   8
LEVEL001
   6
CONTINUOUS
  62
3
  10
 157.959
  20
 77.6745
  30
0.0
  11
 157.959
  21
 74.0392
  31
0.0
   0
LINE
   8
LEVEL001
   6
CONTINUOUS
  62
3
  10
 157.959
  20
 65.9608
  30
0.0
  11
 157.959
  21
 62.3255
  31
0.0
   0
LINE
   8
LEVEL001
   6
CONTINUOUS
  62
7
  10
 161.575
  20
 78.6435
  30
0.0
  11
 161.575
  21
 74.2965
  31
0.0
   0
LINE
   8
LEVEL001
   6
CONTINUOUS
  62
7
  10
 161.575
  20
 65.7035
  30
0.0
  11
 161.575
  21
 61.3565
  31
0.0
   0
LINE
   8
LEVEL001
   6
CONTINUOUS
  62
3
  10
 185.075
  20
 57.0000
  30
0.0
  11
 196.075
  21
 57.0000
  31
0.0
   0
LINE
   8
LEVEL001
   6
CONTINUOUS
  62
3
  10
 185.075
  20
 59.0000
  30
0.0
  11
 196.075
  21
 59.0000
  31
0.0
   0
LINE
   8
LEVEL001
   6
CONTINUOUS
  62
3
  10
 185.075
  20
 61.0000
  30
0.0
  11
 196.075
  21
 61.0000
  31
0.0
   0
LINE
   8
LEVEL001
   6
CONTINUOUS
  62
3
  10
 185.075
  20
 63.0000
  30
0.0
  11
 196.075
  21
 63.0000
  31
0.0
   0
LINE
   8
LEVEL001
   6
CONTINUOUS
  62
3
  10
 185.075
  20
 65.0000
  30
0.0
  11
 196.075
  21
 65.0000
  31
0.0
   0
LINE
   8
LEVEL001
   6
CONTINUOUS
  62
3
  10
 185.075
  20
 67.0000
  30
0.0
  11
 196.075
  21
 67.0000
  31
0.0
   0
LINE
   8
LEVEL001
   6
CONTINUOUS
  62
3
  10
 185.075
  20
 69.0000
  30
0.0
  11
 196.075
  21
 69.0000
  31
0.0
   0
LINE
   8
LEVEL001
   6
CONTINUOUS
  62
3
  10
 185.075
  20
 71.0000
  30
0.0
  11
 196.075
  21
 71.0000
  31
0.0
   0
LINE
   8
LEVEL001
   6
CONTINUOUS
  62
3
  10
 185.075
  20
 73.0000
  30
0.0
  11
 196.075
  21
 73.0000
  31
0.0
   0
LINE
   8
LEVEL001
   6
CONTINUOUS
  62
3
  10
 185.075
  20
 75.0000
  30
0.0
  11
 196.075
  21
 75.0000
  31
0.0
   0
LINE
   8
LEVEL001
   6
CONTINUOUS
  62
3
  10
 185.075
  20
 77.0000
  30
0.0
  11
 196.075
  21
 77.0000
  31
0.0
   0
LINE
   8
LEVEL001
   6
CONTINUOUS
  62
3
  10
 185.075
  20
 79.0000
  30
0.0
  11
 196.075
  21
 79.0000
  31
0.0
   0
LINE
   8
LEVEL001
   6
CONTINUOUS
  62
3
  10
 185.075
  20
 81.0000
  30
0.0
  11
 196.075
  21
 81.0000
  31
0.0
   0
LINE
   8
LEVEL001
   6
CONTINUOUS
  62
3
  10
 185.075
  20
 83.0000
  30
0.0
  11
 196.075
  21
 83.0000
  31
0.0
   0
LINE
   8
LEVEL003
   6
CONTINUOUS
  62
3
  10
 127.575
  20
 50.0000
  30
0.0
  11
 232.000
  21
 50.0000
  31
0.0
   0
LINE
   8
LEVEL003
   6
CONTINUOUS
  62
3
  10
 222.575
  20
 70.0000
  30
0.0
  11
 232.000
  21
 70.0000
  31
0.0
   0
LINE
   8
LEVEL003
   6
CONTINUOUS
  62
3
  10
 230.000
  20
 50.0000
  30
0.0
  11
 230.000
  21
 70.0000
  31
0.0
   0
LINE
   8
LEVEL003
   6
CONTINUOUS
  62
3
  10
 230.000
  20
 50.0000
  30
0.0
  11
 230.529
  21
 53.0000
  31
0.0
   0
LINE
   8
LEVEL003
   6
CONTINUOUS
  62
3
  10
 230.000
  20
 50.0000
  30
0.0
  11
 229.471
  21
 53.0000
  31
0.0
   0
LINE
   8
LEVEL003
   6
CONTINUOUS
  62
3
  10
 230.000
  20
 70.0000
  30
0.0
  11
 229.471
  21
 67.0000
  31
0.0
   0
LINE
   8
LEVEL003
   6
CONTINUOUS
  62
3
  10
 230.000
  20
 70.0000
  30
0.0
  11
 230.529
  21
 67.0000
  31
0.0
   0
TEXT
   8
LEVEL003
  62
3
  10
 229.200
  20
 58.0000
  30
0.0
  40
 4.00000
   1
20
  50
 90.0000
  41
 0.500000
   7
STANDARD
  72
1
  11
 229.200
  21
 60.0000
  31
0.0
   0
LINE
   8
LEVEL001
   6
CONTINUOUS
  62
7
  10
 151.575
  20
 59.5000
  30
0.0
  11
 151.575
  21
 80.5000
  31
0.0
   0
LINE
   8
LEVEL001
   6
CONTINUOUS
  62
7
  10
 161.575
  20
 78.6435
  30
0.0
  11
 151.575
  21
 78.3310
  31
0.0
   0
LINE
   8
LEVEL001
   6
CONTINUOUS
  62
7
  10
 161.575
  20
 61.3565
  30
0.0
  11
 151.575
  21
 61.6690
  31
0.0
   0
LINE
   8
LEVEL001
   6
CONTINUOUS
  62
3
  10
 157.959
  20
 77.6745
  30
0.0
  11
 151.575
  21
 77.4750
  31
0.0
   0
LINE
   8
LEVEL001
   6
CONTINUOUS
  62
3
  10
 157.959
  20
 62.3255
  30
0.0
  11
 151.575
  21
 62.5250
  31
0.0
   0
ARC
   8
LEVEL001
   6
CONTINUOUS
  62
7
  10
 174.659
  20
 70.0000
  30
0.0
  40
 42.9437
  50
 163.077
  51
 196.923
   0
LINE
   8
LEVEL001
   6
DASHDOT
  62
1
  10
 221.575
  20
 70.0000
  30
0.0
  11
 120.000
  21
 70.0000
  31
0.0
   0
LINE
   8
LEVEL001
   6
CONTINUOUS
  62
7
  10
 133.575
  20
 57.5000
  30
0.0
  11
 128.575
  21
 52.0000
  31
0.0
   0
LINE
   8
LEVEL003
   6
CONTINUOUS
  62
3
  10
 155.000
  20
 61.5620
  30
0.0
  11
 165.000
  21
 40.0000
  31
0.0
   0
LINE
   8
LEVEL003
   6
CONTINUOUS
  62
3
  10
 165.000
  20
 40.0000
  30
0.0
  11
 185.000
  21
 40.0000
  31
0.0
   0
LINE
   8
LEVEL003
   6
CONTINUOUS
  62
3
  10
 155.000
  20
 61.5620
  30
0.0
  11
 155.782
  21
 58.6179
  31
0.0
   0
LINE
   8
LEVEL003
   6
CONTINUOUS
  62
3
  10
 155.000
  20
 61.5620
  30
0.0
  11
 156.742
  21
 59.0630
  31
0.0
   0
ARC
   8
LEVEL001
   6
CONTINUOUS
  62
7
  10
 174.659
  20
 70.0000
  30
0.0
  40
 50.0000
  50
 157.173
  51
 180.000
   0
ARC
   8
LEVEL001
   6
CONTINUOUS
  62
7
  10
 172.648
  20
 71.0140
  30
0.0
  40
 48.0000
  50
 181.210
  51
 203.336
   0
LINE
   8
LEVEL001
   6
CONTINUOUS
  62
7
  10
 73.0000
  20
 162.000
  30
0.0
  11
 74.0000
  21
 163.000
  31
0.0
   0
LINE
   8
LEVEL001
   6
CONTINUOUS
  62
7
  10
 73.0000
  20
 158.000
  30
0.0
  11
 73.0000
  21
 162.000
  31
0.0
   0
LINE
   8
LEVEL001
   6
CONTINUOUS
  62
7
  10
 72.3320
  20
 158.000
  30
0.0
  11
 73.0000
  21
 158.000
  31
0.0
   0
LINE
   8
LEVEL001
   6
CONTINUOUS
  62
7
  10
 71.4250
  20
 52.0000
  30
0.0
  11
 71.4250
  21
 129.615
  31
0.0
   0
LINE
   8
LEVEL001
   6
CONTINUOUS
  62
7
  10
 72.3320
  20
 158.000
  30
0.0
  11
 71.4250
  21
 157.093
  31
0.0
   0
LINE
   8
LEVEL001
   6
CONTINUOUS
  62
7
  10
 71.4250
  20
 157.093
  30
0.0
  11
 71.4250
  21
 129.615
  31
0.0
   0
LINE
   8
LEVEL001
   6
CONTINUOUS
  62
3
  10
 72.3320
  20
 158.000
  30
0.0
  11
 72.3320
  21
 133.000
  31
0.0
   0
LINE
   8
LEVEL001
   6
CONTINUOUS
  62
3
  10
 72.3320
  20
 133.000
  30
0.0
  11
 71.4250
  21
 133.000
  31
0.0
   0
LINE
   8
LEVEL001
   6
CONTINUOUS
  62
3
  10
 72.3320
  20
 133.000
  30
0.0
  11
 71.4250
  21
 129.615
  31
0.0
   0
LINE
   8
LEVEL001
   6
CONTINUOUS
  62
7
  10
 127.000
  20
 162.000
  30
0.0
  11
 126.000
  21
 163.000
  31
0.0
   0
LINE
   8
LEVEL001
   6
CONTINUOUS
  62
7
  10
 127.000
  20
 158.000
  30
0.0
  11
 127.000
  21
 162.000
  31
0.0
   0
LINE
   8
LEVEL001
   6
CONTINUOUS
  62
7
  10
 127.668
  20
 158.000
  30
0.0
  11
 127.000
  21
 158.000
  31
0.0
   0
LINE
   8
LEVEL001
   6
CONTINUOUS
  62
7
  10
 127.668
  20
 158.000
  30
0.0
  11
 128.575
  21
 157.093
  31
0.0
   0
LINE
   8
LEVEL001
   6
CONTINUOUS
  62
7
  10
 128.575
  20
 157.093
  30
0.0
  11
 128.575
  21
 129.615
  31
0.0
   0
LINE
   8
LEVEL001
   6
CONTINUOUS
  62
3
  10
 127.668
  20
 158.000
  30
0.0
  11
 127.668
  21
 133.000
  31
0.0
   0
LINE
   8
LEVEL001
   6
CONTINUOUS
  62
3
  10
 127.668
  20
 133.000
  30
0.0
  11
 128.575
  21
 133.000
  31
0.0
   0
LINE
   8
LEVEL001
   6
CONTINUOUS
  62
3
  10
 127.668
  20
 133.000
  30
0.0
  11
 128.575
  21
 129.615
  31
0.0
   0
LINE
   8
LEVEL001
   6
DASHDOT
  62
1
  10
 68.0000
  20
 154.000
  30
0.0
  11
 67.5000
  21
 154.000
  31
0.0
   0
ARC
   8
LEVEL001
   6
DASHDOT
  62
1
  10
 68.5000
  20
 133.000
  30
0.0
  40
 1.00000
  50
 180.000
  51
 270.000
   0
LINE
   8
LEVEL001
   6
DASHDOT
  62
1
  10
 67.5000
  20
 154.000
  30
0.0
  11
 67.5000
  21
 133.000
  31
0.0
   0
ARC
   8
LEVEL001
   6
DASHDOT
  62
1
  10
 69.0000
  20
 159.000
  30
0.0
  40
 1.00000
  50
 90.0000
  51
 180.000
   0
LINE
   8
LEVEL001
   6
DASHDOT
  62
1
  10
 68.0000
  20
 159.000
  30
0.0
  11
 68.0000
  21
 154.000
  31
0.0
   0
LINE
   8
LEVEL001
   6
DASHDOT
  62
1
  10
 68.5000
  20
 132.000
  30
0.0
  11
 71.4250
  21
 132.000
  31
0.0
   0
LINE
   8
LEVEL001
   6
DASHDOT
  62
1
  10
 73.0000
  20
 160.000
  30
0.0
  11
 69.0000
  21
 160.000
  31
0.0
   0
LINE
   8
LEVEL001
   6
DASHDOT
  62
1
  10
 132.000
  20
 154.000
  30
0.0
  11
 132.500
  21
 154.000
  31
0.0
   0
ARC
   8
LEVEL001
   6
DASHDOT
  62
1
  10
 131.500
  20
 133.000
  30
0.0
  40
 1.00000
  50
 270.000
  51
0.0
   0
LINE
   8
LEVEL001
   6
DASHDOT
  62
1
  10
 132.500
  20
 154.000
  30
0.0
  11
 132.500
  21
 133.000
  31
0.0
   0
ARC
   8
LEVEL001
   6
DASHDOT
  62
1
  10
 131.000
  20
 159.000
  30
0.0
  40
 1.00000
  50
0.0
  51
 90.0000
   0
LINE
   8
LEVEL001
   6
DASHDOT
  62
1
  10
 132.000
  20
 159.000
  30
0.0
  11
 132.000
  21
 154.000
  31
0.0
   0
LINE
   8
LEVEL001
   6
DASHDOT
  62
1
  10
 131.500
  20
 132.000
  30
0.0
  11
 128.575
  21
 132.000
  31
0.0
   0
LINE
   8
LEVEL001
   6
DASHDOT
  62
1
  10
 127.000
  20
 160.000
  30
0.0
  11
 131.000
  21
 160.000
  31
0.0
   0
LINE
   8
LEVEL003
   6
CONTINUOUS
  62
3
  10
 78.5650
  20
 98.0000
  30
0.0
  11
 121.435
  21
 98.0000
  31
0.0
   0
LINE
   8
LEVEL003
   6
CONTINUOUS
  62
3
  10
 78.5650
  20
 98.0000
  30
0.0
  11
 81.5650
  21
 97.4710
  31
0.0
   0
LINE
   8
LEVEL003
   6
CONTINUOUS
  62
3
  10
 78.5650
  20
 98.0000
  30
0.0
  11
 81.5650
  21
 98.5290
  31
0.0
   0
LINE
   8
LEVEL003
   6
CONTINUOUS
  62
3
  10
 121.435
  20
 98.0000
  30
0.0
  11
 118.435
  21
 98.5290
  31
0.0
   0
LINE
   8
LEVEL003
   6
CONTINUOUS
  62
3
  10
 121.435
  20
 98.0000
  30
0.0
  11
 118.435
  21
 97.4710
  31
0.0
   0
TEXT
   8
LEVEL003
  62
3
  10
 92.0000
  20
 98.8000
  30
0.0
  40
 4.00000
   1
%%c42.87
   7
STANDARD
  72
1
  11
 99.0000
  21
 98.8000
  31
0.0
   0
LINE
   8
LEVEL001
   6
DASHDOT
  62
1
  10
 100.000
  20
 98.0000
  30
0.0
  11
 100.000
  21
 45.0000
  31
0.0
   0
LINE
   8
LEVEL001
   6
DASHDOT
  62
1
  10
 100.000
  20
 108.000
  30
0.0
  11
 100.000
  21
 103.000
  31
0.0
   0
LINE
   8
LEVEL003
   6
CONTINUOUS
  62
3
  10
 73.0000
  20
 163.000
  30
0.0
  11
 48.0000
  21
 163.000
  31
0.0
   0
LINE
   8
LEVEL003
   6
CONTINUOUS
  62
3
  10
 70.4250
  20
 133.000
  30
0.0
  11
 48.0000
  21
 133.000
  31
0.0
   0
LINE
   8
LEVEL003
   6
CONTINUOUS
  62
3
  10
 50.0000
  20
 163.000
  30
0.0
  11
 50.0000
  21
 133.000
  31
0.0
   0
LINE
   8
LEVEL003
   6
CONTINUOUS
  62
3
  10
 50.0000
  20
 163.000
  30
0.0
  11
 49.4710
  21
 160.000
  31
0.0
   0
LINE
   8
LEVEL003
   6
CONTINUOUS
  62
3
  10
 50.0000
  20
 163.000
  30
0.0
  11
 50.5290
  21
 160.000
  31
0.0
   0
LINE
   8
LEVEL003
   6
CONTINUOUS
  62
3
  10
 50.0000
  20
 133.000
  30
0.0
  11
 50.5290
  21
 136.000
  31
0.0
   0
LINE
   8
LEVEL003
   6
CONTINUOUS
  62
3
  10
 50.0000
  20
 133.000
  30
0.0
  11
 49.4710
  21
 136.000
  31
0.0
   0
TEXT
   8
LEVEL003
  62
3
  10
 49.2000
  20
 146.000
  30
0.0
  40
 4.00000
   1
30
  50
 90.0000
  41
 0.500000
   7
STANDARD
  72
1
  11
 49.2000
  21
 148.000
  31
0.0
   0
LINE
   8
LEVEL001
   6
CONTINUOUS
  62
7
  10
 74.0000
  20
 163.000
  30
0.0
  11
 126.000
  21
 163.000
  31
0.0
   0
LINE
   8
LEVEL001
   6
CONTINUOUS
  62
7
  10
 72.3320
  20
 133.000
  30
0.0
  11
 127.668
  21
 133.000
  31
0.0
   0
LINE
   8
LEVEL001
   6
CONTINUOUS
  62
7
  10
 73.0000
  20
 158.000
  30
0.0
  11
 127.000
  21
 158.000
  31
0.0
   0
LINE
   8
LEVEL001
   6
CONTINUOUS
  62
7
  10
 71.4250
  20
 157.093
  30
0.0
  11
 128.575
  21
 157.093
  31
0.0
   0
LINE
   8
LEVEL001
   6
CONTINUOUS
  62
3
  10
 128.575
  20
 129.615
  30
0.0
  11
 71.4250
  21
 129.615
  31
0.0
   0
LINE
   8
LEVEL001
   6
CONTINUOUS
  62
7
  10
 127.000
  20
 162.000
  30
0.0
  11
 73.0000
  21
 162.000
  31
0.0
   0
LINE
   8
LEVEL003
   6
CONTINUOUS
  62
3
  10
 128.575
  20
 148.000
  30
0.0
  11
 145.000
  21
 158.000
  31
0.0
   0
LINE
   8
LEVEL003
   6
CONTINUOUS
  62
3
  10
 128.575
  20
 148.000
  30
0.0
  11
 131.413
  21
 149.108
  31
0.0
   0
LINE
   8
LEVEL003
   6
CONTINUOUS
  62
3
  10
 128.575
  20
 148.000
  30
0.0
  11
 130.862
  21
 150.012
  31
0.0
   0
TEXT
   8
LEVEL003
  62
3
  10
 145.000
  20
 158.000
  30
0.0
  40
 4.00000
   1
ＮＳ２－１／４山１４
   7
STANDARD
   0
LINE
   8
LEVEL001
   6
CONTINUOUS
  62
7
  10
 79.0000
  20
 178.000
  30
0.0
  11
 80.0000
  21
 179.000
  31
0.0
   0
LINE
   8
LEVEL001
   6
CONTINUOUS
  62
7
  10
 79.5000
  20
 165.000
  30
0.0
  11
 79.0000
  21
 165.500
  31
0.0
   0
LINE
   8
LEVEL001
   6
CONTINUOUS
  62
7
  10
 79.0000
  20
 165.500
  30
0.0
  11
 79.0000
  21
 178.000
  31
0.0
   0
LINE
   8
LEVEL001
   6
CONTINUOUS
  62
7
  10
 121.000
  20
 178.000
  30
0.0
  11
 120.000
  21
 179.000
  31
0.0
   0
LINE
   8
LEVEL001
   6
CONTINUOUS
  62
7
  10
 120.500
  20
 165.000
  30
0.0
  11
 121.000
  21
 165.500
  31
0.0
   0
LINE
   8
LEVEL001
   6
CONTINUOUS
  62
7
  10
 121.000
  20
 165.500
  30
0.0
  11
 121.000
  21
 178.000
  31
0.0
   0
LINE
   8
LEVEL001
   6
CONTINUOUS
  62
7
  10
 80.0000
  20
 179.000
  30
0.0
  11
 120.000
  21
 179.000
  31
0.0
   0
LINE
   8
LEVEL003
   6
CONTINUOUS
  62
3
  10
 79.0000
  20
 179.000
  30
0.0
  11
 28.0000
  21
 179.000
  31
0.0
   0
LINE
   8
LEVEL003
   6
CONTINUOUS
  62
3
  10
 72.4250
  20
 50.0000
  30
0.0
  11
 28.0000
  21
 50.0000
  31
0.0
   0
LINE
   8
LEVEL003
   6
CONTINUOUS
  62
3
  10
 30.0000
  20
 179.000
  30
0.0
  11
 30.0000
  21
 50.0000
  31
0.0
   0
LINE
   8
LEVEL003
   6
CONTINUOUS
  62
3
  10
 30.0000
  20
 179.000
  30
0.0
  11
 29.4710
  21
 176.000
  31
0.0
   0
LINE
   8
LEVEL003
   6
CONTINUOUS
  62
3
  10
 30.0000
  20
 179.000
  30
0.0
  11
 30.5290
  21
 176.000
  31
0.0
   0
LINE
   8
LEVEL003
   6
CONTINUOUS
  62
3
  10
 30.0000
  20
 50.0000
  30
0.0
  11
 30.5290
  21
 53.0000
  31
0.0
   0
LINE
   8
LEVEL003
   6
CONTINUOUS
  62
3
  10
 30.0000
  20
 50.0000
  30
0.0
  11
 29.4710
  21
 53.0000
  31
0.0
   0
TEXT
   8
LEVEL003
  62
3
  10
 29.2000
  20
 111.500
  30
0.0
  40
 4.00000
   1
129
  50
 90.0000
  41
 0.500000
   7
STANDARD
  72
1
  11
 29.2000
  21
 114.500
  31
0.0
   0
LINE
   8
LEVEL003
   6
CONTINUOUS
  62
3
  10
 79.0000
  20
 179.000
  30
0.0
  11
 38.0000
  21
 179.000
  31
0.0
   0
LINE
   8
LEVEL003
   6
CONTINUOUS
  62
3
  10
 70.4250
  20
 133.000
  30
0.0
  11
 38.0000
  21
 133.000
  31
0.0
   0
LINE
   8
LEVEL003
   6
CONTINUOUS
  62
3
  10
 40.0000
  20
 179.000
  30
0.0
  11
 40.0000
  21
 133.000
  31
0.0
   0
LINE
   8
LEVEL003
   6
CONTINUOUS
  62
3
  10
 40.0000
  20
 179.000
  30
0.0
  11
 39.4710
  21
 176.000
  31
0.0
   0
LINE
   8
LEVEL003
   6
CONTINUOUS
  62
3
  10
 40.0000
  20
 179.000
  30
0.0
  11
 40.5290
  21
 176.000
  31
0.0
   0
LINE
   8
LEVEL003
   6
CONTINUOUS
  62
3
  10
 40.0000
  20
 133.000
  30
0.0
  11
 40.5290
  21
 136.000
  31
0.0
   0
LINE
   8
LEVEL003
   6
CONTINUOUS
  62
3
  10
 40.0000
  20
 133.000
  30
0.0
  11
 39.4710
  21
 136.000
  31
0.0
   0
TEXT
   8
LEVEL003
  62
3
  10
 39.2000
  20
 154.000
  30
0.0
  40
 4.00000
   1
46
  50
 90.0000
  41
 0.500000
   7
STANDARD
  72
1
  11
 39.2000
  21
 156.000
  31
0.0
   0
LINE
   8
LEVEL003
   6
CONTINUOUS
  62
3
  10
 79.0000
  20
 179.000
  30
0.0
  11
 48.0000
  21
 179.000
  31
0.0
   0
LINE
   8
LEVEL003
   6
CONTINUOUS
  62
3
  10
 78.5000
  20
 165.000
  30
0.0
  11
 48.0000
  21
 165.000
  31
0.0
   0
LINE
   8
LEVEL003
   6
CONTINUOUS
  62
3
  10
 50.0000
  20
 179.000
  30
0.0
  11
 50.0000
  21
 165.000
  31
0.0
   0
LINE
   8
LEVEL003
   6
CONTINUOUS
  62
3
  10
 50.0000
  20
 179.000
  30
0.0
  11
 49.4710
  21
 176.000
  31
0.0
   0
LINE
   8
LEVEL003
   6
CONTINUOUS
  62
3
  10
 50.0000
  20
 179.000
  30
0.0
  11
 50.5290
  21
 176.000
  31
0.0
   0
LINE
   8
LEVEL003
   6
CONTINUOUS
  62
3
  10
 50.0000
  20
 165.000
  30
0.0
  11
 50.5290
  21
 168.000
  31
0.0
   0
LINE
   8
LEVEL003
   6
CONTINUOUS
  62
3
  10
 50.0000
  20
 165.000
  30
0.0
  11
 49.4710
  21
 168.000
  31
0.0
   0
TEXT
   8
LEVEL003
  62
3
  10
 49.2000
  20
 170.000
  30
0.0
  40
 4.00000
   1
14
  50
 90.0000
  41
 0.500000
   7
STANDARD
  72
1
  11
 49.2000
  21
 172.000
  31
0.0
   0
LINE
   8
LEVEL003
   6
CONTINUOUS
  62
3
  10
 79.0000
  20
 179.000
  30
0.0
  11
 79.0000
  21
 191.000
  31
0.0
   0
LINE
   8
LEVEL003
   6
CONTINUOUS
  62
3
  10
 121.000
  20
 179.000
  30
0.0
  11
 121.000
  21
 191.000
  31
0.0
   0
LINE
   8
LEVEL003
   6
CONTINUOUS
  62
3
  10
 79.0000
  20
 189.000
  30
0.0
  11
 121.000
  21
 189.000
  31
0.0
   0
LINE
   8
LEVEL003
   6
CONTINUOUS
  62
3
  10
 79.0000
  20
 189.000
  30
0.0
  11
 82.0000
  21
 188.471
  31
0.0
   0
LINE
   8
LEVEL003
   6
CONTINUOUS
  62
3
  10
 79.0000
  20
 189.000
  30
0.0
  11
 82.0000
  21
 189.529
  31
0.0
   0
LINE
   8
LEVEL003
   6
CONTINUOUS
  62
3
  10
 121.000
  20
 189.000
  30
0.0
  11
 118.000
  21
 189.529
  31
0.0
   0
LINE
   8
LEVEL003
   6
CONTINUOUS
  62
3
  10
 121.000
  20
 189.000
  30
0.0
  11
 118.000
  21
 188.471
  31
0.0
   0
TEXT
   8
LEVEL003
  62
3
  10
 96.0000
  20
 189.800
  30
0.0
  40
 4.00000
   1
%%c42
   7
STANDARD
  72
1
  11
 100.000
  21
 189.800
  31
0.0
   0
LINE
   8
LEVEL003
   6
CONTINUOUS
  62
3
  10
 91.2000
  20
 165.000
  30
0.0
  11
 99.5000
  21
 165.000
  31
0.0
   0
LINE
   8
LEVEL003
   6
CONTINUOUS
  62
3
  10
 97.5000
  20
 165.000
  30
0.0
  11
 97.5000
  21
 135.000
  31
0.0
   0
LINE
   8
LEVEL003
   6
CONTINUOUS
  62
3
  10
 97.5000
  20
 165.000
  30
0.0
  11
 96.9710
  21
 162.000
  31
0.0
   0
LINE
   8
LEVEL003
   6
CONTINUOUS
  62
3
  10
 97.5000
  20
 165.000
  30
0.0
  11
 98.0290
  21
 162.000
  31
0.0
   0
LINE
   8
LEVEL003
   6
CONTINUOUS
  62
3
  10
 97.5000
  20
 135.000
  30
0.0
  11
 98.0290
  21
 138.000
  31
0.0
   0
LINE
   8
LEVEL003
   6
CONTINUOUS
  62
3
  10
 97.5000
  20
 135.000
  30
0.0
  11
 96.9710
  21
 138.000
  31
0.0
   0
TEXT
   8
LEVEL003
  62
3
  10
 96.7000
  20
 148.000
  30
0.0
  40
 4.00000
   1
30
  50
 90.0000
  41
 0.500000
   7
STANDARD
  72
1
  11
 96.7000
  21
 150.000
  31
0.0
   0
LINE
   8
LEVEL003
   6
CONTINUOUS
  62
3
  10
 90.5000
  20
 165.500
  30
0.0
  11
 90.5000
  21
 171.000
  31
0.0
   0
LINE
   8
LEVEL003
   6
CONTINUOUS
  62
3
  10
 109.500
  20
 165.500
  30
0.0
  11
 109.500
  21
 171.000
  31
0.0
   0
LINE
   8
LEVEL003
   6
CONTINUOUS
  62
3
  10
 90.5000
  20
 169.000
  30
0.0
  11
 109.500
  21
 169.000
  31
0.0
   0
LINE
   8
LEVEL003
   6
CONTINUOUS
  62
3
  10
 90.5000
  20
 169.000
  30
0.0
  11
 93.5000
  21
 168.471
  31
0.0
   0
LINE
   8
LEVEL003
   6
CONTINUOUS
  62
3
  10
 90.5000
  20
 169.000
  30
0.0
  11
 93.5000
  21
 169.529
  31
0.0
   0
LINE
   8
LEVEL003
   6
CONTINUOUS
  62
3
  10
 109.500
  20
 169.000
  30
0.0
  11
 106.500
  21
 169.529
  31
0.0
   0
LINE
   8
LEVEL003
   6
CONTINUOUS
  62
3
  10
 109.500
  20
 169.000
  30
0.0
  11
 106.500
  21
 168.471
  31
0.0
   0
TEXT
   8
LEVEL003
  62
3
  10
 96.0000
  20
 169.800
  30
0.0
  40
 4.00000
   1
%%c19
   7
STANDARD
  72
1
  11
 100.000
  21
 169.800
  31
0.0
   0
LINE
   8
LEVEL001
   6
DASHDOT
  62
1
  10
 100.000
  20
 184.000
  30
0.0
  11
 100.000
  21
 174.000
  31
0.0
   0
LINE
   8
LEVEL001
   6
DASHDOT
  62
1
  10
 100.000
  20
 169.000
  30
0.0
  11
 100.000
  21
 113.000
  31
0.0
   0
LINE
   8
LEVEL001
   6
CONTINUOUS
  62
7
  10
 79.5000
  20
 165.000
  30
0.0
  11
 120.500
  21
 165.000
  31
0.0
   0
LINE
   8
LEVEL001
   6
CONTINUOUS
  62
7
  10
 79.0000
  20
 178.000
  30
0.0
  11
 121.000
  21
 178.000
  31
0.0
   0
LINE
   8
LEVEL001
   6
CONTINUOUS
  62
7
  10
 79.0000
  20
 165.500
  30
0.0
  11
 121.000
  21
 165.500
  31
0.0
   0
LINE
   8
LEVEL001
   6
CONTINUOUS
  62
7
  10
 128.575
  20
 89.3972
  30
0.0
  11
 128.575
  21
 129.615
  31
0.0
   0
LINE
   8
LEVEL003
   6
CONTINUOUS
  62
3
  10
 81.5000
  20
 108.000
  30
0.0
  11
 118.500
  21
 108.000
  31
0.0
   0
LINE
   8
LEVEL003
   6
CONTINUOUS
  62
3
  10
 81.5000
  20
 108.000
  30
0.0
  11
 84.5000
  21
 107.471
  31
0.0
   0
LINE
   8
LEVEL003
   6
CONTINUOUS
  62
3
  10
 81.5000
  20
 108.000
  30
0.0
  11
 84.5000
  21
 108.529
  31
0.0
   0
LINE
   8
LEVEL003
   6
CONTINUOUS
  62
3
  10
 118.500
  20
 108.000
  30
0.0
  11
 115.500
  21
 108.529
  31
0.0
   0
LINE
   8
LEVEL003
   6
CONTINUOUS
  62
3
  10
 118.500
  20
 108.000
  30
0.0
  11
 115.500
  21
 107.471
  31
0.0
   0
TEXT
   8
LEVEL003
  62
3
  10
 96.0000
  20
 108.800
  30
0.0
  40
 4.00000
   1
%%c37
   7
STANDARD
  72
1
  11
 100.000
  21
 108.800
  31
0.0
   0
LINE
   8
LEVEL001
   6
CONTINUOUS
  62
7
  10
 81.7500
  20
 163.000
  30
0.0
  11
 82.2500
  21
 165.000
  31
0.0
   0
LINE
   8
LEVEL001
   6
CONTINUOUS
  62
7
  10
 118.250
  20
 163.000
  30
0.0
  11
 117.750
  21
 165.000
  31
0.0
   0
LINE
   8
LEVEL001
   6
DOT
  62
3
  10
 109.500
  20
 164.500
  30
0.0
  11
 110.000
  21
 165.000
  31
0.0
   0
LINE
   8
LEVEL001
   6
DOT
  62
3
  10
 90.5000
  20
 164.500
  30
0.0
  11
 90.0000
  21
 165.000
  31
0.0
   0
LINE
   8
LEVEL001
   6
CONTINUOUS
  62
7
  10
 157.575
  20
 65.9608
  30
0.0
  11
 157.575
  21
 74.0392
  31
0.0
   0
LINE
   8
LEVEL001
   6
CONTINUOUS
  62
7
  10
 157.575
  20
 74.0392
  30
0.0
  11
 161.575
  21
 74.2965
  31
0.0
   0
LINE
   8
LEVEL001
   6
CONTINUOUS
  62
7
  10
 161.575
  20
 74.2965
  30
0.0
  11
 163.059
  21
 75.8309
  31
0.0
   0
LINE
   8
LEVEL001
   6
CONTINUOUS
  62
7
  10
 163.059
  20
 75.8309
  30
0.0
  11
 171.575
  21
 75.8309
  31
0.0
   0
LINE
   8
LEVEL001
   6
CONTINUOUS
  62
7
  10
 171.575
  20
 75.8309
  30
0.0
  11
 171.575
  21
 64.1691
  31
0.0
   0
LINE
   8
LEVEL001
   6
CONTINUOUS
  62
7
  10
 171.575
  20
 64.1691
  30
0.0
  11
 163.059
  21
 64.1691
  31
0.0
   0
LINE
   8
LEVEL001
   6
CONTINUOUS
  62
7
  10
 163.059
  20
 64.1691
  30
0.0
  11
 161.575
  21
 65.7035
  31
0.0
   0
LINE
   8
LEVEL001
   6
CONTINUOUS
  62
7
  10
 161.575
  20
 65.7035
  30
0.0
  11
 157.575
  21
 65.9608
  31
0.0
   0
LINE
   8
LEVEL001
   6
CONTINUOUS
  62
7
  10
 185.075
  20
 55.0000
  30
0.0
  11
 185.075
  21
 85.0000
  31
0.0
   0
LINE
   8
LEVEL001
   6
CONTINUOUS
  62
7
  10
 185.075
  20
 85.0000
  30
0.0
  11
 196.075
  21
 85.0000
  31
0.0
   0
LINE
   8
LEVEL001
   6
CONTINUOUS
  62
7
  10
 196.075
  20
 85.0000
  30
0.0
  11
 196.075
  21
 55.0000
  31
0.0
   0
LINE
   8
LEVEL001
   6
CONTINUOUS
  62
7
  10
 196.075
  20
 55.0000
  30
0.0
  11
 185.075
  21
 55.0000
  31
0.0
   0
TEXT
   8
LEVEL003
  62
7
  10
 236.691
  20
 20.2200
  30
0.0
  40
 10.0000
   1
ＯＳＡＫＡ ＪＡＣＫ
   7
STANDARD
   0
CIRCLE
   8
LEVEL003
   6
CONTINUOUS
  62
7
  10
 224.718
  20
 27.2707
  30
0.0
  40
 3.00000
   0
LINE
   8
LEVEL003
   6
CONTINUOUS
  62
7
  10
 230.606
  20
 30.2707
  30
0.0
  11
 226.797
  21
 23.6707
  31
0.0
   0
LINE
   8
LEVEL003
   6
CONTINUOUS
  62
7
  10
 226.797
  20
 23.6707
  30
0.0
  11
 219.176
  21
 23.6707
  31
0.0
   0
LINE
   8
LEVEL003
   6
CONTINUOUS
  62
7
  10
 218.309
  20
 22.1707
  30
0.0
  11
 231.930
  21
 22.1707
  31
0.0
   0
LINE
   8
LEVEL003
   6
CONTINUOUS
  62
7
  10
 231.930
  20
 22.1707
  30
0.0
  11
 236.606
  21
 30.2707
  31
0.0
   0
LINE
   8
LEVEL003
   6
CONTINUOUS
  62
7
  10
 236.606
  20
 30.2707
  30
0.0
  11
 230.606
  21
 30.2707
  31
0.0
   0
LINE
   8
LEVEL003
   6
CONTINUOUS
  62
7
  10
 219.176
  20
 23.6707
  30
0.0
  11
 218.309
  21
 22.1707
  31
0.0
   0
TEXT
   8
LEVEL003
  62
7
  10
 239.602
  20
 37.1134
  30
0.0
  40
 6.00000
   1
Model : Ｔ１０Ｇ６.３
   7
STANDARD
   0
LINE
   8
LEVEL004
   6
DOT
  62
3
  10
 109.500
  20
 164.500
  30
0.0
  11
 109.500
  21
 136.000
  31
0.0
   0
ARC
   8
LEVEL004
   6
DOT
  62
3
  10
 108.500
  20
 136.000
  30
0.0
  40
 1.00000
  50
 270.000
  51
0.0
   0
LINE
   8
LEVEL004
   6
DOT
  62
3
  10
 91.5000
  20
 135.000
  30
0.0
  11
 108.500
  21
 135.000
  31
0.0
   0
ARC
   8
LEVEL004
   6
DOT
  62
3
  10
 91.5000
  20
 136.000
  30
0.0
  40
 1.00000
  50
 180.000
  51
 270.000
   0
LINE
   8
LEVEL004
   6
DOT
  62
3
  10
 90.5000
  20
 164.500
  30
0.0
  11
 90.5000
  21
 136.000
  31
0.0
   0
LINE
   8
LEVEL004
   6
DOT
  62
3
  10
 78.5650
  20
 90.0000
  30
0.0
  11
 78.5650
  21
 123.000
  31
0.0
   0
LINE
   8
LEVEL004
   6
DOT
  62
3
  10
 81.5000
  20
 123.000
  30
0.0
  11
 81.5000
  21
 90.0000
  31
0.0
   0
LINE
   8
LEVEL004
   6
DOT
  62
3
  10
 121.435
  20
 123.000
  30
0.0
  11
 121.435
  21
 90.0000
  31
0.0
   0
LINE
   8
LEVEL004
   6
DOT
  62
3
  10
 118.500
  20
 90.0000
  30
0.0
  11
 118.500
  21
 123.000
  31
0.0
   0
LINE
   8
LEVEL003
   6
CONTINUOUS
  62
3
  10
 145.000
  20
 158.000
  30
0.0
  11
 191.591
  21
 158.000
  31
0.0
   0
TEXT
   8
LEVEL003
  62
3
  10
 165.000
  20
 40.0000
  30
0.0
  40
 4.00000
   1
Ｒ３／８
   7
STANDARD
   0
ENDSEC
   0
EOF
