   0
SECTION
   2
HEADER
   9
$LIMMIN
  10
-66.0000
  20
0.0
   9
$LIMMAX
  10
 1680.00
  20
 1188.00
   9
$EXTMIN
  10
-66.0000
  20
0.0
   9
$EXTMAX
  10
 1680.00
  20
 1188.00
   9
$LTSCALE
  40
 34.9200
   0
ENDSEC
   0
SECTION
   2
TABLES
  0
TABLE
  2
LTYPE
 70
    25
  0
LTYPE
  2
CONTINUOUS
 70
    64
  3
Solid line
 72
    65
 73
     0
 40
0.0
  0
LTYPE
  2
BORDER
 70
    64
  3
__ __ . __ __ . __ __ . __ __ . __ __ . __ __ .
 72
    65
 73
     6
 40
1.75
 49
0.5
 49
-0.25
 49
0.5
 49
-0.25
 49
0.0
 49
-0.25
  0
LTYPE
  2
BORDER2
 70
    64
  3
__.__.__.__.__.__.__.__.__.__.__.__.__.__.__.__
 72
    65
 73
     6
 40
0.875
 49
0.25
 49
-0.125
 49
0.25
 49
-0.125
 49
0.0
 49
-0.125
  0
LTYPE
  2
BORDERX2
 70
    64
  3
____  ____  .  ____  ____  .  ____  ____  .  __
 72
    65
 73
     6
 40
3.5
 49
1.0
 49
-0.5
 49
1.0
 49
-0.5
 49
0.0
 49
-0.5
  0
LTYPE
  2
CENTER
 70
    64
  3
____ _ ____ _ ____ _ ____ _ ____ _ ____ _ ____ 
 72
    65
 73
     4
 40
2.0
 49
1.25
 49
-0.25
 49
0.25
 49
-0.25
  0
LTYPE
  2
CENTER2
 70
    64
  3
___ _ ___ _ ___ _ ___ _ ___ _ ___ _ ___ _ ___ _
 72
    65
 73
     4
 40
1.125
 49
0.75
 49
-0.125
 49
0.125
 49
-0.125
  0
LTYPE
  2
CENTERX2
 70
    64
  3
________  __  ________  __  ________  __  _____
 72
    65
 73
     4
 40
4.0
 49
2.5
 49
-0.5
 49
0.5
 49
-0.5
  0
LTYPE
  2
DASHDOT
 70
    64
  3
__ . __ . __ . __ . __ . __ . __ . __ . __ . __
 72
    65
 73
     4
 40
1.0
 49
0.5
 49
-0.25
 49
0.0
 49
-0.25
  0
LTYPE
  2
DASHDOT2
 70
    64
  3
_._._._._._._._._._._._._._._._._._._._._._._._
 72
    65
 73
     4
 40
0.5
 49
0.25
 49
-0.125
 49
0.0
 49
-0.125
  0
LTYPE
  2
DASHDOTX2
 70
    64
  3
____  .  ____  .  ____  .  ____  .  ____  .  __
 72
    65
 73
     4
 40
2.0
 49
1.0
 49
-0.5
 49
0.0
 49
-0.5
  0
LTYPE
  2
DASHED
 70
    64
  3
__ __ __ __ __ __ __ __ __ __ __ __ __ __ __ __
 72
    65
 73
     2
 40
0.75
 49
0.5
 49
-0.25
  0
LTYPE
  2
DASHED2
 70
    64
  3
_ _ _ _ _ _ _ _ _ _ _ _ _ _ _ _ _ _ _ _ _ _ _ _
 72
    65
 73
     2
 40
0.375
 49
0.25
 49
-0.125
  0
LTYPE
  2
DASHEDX2
 70
    64
  3
____  ____  ____  ____  ____  ____  ____  ____ 
 72
    65
 73
     2
 40
1.5
 49
1.0
 49
-0.5
  0
LTYPE
  2
DIVIDE
 70
    64
  3
____ . . ____ . . ____ . . ____ . . ____ . . __
 72
    65
 73
     6
 40
1.25
 49
0.5
 49
-0.25
 49
0.0
 49
-0.25
 49
0.0
 49
-0.25
  0
LTYPE
  2
DIVIDE2
 70
    64
  3
__..__..__..__..__..__..__..__..__..__..__..__.
 72
    65
 73
     6
 40
0.625
 49
0.25
 49
-0.125
 49
0.0
 49
-0.125
 49
0.0
 49
-0.125
  0
LTYPE
  2
DIVIDEX2
 70
    64
  3
________  .  .  ________  .  .  ________  .  . 
 72
    65
 73
     6
 40
2.5
 49
1.0
 49
-0.5
 49
0.0
 49
-0.5
 49
0.0
 49
-0.5
  0
LTYPE
  2
DOT
 70
    64
  3
. . . . . . . . . . . . . . . . . . . . . . . .
 72
    65
 73
     2
 40
0.25
 49
0.0
 49
-0.25
  0
LTYPE
  2
DOT2
 70
    64
  3
...............................................
 72
    65
 73
     2
 40
0.125
 49
0.0
 49
-0.125
  0
LTYPE
  2
DOTX2
 70
    64
  3
.  .  .  .  .  .  .  .  .  .  .  .  .  .  .  . 
 72
    65
 73
     2
 40
0.5
 49
0.0
 49
-0.5
  0
LTYPE
  2
HIDDEN
 70
    64
  3
__ __ __ __ __ __ __ __ __ __ __ __ __ __ __ __
 72
    65
 73
     2
 40
0.375
 49
0.25
 49
-0.125
  0
LTYPE
  2
HIDDEN2
 70
    64
  3
_ _ _ _ _ _ _ _ _ _ _ _ _ _ _ _ _ _ _ _ _ _ _ _
 72
    65
 73
     2
 40
0.1875
 49
0.125
 49
-0.0625
  0
LTYPE
  2
HIDDENX2
 70
    64
  3
____ ____ ____ ____ ____ ____ ____ ____ ____ __
 72
    65
 73
     2
 40
0.75
 49
0.5
 49
-0.25
  0
LTYPE
  2
PHANTOM
 70
    64
  3
______  __  __  ______  __  __  ______  __  __ 
 72
    65
 73
     6
 40
2.5
 49
1.25
 49
-0.25
 49
0.25
 49
-0.25
 49
0.25
 49
-0.25
  0
LTYPE
  2
PHANTOM2
 70
    64
  3
___ _ _ ___ _ _ ___ _ _ ___ _ _ ___ _ _ ___ _ _
 72
    65
 73
     6
 40
1.25
 49
0.625
 49
-0.125
 49
0.125
 49
-0.125
 49
0.125
 49
-0.125
  0
LTYPE
  2
PHANTOMX2
 70
    64
  3
____________    ____    ____    ____________   
 72
    65
 73
     6
 40
5.0
 49
2.5
 49
-0.5
 49
0.5
 49
-0.5
 49
0.5
 49
-0.5
  0
ENDTAB
  0
TABLE
  2
STYLE
 70
     2
  0
STYLE
  2
STANDARD
 70
0
 40
0.0
 41
1.0
 50
0.0
 71
0
 42
0.2
  3
TXT
  4
BIGFONT
  0
STYLE
  2
STANDARD1
 70
     4
 40
0.0
 41
1.0
 50
0.0
 71
     0
 42
0.2
  3
TXT
  4
BIGFONT
  0
ENDTAB
   0
TABLE
   2
LAYER
  70
11
   0
LAYER
   2
0
  70
0
  62
7
   6
CONTINUOUS
   0
LAYER
   2
LEVEL001
  70
0
  62
7
   6
CONTINUOUS
   0
LAYER
   2
LEVEL003
  70
0
  62
7
   6
CONTINUOUS
   0
LAYER
   2
LEVEL010
  70
0
  62
7
   6
CONTINUOUS
   0
LAYER
   2
LEVEL011
  70
0
  62
7
   6
CONTINUOUS
   0
LAYER
   2
LEVEL012
  70
0
  62
7
   6
CONTINUOUS
   0
LAYER
   2
LEVEL014
  70
0
  62
7
   6
CONTINUOUS
   0
LAYER
   2
LEVEL020
  70
0
  62
7
   6
CONTINUOUS
   0
LAYER
   2
LEVEL030
  70
0
  62
7
   6
CONTINUOUS
   0
LAYER
   2
LEVEL050
  70
0
  62
7
   6
CONTINUOUS
   0
LAYER
   2
LEVEL100
  70
0
  62
-7
   6
CONTINUOUS
   0
ENDTAB
   0
ENDSEC
   0
SECTION
   2
ENTITIES
   0
LINE
   8
LEVEL100
   6
CONTINUOUS
  62
7
  10
 1145.00
  20
 216.000
  30
0.0
  11
 1145.00
  21
 188.000
  31
0.0
   0
LINE
   8
LEVEL100
   6
CONTINUOUS
  62
7
  10
 1265.00
  20
 216.000
  30
0.0
  11
 1265.00
  21
 124.000
  31
0.0
   0
LINE
   8
LEVEL100
   6
CONTINUOUS
  62
7
  10
 1345.00
  20
 216.000
  30
0.0
  11
 1345.00
  21
 188.000
  31
0.0
   0
LINE
   8
LEVEL100
   6
CONTINUOUS
  62
7
  10
 1377.00
  20
 216.000
  30
0.0
  11
 1377.00
  21
 188.000
  31
0.0
   0
LINE
   8
LEVEL100
   6
CONTINUOUS
  62
7
  10
 1423.00
  20
 216.000
  30
0.0
  11
 1423.00
  21
 188.000
  31
0.0
   0
LINE
   8
LEVEL100
   6
CONTINUOUS
  62
7
  10
 1227.00
  20
 188.000
  30
0.0
  11
 1227.00
  21
 124.000
  31
0.0
   0
LINE
   8
LEVEL100
   6
CONTINUOUS
  62
7
  10
 1161.00
  20
 66.0000
  30
0.0
  11
 1181.00
  21
 86.0000
  31
0.0
   0
CIRCLE
   8
LEVEL100
   6
CONTINUOUS
  62
7
  10
 1133.00
  20
 6.00000
  30
0.0
  40
 1.60000
   0
CIRCLE
   8
LEVEL100
   6
CONTINUOUS
  62
7
  10
 1161.00
  20
 6.00000
  30
0.0
  40
 1.60000
   0
CIRCLE
   8
LEVEL100
   6
CONTINUOUS
  62
7
  10
 1133.00
  20
 6.00000
  30
0.0
  40
 1.00000
   0
CIRCLE
   8
LEVEL100
   6
CONTINUOUS
  62
7
  10
 1161.00
  20
 6.00000
  30
0.0
  40
 1.00000
   0
LINE
   8
LEVEL100
   6
CONTINUOUS
  62
7
  10
 1284.00
  20
 22.0000
  30
0.0
  11
 1284.00
  21
 26.0000
  31
0.0
   0
LINE
   8
LEVEL100
   6
CONTINUOUS
  62
7
  10
 1284.00
  20
 26.0000
  30
0.0
  11
 1296.00
  21
 26.0000
  31
0.0
   0
LINE
   8
LEVEL100
   6
CONTINUOUS
  62
7
  10
 1296.00
  20
 26.0000
  30
0.0
  11
 1296.00
  21
 22.0000
  31
0.0
   0
LINE
   8
LEVEL100
   6
CONTINUOUS
  62
7
  10
 1296.00
  20
 22.0000
  30
0.0
  11
 1284.00
  21
 22.0000
  31
0.0
   0
LINE
   8
LEVEL100
   6
CONTINUOUS
  62
7
  10
 1105.00
  20
0.0
  30
0.0
  11
 1105.00
  21
 216.000
  31
0.0
   0
LINE
   8
LEVEL100
   6
CONTINUOUS
  62
7
  10
 1189.00
  20
 188.000
  30
0.0
  11
 1189.00
  21
0.0
  31
0.0
   0
LINE
   8
LEVEL100
   6
CONTINUOUS
  62
7
  10
 1105.00
  20
 92.0000
  30
0.0
  11
 1189.00
  21
 92.0000
  31
0.0
   0
TEXT
   8
LEVEL100
  62
7
  10
 1203.00
  20
 14.0000
  30
0.0
  40
 20.0000
   1
ＯＪ
  41
 0.700000
   7
STANDARD
   0
LINE
   8
LEVEL100
   6
CONTINUOUS
  62
7
  10
 1105.00
  20
 188.000
  30
0.0
  11
 1532.60
  21
 188.000
  31
0.0
   0
LINE
   8
LEVEL100
   6
CONTINUOUS
  62
7
  10
 1105.00
  20
 172.000
  30
0.0
  11
 1532.60
  21
 172.000
  31
0.0
   0
LINE
   8
LEVEL100
   6
CONTINUOUS
  62
7
  10
 1105.00
  20
 216.000
  30
0.0
  11
 1532.60
  21
 216.000
  31
0.0
   0
LINE
   8
LEVEL100
   6
CONTINUOUS
  62
7
  10
 1208.60
  20
 1012.00
  30
0.0
  11
 1208.60
  21
 1112.00
  31
0.0
   0
LINE
   8
LEVEL100
   6
CONTINUOUS
  62
7
  10
 1208.60
  20
 1092.00
  30
0.0
  11
 1532.60
  21
 1092.00
  31
0.0
   0
LINE
   8
LEVEL100
   6
CONTINUOUS
  62
7
  10
 1208.60
  20
 1072.00
  30
0.0
  11
 1532.60
  21
 1072.00
  31
0.0
   0
LINE
   8
LEVEL100
   6
CONTINUOUS
  62
7
  10
 1244.60
  20
 1092.00
  30
0.0
  11
 1244.60
  21
 1072.00
  31
0.0
   0
LINE
   8
LEVEL100
   6
CONTINUOUS
  62
7
  10
 1452.60
  20
 1092.00
  30
0.0
  11
 1452.60
  21
 1072.00
  31
0.0
   0
LINE
   8
LEVEL100
   6
CONTINUOUS
  62
7
  10
 1500.60
  20
 1092.00
  30
0.0
  11
 1500.60
  21
 1072.00
  31
0.0
   0
LINE
   8
LEVEL100
   6
CONTINUOUS
  62
7
  10
 1105.00
  20
 124.000
  30
0.0
  11
 1532.60
  21
 124.000
  31
0.0
   0
LINE
   8
LEVEL100
   6
CONTINUOUS
  62
7
  10
 1105.00
  20
 60.0000
  30
0.0
  11
 1532.60
  21
 60.0000
  31
0.0
   0
LINE
   8
LEVEL100
   6
CONTINUOUS
  62
7
  10
 1420.60
  20
 60.0000
  30
0.0
  11
 1420.60
  21
0.0
  31
0.0
   0
LINE
   8
LEVEL100
   6
CONTINUOUS
  62
7
  10
 1436.60
  20
0.0
  30
0.0
  11
 1504.60
  21
 40.0000
  31
0.0
   0
LINE
   8
LEVEL100
   6
CONTINUOUS
  62
7
  10
0.0
  20
 1112.00
  30
0.0
  11
 1532.60
  21
 1112.00
  31
0.0
   0
LINE
   8
LEVEL100
   6
CONTINUOUS
  62
7
  10
 1532.60
  20
 1112.00
  30
0.0
  11
 1532.60
  21
0.0
  31
0.0
   0
LINE
   8
LEVEL100
   6
CONTINUOUS
  62
7
  10
 1532.60
  20
0.0
  30
0.0
  11
0.0
  21
0.0
  31
0.0
   0
LINE
   8
LEVEL100
   6
CONTINUOUS
  62
7
  10
0.0
  20
 1076.80
  30
0.0
  11
 200.600
  21
 1076.80
  31
0.0
   0
LINE
   8
LEVEL100
   6
CONTINUOUS
  62
7
  10
 200.600
  20
 1076.80
  30
0.0
  11
 200.600
  21
 1112.00
  31
0.0
   0
TEXT
   8
LEVEL100
  62
7
  10
 196.600
  20
 1104.40
  30
0.0
  40
 20.0000
   1
ＯＪ．
  50
 180.000
  41
 0.900000
   7
STANDARD
   0
LINE
   8
LEVEL100
   6
CONTINUOUS
  62
7
  10
 128.600
  20
 1096.40
  30
0.0
  11
 116.600
  21
 1096.40
  31
0.0
   0
LINE
   8
LEVEL100
   6
CONTINUOUS
  62
7
  10
 116.600
  20
 1096.40
  30
0.0
  11
 116.600
  21
 1092.40
  31
0.0
   0
LINE
   8
LEVEL100
   6
CONTINUOUS
  62
7
  10
 116.600
  20
 1092.40
  30
0.0
  11
 128.600
  21
 1092.40
  31
0.0
   0
LINE
   8
LEVEL100
   6
CONTINUOUS
  62
7
  10
 128.600
  20
 1092.40
  30
0.0
  11
 128.600
  21
 1096.40
  31
0.0
   0
TEXT
   8
LEVEL100
  62
7
  10
 1149.00
  20
 192.000
  30
0.0
  40
 16.0000
   1
Ｓ．ＩＭＡＮＩＳＨＩ
  41
 0.625000
   7
STANDARD
   0
TEXT
   8
LEVEL100
  62
3
  10
 1265.00
  20
 124.000
  30
0.0
  40
 20.0000
   1
＊＊＊＊＊＊＊＊＊＊＊＊＊＊
  41
 0.700000
   7
STANDARD
   0
TEXT
   8
LEVEL100
  62
3
  10
 1437.79
  20
 21.2000
  30
0.0
  40
 20.0000
   1
＊＊
  41
 0.630000
   7
STANDARD
  72
1
  11
 1450.39
  21
 21.2000
  31
0.0
   0
LINE
   8
LEVEL001
   6
CONTINUOUS
  62
7
  10
 473.910
  20
 838.263
  30
0.0
  11
 473.410
  21
 838.763
  31
0.0
   0
LINE
   8
LEVEL001
   6
DASHDOT
  62
1
  10
 396.410
  20
 798.263
  30
0.0
  11
 426.410
  21
 798.263
  31
0.0
   0
LINE
   8
LEVEL001
   6
CONTINUOUS
  62
3
  10
 462.785
  20
 769.026
  30
0.0
  11
 462.785
  21
 769.263
  31
0.0
   0
LINE
   8
LEVEL001
   6
DASHDOT
  62
1
  10
 414.410
  20
 820.263
  30
0.0
  11
 398.410
  21
 820.263
  31
0.0
   0
LINE
   8
LEVEL001
   6
DASHDOT
  62
1
  10
 446.410
  20
 783.427
  30
0.0
  11
 446.410
  21
 827.780
  31
0.0
   0
ARC
   8
LEVEL001
   6
CONTINUOUS
  62
7
  10
 406.337
  20
 812.263
  30
0.0
  40
 3.00000
  50
 270.000
  51
 355.000
   0
ARC
   8
LEVEL001
   6
CONTINUOUS
  62
7
  10
 404.410
  20
 807.263
  30
0.0
  40
 2.00000
  50
 90.0000
  51
 180.000
   0
LINE
   8
LEVEL001
   6
CONTINUOUS
  62
7
  10
 402.410
  20
 807.263
  30
0.0
  11
 402.410
  21
 803.263
  31
0.0
   0
ARC
   8
LEVEL001
   6
CONTINUOUS
  62
7
  10
 404.410
  20
 803.263
  30
0.0
  40
 2.00000
  50
 180.000
  51
 270.000
   0
LINE
   8
LEVEL001
   6
CONTINUOUS
  62
7
  10
 399.910
  20
 831.324
  30
0.0
  11
 399.910
  21
 776.688
  31
0.0
   0
ARC
   8
LEVEL001
   6
CONTINUOUS
  62
7
  10
 401.605
  20
 830.263
  30
0.0
  40
 2.00000
  50
 90.0000
  51
 147.933
   0
LINE
   8
LEVEL001
   6
CONTINUOUS
  62
7
  10
 430.518
  20
 769.691
  30
0.0
  11
 431.556
  21
 757.827
  31
0.0
   0
ARC
   8
LEVEL001
   6
CONTINUOUS
  62
7
  10
 436.537
  20
 758.263
  30
0.0
  40
 5.00000
  50
 185.000
  51
 270.000
   0
ARC
   8
LEVEL001
   6
CONTINUOUS
  62
7
  10
 458.279
  20
 758.263
  30
0.0
  40
 5.00000
  50
 270.000
  51
 355.000
   0
LINE
   8
LEVEL001
   6
CONTINUOUS
  62
7
  10
 436.537
  20
 753.263
  30
0.0
  11
 458.279
  21
 753.263
  31
0.0
   0
ARC
   8
LEVEL001
   6
CONTINUOUS
  62
7
  10
 410.699
  20
 812.263
  30
0.0
  40
 3.00000
  50
 270.000
  51
 355.000
   0
LINE
   8
LEVEL001
   6
CONTINUOUS
  62
7
  10
 404.410
  20
 809.263
  30
0.0
  11
 410.699
  21
 809.263
  31
0.0
   0
ARC
   8
LEVEL001
   6
CONTINUOUS
  62
7
  10
 410.699
  20
 798.263
  30
0.0
  40
 3.00000
  50
 5.00000
  51
 90.0000
   0
LINE
   8
LEVEL001
   6
CONTINUOUS
  62
7
  10
 404.410
  20
 801.263
  30
0.0
  11
 410.699
  21
 801.263
  31
0.0
   0
LINE
   8
LEVEL001
   6
DASHDOT
  62
1
  10
 439.410
  20
 850.263
  30
0.0
  11
 439.410
  21
 764.179
  31
0.0
   0
ARC
   8
LEVEL001
   6
CONTINUOUS
  62
7
  10
 408.910
  20
 823.763
  30
0.0
  40
 2.00000
  50
 270.000
  51
0.0
   0
ARC
   8
LEVEL001
   6
CONTINUOUS
  62
7
  10
 402.208
  20
 819.763
  30
0.0
  40
 2.00000
  50
 90.0001
  51
 178.000
   0
ARC
   8
LEVEL001
   6
CONTINUOUS
  62
7
  10
 514.080
  20
 819.763
  30
0.0
  40
 2.00000
  50
 2.00010
  51
 90.0001
   0
LINE
   8
LEVEL001
   6
CONTINUOUS
  62
7
  10
 516.078
  20
 819.833
  30
0.0
  11
 516.381
  21
 811.158
  31
0.0
   0
ARC
   8
LEVEL001
   6
CONTINUOUS
  62
7
  10
 459.410
  20
 823.763
  30
0.0
  40
 2.00000
  50
 180.000
  51
 270.000
   0
LINE
   8
LEVEL001
   6
CONTINUOUS
  62
7
  10
 410.910
  20
 823.763
  30
0.0
  11
 457.410
  21
 823.763
  31
0.0
   0
ARC
   8
LEVEL001
   6
CONTINUOUS
  62
7
  10
 551.482
  20
 821.763
  30
0.0
  40
 1.00000
  50
 90.0006
  51
 179.999
   0
LINE
   8
LEVEL001
   6
CONTINUOUS
  62
7
  10
 550.483
  20
 821.763
  30
0.0
  11
 550.483
  21
 788.763
  31
0.0
   0
LINE
   8
LEVEL001
   6
CONTINUOUS
  62
7
  10
 402.208
  20
 821.763
  30
0.0
  11
 550.483
  21
 821.763
  31
0.0
   0
LINE
   8
LEVEL001
   6
CONTINUOUS
  62
7
  10
 551.482
  20
 822.763
  30
0.0
  11
 557.983
  21
 822.763
  31
0.0
   0
LINE
   8
LEVEL001
   6
CONTINUOUS
  62
7
  10
 557.983
  20
 822.763
  30
0.0
  11
 558.983
  21
 821.763
  31
0.0
   0
LINE
   8
LEVEL001
   6
CONTINUOUS
  62
7
  10
 557.983
  20
 822.763
  30
0.0
  11
 557.983
  21
 787.763
  31
0.0
   0
ARC
   8
LEVEL001
   6
CONTINUOUS
  62
7
  10
 408.910
  20
 786.763
  30
0.0
  40
 2.00000
  50
 0.125266E-3
  51
 90.0000
   0
ARC
   8
LEVEL001
   6
CONTINUOUS
  62
7
  10
 402.208
  20
 790.763
  30
0.0
  40
 2.00000
  50
 182.000
  51
 270.000
   0
ARC
   8
LEVEL001
   6
CONTINUOUS
  62
7
  10
 514.080
  20
 790.763
  30
0.0
  40
 2.00000
  50
 270.000
  51
 358.000
   0
LINE
   8
LEVEL001
   6
CONTINUOUS
  62
7
  10
 516.381
  20
 799.367
  30
0.0
  11
 516.079
  21
 790.693
  31
0.0
   0
ARC
   8
LEVEL001
   6
CONTINUOUS
  62
7
  10
 459.410
  20
 786.763
  30
0.0
  40
 2.00000
  50
 90.0000
  51
 180.000
   0
LINE
   8
LEVEL001
   6
CONTINUOUS
  62
7
  10
 410.910
  20
 786.763
  30
0.0
  11
 457.410
  21
 786.763
  31
0.0
   0
ARC
   8
LEVEL001
   6
CONTINUOUS
  62
7
  10
 551.483
  20
 788.763
  30
0.0
  40
 1.00000
  50
 180.001
  51
 270.000
   0
LINE
   8
LEVEL001
   6
CONTINUOUS
  62
7
  10
 402.208
  20
 788.763
  30
0.0
  11
 550.483
  21
 788.763
  31
0.0
   0
LINE
   8
LEVEL001
   6
CONTINUOUS
  62
7
  10
 558.983
  20
 821.763
  30
0.0
  11
 558.983
  21
 788.763
  31
0.0
   0
LINE
   8
LEVEL001
   6
CONTINUOUS
  62
7
  10
 558.983
  20
 788.763
  30
0.0
  11
 557.983
  21
 787.763
  31
0.0
   0
LINE
   8
LEVEL001
   6
CONTINUOUS
  62
7
  10
 551.483
  20
 787.763
  30
0.0
  11
 557.983
  21
 787.763
  31
0.0
   0
ARC
   8
LEVEL001
   6
CONTINUOUS
  62
7
  10
 519.380
  20
 811.263
  30
0.0
  40
 3.00000
  50
 182.000
  51
 270.000
   0
ARC
   8
LEVEL001
   6
CONTINUOUS
  62
7
  10
 519.380
  20
 799.263
  30
0.0
  40
 3.00000
  50
 90.0001
  51
 178.000
   0
LINE
   8
LEVEL001
   6
CONTINUOUS
  62
7
  10
 471.365
  20
 776.217
  30
0.0
  11
 472.462
  21
 788.763
  31
0.0
   0
LINE
   8
LEVEL003
   6
CONTINUOUS
  62
7
  10
 448.410
  20
 773.364
  30
0.0
  11
 448.340
  21
 774.418
  31
0.0
   0
LINE
   8
LEVEL003
   6
CONTINUOUS
  62
7
  10
 448.340
  20
 774.418
  30
0.0
  11
 448.131
  21
 775.456
  31
0.0
   0
LINE
   8
LEVEL003
   6
CONTINUOUS
  62
7
  10
 448.131
  20
 775.456
  30
0.0
  11
 447.785
  21
 776.461
  31
0.0
   0
LINE
   8
LEVEL003
   6
CONTINUOUS
  62
7
  10
 447.785
  20
 776.461
  30
0.0
  11
 447.309
  21
 777.418
  31
0.0
   0
LINE
   8
LEVEL003
   6
CONTINUOUS
  62
7
  10
 447.309
  20
 777.418
  30
0.0
  11
 446.709
  21
 778.312
  31
0.0
   0
LINE
   8
LEVEL003
   6
CONTINUOUS
  62
7
  10
 446.709
  20
 778.312
  30
0.0
  11
 445.996
  21
 779.128
  31
0.0
   0
LINE
   8
LEVEL003
   6
CONTINUOUS
  62
7
  10
 445.996
  20
 779.128
  30
0.0
  11
 445.179
  21
 779.855
  31
0.0
   0
LINE
   8
LEVEL003
   6
CONTINUOUS
  62
7
  10
 445.179
  20
 779.855
  30
0.0
  11
 444.273
  21
 780.480
  31
0.0
   0
LINE
   8
LEVEL003
   6
CONTINUOUS
  62
7
  10
 444.273
  20
 780.480
  30
0.0
  11
 443.291
  21
 780.994
  31
0.0
   0
LINE
   8
LEVEL003
   6
CONTINUOUS
  62
7
  10
 443.291
  20
 780.994
  30
0.0
  11
 442.248
  21
 781.389
  31
0.0
   0
LINE
   8
LEVEL003
   6
CONTINUOUS
  62
7
  10
 442.248
  20
 781.389
  30
0.0
  11
 441.161
  21
 781.659
  31
0.0
   0
LINE
   8
LEVEL003
   6
CONTINUOUS
  62
7
  10
 441.161
  20
 781.659
  30
0.0
  11
 440.047
  21
 781.800
  31
0.0
   0
LINE
   8
LEVEL003
   6
CONTINUOUS
  62
7
  10
 440.047
  20
 781.800
  30
0.0
  11
 438.923
  21
 781.808
  31
0.0
   0
LINE
   8
LEVEL003
   6
CONTINUOUS
  62
7
  10
 438.923
  20
 781.808
  30
0.0
  11
 437.806
  21
 781.685
  31
0.0
   0
LINE
   8
LEVEL003
   6
CONTINUOUS
  62
7
  10
 437.806
  20
 781.685
  30
0.0
  11
 436.715
  21
 781.433
  31
0.0
   0
LINE
   8
LEVEL003
   6
CONTINUOUS
  62
7
  10
 436.715
  20
 781.433
  30
0.0
  11
 435.665
  21
 781.054
  31
0.0
   0
LINE
   8
LEVEL003
   6
CONTINUOUS
  62
7
  10
 435.665
  20
 781.054
  30
0.0
  11
 434.674
  21
 780.555
  31
0.0
   0
LINE
   8
LEVEL003
   6
CONTINUOUS
  62
7
  10
 434.674
  20
 780.555
  30
0.0
  11
 433.757
  21
 779.944
  31
0.0
   0
LINE
   8
LEVEL003
   6
CONTINUOUS
  62
7
  10
 433.757
  20
 779.944
  30
0.0
  11
 432.928
  21
 779.230
  31
0.0
   0
LINE
   8
LEVEL003
   6
CONTINUOUS
  62
7
  10
 432.928
  20
 779.230
  30
0.0
  11
 432.200
  21
 778.425
  31
0.0
   0
LINE
   8
LEVEL003
   6
CONTINUOUS
  62
7
  10
 432.200
  20
 778.425
  30
0.0
  11
 431.585
  21
 777.541
  31
0.0
   0
LINE
   8
LEVEL003
   6
CONTINUOUS
  62
7
  10
 431.585
  20
 777.541
  30
0.0
  11
 431.092
  21
 776.591
  31
0.0
   0
LINE
   8
LEVEL003
   6
CONTINUOUS
  62
7
  10
 431.092
  20
 776.591
  30
0.0
  11
 430.728
  21
 775.592
  31
0.0
   0
LINE
   8
LEVEL003
   6
CONTINUOUS
  62
7
  10
 430.728
  20
 775.592
  30
0.0
  11
 430.500
  21
 774.557
  31
0.0
   0
LINE
   8
LEVEL003
   6
CONTINUOUS
  62
7
  10
 430.500
  20
 774.557
  30
0.0
  11
 430.412
  21
 773.504
  31
0.0
   0
LINE
   8
LEVEL003
   6
CONTINUOUS
  62
7
  10
 430.412
  20
 773.504
  30
0.0
  11
 430.463
  21
 772.449
  31
0.0
   0
LINE
   8
LEVEL003
   6
CONTINUOUS
  62
7
  10
 430.463
  20
 772.449
  30
0.0
  11
 430.654
  21
 771.408
  31
0.0
   0
LINE
   8
LEVEL003
   6
CONTINUOUS
  62
7
  10
 430.654
  20
 771.408
  30
0.0
  11
 430.982
  21
 770.397
  31
0.0
   0
LINE
   8
LEVEL003
   6
CONTINUOUS
  62
7
  10
 430.982
  20
 770.397
  30
0.0
  11
 431.442
  21
 769.433
  31
0.0
   0
LINE
   8
LEVEL003
   6
CONTINUOUS
  62
7
  10
 431.442
  20
 769.433
  30
0.0
  11
 432.025
  21
 768.530
  31
0.0
   0
LINE
   8
LEVEL003
   6
CONTINUOUS
  62
7
  10
 432.025
  20
 768.530
  30
0.0
  11
 432.724
  21
 767.702
  31
0.0
   0
LINE
   8
LEVEL003
   6
CONTINUOUS
  62
7
  10
 432.724
  20
 767.702
  30
0.0
  11
 433.528
  21
 766.963
  31
0.0
   0
LINE
   8
LEVEL003
   6
CONTINUOUS
  62
7
  10
 433.528
  20
 766.963
  30
0.0
  11
 434.423
  21
 766.324
  31
0.0
   0
LINE
   8
LEVEL003
   6
CONTINUOUS
  62
7
  10
 434.423
  20
 766.324
  30
0.0
  11
 435.396
  21
 765.794
  31
0.0
   0
LINE
   8
LEVEL003
   6
CONTINUOUS
  62
7
  10
 435.396
  20
 765.794
  30
0.0
  11
 436.431
  21
 765.383
  31
0.0
   0
LINE
   8
LEVEL003
   6
CONTINUOUS
  62
7
  10
 436.431
  20
 765.383
  30
0.0
  11
 437.513
  21
 765.096
  31
0.0
   0
LINE
   8
LEVEL003
   6
CONTINUOUS
  62
7
  10
 437.513
  20
 765.096
  30
0.0
  11
 438.625
  21
 764.939
  31
0.0
   0
LINE
   8
LEVEL003
   6
CONTINUOUS
  62
7
  10
 438.625
  20
 764.939
  30
0.0
  11
 439.749
  21
 764.912
  31
0.0
   0
LINE
   8
LEVEL003
   6
CONTINUOUS
  62
7
  10
 439.749
  20
 764.912
  30
0.0
  11
 440.867
  21
 765.018
  31
0.0
   0
LINE
   8
LEVEL003
   6
CONTINUOUS
  62
7
  10
 440.867
  20
 765.018
  30
0.0
  11
 441.963
  21
 765.254
  31
0.0
   0
LINE
   8
LEVEL003
   6
CONTINUOUS
  62
7
  10
 441.963
  20
 765.254
  30
0.0
  11
 443.019
  21
 765.616
  31
0.0
   0
LINE
   8
LEVEL003
   6
CONTINUOUS
  62
7
  10
 443.019
  20
 765.616
  30
0.0
  11
 444.019
  21
 766.099
  31
0.0
   0
LINE
   8
LEVEL003
   6
CONTINUOUS
  62
7
  10
 444.019
  20
 766.099
  30
0.0
  11
 444.947
  21
 766.696
  31
0.0
   0
LINE
   8
LEVEL003
   6
CONTINUOUS
  62
7
  10
 444.947
  20
 766.696
  30
0.0
  11
 445.788
  21
 767.397
  31
0.0
   0
LINE
   8
LEVEL003
   6
CONTINUOUS
  62
7
  10
 445.788
  20
 767.397
  30
0.0
  11
 446.530
  21
 768.190
  31
0.0
   0
LINE
   8
LEVEL003
   6
CONTINUOUS
  62
7
  10
 446.530
  20
 768.190
  30
0.0
  11
 447.161
  21
 769.065
  31
0.0
   0
LINE
   8
LEVEL003
   6
CONTINUOUS
  62
7
  10
 447.161
  20
 769.065
  30
0.0
  11
 447.671
  21
 770.007
  31
0.0
   0
LINE
   8
LEVEL003
   6
CONTINUOUS
  62
7
  10
 447.671
  20
 770.007
  30
0.0
  11
 448.052
  21
 771.001
  31
0.0
   0
LINE
   8
LEVEL003
   6
CONTINUOUS
  62
7
  10
 448.052
  20
 771.001
  30
0.0
  11
 448.298
  21
 772.031
  31
0.0
   0
LINE
   8
LEVEL003
   6
CONTINUOUS
  62
7
  10
 448.298
  20
 772.031
  30
0.0
  11
 448.405
  21
 773.083
  31
0.0
   0
LINE
   8
LEVEL003
   6
CONTINUOUS
  62
7
  10
 448.405
  20
 773.083
  30
0.0
  11
 448.410
  21
 773.364
  31
0.0
   0
LINE
   8
LEVEL003
   6
CONTINUOUS
  62
7
  10
 430.410
  20
 773.364
  30
0.0
  11
 430.410
  21
 777.263
  31
0.0
   0
LINE
   8
LEVEL003
   6
CONTINUOUS
  62
7
  10
 448.410
  20
 773.364
  30
0.0
  11
 448.410
  21
 777.263
  31
0.0
   0
LINE
   8
LEVEL003
   6
CONTINUOUS
  62
7
  10
 447.410
  20
 773.158
  30
0.0
  11
 447.348
  21
 774.096
  31
0.0
   0
LINE
   8
LEVEL003
   6
CONTINUOUS
  62
7
  10
 447.348
  20
 774.096
  30
0.0
  11
 447.162
  21
 775.018
  31
0.0
   0
LINE
   8
LEVEL003
   6
CONTINUOUS
  62
7
  10
 447.162
  20
 775.018
  30
0.0
  11
 446.854
  21
 775.912
  31
0.0
   0
LINE
   8
LEVEL003
   6
CONTINUOUS
  62
7
  10
 446.854
  20
 775.912
  30
0.0
  11
 446.431
  21
 776.763
  31
0.0
   0
LINE
   8
LEVEL003
   6
CONTINUOUS
  62
7
  10
 446.431
  20
 776.763
  30
0.0
  11
 445.898
  21
 777.557
  31
0.0
   0
LINE
   8
LEVEL003
   6
CONTINUOUS
  62
7
  10
 445.898
  20
 777.557
  30
0.0
  11
 445.264
  21
 778.283
  31
0.0
   0
LINE
   8
LEVEL003
   6
CONTINUOUS
  62
7
  10
 445.264
  20
 778.283
  30
0.0
  11
 444.538
  21
 778.928
  31
0.0
   0
LINE
   8
LEVEL003
   6
CONTINUOUS
  62
7
  10
 444.538
  20
 778.928
  30
0.0
  11
 443.733
  21
 779.484
  31
0.0
   0
LINE
   8
LEVEL003
   6
CONTINUOUS
  62
7
  10
 443.733
  20
 779.484
  30
0.0
  11
 442.860
  21
 779.941
  31
0.0
   0
LINE
   8
LEVEL003
   6
CONTINUOUS
  62
7
  10
 442.860
  20
 779.941
  30
0.0
  11
 441.933
  21
 780.292
  31
0.0
   0
LINE
   8
LEVEL003
   6
CONTINUOUS
  62
7
  10
 441.933
  20
 780.292
  30
0.0
  11
 440.967
  21
 780.532
  31
0.0
   0
LINE
   8
LEVEL003
   6
CONTINUOUS
  62
7
  10
 440.967
  20
 780.532
  30
0.0
  11
 439.976
  21
 780.657
  31
0.0
   0
LINE
   8
LEVEL003
   6
CONTINUOUS
  62
7
  10
 439.976
  20
 780.657
  30
0.0
  11
 438.977
  21
 780.665
  31
0.0
   0
LINE
   8
LEVEL003
   6
CONTINUOUS
  62
7
  10
 438.977
  20
 780.665
  30
0.0
  11
 437.984
  21
 780.556
  31
0.0
   0
LINE
   8
LEVEL003
   6
CONTINUOUS
  62
7
  10
 437.984
  20
 780.556
  30
0.0
  11
 437.014
  21
 780.331
  31
0.0
   0
LINE
   8
LEVEL003
   6
CONTINUOUS
  62
7
  10
 437.014
  20
 780.331
  30
0.0
  11
 436.081
  21
 779.994
  31
0.0
   0
LINE
   8
LEVEL003
   6
CONTINUOUS
  62
7
  10
 436.081
  20
 779.994
  30
0.0
  11
 435.200
  21
 779.551
  31
0.0
   0
LINE
   8
LEVEL003
   6
CONTINUOUS
  62
7
  10
 435.200
  20
 779.551
  30
0.0
  11
 434.385
  21
 779.008
  31
0.0
   0
LINE
   8
LEVEL003
   6
CONTINUOUS
  62
7
  10
 434.385
  20
 779.008
  30
0.0
  11
 433.648
  21
 778.373
  31
0.0
   0
LINE
   8
LEVEL003
   6
CONTINUOUS
  62
7
  10
 433.648
  20
 778.373
  30
0.0
  11
 433.001
  21
 777.657
  31
0.0
   0
LINE
   8
LEVEL003
   6
CONTINUOUS
  62
7
  10
 433.001
  20
 777.657
  30
0.0
  11
 432.454
  21
 776.871
  31
0.0
   0
LINE
   8
LEVEL003
   6
CONTINUOUS
  62
7
  10
 432.454
  20
 776.871
  30
0.0
  11
 432.016
  21
 776.028
  31
0.0
   0
LINE
   8
LEVEL003
   6
CONTINUOUS
  62
7
  10
 432.016
  20
 776.028
  30
0.0
  11
 431.693
  21
 775.139
  31
0.0
   0
LINE
   8
LEVEL003
   6
CONTINUOUS
  62
7
  10
 431.693
  20
 775.139
  30
0.0
  11
 431.490
  21
 774.219
  31
0.0
   0
LINE
   8
LEVEL003
   6
CONTINUOUS
  62
7
  10
 431.490
  20
 774.219
  30
0.0
  11
 431.411
  21
 773.283
  31
0.0
   0
LINE
   8
LEVEL003
   6
CONTINUOUS
  62
7
  10
 431.411
  20
 773.283
  30
0.0
  11
 431.457
  21
 772.345
  31
0.0
   0
LINE
   8
LEVEL003
   6
CONTINUOUS
  62
7
  10
 431.457
  20
 772.345
  30
0.0
  11
 431.627
  21
 771.420
  31
0.0
   0
LINE
   8
LEVEL003
   6
CONTINUOUS
  62
7
  10
 431.627
  20
 771.420
  30
0.0
  11
 431.919
  21
 770.521
  31
0.0
   0
LINE
   8
LEVEL003
   6
CONTINUOUS
  62
7
  10
 431.919
  20
 770.521
  30
0.0
  11
 432.327
  21
 769.664
  31
0.0
   0
LINE
   8
LEVEL003
   6
CONTINUOUS
  62
7
  10
 432.327
  20
 769.664
  30
0.0
  11
 432.846
  21
 768.862
  31
0.0
   0
LINE
   8
LEVEL003
   6
CONTINUOUS
  62
7
  10
 432.846
  20
 768.862
  30
0.0
  11
 433.467
  21
 768.126
  31
0.0
   0
LINE
   8
LEVEL003
   6
CONTINUOUS
  62
7
  10
 433.467
  20
 768.126
  30
0.0
  11
 434.181
  21
 767.469
  31
0.0
   0
LINE
   8
LEVEL003
   6
CONTINUOUS
  62
7
  10
 434.181
  20
 767.469
  30
0.0
  11
 434.977
  21
 766.901
  31
0.0
   0
LINE
   8
LEVEL003
   6
CONTINUOUS
  62
7
  10
 434.977
  20
 766.901
  30
0.0
  11
 435.842
  21
 766.430
  31
0.0
   0
LINE
   8
LEVEL003
   6
CONTINUOUS
  62
7
  10
 435.842
  20
 766.430
  30
0.0
  11
 436.762
  21
 766.065
  31
0.0
   0
LINE
   8
LEVEL003
   6
CONTINUOUS
  62
7
  10
 436.762
  20
 766.065
  30
0.0
  11
 437.724
  21
 765.810
  31
0.0
   0
LINE
   8
LEVEL003
   6
CONTINUOUS
  62
7
  10
 437.724
  20
 765.810
  30
0.0
  11
 438.712
  21
 765.670
  31
0.0
   0
LINE
   8
LEVEL003
   6
CONTINUOUS
  62
7
  10
 438.712
  20
 765.670
  30
0.0
  11
 439.711
  21
 765.646
  31
0.0
   0
LINE
   8
LEVEL003
   6
CONTINUOUS
  62
7
  10
 439.711
  20
 765.646
  30
0.0
  11
 440.706
  21
 765.740
  31
0.0
   0
LINE
   8
LEVEL003
   6
CONTINUOUS
  62
7
  10
 440.706
  20
 765.740
  30
0.0
  11
 441.680
  21
 765.950
  31
0.0
   0
LINE
   8
LEVEL003
   6
CONTINUOUS
  62
7
  10
 441.680
  20
 765.950
  30
0.0
  11
 442.618
  21
 766.272
  31
0.0
   0
LINE
   8
LEVEL003
   6
CONTINUOUS
  62
7
  10
 442.618
  20
 766.272
  30
0.0
  11
 443.507
  21
 766.701
  31
0.0
   0
LINE
   8
LEVEL003
   6
CONTINUOUS
  62
7
  10
 443.507
  20
 766.701
  30
0.0
  11
 444.332
  21
 767.232
  31
0.0
   0
LINE
   8
LEVEL003
   6
CONTINUOUS
  62
7
  10
 444.332
  20
 767.232
  30
0.0
  11
 445.080
  21
 767.854
  31
0.0
   0
LINE
   8
LEVEL003
   6
CONTINUOUS
  62
7
  10
 445.080
  20
 767.854
  30
0.0
  11
 445.739
  21
 768.560
  31
0.0
   0
LINE
   8
LEVEL003
   6
CONTINUOUS
  62
7
  10
 445.739
  20
 768.560
  30
0.0
  11
 446.300
  21
 769.337
  31
0.0
   0
LINE
   8
LEVEL003
   6
CONTINUOUS
  62
7
  10
 446.300
  20
 769.337
  30
0.0
  11
 446.753
  21
 770.174
  31
0.0
   0
LINE
   8
LEVEL003
   6
CONTINUOUS
  62
7
  10
 446.753
  20
 770.174
  30
0.0
  11
 447.092
  21
 771.058
  31
0.0
   0
LINE
   8
LEVEL003
   6
CONTINUOUS
  62
7
  10
 447.092
  20
 771.058
  30
0.0
  11
 447.310
  21
 771.974
  31
0.0
   0
LINE
   8
LEVEL003
   6
CONTINUOUS
  62
7
  10
 447.310
  20
 771.974
  30
0.0
  11
 447.406
  21
 772.909
  31
0.0
   0
LINE
   8
LEVEL003
   6
CONTINUOUS
  62
7
  10
 447.406
  20
 772.909
  30
0.0
  11
 447.410
  21
 773.158
  31
0.0
   0
LINE
   8
LEVEL003
   6
CONTINUOUS
  62
7
  10
 439.410
  20
 778.389
  30
0.0
  11
 444.410
  21
 776.045
  31
0.0
   0
LINE
   8
LEVEL003
   6
CONTINUOUS
  62
7
  10
 444.410
  20
 776.045
  30
0.0
  11
 444.410
  21
 770.272
  31
0.0
   0
LINE
   8
LEVEL003
   6
CONTINUOUS
  62
7
  10
 444.410
  20
 770.272
  30
0.0
  11
 439.410
  21
 767.928
  31
0.0
   0
LINE
   8
LEVEL003
   6
CONTINUOUS
  62
7
  10
 439.410
  20
 767.928
  30
0.0
  11
 434.410
  21
 770.272
  31
0.0
   0
LINE
   8
LEVEL003
   6
CONTINUOUS
  62
7
  10
 434.410
  20
 770.272
  30
0.0
  11
 434.410
  21
 776.045
  31
0.0
   0
LINE
   8
LEVEL003
   6
CONTINUOUS
  62
7
  10
 434.410
  20
 776.045
  30
0.0
  11
 439.410
  21
 778.389
  31
0.0
   0
LINE
   8
LEVEL003
   6
CONTINUOUS
  62
7
  10
 468.410
  20
 773.364
  30
0.0
  11
 468.340
  21
 774.418
  31
0.0
   0
LINE
   8
LEVEL003
   6
CONTINUOUS
  62
7
  10
 468.340
  20
 774.418
  30
0.0
  11
 468.131
  21
 775.456
  31
0.0
   0
LINE
   8
LEVEL003
   6
CONTINUOUS
  62
7
  10
 468.131
  20
 775.456
  30
0.0
  11
 467.785
  21
 776.461
  31
0.0
   0
LINE
   8
LEVEL003
   6
CONTINUOUS
  62
7
  10
 467.785
  20
 776.461
  30
0.0
  11
 467.309
  21
 777.418
  31
0.0
   0
LINE
   8
LEVEL003
   6
CONTINUOUS
  62
7
  10
 467.309
  20
 777.418
  30
0.0
  11
 466.709
  21
 778.312
  31
0.0
   0
LINE
   8
LEVEL003
   6
CONTINUOUS
  62
7
  10
 466.709
  20
 778.312
  30
0.0
  11
 465.996
  21
 779.128
  31
0.0
   0
LINE
   8
LEVEL003
   6
CONTINUOUS
  62
7
  10
 465.996
  20
 779.128
  30
0.0
  11
 465.179
  21
 779.855
  31
0.0
   0
LINE
   8
LEVEL003
   6
CONTINUOUS
  62
7
  10
 465.179
  20
 779.855
  30
0.0
  11
 464.273
  21
 780.480
  31
0.0
   0
LINE
   8
LEVEL003
   6
CONTINUOUS
  62
7
  10
 464.273
  20
 780.480
  30
0.0
  11
 463.291
  21
 780.994
  31
0.0
   0
LINE
   8
LEVEL003
   6
CONTINUOUS
  62
7
  10
 463.291
  20
 780.994
  30
0.0
  11
 462.248
  21
 781.389
  31
0.0
   0
LINE
   8
LEVEL003
   6
CONTINUOUS
  62
7
  10
 462.248
  20
 781.389
  30
0.0
  11
 461.161
  21
 781.659
  31
0.0
   0
LINE
   8
LEVEL003
   6
CONTINUOUS
  62
7
  10
 461.161
  20
 781.659
  30
0.0
  11
 460.047
  21
 781.800
  31
0.0
   0
LINE
   8
LEVEL003
   6
CONTINUOUS
  62
7
  10
 460.047
  20
 781.800
  30
0.0
  11
 458.923
  21
 781.808
  31
0.0
   0
LINE
   8
LEVEL003
   6
CONTINUOUS
  62
7
  10
 458.923
  20
 781.808
  30
0.0
  11
 457.806
  21
 781.685
  31
0.0
   0
LINE
   8
LEVEL003
   6
CONTINUOUS
  62
7
  10
 457.806
  20
 781.685
  30
0.0
  11
 456.715
  21
 781.433
  31
0.0
   0
LINE
   8
LEVEL003
   6
CONTINUOUS
  62
7
  10
 456.715
  20
 781.433
  30
0.0
  11
 455.665
  21
 781.054
  31
0.0
   0
LINE
   8
LEVEL003
   6
CONTINUOUS
  62
7
  10
 455.665
  20
 781.054
  30
0.0
  11
 454.674
  21
 780.555
  31
0.0
   0
LINE
   8
LEVEL003
   6
CONTINUOUS
  62
7
  10
 454.674
  20
 780.555
  30
0.0
  11
 453.757
  21
 779.944
  31
0.0
   0
LINE
   8
LEVEL003
   6
CONTINUOUS
  62
7
  10
 453.757
  20
 779.944
  30
0.0
  11
 452.928
  21
 779.230
  31
0.0
   0
LINE
   8
LEVEL003
   6
CONTINUOUS
  62
7
  10
 452.928
  20
 779.230
  30
0.0
  11
 452.200
  21
 778.425
  31
0.0
   0
LINE
   8
LEVEL003
   6
CONTINUOUS
  62
7
  10
 452.200
  20
 778.425
  30
0.0
  11
 451.585
  21
 777.541
  31
0.0
   0
LINE
   8
LEVEL003
   6
CONTINUOUS
  62
7
  10
 451.585
  20
 777.541
  30
0.0
  11
 451.092
  21
 776.591
  31
0.0
   0
LINE
   8
LEVEL003
   6
CONTINUOUS
  62
7
  10
 451.092
  20
 776.591
  30
0.0
  11
 450.728
  21
 775.592
  31
0.0
   0
LINE
   8
LEVEL003
   6
CONTINUOUS
  62
7
  10
 450.728
  20
 775.592
  30
0.0
  11
 450.500
  21
 774.557
  31
0.0
   0
LINE
   8
LEVEL003
   6
CONTINUOUS
  62
7
  10
 450.500
  20
 774.557
  30
0.0
  11
 450.412
  21
 773.504
  31
0.0
   0
LINE
   8
LEVEL003
   6
CONTINUOUS
  62
7
  10
 450.412
  20
 773.504
  30
0.0
  11
 450.463
  21
 772.449
  31
0.0
   0
LINE
   8
LEVEL003
   6
CONTINUOUS
  62
7
  10
 450.463
  20
 772.449
  30
0.0
  11
 450.654
  21
 771.408
  31
0.0
   0
LINE
   8
LEVEL003
   6
CONTINUOUS
  62
7
  10
 450.654
  20
 771.408
  30
0.0
  11
 450.982
  21
 770.397
  31
0.0
   0
LINE
   8
LEVEL003
   6
CONTINUOUS
  62
7
  10
 450.982
  20
 770.397
  30
0.0
  11
 451.442
  21
 769.433
  31
0.0
   0
LINE
   8
LEVEL003
   6
CONTINUOUS
  62
7
  10
 451.442
  20
 769.433
  30
0.0
  11
 452.025
  21
 768.530
  31
0.0
   0
LINE
   8
LEVEL003
   6
CONTINUOUS
  62
7
  10
 452.025
  20
 768.530
  30
0.0
  11
 452.724
  21
 767.702
  31
0.0
   0
LINE
   8
LEVEL003
   6
CONTINUOUS
  62
7
  10
 452.724
  20
 767.702
  30
0.0
  11
 453.528
  21
 766.963
  31
0.0
   0
LINE
   8
LEVEL003
   6
CONTINUOUS
  62
7
  10
 453.528
  20
 766.963
  30
0.0
  11
 454.423
  21
 766.324
  31
0.0
   0
LINE
   8
LEVEL003
   6
CONTINUOUS
  62
7
  10
 454.423
  20
 766.324
  30
0.0
  11
 455.396
  21
 765.794
  31
0.0
   0
LINE
   8
LEVEL003
   6
CONTINUOUS
  62
7
  10
 455.396
  20
 765.794
  30
0.0
  11
 456.431
  21
 765.383
  31
0.0
   0
LINE
   8
LEVEL003
   6
CONTINUOUS
  62
7
  10
 456.431
  20
 765.383
  30
0.0
  11
 457.513
  21
 765.096
  31
0.0
   0
LINE
   8
LEVEL003
   6
CONTINUOUS
  62
7
  10
 457.513
  20
 765.096
  30
0.0
  11
 458.625
  21
 764.939
  31
0.0
   0
LINE
   8
LEVEL003
   6
CONTINUOUS
  62
7
  10
 458.625
  20
 764.939
  30
0.0
  11
 459.749
  21
 764.912
  31
0.0
   0
LINE
   8
LEVEL003
   6
CONTINUOUS
  62
7
  10
 459.749
  20
 764.912
  30
0.0
  11
 460.867
  21
 765.018
  31
0.0
   0
LINE
   8
LEVEL003
   6
CONTINUOUS
  62
7
  10
 460.867
  20
 765.018
  30
0.0
  11
 461.963
  21
 765.254
  31
0.0
   0
LINE
   8
LEVEL003
   6
CONTINUOUS
  62
7
  10
 461.963
  20
 765.254
  30
0.0
  11
 463.019
  21
 765.616
  31
0.0
   0
LINE
   8
LEVEL003
   6
CONTINUOUS
  62
7
  10
 463.019
  20
 765.616
  30
0.0
  11
 464.019
  21
 766.099
  31
0.0
   0
LINE
   8
LEVEL003
   6
CONTINUOUS
  62
7
  10
 464.019
  20
 766.099
  30
0.0
  11
 464.947
  21
 766.696
  31
0.0
   0
LINE
   8
LEVEL003
   6
CONTINUOUS
  62
7
  10
 464.947
  20
 766.696
  30
0.0
  11
 465.788
  21
 767.397
  31
0.0
   0
LINE
   8
LEVEL003
   6
CONTINUOUS
  62
7
  10
 465.788
  20
 767.397
  30
0.0
  11
 466.530
  21
 768.190
  31
0.0
   0
LINE
   8
LEVEL003
   6
CONTINUOUS
  62
7
  10
 466.530
  20
 768.190
  30
0.0
  11
 467.161
  21
 769.065
  31
0.0
   0
LINE
   8
LEVEL003
   6
CONTINUOUS
  62
7
  10
 467.161
  20
 769.065
  30
0.0
  11
 467.671
  21
 770.007
  31
0.0
   0
LINE
   8
LEVEL003
   6
CONTINUOUS
  62
7
  10
 467.671
  20
 770.007
  30
0.0
  11
 468.052
  21
 771.001
  31
0.0
   0
LINE
   8
LEVEL003
   6
CONTINUOUS
  62
7
  10
 468.052
  20
 771.001
  30
0.0
  11
 468.298
  21
 772.031
  31
0.0
   0
LINE
   8
LEVEL003
   6
CONTINUOUS
  62
7
  10
 468.298
  20
 772.031
  30
0.0
  11
 468.405
  21
 773.083
  31
0.0
   0
LINE
   8
LEVEL003
   6
CONTINUOUS
  62
7
  10
 468.405
  20
 773.083
  30
0.0
  11
 468.410
  21
 773.364
  31
0.0
   0
LINE
   8
LEVEL003
   6
CONTINUOUS
  62
7
  10
 450.410
  20
 773.364
  30
0.0
  11
 450.410
  21
 777.263
  31
0.0
   0
LINE
   8
LEVEL003
   6
CONTINUOUS
  62
7
  10
 468.410
  20
 773.364
  30
0.0
  11
 468.410
  21
 777.263
  31
0.0
   0
LINE
   8
LEVEL003
   6
CONTINUOUS
  62
7
  10
 467.410
  20
 773.158
  30
0.0
  11
 467.348
  21
 774.096
  31
0.0
   0
LINE
   8
LEVEL003
   6
CONTINUOUS
  62
7
  10
 467.348
  20
 774.096
  30
0.0
  11
 467.162
  21
 775.018
  31
0.0
   0
LINE
   8
LEVEL003
   6
CONTINUOUS
  62
7
  10
 467.162
  20
 775.018
  30
0.0
  11
 466.854
  21
 775.912
  31
0.0
   0
LINE
   8
LEVEL003
   6
CONTINUOUS
  62
7
  10
 466.854
  20
 775.912
  30
0.0
  11
 466.431
  21
 776.763
  31
0.0
   0
LINE
   8
LEVEL003
   6
CONTINUOUS
  62
7
  10
 466.431
  20
 776.763
  30
0.0
  11
 465.898
  21
 777.557
  31
0.0
   0
LINE
   8
LEVEL003
   6
CONTINUOUS
  62
7
  10
 465.898
  20
 777.557
  30
0.0
  11
 465.264
  21
 778.283
  31
0.0
   0
LINE
   8
LEVEL003
   6
CONTINUOUS
  62
7
  10
 465.264
  20
 778.283
  30
0.0
  11
 464.538
  21
 778.928
  31
0.0
   0
LINE
   8
LEVEL003
   6
CONTINUOUS
  62
7
  10
 464.538
  20
 778.928
  30
0.0
  11
 463.733
  21
 779.484
  31
0.0
   0
LINE
   8
LEVEL003
   6
CONTINUOUS
  62
7
  10
 463.733
  20
 779.484
  30
0.0
  11
 462.860
  21
 779.941
  31
0.0
   0
LINE
   8
LEVEL003
   6
CONTINUOUS
  62
7
  10
 462.860
  20
 779.941
  30
0.0
  11
 461.933
  21
 780.292
  31
0.0
   0
LINE
   8
LEVEL003
   6
CONTINUOUS
  62
7
  10
 461.933
  20
 780.292
  30
0.0
  11
 460.967
  21
 780.532
  31
0.0
   0
LINE
   8
LEVEL003
   6
CONTINUOUS
  62
7
  10
 460.967
  20
 780.532
  30
0.0
  11
 459.976
  21
 780.657
  31
0.0
   0
LINE
   8
LEVEL003
   6
CONTINUOUS
  62
7
  10
 459.976
  20
 780.657
  30
0.0
  11
 458.977
  21
 780.665
  31
0.0
   0
LINE
   8
LEVEL003
   6
CONTINUOUS
  62
7
  10
 458.977
  20
 780.665
  30
0.0
  11
 457.984
  21
 780.556
  31
0.0
   0
LINE
   8
LEVEL003
   6
CONTINUOUS
  62
7
  10
 457.984
  20
 780.556
  30
0.0
  11
 457.014
  21
 780.331
  31
0.0
   0
LINE
   8
LEVEL003
   6
CONTINUOUS
  62
7
  10
 457.014
  20
 780.331
  30
0.0
  11
 456.081
  21
 779.994
  31
0.0
   0
LINE
   8
LEVEL003
   6
CONTINUOUS
  62
7
  10
 456.081
  20
 779.994
  30
0.0
  11
 455.200
  21
 779.551
  31
0.0
   0
LINE
   8
LEVEL003
   6
CONTINUOUS
  62
7
  10
 455.200
  20
 779.551
  30
0.0
  11
 454.385
  21
 779.008
  31
0.0
   0
LINE
   8
LEVEL003
   6
CONTINUOUS
  62
7
  10
 454.385
  20
 779.008
  30
0.0
  11
 453.648
  21
 778.373
  31
0.0
   0
LINE
   8
LEVEL003
   6
CONTINUOUS
  62
7
  10
 453.648
  20
 778.373
  30
0.0
  11
 453.001
  21
 777.657
  31
0.0
   0
LINE
   8
LEVEL003
   6
CONTINUOUS
  62
7
  10
 453.001
  20
 777.657
  30
0.0
  11
 452.454
  21
 776.871
  31
0.0
   0
LINE
   8
LEVEL003
   6
CONTINUOUS
  62
7
  10
 452.454
  20
 776.871
  30
0.0
  11
 452.016
  21
 776.028
  31
0.0
   0
LINE
   8
LEVEL003
   6
CONTINUOUS
  62
7
  10
 452.016
  20
 776.028
  30
0.0
  11
 451.693
  21
 775.139
  31
0.0
   0
LINE
   8
LEVEL003
   6
CONTINUOUS
  62
7
  10
 451.693
  20
 775.139
  30
0.0
  11
 451.490
  21
 774.219
  31
0.0
   0
LINE
   8
LEVEL003
   6
CONTINUOUS
  62
7
  10
 451.490
  20
 774.219
  30
0.0
  11
 451.411
  21
 773.283
  31
0.0
   0
LINE
   8
LEVEL003
   6
CONTINUOUS
  62
7
  10
 451.411
  20
 773.283
  30
0.0
  11
 451.457
  21
 772.345
  31
0.0
   0
LINE
   8
LEVEL003
   6
CONTINUOUS
  62
7
  10
 451.457
  20
 772.345
  30
0.0
  11
 451.627
  21
 771.420
  31
0.0
   0
LINE
   8
LEVEL003
   6
CONTINUOUS
  62
7
  10
 451.627
  20
 771.420
  30
0.0
  11
 451.919
  21
 770.521
  31
0.0
   0
LINE
   8
LEVEL003
   6
CONTINUOUS
  62
7
  10
 451.919
  20
 770.521
  30
0.0
  11
 452.327
  21
 769.664
  31
0.0
   0
LINE
   8
LEVEL003
   6
CONTINUOUS
  62
7
  10
 452.327
  20
 769.664
  30
0.0
  11
 452.846
  21
 768.862
  31
0.0
   0
LINE
   8
LEVEL003
   6
CONTINUOUS
  62
7
  10
 452.846
  20
 768.862
  30
0.0
  11
 453.467
  21
 768.126
  31
0.0
   0
LINE
   8
LEVEL003
   6
CONTINUOUS
  62
7
  10
 453.467
  20
 768.126
  30
0.0
  11
 454.181
  21
 767.469
  31
0.0
   0
LINE
   8
LEVEL003
   6
CONTINUOUS
  62
7
  10
 454.181
  20
 767.469
  30
0.0
  11
 454.977
  21
 766.901
  31
0.0
   0
LINE
   8
LEVEL003
   6
CONTINUOUS
  62
7
  10
 454.977
  20
 766.901
  30
0.0
  11
 455.842
  21
 766.430
  31
0.0
   0
LINE
   8
LEVEL003
   6
CONTINUOUS
  62
7
  10
 455.842
  20
 766.430
  30
0.0
  11
 456.762
  21
 766.065
  31
0.0
   0
LINE
   8
LEVEL003
   6
CONTINUOUS
  62
7
  10
 456.762
  20
 766.065
  30
0.0
  11
 457.724
  21
 765.810
  31
0.0
   0
LINE
   8
LEVEL003
   6
CONTINUOUS
  62
7
  10
 457.724
  20
 765.810
  30
0.0
  11
 458.712
  21
 765.670
  31
0.0
   0
LINE
   8
LEVEL003
   6
CONTINUOUS
  62
7
  10
 458.712
  20
 765.670
  30
0.0
  11
 459.711
  21
 765.646
  31
0.0
   0
LINE
   8
LEVEL003
   6
CONTINUOUS
  62
7
  10
 459.711
  20
 765.646
  30
0.0
  11
 460.706
  21
 765.740
  31
0.0
   0
LINE
   8
LEVEL003
   6
CONTINUOUS
  62
7
  10
 460.706
  20
 765.740
  30
0.0
  11
 461.680
  21
 765.950
  31
0.0
   0
LINE
   8
LEVEL003
   6
CONTINUOUS
  62
7
  10
 461.680
  20
 765.950
  30
0.0
  11
 462.618
  21
 766.272
  31
0.0
   0
LINE
   8
LEVEL003
   6
CONTINUOUS
  62
7
  10
 462.618
  20
 766.272
  30
0.0
  11
 463.507
  21
 766.701
  31
0.0
   0
LINE
   8
LEVEL003
   6
CONTINUOUS
  62
7
  10
 463.507
  20
 766.701
  30
0.0
  11
 464.332
  21
 767.232
  31
0.0
   0
LINE
   8
LEVEL003
   6
CONTINUOUS
  62
7
  10
 464.332
  20
 767.232
  30
0.0
  11
 465.080
  21
 767.854
  31
0.0
   0
LINE
   8
LEVEL003
   6
CONTINUOUS
  62
7
  10
 465.080
  20
 767.854
  30
0.0
  11
 465.739
  21
 768.560
  31
0.0
   0
LINE
   8
LEVEL003
   6
CONTINUOUS
  62
7
  10
 465.739
  20
 768.560
  30
0.0
  11
 466.300
  21
 769.337
  31
0.0
   0
LINE
   8
LEVEL003
   6
CONTINUOUS
  62
7
  10
 466.300
  20
 769.337
  30
0.0
  11
 466.753
  21
 770.174
  31
0.0
   0
LINE
   8
LEVEL003
   6
CONTINUOUS
  62
7
  10
 466.753
  20
 770.174
  30
0.0
  11
 467.092
  21
 771.058
  31
0.0
   0
LINE
   8
LEVEL003
   6
CONTINUOUS
  62
7
  10
 467.092
  20
 771.058
  30
0.0
  11
 467.310
  21
 771.974
  31
0.0
   0
LINE
   8
LEVEL003
   6
CONTINUOUS
  62
7
  10
 467.310
  20
 771.974
  30
0.0
  11
 467.406
  21
 772.909
  31
0.0
   0
LINE
   8
LEVEL003
   6
CONTINUOUS
  62
7
  10
 467.406
  20
 772.909
  30
0.0
  11
 467.410
  21
 773.158
  31
0.0
   0
LINE
   8
LEVEL003
   6
CONTINUOUS
  62
7
  10
 468.410
  20
 777.263
  30
0.0
  11
 468.340
  21
 778.317
  31
0.0
   0
LINE
   8
LEVEL003
   6
CONTINUOUS
  62
7
  10
 468.340
  20
 778.317
  30
0.0
  11
 468.131
  21
 779.355
  31
0.0
   0
LINE
   8
LEVEL003
   6
CONTINUOUS
  62
7
  10
 468.131
  20
 779.355
  30
0.0
  11
 467.785
  21
 780.360
  31
0.0
   0
LINE
   8
LEVEL003
   6
CONTINUOUS
  62
7
  10
 467.785
  20
 780.360
  30
0.0
  11
 467.309
  21
 781.317
  31
0.0
   0
LINE
   8
LEVEL003
   6
CONTINUOUS
  62
7
  10
 467.309
  20
 781.317
  30
0.0
  11
 466.709
  21
 782.211
  31
0.0
   0
LINE
   8
LEVEL003
   6
CONTINUOUS
  62
7
  10
 466.709
  20
 782.211
  30
0.0
  11
 465.996
  21
 783.027
  31
0.0
   0
LINE
   8
LEVEL003
   6
CONTINUOUS
  62
7
  10
 465.996
  20
 783.027
  30
0.0
  11
 465.179
  21
 783.754
  31
0.0
   0
LINE
   8
LEVEL003
   6
CONTINUOUS
  62
7
  10
 465.179
  20
 783.754
  30
0.0
  11
 464.273
  21
 784.379
  31
0.0
   0
LINE
   8
LEVEL003
   6
CONTINUOUS
  62
7
  10
 464.273
  20
 784.379
  30
0.0
  11
 463.291
  21
 784.893
  31
0.0
   0
LINE
   8
LEVEL003
   6
CONTINUOUS
  62
7
  10
 463.291
  20
 784.893
  30
0.0
  11
 462.248
  21
 785.288
  31
0.0
   0
LINE
   8
LEVEL003
   6
CONTINUOUS
  62
7
  10
 462.248
  20
 785.288
  30
0.0
  11
 461.161
  21
 785.558
  31
0.0
   0
LINE
   8
LEVEL003
   6
CONTINUOUS
  62
7
  10
 461.161
  20
 785.558
  30
0.0
  11
 460.047
  21
 785.699
  31
0.0
   0
LINE
   8
LEVEL003
   6
CONTINUOUS
  62
7
  10
 460.047
  20
 785.699
  30
0.0
  11
 458.923
  21
 785.707
  31
0.0
   0
LINE
   8
LEVEL003
   6
CONTINUOUS
  62
7
  10
 458.923
  20
 785.707
  30
0.0
  11
 457.806
  21
 785.584
  31
0.0
   0
LINE
   8
LEVEL003
   6
CONTINUOUS
  62
7
  10
 457.806
  20
 785.584
  30
0.0
  11
 456.715
  21
 785.332
  31
0.0
   0
LINE
   8
LEVEL003
   6
CONTINUOUS
  62
7
  10
 456.715
  20
 785.332
  30
0.0
  11
 455.665
  21
 784.953
  31
0.0
   0
LINE
   8
LEVEL003
   6
CONTINUOUS
  62
7
  10
 455.665
  20
 784.953
  30
0.0
  11
 454.674
  21
 784.454
  31
0.0
   0
LINE
   8
LEVEL003
   6
CONTINUOUS
  62
7
  10
 454.674
  20
 784.454
  30
0.0
  11
 453.757
  21
 783.843
  31
0.0
   0
LINE
   8
LEVEL003
   6
CONTINUOUS
  62
7
  10
 453.757
  20
 783.843
  30
0.0
  11
 452.928
  21
 783.129
  31
0.0
   0
LINE
   8
LEVEL003
   6
CONTINUOUS
  62
7
  10
 452.928
  20
 783.129
  30
0.0
  11
 452.200
  21
 782.324
  31
0.0
   0
LINE
   8
LEVEL003
   6
CONTINUOUS
  62
7
  10
 452.200
  20
 782.324
  30
0.0
  11
 451.585
  21
 781.440
  31
0.0
   0
LINE
   8
LEVEL003
   6
CONTINUOUS
  62
7
  10
 451.585
  20
 781.440
  30
0.0
  11
 451.092
  21
 780.490
  31
0.0
   0
LINE
   8
LEVEL003
   6
CONTINUOUS
  62
7
  10
 451.092
  20
 780.490
  30
0.0
  11
 450.728
  21
 779.491
  31
0.0
   0
LINE
   8
LEVEL003
   6
CONTINUOUS
  62
7
  10
 450.728
  20
 779.491
  30
0.0
  11
 450.500
  21
 778.456
  31
0.0
   0
LINE
   8
LEVEL003
   6
CONTINUOUS
  62
7
  10
 450.500
  20
 778.456
  30
0.0
  11
 450.412
  21
 777.403
  31
0.0
   0
LINE
   8
LEVEL003
   6
CONTINUOUS
  62
7
  10
 450.412
  20
 777.403
  30
0.0
  11
 450.410
  21
 777.263
  31
0.0
   0
LINE
   8
LEVEL003
   6
CONTINUOUS
  62
7
  10
 459.410
  20
 778.389
  30
0.0
  11
 464.410
  21
 776.045
  31
0.0
   0
LINE
   8
LEVEL003
   6
CONTINUOUS
  62
7
  10
 464.410
  20
 776.045
  30
0.0
  11
 464.410
  21
 770.272
  31
0.0
   0
LINE
   8
LEVEL003
   6
CONTINUOUS
  62
7
  10
 464.410
  20
 770.272
  30
0.0
  11
 459.410
  21
 767.928
  31
0.0
   0
LINE
   8
LEVEL003
   6
CONTINUOUS
  62
7
  10
 459.410
  20
 767.928
  30
0.0
  11
 454.410
  21
 770.272
  31
0.0
   0
LINE
   8
LEVEL003
   6
CONTINUOUS
  62
7
  10
 454.410
  20
 770.272
  30
0.0
  11
 454.410
  21
 776.045
  31
0.0
   0
LINE
   8
LEVEL003
   6
CONTINUOUS
  62
7
  10
 454.410
  20
 776.045
  30
0.0
  11
 459.410
  21
 778.389
  31
0.0
   0
LINE
   8
LEVEL003
   6
DASHDOT
  62
1
  10
 471.410
  20
 773.158
  30
0.0
  11
 447.410
  21
 773.158
  31
0.0
   0
LINE
   8
LEVEL003
   6
DASHDOT
  62
1
  10
 451.410
  20
 773.158
  30
0.0
  11
 427.410
  21
 773.158
  31
0.0
   0
LINE
   8
LEVEL001
   6
CONTINUOUS
  62
7
  10
 473.910
  20
 772.263
  30
0.0
  11
 473.910
  21
 788.763
  31
0.0
   0
LINE
   8
LEVEL001
   6
CONTINUOUS
  62
7
  10
 473.910
  20
 821.763
  30
0.0
  11
 473.910
  21
 838.263
  31
0.0
   0
LINE
   8
LEVEL001
   6
CONTINUOUS
  62
7
  10
 441.410
  20
 824.013
  30
0.0
  11
 451.410
  21
 824.013
  31
0.0
   0
LINE
   8
LEVEL001
   6
CONTINUOUS
  62
7
  10
 451.410
  20
 824.013
  30
0.0
  11
 451.410
  21
 823.763
  31
0.0
   0
LINE
   8
LEVEL001
   6
CONTINUOUS
  62
7
  10
 451.410
  20
 824.013
  30
0.0
  11
 450.410
  21
 825.013
  31
0.0
   0
LINE
   8
LEVEL001
   6
CONTINUOUS
  62
7
  10
 441.410
  20
 824.013
  30
0.0
  11
 441.410
  21
 823.763
  31
0.0
   0
LINE
   8
LEVEL001
   6
CONTINUOUS
  62
7
  10
 441.410
  20
 824.013
  30
0.0
  11
 442.410
  21
 825.013
  31
0.0
   0
LINE
   8
LEVEL001
   6
CONTINUOUS
  62
7
  10
 442.410
  20
 825.013
  30
0.0
  11
 450.410
  21
 825.013
  31
0.0
   0
LINE
   8
LEVEL001
   6
CONTINUOUS
  62
7
  10
 441.410
  20
 786.513
  30
0.0
  11
 451.410
  21
 786.513
  31
0.0
   0
LINE
   8
LEVEL001
   6
CONTINUOUS
  62
7
  10
 441.410
  20
 786.513
  30
0.0
  11
 441.410
  21
 786.763
  31
0.0
   0
LINE
   8
LEVEL001
   6
CONTINUOUS
  62
7
  10
 441.410
  20
 786.513
  30
0.0
  11
 442.410
  21
 785.513
  31
0.0
   0
LINE
   8
LEVEL001
   6
CONTINUOUS
  62
7
  10
 451.410
  20
 786.513
  30
0.0
  11
 451.410
  21
 786.763
  31
0.0
   0
LINE
   8
LEVEL001
   6
CONTINUOUS
  62
7
  10
 451.410
  20
 786.513
  30
0.0
  11
 450.410
  21
 785.513
  31
0.0
   0
LINE
   8
LEVEL001
   6
CONTINUOUS
  62
7
  10
 442.410
  20
 785.513
  30
0.0
  11
 450.410
  21
 785.513
  31
0.0
   0
ARC
   8
LEVEL001
   6
CONTINUOUS
  62
7
  10
 446.410
  20
 805.263
  30
0.0
  40
 20.0000
  50
 102.108
  51
 112.332
   0
ARC
   8
LEVEL001
   6
CONTINUOUS
  62
7
  10
 446.410
  20
 805.263
  30
0.0
  40
 20.0000
  50
 67.6685
  51
 77.8932
   0
ARC
   8
LEVEL001
   6
CONTINUOUS
  62
7
  10
 446.410
  20
 805.263
  30
0.0
  40
 20.0000
  50
 80.9313
  51
 99.0687
   0
ARC
   8
LEVEL001
   6
CONTINUOUS
  62
7
  10
 446.410
  20
 805.263
  30
0.0
  40
 20.0000
  50
 247.668
  51
 257.892
   0
ARC
   8
LEVEL001
   6
CONTINUOUS
  62
7
  10
 446.410
  20
 805.263
  30
0.0
  40
 20.0000
  50
 260.931
  51
 279.069
   0
ARC
   8
LEVEL001
   6
CONTINUOUS
  62
7
  10
 446.410
  20
 805.263
  30
0.0
  40
 20.0000
  50
 282.107
  51
 292.332
   0
LINE
   8
LEVEL001
   6
CONTINUOUS
  62
7
  10
 427.462
  20
 776.217
  30
0.0
  11
 427.694
  21
 774.826
  31
0.0
   0
LINE
   8
LEVEL001
   6
CONTINUOUS
  62
7
  10
 427.694
  20
 774.826
  30
0.0
  11
 428.109
  21
 773.472
  31
0.0
   0
LINE
   8
LEVEL001
   6
CONTINUOUS
  62
7
  10
 428.109
  20
 773.472
  30
0.0
  11
 428.700
  21
 772.178
  31
0.0
   0
LINE
   8
LEVEL001
   6
CONTINUOUS
  62
7
  10
 428.700
  20
 772.178
  30
0.0
  11
 429.458
  21
 770.962
  31
0.0
   0
LINE
   8
LEVEL001
   6
CONTINUOUS
  62
7
  10
 429.458
  20
 770.962
  30
0.0
  11
 430.372
  21
 769.846
  31
0.0
   0
LINE
   8
LEVEL001
   6
CONTINUOUS
  62
7
  10
 430.372
  20
 769.846
  30
0.0
  11
 431.426
  21
 768.845
  31
0.0
   0
LINE
   8
LEVEL001
   6
CONTINUOUS
  62
7
  10
 431.426
  20
 768.845
  30
0.0
  11
 432.300
  21
 768.179
  31
0.0
   0
LINE
   8
LEVEL001
   6
CONTINUOUS
  62
7
  10
 443.811
  20
 765.986
  30
0.0
  11
 455.010
  21
 765.986
  31
0.0
   0
LINE
   8
LEVEL001
   6
CONTINUOUS
  62
7
  10
 466.521
  20
 768.179
  30
0.0
  11
 467.671
  21
 769.083
  31
0.0
   0
LINE
   8
LEVEL001
   6
CONTINUOUS
  62
7
  10
 467.671
  20
 769.083
  30
0.0
  11
 468.692
  21
 770.115
  31
0.0
   0
LINE
   8
LEVEL001
   6
CONTINUOUS
  62
7
  10
 468.692
  20
 770.115
  30
0.0
  11
 469.567
  21
 771.258
  31
0.0
   0
LINE
   8
LEVEL001
   6
CONTINUOUS
  62
7
  10
 469.567
  20
 771.258
  30
0.0
  11
 470.285
  21
 772.495
  31
0.0
   0
LINE
   8
LEVEL001
   6
CONTINUOUS
  62
7
  10
 470.285
  20
 772.495
  30
0.0
  11
 470.833
  21
 773.806
  31
0.0
   0
LINE
   8
LEVEL001
   6
CONTINUOUS
  62
7
  10
 470.833
  20
 773.806
  30
0.0
  11
 471.202
  21
 775.171
  31
0.0
   0
LINE
   8
LEVEL001
   6
CONTINUOUS
  62
7
  10
 471.202
  20
 775.171
  30
0.0
  11
 471.359
  21
 776.217
  31
0.0
   0
LINE
   8
LEVEL014
   6
CONTINUOUS
  62
3
  10
 911.349
  20
 794.267
  30
0.0
  11
 913.349
  21
 794.113
  31
0.0
   0
LINE
   8
LEVEL014
   6
CONTINUOUS
  62
3
  10
 913.349
  20
 792.609
  30
0.0
  11
 913.349
  21
 817.917
  31
0.0
   0
LINE
   8
LEVEL014
   6
CONTINUOUS
  62
3
  10
 913.349
  20
 817.917
  30
0.0
  11
 915.349
  21
 818.070
  31
0.0
   0
LINE
   8
LEVEL014
   6
CONTINUOUS
  62
3
  10
 915.349
  20
 818.070
  30
0.0
  11
 915.349
  21
 792.455
  31
0.0
   0
LINE
   8
LEVEL014
   6
CONTINUOUS
  62
3
  10
 915.349
  20
 792.455
  30
0.0
  11
 913.349
  21
 792.609
  31
0.0
   0
LINE
   8
LEVEL014
   6
CONTINUOUS
  62
3
  10
 911.349
  20
 816.258
  30
0.0
  11
 913.349
  21
 816.412
  31
0.0
   0
LINE
   8
LEVEL014
   6
CONTINUOUS
  62
3
  10
 915.349
  20
 793.959
  30
0.0
  11
 917.349
  21
 793.806
  31
0.0
   0
LINE
   8
LEVEL014
   6
CONTINUOUS
  62
3
  10
 919.349
  20
 793.652
  30
0.0
  11
 921.349
  21
 793.498
  31
0.0
   0
LINE
   8
LEVEL014
   6
CONTINUOUS
  62
3
  10
 923.349
  20
 793.344
  30
0.0
  11
 925.349
  21
 793.190
  31
0.0
   0
LINE
   8
LEVEL014
   6
CONTINUOUS
  62
3
  10
 927.349
  20
 793.036
  30
0.0
  11
 929.349
  21
 792.882
  31
0.0
   0
LINE
   8
LEVEL014
   6
CONTINUOUS
  62
3
  10
 931.349
  20
 792.729
  30
0.0
  11
 933.349
  21
 792.575
  31
0.0
   0
LINE
   8
LEVEL014
   6
CONTINUOUS
  62
3
  10
 935.349
  20
 792.421
  30
0.0
  11
 937.349
  21
 792.267
  31
0.0
   0
LINE
   8
LEVEL014
   6
CONTINUOUS
  62
3
  10
 917.349
  20
 792.301
  30
0.0
  11
 917.349
  21
 818.224
  31
0.0
   0
LINE
   8
LEVEL014
   6
CONTINUOUS
  62
3
  10
 917.349
  20
 818.224
  30
0.0
  11
 919.349
  21
 818.378
  31
0.0
   0
LINE
   8
LEVEL014
   6
CONTINUOUS
  62
3
  10
 919.349
  20
 818.378
  30
0.0
  11
 919.349
  21
 792.147
  31
0.0
   0
LINE
   8
LEVEL014
   6
CONTINUOUS
  62
3
  10
 919.349
  20
 792.147
  30
0.0
  11
 917.349
  21
 792.301
  31
0.0
   0
LINE
   8
LEVEL014
   6
CONTINUOUS
  62
3
  10
 921.349
  20
 791.993
  30
0.0
  11
 921.349
  21
 818.532
  31
0.0
   0
LINE
   8
LEVEL014
   6
CONTINUOUS
  62
3
  10
 921.349
  20
 818.532
  30
0.0
  11
 923.349
  21
 818.686
  31
0.0
   0
LINE
   8
LEVEL014
   6
CONTINUOUS
  62
3
  10
 923.349
  20
 818.686
  30
0.0
  11
 923.349
  21
 791.840
  31
0.0
   0
LINE
   8
LEVEL014
   6
CONTINUOUS
  62
3
  10
 923.349
  20
 791.840
  30
0.0
  11
 921.349
  21
 791.993
  31
0.0
   0
LINE
   8
LEVEL014
   6
CONTINUOUS
  62
3
  10
 925.349
  20
 791.686
  30
0.0
  11
 925.349
  21
 818.840
  31
0.0
   0
LINE
   8
LEVEL014
   6
CONTINUOUS
  62
3
  10
 925.349
  20
 818.840
  30
0.0
  11
 927.349
  21
 818.993
  31
0.0
   0
LINE
   8
LEVEL014
   6
CONTINUOUS
  62
3
  10
 927.349
  20
 818.993
  30
0.0
  11
 927.349
  21
 791.532
  31
0.0
   0
LINE
   8
LEVEL014
   6
CONTINUOUS
  62
3
  10
 927.349
  20
 791.532
  30
0.0
  11
 925.349
  21
 791.686
  31
0.0
   0
LINE
   8
LEVEL014
   6
CONTINUOUS
  62
3
  10
 929.349
  20
 791.378
  30
0.0
  11
 929.349
  21
 819.147
  31
0.0
   0
LINE
   8
LEVEL014
   6
CONTINUOUS
  62
3
  10
 929.349
  20
 819.147
  30
0.0
  11
 931.349
  21
 819.301
  31
0.0
   0
LINE
   8
LEVEL014
   6
CONTINUOUS
  62
3
  10
 931.349
  20
 819.301
  30
0.0
  11
 931.349
  21
 791.224
  31
0.0
   0
LINE
   8
LEVEL014
   6
CONTINUOUS
  62
3
  10
 931.349
  20
 791.224
  30
0.0
  11
 929.349
  21
 791.378
  31
0.0
   0
LINE
   8
LEVEL014
   6
CONTINUOUS
  62
3
  10
 933.349
  20
 791.070
  30
0.0
  11
 933.349
  21
 819.455
  31
0.0
   0
LINE
   8
LEVEL014
   6
CONTINUOUS
  62
3
  10
 933.349
  20
 819.455
  30
0.0
  11
 935.349
  21
 819.609
  31
0.0
   0
LINE
   8
LEVEL014
   6
CONTINUOUS
  62
3
  10
 935.349
  20
 819.609
  30
0.0
  11
 935.349
  21
 790.917
  31
0.0
   0
LINE
   8
LEVEL014
   6
CONTINUOUS
  62
3
  10
 935.349
  20
 790.917
  30
0.0
  11
 933.349
  21
 791.070
  31
0.0
   0
LINE
   8
LEVEL014
   6
CONTINUOUS
  62
3
  10
 937.349
  20
 790.763
  30
0.0
  11
 937.349
  21
 819.763
  31
0.0
   0
LINE
   8
LEVEL014
   6
CONTINUOUS
  62
3
  10
 937.349
  20
 819.763
  30
0.0
  11
 939.349
  21
 819.917
  31
0.0
   0
LINE
   8
LEVEL014
   6
CONTINUOUS
  62
3
  10
 939.349
  20
 819.917
  30
0.0
  11
 939.349
  21
 790.609
  31
0.0
   0
LINE
   8
LEVEL014
   6
CONTINUOUS
  62
3
  10
 939.349
  20
 790.609
  30
0.0
  11
 937.349
  21
 790.763
  31
0.0
   0
LINE
   8
LEVEL014
   6
CONTINUOUS
  62
3
  10
 915.349
  20
 816.566
  30
0.0
  11
 917.349
  21
 816.720
  31
0.0
   0
LINE
   8
LEVEL014
   6
CONTINUOUS
  62
3
  10
 919.349
  20
 816.874
  30
0.0
  11
 921.349
  21
 817.027
  31
0.0
   0
LINE
   8
LEVEL014
   6
CONTINUOUS
  62
3
  10
 923.349
  20
 817.181
  30
0.0
  11
 925.349
  21
 817.335
  31
0.0
   0
LINE
   8
LEVEL014
   6
CONTINUOUS
  62
3
  10
 927.349
  20
 817.489
  30
0.0
  11
 929.349
  21
 817.643
  31
0.0
   0
LINE
   8
LEVEL014
   6
CONTINUOUS
  62
3
  10
 931.349
  20
 817.797
  30
0.0
  11
 933.349
  21
 817.951
  31
0.0
   0
LINE
   8
LEVEL014
   6
CONTINUOUS
  62
3
  10
 935.349
  20
 818.104
  30
0.0
  11
 937.349
  21
 818.258
  31
0.0
   0
LINE
   8
LEVEL001
   6
DASHDOT
  62
1
  10
 398.410
  20
 805.263
  30
0.0
  11
 994.704
  21
 805.263
  31
0.0
   0
LINE
   8
LEVEL014
   6
CONTINUOUS
  62
3
  10
 959.349
  20
 793.082
  30
0.0
  11
 961.349
  21
 793.251
  31
0.0
   0
LINE
   8
LEVEL014
   6
CONTINUOUS
  62
3
  10
 963.349
  20
 793.421
  30
0.0
  11
 965.349
  21
 793.590
  31
0.0
   0
LINE
   8
LEVEL014
   6
CONTINUOUS
  62
3
  10
 967.349
  20
 793.760
  30
0.0
  11
 969.349
  21
 793.929
  31
0.0
   0
LINE
   8
LEVEL014
   6
CONTINUOUS
  62
3
  10
 971.349
  20
 794.099
  30
0.0
  11
 973.349
  21
 794.268
  31
0.0
   0
LINE
   8
LEVEL014
   6
CONTINUOUS
  62
3
  10
 939.349
  20
 792.113
  30
0.0
  11
 941.349
  21
 791.959
  31
0.0
   0
LINE
   8
LEVEL014
   6
CONTINUOUS
  62
3
  10
 943.349
  20
 791.726
  30
0.0
  11
 945.349
  21
 791.895
  31
0.0
   0
LINE
   8
LEVEL014
   6
CONTINUOUS
  62
3
  10
 947.349
  20
 792.065
  30
0.0
  11
 949.349
  21
 792.234
  31
0.0
   0
LINE
   8
LEVEL014
   6
CONTINUOUS
  62
3
  10
 951.349
  20
 792.404
  30
0.0
  11
 953.349
  21
 792.573
  31
0.0
   0
LINE
   8
LEVEL014
   6
CONTINUOUS
  62
3
  10
 955.349
  20
 792.743
  30
0.0
  11
 957.349
  21
 792.912
  31
0.0
   0
LINE
   8
LEVEL014
   6
CONTINUOUS
  62
3
  10
 949.349
  20
 790.729
  30
0.0
  11
 949.349
  21
 819.797
  31
0.0
   0
LINE
   8
LEVEL014
   6
CONTINUOUS
  62
3
  10
 949.349
  20
 819.797
  30
0.0
  11
 951.349
  21
 819.627
  31
0.0
   0
LINE
   8
LEVEL014
   6
CONTINUOUS
  62
3
  10
 951.349
  20
 819.627
  30
0.0
  11
 951.349
  21
 790.898
  31
0.0
   0
LINE
   8
LEVEL014
   6
CONTINUOUS
  62
3
  10
 951.349
  20
 790.898
  30
0.0
  11
 949.349
  21
 790.729
  31
0.0
   0
LINE
   8
LEVEL014
   6
CONTINUOUS
  62
3
  10
 953.349
  20
 791.068
  30
0.0
  11
 953.349
  21
 819.458
  31
0.0
   0
LINE
   8
LEVEL014
   6
CONTINUOUS
  62
3
  10
 953.349
  20
 819.458
  30
0.0
  11
 955.349
  21
 819.288
  31
0.0
   0
LINE
   8
LEVEL014
   6
CONTINUOUS
  62
3
  10
 955.349
  20
 819.288
  30
0.0
  11
 955.349
  21
 791.237
  31
0.0
   0
LINE
   8
LEVEL014
   6
CONTINUOUS
  62
3
  10
 955.349
  20
 791.237
  30
0.0
  11
 953.349
  21
 791.068
  31
0.0
   0
LINE
   8
LEVEL014
   6
CONTINUOUS
  62
3
  10
 957.349
  20
 791.407
  30
0.0
  11
 957.349
  21
 819.119
  31
0.0
   0
LINE
   8
LEVEL014
   6
CONTINUOUS
  62
3
  10
 957.349
  20
 819.119
  30
0.0
  11
 959.349
  21
 818.949
  31
0.0
   0
LINE
   8
LEVEL014
   6
CONTINUOUS
  62
3
  10
 959.349
  20
 818.949
  30
0.0
  11
 959.349
  21
 791.576
  31
0.0
   0
LINE
   8
LEVEL014
   6
CONTINUOUS
  62
3
  10
 959.349
  20
 791.576
  30
0.0
  11
 957.349
  21
 791.407
  31
0.0
   0
LINE
   8
LEVEL014
   6
CONTINUOUS
  62
3
  10
 961.349
  20
 791.746
  30
0.0
  11
 961.349
  21
 818.780
  31
0.0
   0
LINE
   8
LEVEL014
   6
CONTINUOUS
  62
3
  10
 961.349
  20
 818.780
  30
0.0
  11
 963.349
  21
 818.610
  31
0.0
   0
LINE
   8
LEVEL014
   6
CONTINUOUS
  62
3
  10
 963.349
  20
 818.610
  30
0.0
  11
 963.349
  21
 791.915
  31
0.0
   0
LINE
   8
LEVEL014
   6
CONTINUOUS
  62
3
  10
 963.349
  20
 791.915
  30
0.0
  11
 961.349
  21
 791.746
  31
0.0
   0
LINE
   8
LEVEL014
   6
CONTINUOUS
  62
3
  10
 965.349
  20
 792.085
  30
0.0
  11
 965.349
  21
 818.441
  31
0.0
   0
LINE
   8
LEVEL014
   6
CONTINUOUS
  62
3
  10
 965.349
  20
 818.441
  30
0.0
  11
 967.349
  21
 818.271
  31
0.0
   0
LINE
   8
LEVEL014
   6
CONTINUOUS
  62
3
  10
 967.349
  20
 818.271
  30
0.0
  11
 967.349
  21
 792.254
  31
0.0
   0
LINE
   8
LEVEL014
   6
CONTINUOUS
  62
3
  10
 967.349
  20
 792.254
  30
0.0
  11
 965.349
  21
 792.085
  31
0.0
   0
LINE
   8
LEVEL014
   6
CONTINUOUS
  62
3
  10
 969.349
  20
 792.424
  30
0.0
  11
 969.349
  21
 818.102
  31
0.0
   0
LINE
   8
LEVEL014
   6
CONTINUOUS
  62
3
  10
 969.349
  20
 818.102
  30
0.0
  11
 971.349
  21
 817.932
  31
0.0
   0
LINE
   8
LEVEL014
   6
CONTINUOUS
  62
3
  10
 971.349
  20
 817.932
  30
0.0
  11
 971.349
  21
 792.593
  31
0.0
   0
LINE
   8
LEVEL014
   6
CONTINUOUS
  62
3
  10
 971.349
  20
 792.593
  30
0.0
  11
 969.349
  21
 792.424
  31
0.0
   0
LINE
   8
LEVEL014
   6
CONTINUOUS
  62
3
  10
 939.349
  20
 818.412
  30
0.0
  11
 941.349
  21
 818.566
  31
0.0
   0
LINE
   8
LEVEL014
   6
CONTINUOUS
  62
3
  10
 943.349
  20
 818.800
  30
0.0
  11
 945.349
  21
 818.630
  31
0.0
   0
LINE
   8
LEVEL014
   6
CONTINUOUS
  62
3
  10
 947.349
  20
 818.461
  30
0.0
  11
 949.349
  21
 818.291
  31
0.0
   0
LINE
   8
LEVEL014
   6
CONTINUOUS
  62
3
  10
 951.349
  20
 818.122
  30
0.0
  11
 953.349
  21
 817.952
  31
0.0
   0
LINE
   8
LEVEL014
   6
CONTINUOUS
  62
3
  10
 955.349
  20
 817.783
  30
0.0
  11
 957.349
  21
 817.613
  31
0.0
   0
LINE
   8
LEVEL014
   6
CONTINUOUS
  62
3
  10
 959.349
  20
 817.444
  30
0.0
  11
 961.349
  21
 817.274
  31
0.0
   0
LINE
   8
LEVEL014
   6
CONTINUOUS
  62
3
  10
 963.349
  20
 817.105
  30
0.0
  11
 965.349
  21
 816.935
  31
0.0
   0
LINE
   8
LEVEL014
   6
CONTINUOUS
  62
3
  10
 967.349
  20
 816.766
  30
0.0
  11
 969.349
  21
 816.596
  31
0.0
   0
LINE
   8
LEVEL014
   6
CONTINUOUS
  62
3
  10
 971.349
  20
 816.427
  30
0.0
  11
 973.349
  21
 816.257
  31
0.0
   0
ARC
   8
LEVEL014
   6
CONTINUOUS
  62
7
  10
 954.474
  20
 805.263
  30
0.0
  40
 31.8750
  50
 334.942
  51
 25.0576
   0
LINE
   8
LEVEL014
   6
CONTINUOUS
  62
7
  10
 973.349
  20
 792.763
  30
0.0
  11
 973.349
  21
 817.763
  31
0.0
   0
LINE
   8
LEVEL014
   6
CONTINUOUS
  62
7
  10
 973.349
  20
 817.763
  30
0.0
  11
 983.349
  21
 818.763
  31
0.0
   0
LINE
   8
LEVEL014
   6
CONTINUOUS
  62
7
  10
 983.349
  20
 818.763
  30
0.0
  11
 983.349
  21
 791.763
  31
0.0
   0
LINE
   8
LEVEL014
   6
CONTINUOUS
  62
7
  10
 983.349
  20
 791.763
  30
0.0
  11
 973.349
  21
 792.763
  31
0.0
   0
LINE
   8
LEVEL001
   6
DASHDOT
  62
1
  10
 423.410
  20
 777.315
  30
0.0
  11
 423.410
  21
 832.315
  31
0.0
   0
LINE
   8
LEVEL001
   6
CONTINUOUS
  62
7
  10
 418.410
  20
 828.763
  30
0.0
  11
 419.410
  21
 829.763
  31
0.0
   0
LINE
   8
LEVEL001
   6
CONTINUOUS
  62
7
  10
 419.410
  20
 829.763
  30
0.0
  11
 427.410
  21
 829.763
  31
0.0
   0
LINE
   8
LEVEL001
   6
CONTINUOUS
  62
7
  10
 427.410
  20
 829.763
  30
0.0
  11
 428.410
  21
 828.763
  31
0.0
   0
LINE
   8
LEVEL001
   6
CONTINUOUS
  62
7
  10
 418.410
  20
 828.763
  30
0.0
  11
 428.410
  21
 828.763
  31
0.0
   0
LINE
   8
LEVEL001
   6
CONTINUOUS
  62
7
  10
 427.456
  20
 776.217
  30
0.0
  11
 427.058
  21
 780.763
  31
0.0
   0
ARC
   8
LEVEL001
   6
CONTINUOUS
  62
7
  10
 409.795
  20
 826.263
  30
0.0
  40
 0.800000
  50
 90.0000
  51
 270.000
   0
LINE
   8
LEVEL001
   6
CONTINUOUS
  62
7
  10
 409.795
  20
 827.063
  30
0.0
  11
 436.707
  21
 827.063
  31
0.0
   0
LINE
   8
LEVEL001
   6
CONTINUOUS
  62
7
  10
 409.795
  20
 825.463
  30
0.0
  11
 436.707
  21
 825.463
  31
0.0
   0
LINE
   8
LEVEL001
   6
DASHDOT
  62
1
  10
 408.252
  20
 826.263
  30
0.0
  11
 437.625
  21
 826.263
  31
0.0
   0
LINE
   8
LEVEL001
   6
CONTINUOUS
  62
7
  10
 436.707
  20
 827.063
  30
0.0
  11
 436.707
  21
 825.463
  31
0.0
   0
ARC
   8
LEVEL001
   6
CONTINUOUS
  62
7
  10
 434.525
  20
 826.263
  30
0.0
  40
 0.800000
  50
 270.000
  51
 90.0000
   0
LINE
   8
LEVEL001
   6
CONTINUOUS
  62
7
  10
 428.410
  20
 827.063
  30
0.0
  11
 428.410
  21
 828.763
  31
0.0
   0
LINE
   8
LEVEL001
   6
CONTINUOUS
  62
7
  10
 418.410
  20
 828.763
  30
0.0
  11
 418.410
  21
 827.063
  31
0.0
   0
LINE
   8
LEVEL001
   6
CONTINUOUS
  62
7
  10
 418.410
  20
 825.463
  30
0.0
  11
 418.410
  21
 823.763
  31
0.0
   0
LINE
   8
LEVEL001
   6
CONTINUOUS
  62
7
  10
 418.410
  20
 781.763
  30
0.0
  11
 419.410
  21
 780.763
  31
0.0
   0
LINE
   8
LEVEL001
   6
CONTINUOUS
  62
7
  10
 419.410
  20
 780.763
  30
0.0
  11
 427.410
  21
 780.763
  31
0.0
   0
LINE
   8
LEVEL001
   6
CONTINUOUS
  62
7
  10
 418.410
  20
 781.763
  30
0.0
  11
 428.410
  21
 781.763
  31
0.0
   0
LINE
   8
LEVEL001
   6
CONTINUOUS
  62
7
  10
 409.795
  20
 783.463
  30
0.0
  11
 436.707
  21
 783.463
  31
0.0
   0
LINE
   8
LEVEL001
   6
CONTINUOUS
  62
7
  10
 409.795
  20
 785.063
  30
0.0
  11
 436.707
  21
 785.063
  31
0.0
   0
LINE
   8
LEVEL001
   6
DASHDOT
  62
1
  10
 408.252
  20
 784.263
  30
0.0
  11
 437.625
  21
 784.263
  31
0.0
   0
LINE
   8
LEVEL001
   6
CONTINUOUS
  62
7
  10
 418.410
  20
 781.763
  30
0.0
  11
 418.410
  21
 783.463
  31
0.0
   0
LINE
   8
LEVEL001
   6
CONTINUOUS
  62
7
  10
 418.410
  20
 785.063
  30
0.0
  11
 418.410
  21
 786.763
  31
0.0
   0
LINE
   8
LEVEL001
   6
CONTINUOUS
  62
7
  10
 427.410
  20
 780.763
  30
0.0
  11
 428.410
  21
 781.763
  31
0.0
   0
LINE
   8
LEVEL001
   6
CONTINUOUS
  62
7
  10
 428.410
  20
 783.463
  30
0.0
  11
 428.410
  21
 781.763
  31
0.0
   0
LINE
   8
LEVEL001
   6
CONTINUOUS
  62
7
  10
 436.707
  20
 783.463
  30
0.0
  11
 436.707
  21
 785.063
  31
0.0
   0
ARC
   8
LEVEL001
   6
CONTINUOUS
  62
7
  10
 434.525
  20
 784.263
  30
0.0
  40
 0.800000
  50
 270.000
  51
 90.0000
   0
ARC
   8
LEVEL001
   6
CONTINUOUS
  62
7
  10
 409.795
  20
 784.263
  30
0.0
  40
 0.800000
  50
 90.0000
  51
 270.000
   0
LINE
   8
LEVEL001
   6
CONTINUOUS
  62
7
  10
 428.410
  20
 823.763
  30
0.0
  11
 428.410
  21
 825.463
  31
0.0
   0
LINE
   8
LEVEL001
   6
CONTINUOUS
  62
7
  10
 428.410
  20
 786.763
  30
0.0
  11
 428.410
  21
 785.063
  31
0.0
   0
LINE
   8
LEVEL003
   6
CONTINUOUS
  62
7
  10
 448.410
  20
 777.263
  30
0.0
  11
 448.340
  21
 778.317
  31
0.0
   0
LINE
   8
LEVEL003
   6
CONTINUOUS
  62
7
  10
 448.340
  20
 778.317
  30
0.0
  11
 448.131
  21
 779.355
  31
0.0
   0
LINE
   8
LEVEL003
   6
CONTINUOUS
  62
7
  10
 448.131
  20
 779.355
  30
0.0
  11
 447.785
  21
 780.360
  31
0.0
   0
LINE
   8
LEVEL003
   6
CONTINUOUS
  62
7
  10
 447.785
  20
 780.360
  30
0.0
  11
 447.309
  21
 781.317
  31
0.0
   0
LINE
   8
LEVEL003
   6
CONTINUOUS
  62
7
  10
 447.309
  20
 781.317
  30
0.0
  11
 446.709
  21
 782.211
  31
0.0
   0
LINE
   8
LEVEL003
   6
CONTINUOUS
  62
7
  10
 446.709
  20
 782.211
  30
0.0
  11
 445.996
  21
 783.027
  31
0.0
   0
LINE
   8
LEVEL003
   6
CONTINUOUS
  62
7
  10
 445.996
  20
 783.027
  30
0.0
  11
 445.179
  21
 783.754
  31
0.0
   0
LINE
   8
LEVEL003
   6
CONTINUOUS
  62
7
  10
 445.179
  20
 783.754
  30
0.0
  11
 444.273
  21
 784.379
  31
0.0
   0
LINE
   8
LEVEL003
   6
CONTINUOUS
  62
7
  10
 444.273
  20
 784.379
  30
0.0
  11
 443.291
  21
 784.893
  31
0.0
   0
LINE
   8
LEVEL003
   6
CONTINUOUS
  62
7
  10
 443.291
  20
 784.893
  30
0.0
  11
 442.248
  21
 785.288
  31
0.0
   0
LINE
   8
LEVEL003
   6
CONTINUOUS
  62
7
  10
 442.248
  20
 785.288
  30
0.0
  11
 441.161
  21
 785.558
  31
0.0
   0
LINE
   8
LEVEL003
   6
CONTINUOUS
  62
7
  10
 441.161
  20
 785.558
  30
0.0
  11
 440.047
  21
 785.699
  31
0.0
   0
LINE
   8
LEVEL003
   6
CONTINUOUS
  62
7
  10
 440.047
  20
 785.699
  30
0.0
  11
 438.923
  21
 785.707
  31
0.0
   0
LINE
   8
LEVEL003
   6
CONTINUOUS
  62
7
  10
 438.923
  20
 785.707
  30
0.0
  11
 437.806
  21
 785.584
  31
0.0
   0
LINE
   8
LEVEL003
   6
CONTINUOUS
  62
7
  10
 437.806
  20
 785.584
  30
0.0
  11
 436.715
  21
 785.332
  31
0.0
   0
LINE
   8
LEVEL003
   6
CONTINUOUS
  62
7
  10
 436.715
  20
 785.332
  30
0.0
  11
 435.932
  21
 785.063
  31
0.0
   0
LINE
   8
LEVEL003
   6
CONTINUOUS
  62
7
  10
 433.289
  20
 783.463
  30
0.0
  11
 432.514
  21
 782.697
  31
0.0
   0
LINE
   8
LEVEL003
   6
CONTINUOUS
  62
7
  10
 432.514
  20
 782.697
  30
0.0
  11
 431.847
  21
 781.847
  31
0.0
   0
LINE
   8
LEVEL003
   6
CONTINUOUS
  62
7
  10
 431.847
  20
 781.847
  30
0.0
  11
 431.298
  21
 780.925
  31
0.0
   0
LINE
   8
LEVEL003
   6
CONTINUOUS
  62
7
  10
 431.298
  20
 780.925
  30
0.0
  11
 430.875
  21
 779.946
  31
0.0
   0
LINE
   8
LEVEL003
   6
CONTINUOUS
  62
7
  10
 430.875
  20
 779.946
  30
0.0
  11
 430.586
  21
 778.925
  31
0.0
   0
LINE
   8
LEVEL003
   6
CONTINUOUS
  62
7
  10
 430.586
  20
 778.925
  30
0.0
  11
 430.434
  21
 777.878
  31
0.0
   0
LINE
   8
LEVEL003
   6
CONTINUOUS
  62
7
  10
 430.434
  20
 777.878
  30
0.0
  11
 430.410
  21
 777.263
  31
0.0
   0
LINE
   8
LEVEL001
   6
CONTINUOUS
  62
7
  10
 428.950
  20
 836.178
  30
0.0
  11
 428.310
  21
 828.863
  31
0.0
   0
ARC
   8
LEVEL001
   6
CONTINUOUS
  62
7
  10
 424.062
  20
 837.263
  30
0.0
  40
 5.00000
  50
 270.000
  51
 355.000
   0
LINE
   8
LEVEL001
   6
CONTINUOUS
  62
7
  10
 401.605
  20
 832.263
  30
0.0
  11
 424.062
  21
 832.263
  31
0.0
   0
LINE
   8
LEVEL001
   6
CONTINUOUS
  62
7
  10
 400.209
  20
 819.832
  30
0.0
  11
 400.032
  21
 814.762
  31
0.0
   0
LINE
   8
LEVEL001
   6
CONTINUOUS
  62
7
  10
 400.032
  20
 795.763
  30
0.0
  11
 400.209
  21
 790.693
  31
0.0
   0
LINE
   8
LEVEL001
   6
CONTINUOUS
  62
7
  10
 409.567
  20
 814.763
  30
0.0
  11
 409.325
  21
 812.001
  31
0.0
   0
LINE
   8
LEVEL001
   6
CONTINUOUS
  62
7
  10
 413.688
  20
 812.001
  30
0.0
  11
 413.929
  21
 814.763
  31
0.0
   0
LINE
   8
LEVEL001
   6
CONTINUOUS
  62
7
  10
 413.410
  20
 805.263
  30
0.0
  11
 414.242
  21
 814.763
  31
0.0
   0
LINE
   8
LEVEL001
   6
CONTINUOUS
  62
7
  10
 400.015
  20
 795.763
  30
0.0
  11
 423.983
  21
 795.763
  31
0.0
   0
LINE
   8
LEVEL001
   6
CONTINUOUS
  62
7
  10
 400.015
  20
 814.763
  30
0.0
  11
 423.983
  21
 814.763
  31
0.0
   0
LINE
   8
LEVEL001
   6
CONTINUOUS
  62
7
  10
 423.983
  20
 814.763
  30
0.0
  11
 423.983
  21
 795.763
  31
0.0
   0
LINE
   8
LEVEL001
   6
CONTINUOUS
  62
7
  10
 413.688
  20
 798.524
  30
0.0
  11
 413.929
  21
 795.763
  31
0.0
   0
LINE
   8
LEVEL001
   6
CONTINUOUS
  62
7
  10
 413.410
  20
 805.263
  30
0.0
  11
 414.242
  21
 795.763
  31
0.0
   0
LINE
   8
LEVEL001
   6
CONTINUOUS
  62
7
  10
 436.910
  20
 848.263
  30
0.0
  11
 459.067
  21
 848.263
  31
0.0
   0
LINE
   8
LEVEL001
   6
CONTINUOUS
  62
7
  10
 473.410
  20
 771.263
  30
0.0
  11
 473.910
  21
 771.763
  31
0.0
   0
LINE
   8
LEVEL001
   6
CONTINUOUS
  62
7
  10
 473.910
  20
 771.763
  30
0.0
  11
 473.910
  21
 772.763
  31
0.0
   0
ARC
   8
LEVEL001
   6
CONTINUOUS
  62
7
  10
 402.305
  20
 772.263
  30
0.0
  40
 2.00000
  50
 185.000
  51
 270.000
   0
LINE
   8
LEVEL001
   6
CONTINUOUS
  62
7
  10
 399.910
  20
 776.688
  30
0.0
  11
 400.313
  21
 772.088
  31
0.0
   0
LINE
   8
LEVEL001
   6
CONTINUOUS
  62
7
  10
 402.305
  20
 770.263
  30
0.0
  11
 430.002
  21
 770.263
  31
0.0
   0
LINE
   8
LEVEL001
   6
DASHDOT
  62
1
  10
 398.035
  20
 777.263
  30
0.0
  11
 467.287
  21
 777.263
  31
0.0
   0
LINE
   8
LEVEL001
   6
CONTINUOUS
  62
7
  10
 463.982
  20
 766.079
  30
0.0
  11
 463.260
  21
 757.827
  31
0.0
   0
LINE
   8
LEVEL003
   6
CONTINUOUS
  62
7
  10
 469.571
  20
 771.263
  30
0.0
  11
 473.410
  21
 771.263
  31
0.0
   0
LINE
   8
LEVEL001
   6
CONTINUOUS
  62
7
  10
 411.236
  20
 845.266
  30
0.0
  11
 410.497
  21
 836.827
  31
0.0
   0
ARC
   8
LEVEL001
   6
CONTINUOUS
  62
7
  10
 405.516
  20
 837.263
  30
0.0
  40
 5.00000
  50
 270.000
  51
 355.000
   0
LINE
   8
LEVEL001
   6
CONTINUOUS
  62
7
  10
 412.323
  20
 846.263
  30
0.0
  11
 411.236
  21
 845.266
  31
0.0
   0
LINE
   8
LEVEL001
   6
CONTINUOUS
  62
7
  10
 438.498
  20
 846.263
  30
0.0
  11
 439.585
  21
 845.266
  31
0.0
   0
LINE
   8
LEVEL001
   6
CONTINUOUS
  62
7
  10
 412.323
  20
 846.263
  30
0.0
  11
 425.410
  21
 846.263
  31
0.0
   0
LINE
   8
LEVEL001
   6
CONTINUOUS
  62
7
  10
 438.498
  20
 846.263
  30
0.0
  11
 425.410
  21
 846.263
  31
0.0
   0
LINE
   8
LEVEL001
   6
CONTINUOUS
  62
7
  10
 411.236
  20
 845.266
  30
0.0
  11
 439.585
  21
 845.266
  31
0.0
   0
TEXT
   8
LEVEL003
  62
3
  10
 714.904
  20
 466.864
  30
0.0
  40
 16.0000
   1
オイルタンク
   7
STANDARD
   0
TEXT
   8
LEVEL003
  62
3
  10
 280.000
  20
 440.000
  30
0.0
  40
 16.0000
   1
Ｒｃ３／８
   7
STANDARD
   0
LINE
   8
LEVEL003
   6
CONTINUOUS
  62
3
  10
 224.717
  20
 360.831
  30
0.0
  11
 280.000
  21
 440.000
  31
0.0
   0
LINE
   8
LEVEL003
   6
CONTINUOUS
  62
3
  10
 280.000
  20
 440.000
  30
0.0
  11
 360.000
  21
 440.000
  31
0.0
   0
LINE
   8
LEVEL003
   6
CONTINUOUS
  62
3
  10
 224.717
  20
 360.831
  30
0.0
  11
 233.322
  21
 369.458
  31
0.0
   0
LINE
   8
LEVEL003
   6
CONTINUOUS
  62
3
  10
 224.717
  20
 360.831
  30
0.0
  11
 229.852
  21
 371.881
  31
0.0
   0
TEXT
   8
LEVEL003
  62
3
  10
 500.000
  20
 880.000
  30
0.0
  40
 16.0000
   1
低圧安全弁
   7
STANDARD
   0
TEXT
   8
LEVEL003
  62
3
  10
 500.000
  20
 920.000
  30
0.0
  40
 16.0000
   1
高圧安全弁
   7
STANDARD
   0
LINE
   8
LEVEL003
   6
CONTINUOUS
  62
3
  10
 443.077
  20
 842.500
  30
0.0
  11
 500.000
  21
 920.000
  31
0.0
   0
LINE
   8
LEVEL003
   6
CONTINUOUS
  62
3
  10
 500.000
  20
 920.000
  30
0.0
  11
 580.000
  21
 920.000
  31
0.0
   0
LINE
   8
LEVEL003
   6
CONTINUOUS
  62
3
  10
 443.077
  20
 842.500
  30
0.0
  11
 451.886
  21
 850.919
  31
0.0
   0
LINE
   8
LEVEL003
   6
CONTINUOUS
  62
3
  10
 443.077
  20
 842.500
  30
0.0
  11
 448.475
  21
 853.424
  31
0.0
   0
TEXT
   8
LEVEL003
  62
3
  10
 260.000
  20
 920.000
  30
0.0
  40
 16.0000
   1
レリースバルブ
   7
STANDARD
   0
LINE
   8
LEVEL003
   6
CONTINUOUS
  62
3
  10
 464.615
  20
 841.154
  30
0.0
  11
 500.000
  21
 880.000
  31
0.0
   0
LINE
   8
LEVEL003
   6
CONTINUOUS
  62
3
  10
 500.000
  20
 880.000
  30
0.0
  11
 580.000
  21
 880.000
  31
0.0
   0
LINE
   8
LEVEL003
   6
CONTINUOUS
  62
3
  10
 464.615
  20
 841.154
  30
0.0
  11
 474.260
  21
 848.600
  31
0.0
   0
LINE
   8
LEVEL003
   6
CONTINUOUS
  62
3
  10
 464.615
  20
 841.154
  30
0.0
  11
 471.132
  21
 851.450
  31
0.0
   0
TEXT
   8
LEVEL003
  62
3
  10
 520.000
  20
 720.000
  30
0.0
  40
 16.0000
   1
サクション＆デリベリ（低圧）
   7
STANDARD
   0
TEXT
   8
LEVEL003
  62
3
  10
 520.000
  20
 680.000
  30
0.0
  40
 16.0000
   1
サクション＆デリベリ（高圧）
   7
STANDARD
   0
LINE
   8
LEVEL003
   6
CONTINUOUS
  62
3
  10
 465.288
  20
 767.115
  30
0.0
  11
 520.000
  21
 720.000
  31
0.0
   0
LINE
   8
LEVEL003
   6
CONTINUOUS
  62
3
  10
 520.000
  20
 720.000
  30
0.0
  11
 740.000
  21
 720.000
  31
0.0
   0
LINE
   8
LEVEL003
   6
CONTINUOUS
  62
3
  10
 465.288
  20
 767.115
  30
0.0
  11
 473.001
  21
 757.682
  31
0.0
   0
LINE
   8
LEVEL003
   6
CONTINUOUS
  62
3
  10
 465.288
  20
 767.115
  30
0.0
  11
 475.762
  21
 760.888
  31
0.0
   0
LINE
   8
LEVEL003
   6
CONTINUOUS
  62
3
  10
 442.404
  20
 767.115
  30
0.0
  11
 520.000
  21
 680.000
  31
0.0
   0
LINE
   8
LEVEL003
   6
CONTINUOUS
  62
3
  10
 520.000
  20
 680.000
  30
0.0
  11
 740.000
  21
 680.000
  31
0.0
   0
LINE
   8
LEVEL003
   6
CONTINUOUS
  62
3
  10
 442.404
  20
 767.115
  30
0.0
  11
 448.805
  21
 756.747
  31
0.0
   0
LINE
   8
LEVEL003
   6
CONTINUOUS
  62
3
  10
 442.404
  20
 767.115
  30
0.0
  11
 451.965
  21
 759.562
  31
0.0
   0
LINE
   8
LEVEL003
   6
CONTINUOUS
  62
3
  10
 432.910
  20
 848.263
  30
0.0
  11
 352.000
  21
 848.263
  31
0.0
   0
LINE
   8
LEVEL003
   6
CONTINUOUS
  62
3
  10
 394.410
  20
 805.263
  30
0.0
  11
 352.000
  21
 805.263
  31
0.0
   0
LINE
   8
LEVEL003
   6
CONTINUOUS
  62
3
  10
 360.000
  20
 848.263
  30
0.0
  11
 360.000
  21
 805.263
  31
0.0
   0
LINE
   8
LEVEL003
   6
CONTINUOUS
  62
3
  10
 360.000
  20
 848.263
  30
0.0
  11
 357.884
  21
 836.263
  31
0.0
   0
LINE
   8
LEVEL003
   6
CONTINUOUS
  62
3
  10
 360.000
  20
 848.263
  30
0.0
  11
 362.116
  21
 836.263
  31
0.0
   0
LINE
   8
LEVEL003
   6
CONTINUOUS
  62
3
  10
 360.000
  20
 805.263
  30
0.0
  11
 362.116
  21
 817.263
  31
0.0
   0
LINE
   8
LEVEL003
   6
CONTINUOUS
  62
3
  10
 360.000
  20
 805.263
  30
0.0
  11
 357.884
  21
 817.263
  31
0.0
   0
TEXT
   8
LEVEL003
  62
3
  10
 356.800
  20
 818.763
  30
0.0
  40
 16.0000
   1
43
  50
 90.0000
  41
 0.500000
   7
STANDARD
  72
1
  11
 356.800
  21
 826.763
  31
0.0
   0
LINE
   8
LEVEL003
   6
CONTINUOUS
  62
3
  10
 394.410
  20
 805.263
  30
0.0
  11
 352.000
  21
 805.263
  31
0.0
   0
LINE
   8
LEVEL003
   6
CONTINUOUS
  62
3
  10
 432.537
  20
 753.263
  30
0.0
  11
 352.000
  21
 753.263
  31
0.0
   0
LINE
   8
LEVEL003
   6
CONTINUOUS
  62
3
  10
 360.000
  20
 805.263
  30
0.0
  11
 360.000
  21
 753.263
  31
0.0
   0
LINE
   8
LEVEL003
   6
CONTINUOUS
  62
3
  10
 360.000
  20
 805.263
  30
0.0
  11
 357.884
  21
 793.263
  31
0.0
   0
LINE
   8
LEVEL003
   6
CONTINUOUS
  62
3
  10
 360.000
  20
 805.263
  30
0.0
  11
 362.116
  21
 793.263
  31
0.0
   0
LINE
   8
LEVEL003
   6
CONTINUOUS
  62
3
  10
 360.000
  20
 753.263
  30
0.0
  11
 362.116
  21
 765.263
  31
0.0
   0
LINE
   8
LEVEL003
   6
CONTINUOUS
  62
3
  10
 360.000
  20
 753.263
  30
0.0
  11
 357.884
  21
 765.263
  31
0.0
   0
TEXT
   8
LEVEL003
  62
3
  10
 356.800
  20
 771.263
  30
0.0
  40
 16.0000
   1
52
  50
 90.0000
  41
 0.500000
   7
STANDARD
  72
1
  11
 356.800
  21
 779.263
  31
0.0
   0
LINE
   8
LEVEL003
   6
CONTINUOUS
  62
3
  10
 432.910
  20
 848.263
  30
0.0
  11
 312.000
  21
 848.263
  31
0.0
   0
LINE
   8
LEVEL003
   6
CONTINUOUS
  62
3
  10
 432.537
  20
 753.263
  30
0.0
  11
 312.000
  21
 753.263
  31
0.0
   0
LINE
   8
LEVEL003
   6
CONTINUOUS
  62
3
  10
 320.000
  20
 848.263
  30
0.0
  11
 320.000
  21
 753.263
  31
0.0
   0
LINE
   8
LEVEL003
   6
CONTINUOUS
  62
3
  10
 320.000
  20
 848.263
  30
0.0
  11
 317.884
  21
 836.263
  31
0.0
   0
LINE
   8
LEVEL003
   6
CONTINUOUS
  62
3
  10
 320.000
  20
 848.263
  30
0.0
  11
 322.116
  21
 836.263
  31
0.0
   0
LINE
   8
LEVEL003
   6
CONTINUOUS
  62
3
  10
 320.000
  20
 753.263
  30
0.0
  11
 322.116
  21
 765.263
  31
0.0
   0
LINE
   8
LEVEL003
   6
CONTINUOUS
  62
3
  10
 320.000
  20
 753.263
  30
0.0
  11
 317.884
  21
 765.263
  31
0.0
   0
TEXT
   8
LEVEL003
  62
3
  10
 316.800
  20
 792.763
  30
0.0
  40
 16.0000
   1
95
  50
 90.0000
  41
 0.500000
   7
STANDARD
  72
1
  11
 316.800
  21
 800.763
  31
0.0
   0
LINE
   8
LEVEL003
   6
CONTINUOUS
  62
7
  10
 425.410
  20
 846.263
  30
0.0
  11
 425.410
  21
 856.236
  31
0.0
   0
ARC
   8
LEVEL003
   6
CONTINUOUS
  62
7
  10
 431.160
  20
 840.655
  30
0.0
  40
 16.6080
  50
 69.7438
  51
 110.256
   0
ARC
   8
LEVEL003
   6
CONTINUOUS
  62
7
  10
 419.660
  20
 840.655
  30
0.0
  40
 16.6080
  50
 69.7438
  51
 110.256
   0
LINE
   8
LEVEL003
   6
CONTINUOUS
  62
7
  10
 436.910
  20
 846.263
  30
0.0
  11
 436.910
  21
 857.263
  31
0.0
   0
LINE
   8
LEVEL003
   6
CONTINUOUS
  62
7
  10
 436.910
  20
 857.263
  30
0.0
  11
 413.910
  21
 857.263
  31
0.0
   0
LINE
   8
LEVEL003
   6
CONTINUOUS
  62
7
  10
 413.910
  20
 857.263
  30
0.0
  11
 413.910
  21
 846.263
  31
0.0
   0
LINE
   8
LEVEL001
   6
DASHDOT
  62
1
  10
 425.410
  20
 892.951
  30
0.0
  11
 425.410
  21
 835.000
  31
0.0
   0
LINE
   8
LEVEL001
   6
CONTINUOUS
  62
7
  10
 413.202
  20
 865.855
  30
0.0
  11
 420.410
  21
 865.855
  31
0.0
   0
LINE
   8
LEVEL001
   6
CONTINUOUS
  62
7
  10
 430.410
  20
 865.855
  30
0.0
  11
 437.619
  21
 865.855
  31
0.0
   0
ARC
   8
LEVEL001
   6
CONTINUOUS
  62
7
  10
 407.825
  20
 872.855
  30
0.0
  40
 3.00000
  50
 8.53108
  51
 89.9986
   0
ARC
   8
LEVEL001
   6
CONTINUOUS
  62
7
  10
 402.553
  20
 885.080
  30
0.0
  40
 2.00000
  50
 98.8840
  51
 180.000
   0
LINE
   8
LEVEL001
   6
CONTINUOUS
  62
7
  10
 408.117
  20
 887.855
  30
0.0
  11
 442.701
  21
 887.855
  31
0.0
   0
ARC
   8
LEVEL001
   6
CONTINUOUS
  62
7
  10
 425.409
  20
 738.855
  30
0.0
  40
 150.000
  50
 96.6196
  51
 98.8839
   0
LINE
   8
LEVEL001
   6
CONTINUOUS
  62
7
  10
 400.553
  20
 876.855
  30
0.0
  11
 400.553
  21
 885.080
  31
0.0
   0
ARC
   8
LEVEL001
   6
CONTINUOUS
  62
7
  10
 401.553
  20
 876.855
  30
0.0
  40
 1.00000
  50
 180.000
  51
 270.000
   0
LINE
   8
LEVEL001
   6
CONTINUOUS
  62
7
  10
 401.553
  20
 875.855
  30
0.0
  11
 425.410
  21
 875.855
  31
0.0
   0
ARC
   8
LEVEL010
   6
CONTINUOUS
  62
7
  10
 412.937
  20
 876.855
  30
0.0
  40
 1.00000
  50
 180.000
  51
 270.000
   0
ARC
   8
LEVEL010
   6
CONTINUOUS
  62
7
  10
 413.937
  20
 885.056
  30
0.0
  40
 2.00000
  50
 90.0000
  51
 180.000
   0
LINE
   8
LEVEL010
   6
CONTINUOUS
  62
7
  10
 421.910
  20
 887.855
  30
0.0
  11
 413.740
  21
 887.046
  31
0.0
   0
ARC
   8
LEVEL010
   6
CONTINUOUS
  62
7
  10
 410.937
  20
 876.855
  30
0.0
  40
 1.00000
  50
 270.000
  51
0.0
   0
ARC
   8
LEVEL010
   6
CONTINUOUS
  62
7
  10
 409.937
  20
 885.056
  30
0.0
  40
 2.00000
  50
0.0
  51
 90.0000
   0
LINE
   8
LEVEL010
   6
CONTINUOUS
  62
7
  10
 411.937
  20
 876.855
  30
0.0
  11
 411.937
  21
 885.056
  31
0.0
   0
LINE
   8
LEVEL010
   6
CONTINUOUS
  62
7
  10
 409.937
  20
 887.056
  30
0.0
  11
 404.435
  21
 887.056
  31
0.0
   0
LINE
   8
LEVEL010
   6
CONTINUOUS
  62
7
  10
 421.910
  20
 876.855
  30
0.0
  11
 421.910
  21
 885.056
  31
0.0
   0
ARC
   8
LEVEL001
   6
CONTINUOUS
  62
7
  10
 442.993
  20
 872.855
  30
0.0
  40
 3.00000
  50
 89.9990
  51
 171.469
   0
ARC
   8
LEVEL001
   6
CONTINUOUS
  62
7
  10
 449.265
  20
 876.855
  30
0.0
  40
 1.00000
  50
 270.000
  51
 0.260551E-9
   0
ARC
   8
LEVEL001
   6
CONTINUOUS
  62
7
  10
 448.265
  20
 885.080
  30
0.0
  40
 2.00000
  50
0.0
  51
 81.1169
   0
LINE
   8
LEVEL001
   6
CONTINUOUS
  62
7
  10
 450.265
  20
 876.855
  30
0.0
  11
 450.265
  21
 885.080
  31
0.0
   0
ARC
   8
LEVEL001
   6
CONTINUOUS
  62
7
  10
 425.409
  20
 738.855
  30
0.0
  40
 150.000
  50
 81.1161
  51
 83.3804
   0
LINE
   8
LEVEL001
   6
CONTINUOUS
  62
7
  10
 425.410
  20
 875.855
  30
0.0
  11
 449.265
  21
 875.855
  31
0.0
   0
ARC
   8
LEVEL010
   6
CONTINUOUS
  62
7
  10
 437.884
  20
 876.855
  30
0.0
  40
 1.00000
  50
 270.000
  51
 0.139395E-8
   0
ARC
   8
LEVEL010
   6
CONTINUOUS
  62
7
  10
 436.884
  20
 885.056
  30
0.0
  40
 2.00000
  50
0.0
  51
 90.0000
   0
LINE
   8
LEVEL010
   6
CONTINUOUS
  62
7
  10
 428.910
  20
 887.855
  30
0.0
  11
 437.081
  21
 887.046
  31
0.0
   0
ARC
   8
LEVEL010
   6
CONTINUOUS
  62
7
  10
 439.884
  20
 876.855
  30
0.0
  40
 1.00000
  50
 180.000
  51
 270.000
   0
ARC
   8
LEVEL010
   6
CONTINUOUS
  62
7
  10
 440.884
  20
 885.056
  30
0.0
  40
 2.00000
  50
 90.0000
  51
 180.000
   0
LINE
   8
LEVEL010
   6
CONTINUOUS
  62
7
  10
 438.884
  20
 876.855
  30
0.0
  11
 438.884
  21
 885.056
  31
0.0
   0
LINE
   8
LEVEL010
   6
CONTINUOUS
  62
7
  10
 440.884
  20
 887.056
  30
0.0
  11
 446.385
  21
 887.056
  31
0.0
   0
LINE
   8
LEVEL010
   6
CONTINUOUS
  62
7
  10
 428.910
  20
 876.855
  30
0.0
  11
 428.910
  21
 885.056
  31
0.0
   0
ARC
   8
LEVEL001
   6
CONTINUOUS
  62
7
  10
 437.187
  20
 867.855
  30
0.0
  40
 2.00000
  50
 270.001
  51
 351.469
   0
LINE
   8
LEVEL001
   6
CONTINUOUS
  62
7
  10
 439.164
  20
 867.558
  30
0.0
  11
 440.026
  21
 873.300
  31
0.0
   0
LINE
   8
LEVEL001
   6
CONTINUOUS
  62
7
  10
 425.410
  20
 865.855
  30
0.0
  11
 437.187
  21
 865.855
  31
0.0
   0
ARC
   8
LEVEL001
   6
CONTINUOUS
  62
7
  10
 413.631
  20
 867.855
  30
0.0
  40
 2.00000
  50
 188.531
  51
 270.001
   0
LINE
   8
LEVEL001
   6
CONTINUOUS
  62
7
  10
 411.653
  20
 867.558
  30
0.0
  11
 410.792
  21
 873.300
  31
0.0
   0
LINE
   8
LEVEL001
   6
CONTINUOUS
  62
7
  10
 413.631
  20
 865.855
  30
0.0
  11
 425.410
  21
 865.855
  31
0.0
   0
ARC
   8
LEVEL001
   6
CONTINUOUS
  62
7
  10
 425.410
  20
 738.855
  30
0.0
  40
 150.000
  50
 80.9510
  51
 99.0490
   0
LINE
   8
LEVEL001
   6
CONTINUOUS
  62
7
  10
 419.059
  20
 865.855
  30
0.0
  11
 419.059
  21
 857.263
  31
0.0
   0
LINE
   8
LEVEL001
   6
CONTINUOUS
  62
7
  10
 431.759
  20
 865.855
  30
0.0
  11
 431.759
  21
 857.263
  31
0.0
   0
LINE
   8
LEVEL003
   6
CONTINUOUS
  62
3
  10
 406.621
  20
 887.453
  30
0.0
  11
 379.625
  21
 919.881
  31
0.0
   0
LINE
   8
LEVEL003
   6
CONTINUOUS
  62
3
  10
 379.625
  20
 919.881
  30
0.0
  11
 256.937
  21
 919.881
  31
0.0
   0
LINE
   8
LEVEL003
   6
CONTINUOUS
  62
3
  10
 406.621
  20
 887.453
  30
0.0
  11
 400.569
  21
 898.029
  31
0.0
   0
LINE
   8
LEVEL003
   6
CONTINUOUS
  62
3
  10
 406.621
  20
 887.453
  30
0.0
  11
 397.317
  21
 895.322
  31
0.0
   0
LINE
   8
LEVEL003
   6
CONTINUOUS
  62
3
  10
 119.099
  20
 354.000
  30
0.0
  11
 72.0000
  21
 354.000
  31
0.0
   0
LINE
   8
LEVEL003
   6
CONTINUOUS
  62
3
  10
 165.947
  20
 305.000
  30
0.0
  11
 72.0000
  21
 305.000
  31
0.0
   0
LINE
   8
LEVEL003
   6
CONTINUOUS
  62
3
  10
 80.0000
  20
 354.000
  30
0.0
  11
 80.0000
  21
 305.000
  31
0.0
   0
LINE
   8
LEVEL003
   6
CONTINUOUS
  62
3
  10
 80.0000
  20
 354.000
  30
0.0
  11
 77.8841
  21
 342.000
  31
0.0
   0
LINE
   8
LEVEL003
   6
CONTINUOUS
  62
3
  10
 80.0000
  20
 354.000
  30
0.0
  11
 82.1159
  21
 342.000
  31
0.0
   0
LINE
   8
LEVEL003
   6
CONTINUOUS
  62
3
  10
 80.0000
  20
 305.000
  30
0.0
  11
 82.1159
  21
 317.000
  31
0.0
   0
LINE
   8
LEVEL003
   6
CONTINUOUS
  62
3
  10
 80.0000
  20
 305.000
  30
0.0
  11
 77.8841
  21
 317.000
  31
0.0
   0
TEXT
   8
LEVEL003
  62
3
  10
 76.8000
  20
 321.500
  30
0.0
  40
 16.0000
   1
49
  50
 90.0000
  41
 0.500000
   7
STANDARD
  72
1
  11
 76.8000
  21
 329.500
  31
0.0
   0
LINE
   8
LEVEL003
   6
CONTINUOUS
  62
3
  10
 129.355
  20
 350.000
  30
0.0
  11
 129.355
  21
 252.000
  31
0.0
   0
LINE
   8
LEVEL003
   6
CONTINUOUS
  62
3
  10
 264.947
  20
 301.000
  30
0.0
  11
 264.947
  21
 252.000
  31
0.0
   0
LINE
   8
LEVEL003
   6
CONTINUOUS
  62
3
  10
 129.355
  20
 260.000
  30
0.0
  11
 264.947
  21
 260.000
  31
0.0
   0
LINE
   8
LEVEL003
   6
CONTINUOUS
  62
3
  10
 129.355
  20
 260.000
  30
0.0
  11
 141.355
  21
 257.884
  31
0.0
   0
LINE
   8
LEVEL003
   6
CONTINUOUS
  62
3
  10
 129.355
  20
 260.000
  30
0.0
  11
 141.355
  21
 262.116
  31
0.0
   0
LINE
   8
LEVEL003
   6
CONTINUOUS
  62
3
  10
 264.947
  20
 260.000
  30
0.0
  11
 252.947
  21
 262.116
  31
0.0
   0
LINE
   8
LEVEL003
   6
CONTINUOUS
  62
3
  10
 264.947
  20
 260.000
  30
0.0
  11
 252.947
  21
 257.884
  31
0.0
   0
TEXT
   8
LEVEL003
  62
3
  10
 177.151
  20
 263.200
  30
0.0
  40
 16.0000
   1
約135
   7
STANDARD
  72
1
  11
 197.151
  21
 263.200
  31
0.0
   0
POINT
   8
LEVEL001
  62
7
  10
 427.410
  20
 805.263
  30
0.0
   0
POINT
   8
LEVEL001
  62
7
  10
 399.910
  20
 798.263
  30
0.0
   0
LINE
   8
LEVEL001
   6
DOT
  62
3
  10
 399.910
  20
 789.932
  30
0.0
  11
 400.794
  21
 790.815
  31
0.0
   0
LINE
   8
LEVEL001
   6
DOT
  62
3
  10
 399.910
  20
 806.594
  30
0.0
  11
 400.794
  21
 805.710
  31
0.0
   0
LINE
   8
LEVEL001
   6
DOT
  62
3
  10
 399.910
  20
 806.594
  30
0.0
  11
 405.602
  21
 806.400
  31
0.0
   0
LINE
   8
LEVEL001
   6
DOT
  62
3
  10
 405.602
  20
 805.549
  30
0.0
  11
 400.794
  21
 805.710
  31
0.0
   0
LINE
   8
LEVEL001
   6
DOT
  62
3
  10
 400.794
  20
 805.710
  30
0.0
  11
 400.794
  21
 790.815
  31
0.0
   0
LINE
   8
LEVEL001
   6
DOT
  62
3
  10
 400.794
  20
 790.815
  30
0.0
  11
 405.602
  21
 790.976
  31
0.0
   0
LINE
   8
LEVEL001
   6
DOT
  62
3
  10
 399.910
  20
 789.932
  30
0.0
  11
 405.602
  21
 790.125
  31
0.0
   0
LINE
   8
LEVEL001
   6
CONTINUOUS
  62
7
  10
 494.410
  20
 833.263
  30
0.0
  11
 494.410
  21
 833.463
  31
0.0
   0
LINE
   8
LEVEL001
   6
CONTINUOUS
  62
7
  10
 490.410
  20
 837.763
  30
0.0
  11
 491.410
  21
 836.763
  31
0.0
   0
LINE
   8
LEVEL001
   6
CONTINUOUS
  62
7
  10
 491.410
  20
 836.763
  30
0.0
  11
 491.410
  21
 821.763
  31
0.0
   0
ARC
   8
LEVEL001
   6
CONTINUOUS
  62
7
  10
 490.410
  20
 829.688
  30
0.0
  40
 5.50000
  50
 43.3418
  51
 79.5243
   0
LINE
   8
LEVEL001
   6
CONTINUOUS
  62
7
  10
 491.410
  20
 833.263
  30
0.0
  11
 500.410
  21
 833.263
  31
0.0
   0
LINE
   8
LEVEL003
   6
CONTINUOUS
  62
7
  10
 500.410
  20
 821.763
  30
0.0
  11
 500.410
  21
 833.763
  31
0.0
   0
LINE
   8
LEVEL003
   6
CONTINUOUS
  62
7
  10
 500.410
  20
 833.763
  30
0.0
  11
 826.410
  21
 833.763
  31
0.0
   0
LINE
   8
LEVEL001
   6
CONTINUOUS
  62
7
  10
 490.410
  20
 837.763
  30
0.0
  11
 490.410
  21
 821.763
  31
0.0
   0
LINE
   8
LEVEL001
   6
CONTINUOUS
  62
7
  10
 491.410
  20
 777.263
  30
0.0
  11
 500.410
  21
 777.263
  31
0.0
   0
LINE
   8
LEVEL001
   6
CONTINUOUS
  62
7
  10
 491.410
  20
 788.763
  30
0.0
  11
 491.410
  21
 773.763
  31
0.0
   0
LINE
   8
LEVEL001
   6
CONTINUOUS
  62
7
  10
 491.410
  20
 773.763
  30
0.0
  11
 490.410
  21
 772.763
  31
0.0
   0
LINE
   8
LEVEL003
   6
CONTINUOUS
  62
7
  10
 500.410
  20
 776.763
  30
0.0
  11
 500.410
  21
 788.763
  31
0.0
   0
LINE
   8
LEVEL003
   6
CONTINUOUS
  62
7
  10
 500.410
  20
 776.763
  30
0.0
  11
 826.410
  21
 776.763
  31
0.0
   0
LINE
   8
LEVEL001
   6
CONTINUOUS
  62
7
  10
 490.410
  20
 788.763
  30
0.0
  11
 490.410
  21
 772.763
  31
0.0
   0
LINE
   8
LEVEL003
   6
CONTINUOUS
  62
7
  10
 826.410
  20
 816.013
  30
0.0
  11
 826.410
  21
 833.763
  31
0.0
   0
LINE
   8
LEVEL003
   6
CONTINUOUS
  62
3
  10
 904.410
  20
 857.763
  30
0.0
  11
 1049.00
  21
 857.763
  31
0.0
   0
LINE
   8
LEVEL003
   6
CONTINUOUS
  62
3
  10
 904.410
  20
 752.763
  30
0.0
  11
 1049.00
  21
 752.763
  31
0.0
   0
LINE
   8
LEVEL003
   6
CONTINUOUS
  62
3
  10
 1041.00
  20
 857.763
  30
0.0
  11
 1041.00
  21
 752.763
  31
0.0
   0
LINE
   8
LEVEL003
   6
CONTINUOUS
  62
3
  10
 1041.00
  20
 857.763
  30
0.0
  11
 1038.88
  21
 845.763
  31
0.0
   0
LINE
   8
LEVEL003
   6
CONTINUOUS
  62
3
  10
 1041.00
  20
 857.763
  30
0.0
  11
 1043.12
  21
 845.763
  31
0.0
   0
LINE
   8
LEVEL003
   6
CONTINUOUS
  62
3
  10
 1041.00
  20
 752.763
  30
0.0
  11
 1043.12
  21
 764.763
  31
0.0
   0
LINE
   8
LEVEL003
   6
CONTINUOUS
  62
3
  10
 1041.00
  20
 752.763
  30
0.0
  11
 1038.88
  21
 764.763
  31
0.0
   0
TEXT
   8
LEVEL003
  62
3
  10
 1037.80
  20
 793.263
  30
0.0
  40
 16.0000
   1
105
  50
 90.0000
  41
 0.500000
   7
STANDARD
  72
1
  11
 1037.80
  21
 805.263
  31
0.0
   0
LINE
   8
LEVEL003
   6
CONTINUOUS
  62
7
  10
 826.410
  20
 794.513
  30
0.0
  11
 826.410
  21
 776.763
  31
0.0
   0
LINE
   8
LEVEL050
   6
DASHDOT
  62
1
  10
 882.410
  20
 766.793
  30
0.0
  11
 852.410
  21
 766.793
  31
0.0
   0
LINE
   8
LEVEL003
   6
DASHDOT
  62
1
  10
 876.410
  20
 766.793
  30
0.0
  11
 876.340
  21
 767.877
  31
0.0
   0
LINE
   8
LEVEL003
   6
DASHDOT
  62
1
  10
 876.340
  20
 767.877
  30
0.0
  11
 876.131
  21
 768.943
  31
0.0
   0
LINE
   8
LEVEL003
   6
DASHDOT
  62
1
  10
 876.131
  20
 768.943
  30
0.0
  11
 875.785
  21
 769.977
  31
0.0
   0
LINE
   8
LEVEL003
   6
DASHDOT
  62
1
  10
 875.785
  20
 769.977
  30
0.0
  11
 875.309
  21
 770.960
  31
0.0
   0
LINE
   8
LEVEL003
   6
DASHDOT
  62
1
  10
 875.309
  20
 770.960
  30
0.0
  11
 874.709
  21
 771.879
  31
0.0
   0
LINE
   8
LEVEL003
   6
DASHDOT
  62
1
  10
 874.709
  20
 771.879
  30
0.0
  11
 873.996
  21
 772.718
  31
0.0
   0
LINE
   8
LEVEL003
   6
DASHDOT
  62
1
  10
 873.996
  20
 772.718
  30
0.0
  11
 873.179
  21
 773.465
  31
0.0
   0
LINE
   8
LEVEL003
   6
DASHDOT
  62
1
  10
 873.179
  20
 773.465
  30
0.0
  11
 872.273
  21
 774.108
  31
0.0
   0
LINE
   8
LEVEL003
   6
DASHDOT
  62
1
  10
 872.273
  20
 774.108
  30
0.0
  11
 871.291
  21
 774.636
  31
0.0
   0
LINE
   8
LEVEL003
   6
DASHDOT
  62
1
  10
 871.291
  20
 774.636
  30
0.0
  11
 870.248
  21
 775.043
  31
0.0
   0
LINE
   8
LEVEL003
   6
DASHDOT
  62
1
  10
 870.248
  20
 775.043
  30
0.0
  11
 869.161
  21
 775.320
  31
0.0
   0
LINE
   8
LEVEL003
   6
DASHDOT
  62
1
  10
 869.161
  20
 775.320
  30
0.0
  11
 868.047
  21
 775.464
  31
0.0
   0
LINE
   8
LEVEL003
   6
DASHDOT
  62
1
  10
 868.047
  20
 775.464
  30
0.0
  11
 866.923
  21
 775.473
  31
0.0
   0
LINE
   8
LEVEL003
   6
DASHDOT
  62
1
  10
 866.923
  20
 775.473
  30
0.0
  11
 865.806
  21
 775.347
  31
0.0
   0
LINE
   8
LEVEL003
   6
DASHDOT
  62
1
  10
 865.806
  20
 775.347
  30
0.0
  11
 864.715
  21
 775.087
  31
0.0
   0
LINE
   8
LEVEL003
   6
DASHDOT
  62
1
  10
 864.715
  20
 775.087
  30
0.0
  11
 863.665
  21
 774.697
  31
0.0
   0
LINE
   8
LEVEL003
   6
DASHDOT
  62
1
  10
 863.665
  20
 774.697
  30
0.0
  11
 862.674
  21
 774.185
  31
0.0
   0
LINE
   8
LEVEL003
   6
DASHDOT
  62
1
  10
 862.674
  20
 774.185
  30
0.0
  11
 861.757
  21
 773.557
  31
0.0
   0
LINE
   8
LEVEL003
   6
DASHDOT
  62
1
  10
 861.757
  20
 773.557
  30
0.0
  11
 860.928
  21
 772.823
  31
0.0
   0
LINE
   8
LEVEL003
   6
DASHDOT
  62
1
  10
 860.928
  20
 772.823
  30
0.0
  11
 860.200
  21
 771.995
  31
0.0
   0
LINE
   8
LEVEL003
   6
DASHDOT
  62
1
  10
 860.200
  20
 771.995
  30
0.0
  11
 859.585
  21
 771.086
  31
0.0
   0
LINE
   8
LEVEL003
   6
DASHDOT
  62
1
  10
 859.585
  20
 771.086
  30
0.0
  11
 859.092
  21
 770.111
  31
0.0
   0
LINE
   8
LEVEL003
   6
DASHDOT
  62
1
  10
 859.092
  20
 770.111
  30
0.0
  11
 858.728
  21
 769.083
  31
0.0
   0
LINE
   8
LEVEL003
   6
DASHDOT
  62
1
  10
 858.728
  20
 769.083
  30
0.0
  11
 858.500
  21
 768.019
  31
0.0
   0
LINE
   8
LEVEL003
   6
DASHDOT
  62
1
  10
 858.500
  20
 768.019
  30
0.0
  11
 858.412
  21
 766.937
  31
0.0
   0
LINE
   8
LEVEL003
   6
DASHDOT
  62
1
  10
 858.412
  20
 766.937
  30
0.0
  11
 858.463
  21
 765.852
  31
0.0
   0
LINE
   8
LEVEL003
   6
DASHDOT
  62
1
  10
 858.463
  20
 765.852
  30
0.0
  11
 858.654
  21
 764.782
  31
0.0
   0
LINE
   8
LEVEL003
   6
DASHDOT
  62
1
  10
 858.654
  20
 764.782
  30
0.0
  11
 858.982
  21
 763.743
  31
0.0
   0
LINE
   8
LEVEL003
   6
DASHDOT
  62
1
  10
 858.982
  20
 763.743
  30
0.0
  11
 859.442
  21
 762.752
  31
0.0
   0
LINE
   8
LEVEL003
   6
DASHDOT
  62
1
  10
 859.442
  20
 762.752
  30
0.0
  11
 860.025
  21
 761.824
  31
0.0
   0
LINE
   8
LEVEL003
   6
DASHDOT
  62
1
  10
 860.025
  20
 761.824
  30
0.0
  11
 860.724
  21
 760.973
  31
0.0
   0
LINE
   8
LEVEL003
   6
DASHDOT
  62
1
  10
 860.724
  20
 760.973
  30
0.0
  11
 861.528
  21
 760.214
  31
0.0
   0
LINE
   8
LEVEL003
   6
DASHDOT
  62
1
  10
 861.528
  20
 760.214
  30
0.0
  11
 862.423
  21
 759.556
  31
0.0
   0
LINE
   8
LEVEL003
   6
DASHDOT
  62
1
  10
 862.423
  20
 759.556
  30
0.0
  11
 863.396
  21
 759.012
  31
0.0
   0
LINE
   8
LEVEL003
   6
DASHDOT
  62
1
  10
 863.396
  20
 759.012
  30
0.0
  11
 864.431
  21
 758.589
  31
0.0
   0
LINE
   8
LEVEL003
   6
DASHDOT
  62
1
  10
 864.431
  20
 758.589
  30
0.0
  11
 865.513
  21
 758.295
  31
0.0
   0
LINE
   8
LEVEL003
   6
DASHDOT
  62
1
  10
 865.513
  20
 758.295
  30
0.0
  11
 866.625
  21
 758.133
  31
0.0
   0
LINE
   8
LEVEL003
   6
DASHDOT
  62
1
  10
 866.625
  20
 758.133
  30
0.0
  11
 867.749
  21
 758.105
  31
0.0
   0
LINE
   8
LEVEL003
   6
DASHDOT
  62
1
  10
 867.749
  20
 758.105
  30
0.0
  11
 868.867
  21
 758.214
  31
0.0
   0
LINE
   8
LEVEL003
   6
DASHDOT
  62
1
  10
 868.867
  20
 758.214
  30
0.0
  11
 869.963
  21
 758.456
  31
0.0
   0
LINE
   8
LEVEL003
   6
DASHDOT
  62
1
  10
 869.963
  20
 758.456
  30
0.0
  11
 871.019
  21
 758.829
  31
0.0
   0
LINE
   8
LEVEL003
   6
DASHDOT
  62
1
  10
 871.019
  20
 758.829
  30
0.0
  11
 872.019
  21
 759.326
  31
0.0
   0
LINE
   8
LEVEL003
   6
DASHDOT
  62
1
  10
 872.019
  20
 759.326
  30
0.0
  11
 872.947
  21
 759.939
  31
0.0
   0
LINE
   8
LEVEL003
   6
DASHDOT
  62
1
  10
 872.947
  20
 759.939
  30
0.0
  11
 873.788
  21
 760.659
  31
0.0
   0
LINE
   8
LEVEL003
   6
DASHDOT
  62
1
  10
 873.788
  20
 760.659
  30
0.0
  11
 874.530
  21
 761.475
  31
0.0
   0
LINE
   8
LEVEL003
   6
DASHDOT
  62
1
  10
 874.530
  20
 761.475
  30
0.0
  11
 875.161
  21
 762.374
  31
0.0
   0
LINE
   8
LEVEL003
   6
DASHDOT
  62
1
  10
 875.161
  20
 762.374
  30
0.0
  11
 875.671
  21
 763.342
  31
0.0
   0
LINE
   8
LEVEL003
   6
DASHDOT
  62
1
  10
 875.671
  20
 763.342
  30
0.0
  11
 876.052
  21
 764.364
  31
0.0
   0
LINE
   8
LEVEL003
   6
DASHDOT
  62
1
  10
 876.052
  20
 764.364
  30
0.0
  11
 876.298
  21
 765.423
  31
0.0
   0
LINE
   8
LEVEL003
   6
DASHDOT
  62
1
  10
 876.298
  20
 765.423
  30
0.0
  11
 876.405
  21
 766.504
  31
0.0
   0
LINE
   8
LEVEL003
   6
DASHDOT
  62
1
  10
 876.405
  20
 766.504
  30
0.0
  11
 876.410
  21
 766.793
  31
0.0
   0
LINE
   8
LEVEL050
   6
DASHDOT
  62
1
  10
 867.410
  20
 781.793
  30
0.0
  11
 867.410
  21
 751.793
  31
0.0
   0
LINE
   8
LEVEL003
   6
CONTINUOUS
  62
3
  10
 871.310
  20
 760.592
  30
0.0
  11
 887.033
  21
 700.897
  31
0.0
   0
LINE
   8
LEVEL003
   6
CONTINUOUS
  62
3
  10
 887.033
  20
 700.897
  30
0.0
  11
 1012.35
  21
 700.897
  31
0.0
   0
LINE
   8
LEVEL003
   6
CONTINUOUS
  62
3
  10
 871.310
  20
 760.592
  30
0.0
  11
 872.321
  21
 748.449
  31
0.0
   0
LINE
   8
LEVEL003
   6
CONTINUOUS
  62
3
  10
 871.310
  20
 760.592
  30
0.0
  11
 876.413
  21
 749.527
  31
0.0
   0
TEXT
   8
LEVEL003
  62
3
  10
 890.110
  20
 702.244
  30
0.0
  40
 16.0000
   1
エア抜きプラグ
   7
STANDARD
   0
TEXT
   8
LEVEL003
  62
3
  10
 890.110
  20
 680.910
  30
0.0
  40
 16.0000
   1
検油棒及び給油口兼用
   7
STANDARD
   0
LINE
   8
LEVEL001
   6
CONTINUOUS
  62
7
  10
 490.410
  20
 837.763
  30
0.0
  11
 473.910
  21
 837.763
  31
0.0
   0
LINE
   8
LEVEL001
   6
CONTINUOUS
  62
7
  10
 473.910
  20
 772.763
  30
0.0
  11
 490.410
  21
 772.763
  31
0.0
   0
LINE
   8
LEVEL003
   6
CONTINUOUS
  62
3
  10
 683.667
  20
 377.171
  30
0.0
  11
 685.366
  21
 320.196
  31
0.0
   0
TEXT
   8
LEVEL003
  62
3
  10
 682.033
  20
 324.599
  30
0.0
  40
 16.0000
   1
%%c５７
  50
 91.7082
   7
STANDARD
  72
1
  11
 681.318
  21
 348.588
  31
0.0
   0
LINE
   8
LEVEL003
   6
CONTINUOUS
  62
3
  10
 681.909
  20
 365.113
  30
0.0
  11
 683.667
  21
 377.171
  31
0.0
   0
LINE
   8
LEVEL003
   6
CONTINUOUS
  62
3
  10
 683.667
  20
 377.171
  30
0.0
  11
 686.139
  21
 365.239
  31
0.0
   0
LINE
   8
LEVEL003
   6
CONTINUOUS
  62
3
  10
 687.123
  20
 332.254
  30
0.0
  11
 685.366
  21
 320.196
  31
0.0
   0
LINE
   8
LEVEL003
   6
CONTINUOUS
  62
3
  10
 685.366
  20
 320.196
  30
0.0
  11
 682.893
  21
 332.128
  31
0.0
   0
LINE
   8
LEVEL003
   6
CONTINUOUS
  62
3
  10
 665.426
  20
 376.873
  30
0.0
  11
 709.891
  21
 466.799
  31
0.0
   0
LINE
   8
LEVEL003
   6
CONTINUOUS
  62
3
  10
 709.891
  20
 466.799
  30
0.0
  11
 812.409
  21
 466.799
  31
0.0
   0
LINE
   8
LEVEL003
   6
CONTINUOUS
  62
3
  10
 665.426
  20
 376.873
  30
0.0
  11
 672.642
  21
 386.692
  31
0.0
   0
LINE
   8
LEVEL003
   6
CONTINUOUS
  62
3
  10
 665.426
  20
 376.873
  30
0.0
  11
 668.848
  21
 388.568
  31
0.0
   0
LINE
   8
LEVEL003
   6
CONTINUOUS
  62
3
  10
 902.586
  20
 302.029
  30
0.0
  11
 902.586
  21
 251.970
  31
0.0
   0
LINE
   8
LEVEL003
   6
CONTINUOUS
  62
3
  10
 867.574
  20
 301.941
  30
0.0
  11
 867.574
  21
 251.970
  31
0.0
   0
LINE
   8
LEVEL003
   6
CONTINUOUS
  62
3
  10
 902.586
  20
 259.970
  30
0.0
  11
 867.574
  21
 259.970
  31
0.0
   0
LINE
   8
LEVEL003
   6
CONTINUOUS
  62
3
  10
 902.586
  20
 259.970
  30
0.0
  11
 890.586
  21
 262.086
  31
0.0
   0
LINE
   8
LEVEL003
   6
CONTINUOUS
  62
3
  10
 902.586
  20
 259.970
  30
0.0
  11
 890.586
  21
 257.854
  31
0.0
   0
LINE
   8
LEVEL003
   6
CONTINUOUS
  62
3
  10
 867.574
  20
 259.970
  30
0.0
  11
 879.574
  21
 257.854
  31
0.0
   0
LINE
   8
LEVEL003
   6
CONTINUOUS
  62
3
  10
 867.574
  20
 259.970
  30
0.0
  11
 879.574
  21
 262.086
  31
0.0
   0
TEXT
   8
LEVEL003
  62
3
  10
 877.080
  20
 263.170
  30
0.0
  40
 16.0000
   1
35
  41
 0.500000
   7
STANDARD
  72
1
  11
 885.080
  21
 263.170
  31
0.0
   0
LINE
   8
LEVEL003
   6
CONTINUOUS
  62
3
  10
 427.410
  20
 301.000
  30
0.0
  11
 427.410
  21
 251.998
  31
0.0
   0
LINE
   8
LEVEL003
   6
CONTINUOUS
  62
3
  10
 467.382
  20
 302.178
  30
0.0
  11
 467.382
  21
 251.998
  31
0.0
   0
LINE
   8
LEVEL003
   6
CONTINUOUS
  62
3
  10
 427.410
  20
 259.998
  30
0.0
  11
 467.382
  21
 259.998
  31
0.0
   0
LINE
   8
LEVEL003
   6
CONTINUOUS
  62
3
  10
 427.410
  20
 259.998
  30
0.0
  11
 439.410
  21
 257.882
  31
0.0
   0
LINE
   8
LEVEL003
   6
CONTINUOUS
  62
3
  10
 427.410
  20
 259.998
  30
0.0
  11
 439.410
  21
 262.113
  31
0.0
   0
LINE
   8
LEVEL003
   6
CONTINUOUS
  62
3
  10
 467.382
  20
 259.998
  30
0.0
  11
 455.382
  21
 262.113
  31
0.0
   0
LINE
   8
LEVEL003
   6
CONTINUOUS
  62
3
  10
 467.382
  20
 259.998
  30
0.0
  11
 455.382
  21
 257.882
  31
0.0
   0
TEXT
   8
LEVEL003
  62
3
  10
 439.396
  20
 263.198
  30
0.0
  40
 16.0000
   1
40
  41
 0.500000
   7
STANDARD
  72
1
  11
 447.396
  21
 263.198
  31
0.0
   0
LINE
   8
LEVEL003
   6
CONTINUOUS
  62
3
  10
 902.586
  20
 302.029
  30
0.0
  11
 902.586
  21
 212.000
  31
0.0
   0
LINE
   8
LEVEL003
   6
CONTINUOUS
  62
3
  10
 427.410
  20
 301.000
  30
0.0
  11
 427.410
  21
 212.000
  31
0.0
   0
LINE
   8
LEVEL003
   6
CONTINUOUS
  62
3
  10
 902.586
  20
 220.000
  30
0.0
  11
 427.410
  21
 220.000
  31
0.0
   0
LINE
   8
LEVEL003
   6
CONTINUOUS
  62
3
  10
 902.586
  20
 220.000
  30
0.0
  11
 890.586
  21
 222.116
  31
0.0
   0
LINE
   8
LEVEL003
   6
CONTINUOUS
  62
3
  10
 902.586
  20
 220.000
  30
0.0
  11
 890.586
  21
 217.884
  31
0.0
   0
LINE
   8
LEVEL003
   6
CONTINUOUS
  62
3
  10
 427.410
  20
 220.000
  30
0.0
  11
 439.410
  21
 217.884
  31
0.0
   0
LINE
   8
LEVEL003
   6
CONTINUOUS
  62
3
  10
 427.410
  20
 220.000
  30
0.0
  11
 439.410
  21
 222.116
  31
0.0
   0
TEXT
   8
LEVEL003
  62
3
  10
 644.998
  20
 223.200
  30
0.0
  40
 16.0000
   1
約475
   7
STANDARD
  72
1
  11
 664.998
  21
 223.200
  31
0.0
   0
LINE
   8
LEVEL003
   6
CONTINUOUS
  62
3
  10
 397.318
  20
 422.859
  30
0.0
  11
 397.318
  21
 171.965
  31
0.0
   0
LINE
   8
LEVEL003
   6
CONTINUOUS
  62
3
  10
 981.679
  20
 449.150
  30
0.0
  11
 981.679
  21
 171.965
  31
0.0
   0
LINE
   8
LEVEL003
   6
CONTINUOUS
  62
3
  10
 397.318
  20
 179.965
  30
0.0
  11
 981.679
  21
 179.965
  31
0.0
   0
LINE
   8
LEVEL003
   6
CONTINUOUS
  62
3
  10
 397.318
  20
 179.965
  30
0.0
  11
 409.318
  21
 177.850
  31
0.0
   0
LINE
   8
LEVEL003
   6
CONTINUOUS
  62
3
  10
 397.318
  20
 179.965
  30
0.0
  11
 409.318
  21
 182.081
  31
0.0
   0
LINE
   8
LEVEL003
   6
CONTINUOUS
  62
3
  10
 981.679
  20
 179.965
  30
0.0
  11
 969.679
  21
 182.081
  31
0.0
   0
LINE
   8
LEVEL003
   6
CONTINUOUS
  62
3
  10
 981.679
  20
 179.965
  30
0.0
  11
 969.679
  21
 177.850
  31
0.0
   0
TEXT
   8
LEVEL003
  62
3
  10
 669.498
  20
 183.165
  30
0.0
  40
 16.0000
   1
約590
   7
STANDARD
  72
1
  11
 689.498
  21
 183.165
  31
0.0
   0
LINE
   8
LEVEL001
   6
DASHDOT
  62
1
  10
 219.947
  20
 365.331
  30
0.0
  11
 219.947
  21
 342.669
  31
0.0
   0
LINE
   8
LEVEL001
   6
DASHDOT
  62
1
  10
 197.947
  20
 363.578
  30
0.0
  11
 197.947
  21
 344.421
  31
0.0
   0
LINE
   8
LEVEL001
   6
CONTINUOUS
  62
7
  10
 171.947
  20
 341.913
  30
0.0
  11
 171.947
  21
 354.000
  31
0.0
   0
LINE
   8
LEVEL001
   6
CONTINUOUS
  62
7
  10
 171.947
  20
 366.087
  30
0.0
  11
 171.947
  21
 354.000
  31
0.0
   0
CIRCLE
   8
LEVEL001
   6
CONTINUOUS
  62
7
  10
 197.947
  20
 354.000
  30
0.0
  40
 7.00000
   0
LINE
   8
LEVEL001
   6
CONTINUOUS
  62
7
  10
 197.947
  20
 357.464
  30
0.0
  11
 200.947
  21
 355.732
  31
0.0
   0
LINE
   8
LEVEL001
   6
CONTINUOUS
  62
7
  10
 200.947
  20
 355.732
  30
0.0
  11
 200.947
  21
 352.268
  31
0.0
   0
LINE
   8
LEVEL001
   6
CONTINUOUS
  62
7
  10
 200.947
  20
 352.268
  30
0.0
  11
 197.947
  21
 350.536
  31
0.0
   0
LINE
   8
LEVEL001
   6
CONTINUOUS
  62
7
  10
 197.947
  20
 350.536
  30
0.0
  11
 194.947
  21
 352.268
  31
0.0
   0
LINE
   8
LEVEL001
   6
CONTINUOUS
  62
7
  10
 194.947
  20
 352.268
  30
0.0
  11
 194.947
  21
 355.732
  31
0.0
   0
LINE
   8
LEVEL001
   6
CONTINUOUS
  62
7
  10
 194.947
  20
 355.732
  30
0.0
  11
 197.947
  21
 357.464
  31
0.0
   0
CIRCLE
   8
LEVEL001
   6
CONTINUOUS
  62
7
  10
 197.947
  20
 354.000
  30
0.0
  40
 6.57850
   0
CIRCLE
   8
LEVEL001
   6
CONTINUOUS
  62
3
  10
 197.947
  20
 354.000
  30
0.0
  40
 5.72250
   0
LINE
   8
LEVEL001
   6
CONTINUOUS
  62
7
  10
 212.497
  20
 338.161
  30
0.0
  11
 191.915
  21
 345.526
  31
0.0
   0
ARC
   8
LEVEL001
   6
CONTINUOUS
  62
7
  10
 213.171
  20
 340.044
  30
0.0
  40
 2.00000
  50
 250.311
  51
 277.178
   0
LINE
   8
LEVEL001
   6
CONTINUOUS
  62
7
  10
 213.421
  20
 338.060
  30
0.0
  11
 221.821
  21
 339.118
  31
0.0
   0
LINE
   8
LEVEL001
   6
CONTINUOUS
  62
7
  10
 185.947
  20
 354.000
  30
0.0
  11
 185.947
  21
 362.391
  31
0.0
   0
ARC
   8
LEVEL001
   6
CONTINUOUS
  62
7
  10
 194.947
  20
 362.391
  30
0.0
  40
 9.00000
  50
 95.0000
  51
 180.000
   0
ARC
   8
LEVEL001
   6
CONTINUOUS
  62
7
  10
 212.644
  20
 370.966
  30
0.0
  40
 2.00000
  50
 68.0242
  51
 95.0000
   0
ARC
   8
LEVEL001
   6
CONTINUOUS
  62
7
  10
 194.947
  20
 354.000
  30
0.0
  40
 9.00003
  50
 180.000
  51
 250.311
   0
LINE
   8
LEVEL001
   6
CONTINUOUS
  62
7
  10
 212.469
  20
 372.958
  30
0.0
  11
 194.163
  21
 371.357
  31
0.0
   0
ARC
   8
LEVEL001
   6
CONTINUOUS
  62
7
  10
 171.947
  20
 309.167
  30
0.0
  40
 2.00000
  50
 95.0000
  51
 180.000
   0
LINE
   8
LEVEL001
   6
CONTINUOUS
  62
7
  10
 169.947
  20
 305.000
  30
0.0
  11
 169.947
  21
 309.167
  31
0.0
   0
LINE
   8
LEVEL001
   6
CONTINUOUS
  62
7
  10
 169.947
  20
 305.000
  30
0.0
  11
 264.947
  21
 305.000
  31
0.0
   0
ARC
   8
LEVEL001
   6
CONTINUOUS
  62
7
  10
 262.947
  20
 309.167
  30
0.0
  40
 2.00000
  50
 0.960782E-10
  51
 85.0000
   0
LINE
   8
LEVEL001
   6
CONTINUOUS
  62
7
  10
 264.947
  20
 305.000
  30
0.0
  11
 264.947
  21
 309.167
  31
0.0
   0
ARC
   8
LEVEL001
   6
CONTINUOUS
  62
7
  10
 195.884
  20
 384.580
  30
0.0
  40
 2.00000
  50
 95.0000
  51
 110.000
   0
ARC
   8
LEVEL001
   6
CONTINUOUS
  62
7
  10
 192.447
  20
 388.650
  30
0.0
  40
 3.00000
  50
 290.000
  51
0.0
   0
LINE
   8
LEVEL001
   6
CONTINUOUS
  62
7
  10
 174.960
  20
 379.093
  30
0.0
  11
 195.686
  21
 386.637
  31
0.0
   0
LINE
   8
LEVEL001
   6
CONTINUOUS
  62
7
  10
 195.709
  20
 386.573
  30
0.0
  11
 206.209
  21
 387.491
  31
0.0
   0
ARC
   8
LEVEL001
   6
CONTINUOUS
  62
7
  10
 205.947
  20
 390.480
  30
0.0
  40
 3.00000
  50
 275.000
  51
0.0
   0
LINE
   8
LEVEL001
   6
CONTINUOUS
  62
7
  10
 192.947
  20
 403.000
  30
0.0
  11
 193.947
  21
 404.000
  31
0.0
   0
LINE
   8
LEVEL001
   6
CONTINUOUS
  62
7
  10
 193.947
  20
 404.000
  30
0.0
  11
 197.947
  21
 404.000
  31
0.0
   0
LINE
   8
LEVEL001
   6
CONTINUOUS
  62
7
  10
 227.947
  20
 404.000
  30
0.0
  11
 231.947
  21
 404.000
  31
0.0
   0
LINE
   8
LEVEL001
   6
CONTINUOUS
  62
7
  10
 231.947
  20
 404.000
  30
0.0
  11
 232.947
  21
 403.000
  31
0.0
   0
LINE
   8
LEVEL001
   6
CONTINUOUS
  62
7
  10
 192.947
  20
 403.000
  30
0.0
  11
 197.975
  21
 403.000
  31
0.0
   0
LINE
   8
LEVEL001
   6
CONTINUOUS
  62
7
  10
 232.947
  20
 403.000
  30
0.0
  11
 227.947
  21
 403.000
  31
0.0
   0
ARC
   8
LEVEL001
   6
CONTINUOUS
  62
7
  10
 219.947
  20
 425.000
  30
0.0
  40
 3.00000
  50
 90.0000
  51
 180.000
   0
LINE
   8
LEVEL001
   6
CONTINUOUS
  62
7
  10
 212.947
  20
 438.000
  30
0.0
  11
 203.947
  21
 437.213
  31
0.0
   0
ARC
   8
LEVEL001
   6
CONTINUOUS
  62
7
  10
 205.947
  20
 425.000
  30
0.0
  40
 3.00000
  50
0.0
  51
 90.0000
   0
LINE
   8
LEVEL001
   6
CONTINUOUS
  62
7
  10
 195.447
  20
 392.500
  30
0.0
  11
 205.947
  21
 392.500
  31
0.0
   0
ARC
   8
LEVEL001
   6
CONTINUOUS
  62
7
  10
 194.947
  20
 394.500
  30
0.0
  40
 2.00000
  50
 179.999
  51
 240.000
   0
ARC
   8
LEVEL001
   6
CONTINUOUS
  62
7
  10
 192.447
  20
 390.170
  30
0.0
  40
 3.00000
  50
 0.358258E-10
  51
 60.0000
   0
ARC
   8
LEVEL001
   6
CONTINUOUS
  62
7
  10
 233.447
  20
 390.170
  30
0.0
  40
 3.00000
  50
 120.000
  51
 180.000
   0
ARC
   8
LEVEL001
   6
CONTINUOUS
  62
7
  10
 230.947
  20
 394.500
  30
0.0
  40
 2.00000
  50
 300.000
  51
 0.928922E-3
   0
LINE
   8
LEVEL001
   6
CONTINUOUS
  62
7
  10
 192.947
  20
 394.500
  30
0.0
  11
 192.947
  21
 403.000
  31
0.0
   0
LINE
   8
LEVEL001
   6
CONTINUOUS
  62
7
  10
 232.947
  20
 403.000
  30
0.0
  11
 232.947
  21
 394.500
  31
0.0
   0
LINE
   8
LEVEL001
   6
CONTINUOUS
  62
7
  10
 195.447
  20
 390.170
  30
0.0
  11
 195.447
  21
 388.650
  31
0.0
   0
LINE
   8
LEVEL003
   6
CONTINUOUS
  62
7
  10
 230.447
  20
 377.500
  30
0.0
  11
 231.447
  21
 377.500
  31
0.0
   0
LINE
   8
LEVEL003
   6
CONTINUOUS
  62
7
  10
 231.447
  20
 377.500
  30
0.0
  11
 231.447
  21
 387.500
  31
0.0
   0
LINE
   8
LEVEL003
   6
CONTINUOUS
  62
7
  10
 231.447
  20
 387.500
  30
0.0
  11
 230.447
  21
 387.500
  31
0.0
   0
ARC
   8
LEVEL001
   6
CONTINUOUS
  62
7
  10
 225.947
  20
 397.833
  30
0.0
  40
 2.00000
  50
 275.000
  51
0.0
   0
ARC
   8
LEVEL001
   6
CONTINUOUS
  62
7
  10
 219.947
  20
 392.289
  30
0.0
  40
 3.00000
  50
 95.0000
  51
 180.000
   0
LINE
   8
LEVEL001
   6
CONTINUOUS
  62
7
  10
 226.122
  20
 395.840
  30
0.0
  11
 219.686
  21
 395.277
  31
0.0
   0
ARC
   8
LEVEL001
   6
CONTINUOUS
  62
7
  10
 199.947
  20
 397.833
  30
0.0
  40
 2.00000
  50
 180.000
  51
 265.000
   0
ARC
   8
LEVEL001
   6
CONTINUOUS
  62
7
  10
 205.947
  20
 392.289
  30
0.0
  40
 3.00000
  50
0.0
  51
 85.0000
   0
LINE
   8
LEVEL001
   6
CONTINUOUS
  62
7
  10
 206.209
  20
 395.277
  30
0.0
  11
 199.773
  21
 395.840
  31
0.0
   0
ARC
   8
LEVEL003
   6
CONTINUOUS
  62
7
  10
 195.447
  20
 408.966
  30
0.0
  40
 1.00000
  50
 180.000
  51
 268.000
   0
LINE
   8
LEVEL003
   6
CONTINUOUS
  62
7
  10
 194.447
  20
 438.000
  30
0.0
  11
 194.447
  21
 408.966
  31
0.0
   0
ARC
   8
LEVEL003
   6
CONTINUOUS
  62
7
  10
 194.447
  20
 440.000
  30
0.0
  40
 2.00000
  50
 270.000
  51
 0.651378E-11
   0
ARC
   8
LEVEL003
   6
CONTINUOUS
  62
7
  10
 198.447
  20
 443.493
  30
0.0
  40
 2.00000
  50
 92.0000
  51
 180.000
   0
LINE
   8
LEVEL003
   6
CONTINUOUS
  62
7
  10
 198.377
  20
 445.491
  30
0.0
  11
 212.947
  21
 446.000
  31
0.0
   0
ARC
   8
LEVEL003
   6
CONTINUOUS
  62
7
  10
 231.447
  20
 440.000
  30
0.0
  40
 2.00000
  50
 180.000
  51
 270.000
   0
LINE
   8
LEVEL003
   6
CONTINUOUS
  62
7
  10
 212.947
  20
 446.000
  30
0.0
  11
 227.517
  21
 445.491
  31
0.0
   0
ARC
   8
LEVEL003
   6
CONTINUOUS
  62
7
  10
 227.447
  20
 443.493
  30
0.0
  40
 2.00000
  50
0.0
  51
 88.0000
   0
LINE
   8
LEVEL003
   6
CONTINUOUS
  62
7
  10
 231.447
  20
 438.000
  30
0.0
  11
 231.447
  21
 408.966
  31
0.0
   0
ARC
   8
LEVEL003
   6
CONTINUOUS
  62
7
  10
 230.447
  20
 408.966
  30
0.0
  40
 1.00000
  50
 272.000
  51
 0.566699E-9
   0
LINE
   8
LEVEL003
   6
CONTINUOUS
  62
7
  10
 196.447
  20
 443.493
  30
0.0
  11
 196.447
  21
 404.000
  31
0.0
   0
LINE
   8
LEVEL003
   6
CONTINUOUS
  62
7
  10
 229.447
  20
 443.493
  30
0.0
  11
 229.447
  21
 404.000
  31
0.0
   0
LINE
   8
LEVEL003
   6
CONTINUOUS
  62
7
  10
 197.947
  20
 407.878
  30
0.0
  11
 195.412
  21
 407.967
  31
0.0
   0
LINE
   8
LEVEL003
   6
CONTINUOUS
  62
7
  10
 227.947
  20
 407.878
  30
0.0
  11
 230.482
  21
 407.967
  31
0.0
   0
LINE
   8
LEVEL001
   6
DASHDOT
  62
1
  10
 185.000
  20
 428.000
  30
0.0
  11
 240.000
  21
 428.000
  31
0.0
   0
LINE
   8
LEVEL001
   6
CONTINUOUS
  62
7
  10
 231.697
  20
 423.000
  30
0.0
  11
 231.697
  21
 413.000
  31
0.0
   0
LINE
   8
LEVEL001
   6
CONTINUOUS
  62
7
  10
 231.697
  20
 423.000
  30
0.0
  11
 231.447
  21
 423.000
  31
0.0
   0
LINE
   8
LEVEL001
   6
CONTINUOUS
  62
7
  10
 231.697
  20
 423.000
  30
0.0
  11
 232.697
  21
 422.000
  31
0.0
   0
LINE
   8
LEVEL001
   6
CONTINUOUS
  62
7
  10
 231.697
  20
 413.000
  30
0.0
  11
 231.447
  21
 413.000
  31
0.0
   0
LINE
   8
LEVEL001
   6
CONTINUOUS
  62
7
  10
 231.697
  20
 413.000
  30
0.0
  11
 232.697
  21
 414.000
  31
0.0
   0
LINE
   8
LEVEL001
   6
CONTINUOUS
  62
7
  10
 232.697
  20
 422.000
  30
0.0
  11
 232.697
  21
 414.000
  31
0.0
   0
LINE
   8
LEVEL001
   6
CONTINUOUS
  62
7
  10
 194.197
  20
 423.000
  30
0.0
  11
 194.197
  21
 413.000
  31
0.0
   0
LINE
   8
LEVEL001
   6
CONTINUOUS
  62
7
  10
 194.197
  20
 423.000
  30
0.0
  11
 194.447
  21
 423.000
  31
0.0
   0
LINE
   8
LEVEL001
   6
CONTINUOUS
  62
7
  10
 194.197
  20
 423.000
  30
0.0
  11
 193.197
  21
 422.000
  31
0.0
   0
LINE
   8
LEVEL001
   6
CONTINUOUS
  62
7
  10
 194.197
  20
 413.000
  30
0.0
  11
 194.447
  21
 413.000
  31
0.0
   0
LINE
   8
LEVEL001
   6
CONTINUOUS
  62
7
  10
 194.197
  20
 413.000
  30
0.0
  11
 193.197
  21
 414.000
  31
0.0
   0
LINE
   8
LEVEL001
   6
CONTINUOUS
  62
7
  10
 193.197
  20
 422.000
  30
0.0
  11
 193.197
  21
 414.000
  31
0.0
   0
LINE
   8
LEVEL003
   6
DASHDOT
  62
1
  10
 190.000
  20
 418.000
  30
0.0
  11
 235.000
  21
 418.000
  31
0.0
   0
LINE
   8
LEVEL001
   6
CONTINUOUS
  62
7
  10
 236.447
  20
 433.000
  30
0.0
  11
 231.447
  21
 433.000
  31
0.0
   0
LINE
   8
LEVEL001
   6
CONTINUOUS
  62
7
  10
 236.447
  20
 433.000
  30
0.0
  11
 237.447
  21
 432.000
  31
0.0
   0
LINE
   8
LEVEL001
   6
CONTINUOUS
  62
7
  10
 237.447
  20
 432.000
  30
0.0
  11
 237.447
  21
 424.000
  31
0.0
   0
LINE
   8
LEVEL001
   6
CONTINUOUS
  62
7
  10
 237.447
  20
 424.000
  30
0.0
  11
 236.447
  21
 423.000
  31
0.0
   0
LINE
   8
LEVEL001
   6
CONTINUOUS
  62
7
  10
 231.697
  20
 423.000
  30
0.0
  11
 236.447
  21
 423.000
  31
0.0
   0
LINE
   8
LEVEL001
   6
CONTINUOUS
  62
7
  10
 236.447
  20
 433.000
  30
0.0
  11
 236.447
  21
 423.000
  31
0.0
   0
LINE
   8
LEVEL001
   6
CONTINUOUS
  62
7
  10
 189.447
  20
 433.000
  30
0.0
  11
 194.447
  21
 433.000
  31
0.0
   0
LINE
   8
LEVEL001
   6
CONTINUOUS
  62
7
  10
 189.447
  20
 433.000
  30
0.0
  11
 188.447
  21
 432.000
  31
0.0
   0
LINE
   8
LEVEL001
   6
CONTINUOUS
  62
7
  10
 188.447
  20
 432.000
  30
0.0
  11
 188.447
  21
 424.000
  31
0.0
   0
LINE
   8
LEVEL001
   6
CONTINUOUS
  62
7
  10
 188.447
  20
 424.000
  30
0.0
  11
 189.447
  21
 423.000
  31
0.0
   0
LINE
   8
LEVEL001
   6
CONTINUOUS
  62
7
  10
 194.197
  20
 423.000
  30
0.0
  11
 189.447
  21
 423.000
  31
0.0
   0
LINE
   8
LEVEL001
   6
CONTINUOUS
  62
7
  10
 189.447
  20
 433.000
  30
0.0
  11
 189.447
  21
 423.000
  31
0.0
   0
LINE
   8
LEVEL001
   6
DASHDOT
  62
1
  10
 233.947
  20
 435.952
  30
0.0
  11
 233.947
  21
 422.374
  31
0.0
   0
LINE
   8
LEVEL001
   6
CONTINUOUS
  62
7
  10
 233.147
  20
 425.375
  30
0.0
  11
 233.147
  21
 431.775
  31
0.0
   0
LINE
   8
LEVEL001
   6
CONTINUOUS
  62
7
  10
 234.747
  20
 431.775
  30
0.0
  11
 234.747
  21
 425.375
  31
0.0
   0
ARC
   8
LEVEL001
   6
CONTINUOUS
  62
7
  10
 233.947
  20
 431.775
  30
0.0
  40
 0.800000
  50
0.0
  51
 180.000
   0
ARC
   8
LEVEL001
   6
CONTINUOUS
  62
7
  10
 233.947
  20
 425.375
  30
0.0
  40
 0.800000
  50
 180.000
  51
0.0
   0
LINE
   8
LEVEL001
   6
CONTINUOUS
  62
7
  10
 233.147
  20
 434.250
  30
0.0
  11
 233.147
  21
 433.000
  31
0.0
   0
LINE
   8
LEVEL001
   6
CONTINUOUS
  62
7
  10
 234.747
  20
 434.250
  30
0.0
  11
 234.747
  21
 433.000
  31
0.0
   0
ARC
   8
LEVEL001
   6
CONTINUOUS
  62
7
  10
 233.947
  20
 434.250
  30
0.0
  40
 0.800000
  50
0.0
  51
 180.000
   0
LINE
   8
LEVEL001
   6
DASHDOT
  62
1
  10
 191.947
  20
 435.952
  30
0.0
  11
 191.947
  21
 422.374
  31
0.0
   0
LINE
   8
LEVEL001
   6
CONTINUOUS
  62
7
  10
 192.747
  20
 434.250
  30
0.0
  11
 192.747
  21
 433.000
  31
0.0
   0
LINE
   8
LEVEL001
   6
CONTINUOUS
  62
7
  10
 191.147
  20
 434.250
  30
0.0
  11
 191.147
  21
 433.000
  31
0.0
   0
ARC
   8
LEVEL001
   6
CONTINUOUS
  62
7
  10
 191.947
  20
 434.250
  30
0.0
  40
 0.800000
  50
0.0
  51
 180.000
   0
LINE
   8
LEVEL001
   6
CONTINUOUS
  62
7
  10
 192.747
  20
 425.375
  30
0.0
  11
 192.747
  21
 431.775
  31
0.0
   0
LINE
   8
LEVEL001
   6
CONTINUOUS
  62
7
  10
 191.147
  20
 431.775
  30
0.0
  11
 191.147
  21
 425.375
  31
0.0
   0
ARC
   8
LEVEL001
   6
CONTINUOUS
  62
7
  10
 191.947
  20
 431.775
  30
0.0
  40
 0.800000
  50
0.0
  51
 180.000
   0
ARC
   8
LEVEL001
   6
CONTINUOUS
  62
7
  10
 191.947
  20
 425.375
  30
0.0
  40
 0.800000
  50
 180.000
  51
0.0
   0
LINE
   8
LEVEL003
   6
CONTINUOUS
  62
7
  10
 199.450
  20
 416.878
  30
0.0
  11
 203.447
  21
 420.877
  31
0.0
   0
LINE
   8
LEVEL003
   6
CONTINUOUS
  62
7
  10
 222.447
  20
 420.877
  30
0.0
  11
 226.444
  21
 416.878
  31
0.0
   0
LINE
   8
LEVEL003
   6
CONTINUOUS
  62
7
  10
 226.444
  20
 416.895
  30
0.0
  11
 231.446
  21
 417.070
  31
0.0
   0
LINE
   8
LEVEL003
   6
CONTINUOUS
  62
7
  10
 194.448
  20
 417.070
  30
0.0
  11
 199.451
  21
 416.895
  31
0.0
   0
LINE
   8
LEVEL003
   6
CONTINUOUS
  62
7
  10
 222.447
  20
 431.000
  30
0.0
  11
 229.447
  21
 431.000
  31
0.0
   0
LINE
   8
LEVEL001
   6
CONTINUOUS
  62
7
  10
 212.947
  20
 438.000
  30
0.0
  11
 222.447
  21
 437.169
  31
0.0
   0
LINE
   8
LEVEL001
   6
CONTINUOUS
  62
7
  10
 222.447
  20
 440.676
  30
0.0
  11
 229.447
  21
 440.676
  31
0.0
   0
LINE
   8
LEVEL001
   6
CONTINUOUS
  62
7
  10
 196.447
  20
 440.676
  30
0.0
  11
 203.447
  21
 440.676
  31
0.0
   0
LINE
   8
LEVEL001
   6
CONTINUOUS
  62
7
  10
 203.447
  20
 441.000
  30
0.0
  11
 222.447
  21
 441.000
  31
0.0
   0
LINE
   8
LEVEL003
   6
CONTINUOUS
  62
7
  10
 196.447
  20
 431.000
  30
0.0
  11
 203.447
  21
 431.000
  31
0.0
   0
ARC
   8
LEVEL001
   6
CONTINUOUS
  62
7
  10
 199.947
  20
 409.667
  30
0.0
  40
 2.00000
  50
 170.420
  51
 180.000
   0
ARC
   8
LEVEL001
   6
CONTINUOUS
  62
7
  10
 199.947
  20
 409.479
  30
0.0
  40
 2.00000
  50
 170.420
  51
 180.000
   0
ARC
   8
LEVEL001
   6
CONTINUOUS
  62
7
  10
 225.947
  20
 409.479
  30
0.0
  40
 2.00000
  50
0.0
  51
 9.57962
   0
LINE
   8
LEVEL001
   6
CONTINUOUS
  62
7
  10
 227.947
  20
 409.668
  30
0.0
  11
 227.947
  21
 397.833
  31
0.0
   0
ARC
   8
LEVEL001
   6
CONTINUOUS
  62
7
  10
 225.947
  20
 409.668
  30
0.0
  40
 2.00000
  50
 0.241661E-8
  51
 4.17184
   0
LINE
   8
LEVEL001
   6
CONTINUOUS
  62
7
  10
 197.947
  20
 409.479
  30
0.0
  11
 197.947
  21
 397.833
  31
0.0
   0
LINE
   8
LEVEL001
   6
CONTINUOUS
  62
7
  10
 253.168
  20
 378.349
  30
0.0
  11
 236.149
  21
 384.209
  31
0.0
   0
LINE
   8
LEVEL001
   6
CONTINUOUS
  62
7
  10
 232.438
  20
 373.430
  30
0.0
  11
 236.149
  21
 384.209
  31
0.0
   0
LINE
   8
LEVEL001
   6
CONTINUOUS
  62
7
  10
 236.149
  20
 384.209
  30
0.0
  11
 237.327
  21
 384.438
  31
0.0
   0
LINE
   8
LEVEL001
   6
CONTINUOUS
  62
7
  10
 237.327
  20
 384.438
  30
0.0
  11
 252.381
  21
 379.254
  31
0.0
   0
LINE
   8
LEVEL001
   6
CONTINUOUS
  62
7
  10
 252.381
  20
 379.254
  30
0.0
  11
 253.168
  21
 378.349
  31
0.0
   0
LINE
   8
LEVEL001
   6
CONTINUOUS
  62
7
  10
 253.168
  20
 378.349
  30
0.0
  11
 249.457
  21
 367.570
  31
0.0
   0
LINE
   8
LEVEL001
   6
DASHDOT
  62
1
  10
 245.835
  20
 384.694
  30
0.0
  11
 221.155
  21
 313.020
  31
0.0
   0
LINE
   8
LEVEL001
   6
CONTINUOUS
  62
7
  10
 230.447
  20
 390.170
  30
0.0
  11
 230.447
  21
 376.255
  31
0.0
   0
ARC
   8
LEVEL001
   6
CONTINUOUS
  62
7
  10
 249.751
  20
 365.353
  30
0.0
  40
 2.00000
  50
 341.000
  51
 71.0000
   0
LINE
   8
LEVEL001
   6
CONTINUOUS
  62
7
  10
 251.642
  20
 364.702
  30
0.0
  11
 247.947
  21
 353.971
  31
0.0
   0
ARC
   8
LEVEL003
   6
CONTINUOUS
  62
7
  10
 230.028
  20
 372.144
  30
0.0
  40
 2.00000
  50
 71.0000
  51
 85.0000
   0
ARC
   8
LEVEL001
   6
CONTINUOUS
  62
7
  10
 233.447
  20
 376.255
  30
0.0
  40
 3.00000
  50
 180.000
  51
 251.000
   0
LINE
   8
LEVEL001
   6
CONTINUOUS
  62
7
  10
 232.255
  20
 373.664
  30
0.0
  11
 230.960
  21
 374.135
  31
0.0
   0
LINE
   8
LEVEL001
   6
CONTINUOUS
  62
7
  10
 250.402
  20
 367.244
  30
0.0
  11
 230.679
  21
 374.035
  31
0.0
   0
ARC
   8
LEVEL001
   6
CONTINUOUS
  62
7
  10
 219.947
  20
 373.410
  30
0.0
  40
 3.00000
  50
 180.000
  51
 248.024
   0
ARC
   8
LEVEL001
   6
CONTINUOUS
  62
7
  10
 219.947
  20
 378.046
  30
0.0
  40
 3.00000
  50
 180.000
  51
 265.000
   0
LINE
   8
LEVEL001
   6
CONTINUOUS
  62
7
  10
 216.947
  20
 425.000
  30
0.0
  11
 216.947
  21
 373.410
  31
0.0
   0
LINE
   8
LEVEL003
   6
CONTINUOUS
  62
7
  10
 219.686
  20
 375.057
  30
0.0
  11
 230.203
  21
 374.137
  31
0.0
   0
ARC
   8
LEVEL001
   6
CONTINUOUS
  62
7
  10
 203.947
  20
 377.232
  30
0.0
  40
 5.00000
  50
 275.000
  51
 0.306147E-10
   0
LINE
   8
LEVEL001
   6
CONTINUOUS
  62
7
  10
 208.947
  20
 425.000
  30
0.0
  11
 208.947
  21
 377.232
  31
0.0
   0
ARC
   8
LEVEL001
   6
CONTINUOUS
  62
7
  10
 194.059
  20
 369.013
  30
0.0
  40
 3.00000
  50
 55.8214
  51
 85.0000
   0
ARC
   8
LEVEL001
   6
CONTINUOUS
  62
7
  10
 219.947
  20
 354.000
  30
0.0
  40
 15.0000
  50
 277.178
  51
 292.393
   0
LINE
   8
LEVEL003
   6
CONTINUOUS
  62
7
  10
 225.661
  20
 340.131
  30
0.0
  11
 243.614
  21
 347.528
  31
0.0
   0
ARC
   8
LEVEL001
   6
CONTINUOUS
  62
7
  10
 219.947
  20
 354.000
  30
0.0
  40
 15.0000
  50
 67.6073
  51
 68.0242
   0
LINE
   8
LEVEL001
   6
CONTINUOUS
  62
7
  10
 213.392
  20
 372.820
  30
0.0
  11
 225.560
  21
 367.910
  31
0.0
   0
LINE
   8
LEVEL003
   6
CONTINUOUS
  62
7
  10
 225.661
  20
 367.869
  30
0.0
  11
 243.614
  21
 360.472
  31
0.0
   0
ARC
   8
LEVEL001
   6
CONTINUOUS
  62
7
  10
 255.852
  20
 346.212
  30
0.0
  40
 10.0000
  50
 161.000
  51
 222.095
   0
ARC
   8
LEVEL001
   6
CONTINUOUS
  62
7
  10
 212.947
  20
 341.000
  30
0.0
  40
 33.5000
  50
 3.38600
  51
 11.4809
   0
ARC
   8
LEVEL001
   6
CONTINUOUS
  62
7
  10
 240.947
  20
 354.000
  30
0.0
  40
 7.00000
  50
 294.901
  51
 71.9238
   0
ARC
   8
LEVEL001
   6
CONTINUOUS
  62
7
  10
 246.947
  20
 338.167
  30
0.0
  40
 2.00000
  50
 0.120505E-9
  51
 42.0945
   0
LINE
   8
LEVEL001
   6
CONTINUOUS
  62
7
  10
 248.947
  20
 333.000
  30
0.0
  11
 248.947
  21
 338.167
  31
0.0
   0
LINE
   8
LEVEL001
   6
CONTINUOUS
  62
7
  10
 240.947
  20
 356.309
  30
0.0
  11
 242.947
  21
 355.155
  31
0.0
   0
LINE
   8
LEVEL001
   6
CONTINUOUS
  62
7
  10
 242.947
  20
 355.155
  30
0.0
  11
 242.947
  21
 352.845
  31
0.0
   0
LINE
   8
LEVEL001
   6
CONTINUOUS
  62
7
  10
 242.947
  20
 352.845
  30
0.0
  11
 240.947
  21
 351.691
  31
0.0
   0
LINE
   8
LEVEL001
   6
CONTINUOUS
  62
7
  10
 240.947
  20
 351.691
  30
0.0
  11
 238.947
  21
 352.845
  31
0.0
   0
LINE
   8
LEVEL001
   6
CONTINUOUS
  62
7
  10
 238.947
  20
 352.845
  30
0.0
  11
 238.947
  21
 355.155
  31
0.0
   0
LINE
   8
LEVEL001
   6
CONTINUOUS
  62
7
  10
 238.947
  20
 355.155
  30
0.0
  11
 240.947
  21
 356.309
  31
0.0
   0
CIRCLE
   8
LEVEL001
   6
CONTINUOUS
  62
7
  10
 240.947
  20
 354.000
  30
0.0
  40
 4.00000
   0
CIRCLE
   8
LEVEL001
   6
CONTINUOUS
  62
3
  10
 240.947
  20
 354.000
  30
0.0
  40
 3.37500
   0
LINE
   8
LEVEL001
   6
DASHDOT
  62
1
  10
 240.947
  20
 361.000
  30
0.0
  11
 240.947
  21
 347.000
  31
0.0
   0
LINE
   8
LEVEL001
   6
DASHDOT
  62
1
  10
 249.365
  20
 341.000
  30
0.0
  11
 177.947
  21
 341.000
  31
0.0
   0
LINE
   8
LEVEL001
   6
DASHDOT
  62
1
  10
 249.365
  20
 341.000
  30
0.0
  11
 177.947
  21
 341.000
  31
0.0
   0
LINE
   8
LEVEL003
   6
CONTINUOUS
  62
7
  10
 227.144
  20
 326.970
  30
0.0
  11
 212.122
  21
 328.284
  31
0.0
   0
ARC
   8
LEVEL001
   6
CONTINUOUS
  62
7
  10
 246.947
  20
 327.833
  30
0.0
  40
 2.00000
  50
 275.000
  51
 0.846791E-10
   0
ARC
   8
LEVEL001
   6
CONTINUOUS
  62
7
  10
 243.153
  20
 320.474
  30
0.0
  40
 5.00000
  50
 95.0000
  51
 204.492
   0
ARC
   8
LEVEL001
   6
CONTINUOUS
  62
7
  10
 247.703
  20
 322.547
  30
0.0
  40
 10.0000
  50
 161.000
  51
 265.000
   0
ARC
   8
LEVEL001
   6
CONTINUOUS
  62
7
  10
 212.947
  20
 341.000
  30
0.0
  40
 33.5000
  50
 319.210
  51
 332.428
   0
ARC
   8
LEVEL003
   6
CONTINUOUS
  62
7
  10
 226.447
  20
 319.000
  30
0.0
  40
 8.00000
  50
 12.4107
  51
 85.0000
   0
ARC
   8
LEVEL003
   6
CONTINUOUS
  62
7
  10
 244.027
  20
 322.869
  30
0.0
  40
 10.0000
  50
 192.411
  51
 265.000
   0
LINE
   8
LEVEL001
   6
CONTINUOUS
  62
7
  10
 248.947
  20
 327.833
  30
0.0
  11
 248.947
  21
 333.000
  31
0.0
   0
LINE
   8
LEVEL001
   6
CONTINUOUS
  62
7
  10
 247.122
  20
 325.840
  30
0.0
  11
 242.717
  21
 325.455
  31
0.0
   0
LINE
   8
LEVEL001
   6
CONTINUOUS
  62
7
  10
 263.122
  20
 311.160
  30
0.0
  11
 243.155
  21
 312.907
  31
0.0
   0
LINE
   8
LEVEL001
   6
CONTINUOUS
  62
7
  10
 246.481
  20
 349.714
  30
0.0
  11
 238.248
  21
 325.803
  31
0.0
   0
LINE
   8
LEVEL001
   6
CONTINUOUS
  62
7
  10
 220.947
  20
 320.387
  30
0.0
  11
 223.447
  21
 318.943
  31
0.0
   0
LINE
   8
LEVEL001
   6
CONTINUOUS
  62
7
  10
 223.447
  20
 318.943
  30
0.0
  11
 223.447
  21
 316.057
  31
0.0
   0
LINE
   8
LEVEL001
   6
CONTINUOUS
  62
7
  10
 223.447
  20
 316.057
  30
0.0
  11
 220.947
  21
 314.613
  31
0.0
   0
LINE
   8
LEVEL001
   6
CONTINUOUS
  62
7
  10
 220.947
  20
 314.613
  30
0.0
  11
 218.447
  21
 316.057
  31
0.0
   0
LINE
   8
LEVEL001
   6
CONTINUOUS
  62
7
  10
 218.447
  20
 316.057
  30
0.0
  11
 218.447
  21
 318.943
  31
0.0
   0
LINE
   8
LEVEL001
   6
CONTINUOUS
  62
7
  10
 218.447
  20
 318.943
  30
0.0
  11
 220.947
  21
 320.387
  31
0.0
   0
CIRCLE
   8
LEVEL001
   6
CONTINUOUS
  62
7
  10
 220.947
  20
 317.500
  30
0.0
  40
 4.86400
   0
CIRCLE
   8
LEVEL001
   6
CONTINUOUS
  62
3
  10
 220.947
  20
 317.500
  30
0.0
  40
 4.28300
   0
LINE
   8
LEVEL001
   6
DASHDOT
  62
1
  10
 228.811
  20
 317.500
  30
0.0
  11
 213.083
  21
 317.500
  31
0.0
   0
LINE
   8
LEVEL001
   6
DASHDOT
  62
1
  10
 220.947
  20
 325.364
  30
0.0
  11
 220.947
  21
 309.636
  31
0.0
   0
ARC
   8
LEVEL001
   6
CONTINUOUS
  62
7
  10
 204.947
  20
 319.081
  30
0.0
  40
 5.00000
  50
 275.000
  51
 0.716515E-11
   0
ARC
   8
LEVEL001
   6
CONTINUOUS
  62
7
  10
 184.970
  20
 322.353
  30
0.0
  40
 10.0000
  50
 275.000
  51
 20.0000
   0
ARC
   8
LEVEL001
   6
CONTINUOUS
  62
7
  10
 211.947
  20
 326.292
  30
0.0
  40
 2.00000
  50
 85.0000
  51
 180.000
   0
LINE
   8
LEVEL001
   6
CONTINUOUS
  62
7
  10
 171.773
  20
 311.160
  30
0.0
  11
 205.383
  21
 314.100
  31
0.0
   0
LINE
   8
LEVEL001
   6
DASHDOT
  62
1
  10
 251.947
  20
 333.000
  30
0.0
  11
 193.960
  21
 333.000
  31
0.0
   0
ARC
   8
LEVEL001
   6
CONTINUOUS
  62
7
  10
 175.644
  20
 377.213
  30
0.0
  40
 2.00000
  50
 110.000
  51
 200.000
   0
ARC
   8
LEVEL001
   6
CONTINUOUS
  62
7
  10
 174.783
  20
 370.807
  30
0.0
  40
 3.00000
  50
 20.0000
  51
 73.1301
   0
ARC
   8
LEVEL001
   6
CONTINUOUS
  62
7
  10
 176.234
  20
 375.592
  30
0.0
  40
 2.00000
  50
 200.000
  51
 253.130
   0
LINE
   8
LEVEL001
   6
CONTINUOUS
  62
7
  10
 173.764
  20
 376.529
  30
0.0
  11
 174.355
  21
 374.908
  31
0.0
   0
LINE
   8
LEVEL001
   6
CONTINUOUS
  62
7
  10
 194.321
  20
 372.002
  30
0.0
  11
 176.060
  21
 373.599
  31
0.0
   0
LINE
   8
LEVEL001
   6
CONTINUOUS
  62
7
  10
 230.447
  20
 392.500
  30
0.0
  11
 219.947
  21
 392.500
  31
0.0
   0
ARC
   8
LEVEL001
   6
CONTINUOUS
  62
7
  10
 225.947
  20
 409.667
  30
0.0
  40
 2.00000
  50
 0.283349E-9
  51
 41.7903
   0
LINE
   8
LEVEL001
   6
CONTINUOUS
  62
7
  10
 222.447
  20
 411.000
  30
0.0
  11
 227.438
  21
 411.000
  31
0.0
   0
ARC
   8
LEVEL001
   6
CONTINUOUS
  62
7
  10
 199.947
  20
 409.668
  30
0.0
  40
 2.00000
  50
 138.216
  51
 180.000
   0
LINE
   8
LEVEL001
   6
CONTINUOUS
  62
7
  10
 198.456
  20
 411.000
  30
0.0
  11
 203.447
  21
 411.000
  31
0.0
   0
LINE
   8
LEVEL001
   6
CONTINUOUS
  62
7
  10
 203.447
  20
 441.000
  30
0.0
  11
 203.447
  21
 411.000
  31
0.0
   0
LINE
   8
LEVEL001
   6
CONTINUOUS
  62
7
  10
 222.447
  20
 441.000
  30
0.0
  11
 222.447
  21
 411.000
  31
0.0
   0
LINE
   8
LEVEL001
   6
CONTINUOUS
  62
7
  10
 171.947
  20
 367.087
  30
0.0
  11
 172.943
  21
 368.175
  31
0.0
   0
LINE
   8
LEVEL001
   6
CONTINUOUS
  62
7
  10
 171.947
  20
 340.913
  30
0.0
  11
 172.943
  21
 339.825
  31
0.0
   0
LINE
   8
LEVEL001
   6
CONTINUOUS
  62
7
  10
 177.602
  20
 371.833
  30
0.0
  11
 178.749
  21
 368.683
  31
0.0
   0
LINE
   8
LEVEL001
   6
CONTINUOUS
  62
7
  10
 172.943
  20
 368.175
  30
0.0
  11
 189.603
  21
 369.632
  31
0.0
   0
ARC
   8
LEVEL001
   6
CONTINUOUS
  62
7
  10
 212.947
  20
 341.000
  30
0.0
  40
 33.5000
  50
 182.990
  51
 230.819
   0
ARC
   8
LEVEL001
   6
CONTINUOUS
  62
7
  10
 186.179
  20
 333.648
  30
0.0
  40
 5.00000
  50
 20.0000
  51
 85.0000
   0
POINT
   8
LEVEL001
  62
7
  10
 189.788
  20
 338.352
  30
0.0
   0
LINE
   8
LEVEL001
   6
CONTINUOUS
  62
7
  10
 190.878
  20
 335.358
  30
0.0
  11
 194.367
  21
 325.773
  31
0.0
   0
LINE
   8
LEVEL001
   6
CONTINUOUS
  62
7
  10
 172.943
  20
 339.825
  30
0.0
  11
 205.383
  21
 336.987
  31
0.0
   0
ARC
   8
LEVEL001
   6
CONTINUOUS
  62
7
  10
 204.947
  20
 332.006
  30
0.0
  40
 5.00000
  50
 0.110734E-10
  51
 85.0000
   0
POINT
   8
LEVEL001
  62
7
  10
 209.947
  20
 336.588
  30
0.0
   0
LINE
   8
LEVEL001
   6
CONTINUOUS
  62
7
  10
 209.947
  20
 332.006
  30
0.0
  11
 209.947
  21
 319.081
  31
0.0
   0
LINE
   8
LEVEL001
   6
CONTINUOUS
  62
7
  10
 172.943
  20
 368.175
  30
0.0
  11
 172.943
  21
 339.825
  31
0.0
   0
ARC
   8
LEVEL003
   6
CONTINUOUS
  62
7
  10
 182.920
  20
 354.000
  30
0.0
  40
 21.9729
  50
 162.412
  51
 197.588
   0
ARC
   8
LEVEL003
   6
CONTINUOUS
  62
7
  10
 172.961
  20
 365.500
  30
0.0
  40
 12.0136
  50
 180.000
  51
 203.865
   0
LINE
   8
LEVEL003
   6
CONTINUOUS
  62
7
  10
 171.947
  20
 367.279
  30
0.0
  11
 171.947
  21
 340.721
  31
0.0
   0
LINE
   8
LEVEL003
   6
CONTINUOUS
  62
7
  10
 171.947
  20
 340.721
  30
0.0
  11
 161.974
  21
 340.721
  31
0.0
   0
LINE
   8
LEVEL003
   6
CONTINUOUS
  62
7
  10
 161.974
  20
 340.721
  30
0.0
  11
 160.947
  21
 342.500
  31
0.0
   0
LINE
   8
LEVEL003
   6
CONTINUOUS
  62
7
  10
 160.947
  20
 342.500
  30
0.0
  11
 160.947
  21
 365.500
  31
0.0
   0
LINE
   8
LEVEL003
   6
CONTINUOUS
  62
7
  10
 160.947
  20
 365.500
  30
0.0
  11
 161.974
  21
 367.279
  31
0.0
   0
LINE
   8
LEVEL003
   6
CONTINUOUS
  62
7
  10
 161.974
  20
 367.279
  30
0.0
  11
 171.947
  21
 367.279
  31
0.0
   0
LINE
   8
LEVEL003
   6
CONTINUOUS
  62
7
  10
 171.947
  20
 360.640
  30
0.0
  11
 161.974
  21
 360.640
  31
0.0
   0
ARC
   8
LEVEL003
   6
CONTINUOUS
  62
7
  10
 172.961
  20
 342.500
  30
0.0
  40
 12.0136
  50
 156.135
  51
 180.000
   0
LINE
   8
LEVEL003
   6
CONTINUOUS
  62
7
  10
 171.947
  20
 347.360
  30
0.0
  11
 161.974
  21
 347.360
  31
0.0
   0
LINE
   8
LEVEL001
   6
DASHDOT
  62
1
  10
 123.099
  20
 354.000
  30
0.0
  11
 249.365
  21
 354.000
  31
0.0
   0
LINE
   8
LEVEL001
   6
CONTINUOUS
  62
7
  10
 152.355
  20
 341.792
  30
0.0
  11
 152.355
  21
 349.000
  31
0.0
   0
LINE
   8
LEVEL001
   6
CONTINUOUS
  62
7
  10
 152.355
  20
 359.000
  30
0.0
  11
 152.355
  21
 366.208
  31
0.0
   0
ARC
   8
LEVEL001
   6
CONTINUOUS
  62
7
  10
 145.355
  20
 336.415
  30
0.0
  40
 3.00000
  50
 98.5311
  51
 179.999
   0
ARC
   8
LEVEL001
   6
CONTINUOUS
  62
7
  10
 133.130
  20
 331.143
  30
0.0
  40
 2.00000
  50
 188.884
  51
 270.000
   0
LINE
   8
LEVEL001
   6
CONTINUOUS
  62
7
  10
 130.355
  20
 336.707
  30
0.0
  11
 130.355
  21
 371.290
  31
0.0
   0
ARC
   8
LEVEL001
   6
CONTINUOUS
  62
7
  10
 279.355
  20
 353.999
  30
0.0
  40
 150.000
  50
 186.620
  51
 188.884
   0
LINE
   8
LEVEL001
   6
CONTINUOUS
  62
7
  10
 141.355
  20
 329.143
  30
0.0
  11
 133.130
  21
 329.143
  31
0.0
   0
ARC
   8
LEVEL001
   6
CONTINUOUS
  62
7
  10
 141.355
  20
 330.143
  30
0.0
  40
 1.00000
  50
 270.000
  51
 0.260551E-10
   0
LINE
   8
LEVEL001
   6
CONTINUOUS
  62
7
  10
 142.355
  20
 330.143
  30
0.0
  11
 142.355
  21
 354.000
  31
0.0
   0
ARC
   8
LEVEL010
   6
CONTINUOUS
  62
7
  10
 141.355
  20
 341.526
  30
0.0
  40
 1.00000
  50
 270.000
  51
 0.345230E-9
   0
ARC
   8
LEVEL010
   6
CONTINUOUS
  62
7
  10
 133.154
  20
 342.526
  30
0.0
  40
 2.00000
  50
 180.000
  51
 270.000
   0
LINE
   8
LEVEL010
   6
CONTINUOUS
  62
7
  10
 130.355
  20
 350.500
  30
0.0
  11
 131.164
  21
 342.329
  31
0.0
   0
ARC
   8
LEVEL010
   6
CONTINUOUS
  62
7
  10
 141.355
  20
 339.526
  30
0.0
  40
 1.00000
  50
0.0
  51
 90.0000
   0
ARC
   8
LEVEL010
   6
CONTINUOUS
  62
7
  10
 133.154
  20
 338.526
  30
0.0
  40
 2.00000
  50
 90.0000
  51
 180.000
   0
LINE
   8
LEVEL010
   6
CONTINUOUS
  62
7
  10
 141.355
  20
 340.526
  30
0.0
  11
 133.154
  21
 340.526
  31
0.0
   0
LINE
   8
LEVEL010
   6
CONTINUOUS
  62
7
  10
 131.154
  20
 338.526
  30
0.0
  11
 131.154
  21
 333.025
  31
0.0
   0
LINE
   8
LEVEL010
   6
CONTINUOUS
  62
7
  10
 141.355
  20
 350.500
  30
0.0
  11
 133.154
  21
 350.500
  31
0.0
   0
ARC
   8
LEVEL001
   6
CONTINUOUS
  62
7
  10
 145.355
  20
 371.582
  30
0.0
  40
 3.00000
  50
 179.999
  51
 261.469
   0
ARC
   8
LEVEL001
   6
CONTINUOUS
  62
7
  10
 141.355
  20
 377.855
  30
0.0
  40
 1.00000
  50
0.0
  51
 90.0000
   0
ARC
   8
LEVEL001
   6
CONTINUOUS
  62
7
  10
 133.130
  20
 376.855
  30
0.0
  40
 2.00000
  50
 89.9999
  51
 171.117
   0
LINE
   8
LEVEL001
   6
CONTINUOUS
  62
7
  10
 141.355
  20
 378.855
  30
0.0
  11
 133.130
  21
 378.855
  31
0.0
   0
ARC
   8
LEVEL001
   6
CONTINUOUS
  62
7
  10
 279.355
  20
 353.999
  30
0.0
  40
 150.000
  50
 171.116
  51
 173.380
   0
LINE
   8
LEVEL001
   6
CONTINUOUS
  62
7
  10
 142.355
  20
 354.000
  30
0.0
  11
 142.355
  21
 377.855
  31
0.0
   0
ARC
   8
LEVEL010
   6
CONTINUOUS
  62
7
  10
 141.355
  20
 366.474
  30
0.0
  40
 1.00000
  50
0.0
  51
 90.0000
   0
ARC
   8
LEVEL010
   6
CONTINUOUS
  62
7
  10
 133.154
  20
 365.474
  30
0.0
  40
 2.00000
  50
 90.0000
  51
 180.000
   0
LINE
   8
LEVEL010
   6
CONTINUOUS
  62
7
  10
 130.355
  20
 357.500
  30
0.0
  11
 131.164
  21
 365.671
  31
0.0
   0
ARC
   8
LEVEL010
   6
CONTINUOUS
  62
7
  10
 141.355
  20
 368.474
  30
0.0
  40
 1.00000
  50
 270.000
  51
 0.117248E-9
   0
ARC
   8
LEVEL010
   6
CONTINUOUS
  62
7
  10
 133.154
  20
 369.474
  30
0.0
  40
 2.00000
  50
 180.000
  51
 270.000
   0
LINE
   8
LEVEL010
   6
CONTINUOUS
  62
7
  10
 141.355
  20
 367.474
  30
0.0
  11
 133.154
  21
 367.474
  31
0.0
   0
LINE
   8
LEVEL010
   6
CONTINUOUS
  62
7
  10
 131.154
  20
 369.474
  30
0.0
  11
 131.154
  21
 374.975
  31
0.0
   0
LINE
   8
LEVEL010
   6
CONTINUOUS
  62
7
  10
 141.355
  20
 357.500
  30
0.0
  11
 133.154
  21
 357.500
  31
0.0
   0
ARC
   8
LEVEL001
   6
CONTINUOUS
  62
7
  10
 150.355
  20
 365.776
  30
0.0
  40
 2.00000
  50
 0.768312E-3
  51
 81.4689
   0
LINE
   8
LEVEL001
   6
CONTINUOUS
  62
7
  10
 150.651
  20
 367.754
  30
0.0
  11
 144.910
  21
 368.615
  31
0.0
   0
LINE
   8
LEVEL001
   6
CONTINUOUS
  62
7
  10
 152.355
  20
 354.000
  30
0.0
  11
 152.355
  21
 365.776
  31
0.0
   0
ARC
   8
LEVEL001
   6
CONTINUOUS
  62
7
  10
 150.355
  20
 342.221
  30
0.0
  40
 2.00000
  50
 278.531
  51
 0.980216E-3
   0
LINE
   8
LEVEL001
   6
CONTINUOUS
  62
7
  10
 150.651
  20
 340.243
  30
0.0
  11
 144.910
  21
 339.382
  31
0.0
   0
LINE
   8
LEVEL001
   6
CONTINUOUS
  62
7
  10
 152.355
  20
 342.221
  30
0.0
  11
 152.355
  21
 354.000
  31
0.0
   0
ARC
   8
LEVEL001
   6
CONTINUOUS
  62
7
  10
 279.355
  20
 354.000
  30
0.0
  40
 150.000
  50
 170.951
  51
 189.049
   0
LINE
   8
LEVEL001
   6
CONTINUOUS
  62
7
  10
 152.355
  20
 347.649
  30
0.0
  11
 160.947
  21
 347.649
  31
0.0
   0
LINE
   8
LEVEL001
   6
CONTINUOUS
  62
7
  10
 152.355
  20
 360.349
  30
0.0
  11
 160.947
  21
 360.349
  31
0.0
   0
ARC
   8
LEVEL001
   6
CONTINUOUS
  62
7
  10
 210.450
  20
 437.938
  30
0.0
  40
 16.0000
  50
 59.7749
  51
 179.776
   0
ARC
   8
LEVEL001
   6
CONTINUOUS
  62
7
  10
 212.947
  20
 445.048
  30
0.0
  40
 13.5000
  50
 28.0020
  51
 151.998
   0
ARC
   8
LEVEL001
   6
CONTINUOUS
  62
7
  10
 212.947
  20
 442.280
  30
0.0
  40
 15.0000
  50
 12.4300
  51
 147.848
   0
ARC
   8
LEVEL001
   6
CONTINUOUS
  62
7
  10
 212.947
  20
 439.459
  30
0.0
  40
 13.5000
  50
 26.9603
  51
 153.040
   0
ARC
   8
LEVEL001
   6
CONTINUOUS
  62
7
  10
 212.947
  20
 437.426
  30
0.0
  40
 10.7500
  50
 50.8575
  51
 129.143
   0
ARC
   8
LEVEL001
   6
CONTINUOUS
  62
7
  10
 212.947
  20
 438.348
  30
0.0
  40
 11.0127
  50
 41.9835
  51
 138.017
   0
LINE
   8
LEVEL001
   6
DASHDOT
  62
1
  10
 212.947
  20
 463.092
  30
0.0
  11
 212.947
  21
 295.263
  31
0.0
   0
POINT
   8
LEVEL001
  62
7
  10
 212.947
  20
 305.000
  30
0.0
   0
LINE
   8
LEVEL014
   6
CONTINUOUS
  62
7
  10
 901.349
  20
 791.763
  30
0.0
  11
 901.349
  21
 818.763
  31
0.0
   0
LINE
   8
LEVEL014
   6
CONTINUOUS
  62
7
  10
 901.349
  20
 818.763
  30
0.0
  11
 911.349
  21
 817.763
  31
0.0
   0
LINE
   8
LEVEL014
   6
CONTINUOUS
  62
7
  10
 911.349
  20
 817.763
  30
0.0
  11
 911.349
  21
 792.763
  31
0.0
   0
LINE
   8
LEVEL014
   6
CONTINUOUS
  62
7
  10
 911.349
  20
 792.763
  30
0.0
  11
 901.349
  21
 791.763
  31
0.0
   0
LINE
   8
LEVEL014
   6
CONTINUOUS
  62
7
  10
 876.604
  20
 794.513
  30
0.0
  11
 876.604
  21
 816.013
  31
0.0
   0
LINE
   8
LEVEL014
   6
CONTINUOUS
  62
7
  10
 879.354
  20
 797.263
  30
0.0
  11
 879.354
  21
 813.263
  31
0.0
   0
LINE
   8
LEVEL003
   6
CONTINUOUS
  62
7
  10
 877.410
  20
 769.453
  30
0.0
  11
 877.410
  21
 766.793
  31
0.0
   0
LINE
   8
LEVEL003
   6
CONTINUOUS
  62
7
  10
 877.410
  20
 769.453
  30
0.0
  11
 877.332
  21
 770.657
  31
0.0
   0
LINE
   8
LEVEL003
   6
CONTINUOUS
  62
7
  10
 877.332
  20
 770.657
  30
0.0
  11
 877.099
  21
 771.842
  31
0.0
   0
LINE
   8
LEVEL003
   6
CONTINUOUS
  62
7
  10
 877.099
  20
 771.842
  30
0.0
  11
 876.715
  21
 772.991
  31
0.0
   0
LINE
   8
LEVEL003
   6
CONTINUOUS
  62
7
  10
 876.715
  20
 772.991
  30
0.0
  11
 876.186
  21
 774.084
  31
0.0
   0
LINE
   8
LEVEL003
   6
CONTINUOUS
  62
7
  10
 876.186
  20
 774.084
  30
0.0
  11
 875.520
  21
 775.104
  31
0.0
   0
LINE
   8
LEVEL003
   6
CONTINUOUS
  62
7
  10
 875.520
  20
 775.104
  30
0.0
  11
 874.727
  21
 776.037
  31
0.0
   0
LINE
   8
LEVEL003
   6
CONTINUOUS
  62
7
  10
 874.727
  20
 776.037
  30
0.0
  11
 873.820
  21
 776.867
  31
0.0
   0
LINE
   8
LEVEL003
   6
CONTINUOUS
  62
7
  10
 873.820
  20
 776.867
  30
0.0
  11
 872.813
  21
 777.581
  31
0.0
   0
LINE
   8
LEVEL003
   6
CONTINUOUS
  62
7
  10
 872.813
  20
 777.581
  30
0.0
  11
 871.722
  21
 778.168
  31
0.0
   0
LINE
   8
LEVEL003
   6
CONTINUOUS
  62
7
  10
 871.722
  20
 778.168
  30
0.0
  11
 870.564
  21
 778.619
  31
0.0
   0
LINE
   8
LEVEL003
   6
CONTINUOUS
  62
7
  10
 870.564
  20
 778.619
  30
0.0
  11
 869.356
  21
 778.927
  31
0.0
   0
LINE
   8
LEVEL003
   6
CONTINUOUS
  62
7
  10
 869.356
  20
 778.927
  30
0.0
  11
 868.118
  21
 779.088
  31
0.0
   0
LINE
   8
LEVEL003
   6
CONTINUOUS
  62
7
  10
 868.118
  20
 779.088
  30
0.0
  11
 866.869
  21
 779.098
  31
0.0
   0
LINE
   8
LEVEL003
   6
CONTINUOUS
  62
7
  10
 866.869
  20
 779.098
  30
0.0
  11
 865.628
  21
 778.957
  31
0.0
   0
LINE
   8
LEVEL003
   6
CONTINUOUS
  62
7
  10
 865.628
  20
 778.957
  30
0.0
  11
 864.415
  21
 778.668
  31
0.0
   0
LINE
   8
LEVEL003
   6
CONTINUOUS
  62
7
  10
 864.415
  20
 778.668
  30
0.0
  11
 863.249
  21
 778.236
  31
0.0
   0
LINE
   8
LEVEL003
   6
CONTINUOUS
  62
7
  10
 863.249
  20
 778.236
  30
0.0
  11
 862.148
  21
 777.666
  31
0.0
   0
LINE
   8
LEVEL003
   6
CONTINUOUS
  62
7
  10
 862.148
  20
 777.666
  30
0.0
  11
 861.129
  21
 776.968
  31
0.0
   0
LINE
   8
LEVEL003
   6
CONTINUOUS
  62
7
  10
 861.129
  20
 776.968
  30
0.0
  11
 860.208
  21
 776.153
  31
0.0
   0
LINE
   8
LEVEL003
   6
CONTINUOUS
  62
7
  10
 860.208
  20
 776.153
  30
0.0
  11
 859.399
  21
 775.233
  31
0.0
   0
LINE
   8
LEVEL003
   6
CONTINUOUS
  62
7
  10
 859.399
  20
 775.233
  30
0.0
  11
 858.715
  21
 774.224
  31
0.0
   0
LINE
   8
LEVEL003
   6
CONTINUOUS
  62
7
  10
 858.715
  20
 774.224
  30
0.0
  11
 858.167
  21
 773.139
  31
0.0
   0
LINE
   8
LEVEL003
   6
CONTINUOUS
  62
7
  10
 858.167
  20
 773.139
  30
0.0
  11
 857.764
  21
 771.997
  31
0.0
   0
LINE
   8
LEVEL003
   6
CONTINUOUS
  62
7
  10
 857.764
  20
 771.997
  30
0.0
  11
 857.510
  21
 770.816
  31
0.0
   0
LINE
   8
LEVEL003
   6
CONTINUOUS
  62
7
  10
 857.510
  20
 770.816
  30
0.0
  11
 857.412
  21
 769.613
  31
0.0
   0
LINE
   8
LEVEL003
   6
CONTINUOUS
  62
7
  10
 857.412
  20
 769.613
  30
0.0
  11
 857.410
  21
 769.453
  31
0.0
   0
LINE
   8
LEVEL003
   6
CONTINUOUS
  62
7
  10
 857.410
  20
 769.453
  30
0.0
  11
 857.410
  21
 766.793
  31
0.0
   0
ARC
   8
LEVEL001
   6
CONTINUOUS
  62
7
  10
 869.410
  20
 754.763
  30
0.0
  40
 2.00000
  50
 180.000
  51
 270.000
   0
LINE
   8
LEVEL001
   6
CONTINUOUS
  62
7
  10
 869.410
  20
 752.763
  30
0.0
  11
 900.410
  21
 752.763
  31
0.0
   0
ARC
   8
LEVEL003
   6
CONTINUOUS
  62
7
  10
 882.910
  20
 774.873
  30
0.0
  40
 3.00000
  50
 140.805
  51
 180.000
   0
ARC
   8
LEVEL001
   6
CONTINUOUS
  62
7
  10
 867.410
  20
 787.513
  30
0.0
  40
 17.0000
  50
 320.805
  51
0.0
   0
LINE
   8
LEVEL003
   6
CONTINUOUS
  62
7
  10
 856.174
  20
 785.263
  30
0.0
  11
 877.727
  21
 785.263
  31
0.0
   0
LINE
   8
LEVEL003
   6
CONTINUOUS
  62
7
  10
 854.910
  20
 770.263
  30
0.0
  11
 855.008
  21
 768.757
  31
0.0
   0
LINE
   8
LEVEL003
   6
CONTINUOUS
  62
7
  10
 855.008
  20
 768.757
  30
0.0
  11
 855.299
  21
 767.275
  31
0.0
   0
LINE
   8
LEVEL003
   6
CONTINUOUS
  62
7
  10
 855.299
  20
 767.275
  30
0.0
  11
 855.779
  21
 765.840
  31
0.0
   0
LINE
   8
LEVEL003
   6
CONTINUOUS
  62
7
  10
 855.779
  20
 765.840
  30
0.0
  11
 856.441
  21
 764.474
  31
0.0
   0
LINE
   8
LEVEL003
   6
CONTINUOUS
  62
7
  10
 856.441
  20
 764.474
  30
0.0
  11
 857.273
  21
 763.198
  31
0.0
   0
LINE
   8
LEVEL003
   6
CONTINUOUS
  62
7
  10
 857.273
  20
 763.198
  30
0.0
  11
 858.264
  21
 762.033
  31
0.0
   0
LINE
   8
LEVEL003
   6
CONTINUOUS
  62
7
  10
 858.264
  20
 762.033
  30
0.0
  11
 859.398
  21
 760.995
  31
0.0
   0
LINE
   8
LEVEL003
   6
CONTINUOUS
  62
7
  10
 859.398
  20
 760.995
  30
0.0
  11
 859.435
  21
 760.965
  31
0.0
   0
LINE
   8
LEVEL003
   6
CONTINUOUS
  62
7
  10
 875.386
  20
 760.965
  30
0.0
  11
 876.523
  21
 761.998
  31
0.0
   0
LINE
   8
LEVEL003
   6
CONTINUOUS
  62
7
  10
 876.523
  20
 761.998
  30
0.0
  11
 877.519
  21
 763.160
  31
0.0
   0
LINE
   8
LEVEL003
   6
CONTINUOUS
  62
7
  10
 877.519
  20
 763.160
  30
0.0
  11
 878.357
  21
 764.433
  31
0.0
   0
LINE
   8
LEVEL003
   6
CONTINUOUS
  62
7
  10
 878.357
  20
 764.433
  30
0.0
  11
 879.024
  21
 765.797
  31
0.0
   0
LINE
   8
LEVEL003
   6
CONTINUOUS
  62
7
  10
 879.024
  20
 765.797
  30
0.0
  11
 879.510
  21
 767.230
  31
0.0
   0
LINE
   8
LEVEL003
   6
CONTINUOUS
  62
7
  10
 879.510
  20
 767.230
  30
0.0
  11
 879.807
  21
 768.711
  31
0.0
   0
LINE
   8
LEVEL003
   6
CONTINUOUS
  62
7
  10
 879.807
  20
 768.711
  30
0.0
  11
 879.910
  21
 770.216
  31
0.0
   0
LINE
   8
LEVEL003
   6
CONTINUOUS
  62
7
  10
 879.910
  20
 770.216
  30
0.0
  11
 879.910
  21
 770.263
  31
0.0
   0
LINE
   8
LEVEL001
   6
CONTINUOUS
  62
7
  10
 867.410
  20
 757.133
  30
0.0
  11
 867.410
  21
 754.763
  31
0.0
   0
LINE
   8
LEVEL003
   6
CONTINUOUS
  62
7
  10
 854.910
  20
 770.263
  30
0.0
  11
 854.910
  21
 794.513
  31
0.0
   0
LINE
   8
LEVEL003
   6
CONTINUOUS
  62
7
  10
 857.410
  20
 766.793
  30
0.0
  11
 857.488
  21
 765.588
  31
0.0
   0
LINE
   8
LEVEL003
   6
CONTINUOUS
  62
7
  10
 857.488
  20
 765.588
  30
0.0
  11
 857.721
  21
 764.403
  31
0.0
   0
LINE
   8
LEVEL003
   6
CONTINUOUS
  62
7
  10
 857.721
  20
 764.403
  30
0.0
  11
 858.105
  21
 763.255
  31
0.0
   0
LINE
   8
LEVEL003
   6
CONTINUOUS
  62
7
  10
 858.105
  20
 763.255
  30
0.0
  11
 858.635
  21
 762.162
  31
0.0
   0
LINE
   8
LEVEL003
   6
CONTINUOUS
  62
7
  10
 858.635
  20
 762.162
  30
0.0
  11
 859.301
  21
 761.141
  31
0.0
   0
LINE
   8
LEVEL003
   6
CONTINUOUS
  62
7
  10
 859.301
  20
 761.141
  30
0.0
  11
 860.093
  21
 760.209
  31
0.0
   0
LINE
   8
LEVEL003
   6
CONTINUOUS
  62
7
  10
 860.093
  20
 760.209
  30
0.0
  11
 861.000
  21
 759.379
  31
0.0
   0
LINE
   8
LEVEL003
   6
CONTINUOUS
  62
7
  10
 861.000
  20
 759.379
  30
0.0
  11
 862.007
  21
 758.665
  31
0.0
   0
LINE
   8
LEVEL003
   6
CONTINUOUS
  62
7
  10
 862.007
  20
 758.665
  30
0.0
  11
 863.099
  21
 758.077
  31
0.0
   0
LINE
   8
LEVEL003
   6
CONTINUOUS
  62
7
  10
 863.099
  20
 758.077
  30
0.0
  11
 864.257
  21
 757.626
  31
0.0
   0
LINE
   8
LEVEL003
   6
CONTINUOUS
  62
7
  10
 864.257
  20
 757.626
  30
0.0
  11
 865.465
  21
 757.318
  31
0.0
   0
LINE
   8
LEVEL003
   6
CONTINUOUS
  62
7
  10
 865.465
  20
 757.318
  30
0.0
  11
 866.703
  21
 757.158
  31
0.0
   0
LINE
   8
LEVEL003
   6
CONTINUOUS
  62
7
  10
 866.703
  20
 757.158
  30
0.0
  11
 867.952
  21
 757.148
  31
0.0
   0
LINE
   8
LEVEL003
   6
CONTINUOUS
  62
7
  10
 867.952
  20
 757.148
  30
0.0
  11
 869.193
  21
 757.288
  31
0.0
   0
LINE
   8
LEVEL003
   6
CONTINUOUS
  62
7
  10
 869.193
  20
 757.288
  30
0.0
  11
 870.406
  21
 757.577
  31
0.0
   0
LINE
   8
LEVEL003
   6
CONTINUOUS
  62
7
  10
 870.406
  20
 757.577
  30
0.0
  11
 871.572
  21
 758.010
  31
0.0
   0
LINE
   8
LEVEL003
   6
CONTINUOUS
  62
7
  10
 871.572
  20
 758.010
  30
0.0
  11
 872.673
  21
 758.579
  31
0.0
   0
LINE
   8
LEVEL003
   6
CONTINUOUS
  62
7
  10
 872.673
  20
 758.579
  30
0.0
  11
 873.692
  21
 759.277
  31
0.0
   0
LINE
   8
LEVEL003
   6
CONTINUOUS
  62
7
  10
 873.692
  20
 759.277
  30
0.0
  11
 874.613
  21
 760.092
  31
0.0
   0
LINE
   8
LEVEL003
   6
CONTINUOUS
  62
7
  10
 874.613
  20
 760.092
  30
0.0
  11
 875.422
  21
 761.012
  31
0.0
   0
LINE
   8
LEVEL003
   6
CONTINUOUS
  62
7
  10
 875.422
  20
 761.012
  30
0.0
  11
 876.105
  21
 762.022
  31
0.0
   0
LINE
   8
LEVEL003
   6
CONTINUOUS
  62
7
  10
 876.105
  20
 762.022
  30
0.0
  11
 876.653
  21
 763.106
  31
0.0
   0
LINE
   8
LEVEL003
   6
CONTINUOUS
  62
7
  10
 876.653
  20
 763.106
  30
0.0
  11
 877.057
  21
 764.248
  31
0.0
   0
LINE
   8
LEVEL003
   6
CONTINUOUS
  62
7
  10
 877.057
  20
 764.248
  30
0.0
  11
 877.310
  21
 765.430
  31
0.0
   0
LINE
   8
LEVEL003
   6
CONTINUOUS
  62
7
  10
 877.310
  20
 765.430
  30
0.0
  11
 877.409
  21
 766.632
  31
0.0
   0
LINE
   8
LEVEL003
   6
CONTINUOUS
  62
7
  10
 877.409
  20
 766.632
  30
0.0
  11
 877.410
  21
 766.793
  31
0.0
   0
LINE
   8
LEVEL003
   6
CONTINUOUS
  62
7
  10
 876.077
  20
 771.612
  30
0.0
  11
 875.387
  21
 772.618
  31
0.0
   0
LINE
   8
LEVEL003
   6
CONTINUOUS
  62
7
  10
 875.387
  20
 772.618
  30
0.0
  11
 874.573
  21
 773.533
  31
0.0
   0
LINE
   8
LEVEL003
   6
CONTINUOUS
  62
7
  10
 874.573
  20
 773.533
  30
0.0
  11
 873.647
  21
 774.343
  31
0.0
   0
LINE
   8
LEVEL003
   6
CONTINUOUS
  62
7
  10
 873.647
  20
 774.343
  30
0.0
  11
 872.624
  21
 775.035
  31
0.0
   0
LINE
   8
LEVEL003
   6
CONTINUOUS
  62
7
  10
 872.624
  20
 775.035
  30
0.0
  11
 871.520
  21
 775.599
  31
0.0
   0
LINE
   8
LEVEL003
   6
CONTINUOUS
  62
7
  10
 871.520
  20
 775.599
  30
0.0
  11
 870.351
  21
 776.025
  31
0.0
   0
LINE
   8
LEVEL003
   6
CONTINUOUS
  62
7
  10
 870.351
  20
 776.025
  30
0.0
  11
 869.136
  21
 776.307
  31
0.0
   0
LINE
   8
LEVEL003
   6
CONTINUOUS
  62
7
  10
 869.136
  20
 776.307
  30
0.0
  11
 867.895
  21
 776.441
  31
0.0
   0
LINE
   8
LEVEL003
   6
CONTINUOUS
  62
7
  10
 867.895
  20
 776.441
  30
0.0
  11
 866.646
  21
 776.424
  31
0.0
   0
LINE
   8
LEVEL003
   6
CONTINUOUS
  62
7
  10
 866.646
  20
 776.424
  30
0.0
  11
 865.409
  21
 776.256
  31
0.0
   0
LINE
   8
LEVEL003
   6
CONTINUOUS
  62
7
  10
 865.409
  20
 776.256
  30
0.0
  11
 864.203
  21
 775.942
  31
0.0
   0
LINE
   8
LEVEL003
   6
CONTINUOUS
  62
7
  10
 864.203
  20
 775.942
  30
0.0
  11
 863.047
  21
 775.484
  31
0.0
   0
LINE
   8
LEVEL003
   6
CONTINUOUS
  62
7
  10
 863.047
  20
 775.484
  30
0.0
  11
 861.959
  21
 774.891
  31
0.0
   0
LINE
   8
LEVEL003
   6
CONTINUOUS
  62
7
  10
 861.959
  20
 774.891
  30
0.0
  11
 860.957
  21
 774.171
  31
0.0
   0
LINE
   8
LEVEL003
   6
CONTINUOUS
  62
7
  10
 860.957
  20
 774.171
  30
0.0
  11
 860.055
  21
 773.336
  31
0.0
   0
LINE
   8
LEVEL003
   6
CONTINUOUS
  62
7
  10
 860.055
  20
 773.336
  30
0.0
  11
 859.267
  21
 772.399
  31
0.0
   0
LINE
   8
LEVEL003
   6
CONTINUOUS
  62
7
  10
 859.267
  20
 772.399
  30
0.0
  11
 858.744
  21
 771.612
  31
0.0
   0
LINE
   8
LEVEL003
   6
CONTINUOUS
  62
7
  10
 886.342
  20
 790.008
  30
0.0
  11
 880.943
  21
 769.857
  31
0.0
   0
ARC
   8
LEVEL003
   6
CONTINUOUS
  62
7
  10
 879.011
  20
 770.375
  30
0.0
  40
 2.00000
  50
 292.642
  51
 345.000
   0
ARC
   8
LEVEL001
   6
CONTINUOUS
  62
7
  10
 836.410
  20
 829.688
  30
0.0
  40
 5.50000
  50
 100.476
  51
 136.658
   0
LINE
   8
LEVEL001
   6
CONTINUOUS
  62
7
  10
 832.410
  20
 833.263
  30
0.0
  11
 832.410
  21
 833.463
  31
0.0
   0
LINE
   8
LEVEL003
   6
CONTINUOUS
  62
7
  10
 835.410
  20
 833.263
  30
0.0
  11
 826.410
  21
 833.263
  31
0.0
   0
ARC
   8
LEVEL001
   6
CONTINUOUS
  62
7
  10
 869.410
  20
 855.763
  30
0.0
  40
 2.00000
  50
 90.0000
  51
 180.000
   0
LINE
   8
LEVEL001
   6
CONTINUOUS
  62
7
  10
 869.410
  20
 857.763
  30
0.0
  11
 900.410
  21
 857.763
  31
0.0
   0
ARC
   8
LEVEL001
   6
CONTINUOUS
  62
7
  10
 867.410
  20
 823.013
  30
0.0
  40
 17.0000
  50
0.0
  51
 90.0000
   0
LINE
   8
LEVEL001
   6
CONTINUOUS
  62
7
  10
 867.410
  20
 855.763
  30
0.0
  11
 867.410
  21
 840.013
  31
0.0
   0
ARC
   8
LEVEL001
   6
CONTINUOUS
  62
7
  10
 885.410
  20
 818.799
  30
0.0
  40
 1.00000
  50
0.0
  51
 60.0000
   0
ARC
   8
LEVEL001
   6
CONTINUOUS
  62
7
  10
 887.410
  20
 822.263
  30
0.0
  40
 3.00000
  50
 180.000
  51
 240.000
   0
LINE
   8
LEVEL003
   6
CONTINUOUS
  62
7
  10
 886.410
  20
 818.799
  30
0.0
  11
 886.410
  21
 813.263
  31
0.0
   0
ARC
   8
LEVEL001
   6
CONTINUOUS
  62
7
  10
 900.410
  20
 855.763
  30
0.0
  40
 2.00000
  50
 0.273579E-9
  51
 90.0000
   0
LINE
   8
LEVEL001
   6
CONTINUOUS
  62
7
  10
 902.410
  20
 855.763
  30
0.0
  11
 902.410
  21
 818.763
  31
0.0
   0
LINE
   8
LEVEL001
   6
CONTINUOUS
  62
7
  10
 886.410
  20
 797.263
  30
0.0
  11
 886.410
  21
 790.008
  31
0.0
   0
ARC
   8
LEVEL001
   6
CONTINUOUS
  62
7
  10
 900.410
  20
 754.763
  30
0.0
  40
 2.00000
  50
 270.000
  51
 0.553671E-9
   0
LINE
   8
LEVEL001
   6
CONTINUOUS
  62
7
  10
 902.410
  20
 791.763
  30
0.0
  11
 902.410
  21
 754.763
  31
0.0
   0
ARC
   8
LEVEL003
   6
CONTINUOUS
  62
7
  10
 852.066
  20
 767.851
  30
0.0
  40
 3.00000
  50
 8.11460
  51
 87.8945
   0
LINE
   8
LEVEL001
   6
CONTINUOUS
  62
7
  10
 835.410
  20
 773.219
  30
0.0
  11
 837.410
  21
 771.174
  31
0.0
   0
LINE
   8
LEVEL003
   6
CONTINUOUS
  62
7
  10
 852.171
  20
 770.849
  30
0.0
  11
 837.410
  21
 771.174
  31
0.0
   0
LINE
   8
LEVEL001
   6
CONTINUOUS
  62
7
  10
 835.410
  20
 836.836
  30
0.0
  11
 835.410
  21
 816.013
  31
0.0
   0
LINE
   8
LEVEL001
   6
CONTINUOUS
  62
7
  10
 835.410
  20
 837.307
  30
0.0
  11
 837.410
  21
 839.351
  31
0.0
   0
LINE
   8
LEVEL001
   6
CONTINUOUS
  62
7
  10
 867.410
  20
 840.013
  30
0.0
  11
 837.410
  21
 839.351
  31
0.0
   0
LINE
   8
LEVEL001
   6
CONTINUOUS
  62
7
  10
 835.410
  20
 837.307
  30
0.0
  11
 835.410
  21
 816.013
  31
0.0
   0
LINE
   8
LEVEL003
   6
CONTINUOUS
  62
7
  10
 837.410
  20
 839.351
  30
0.0
  11
 837.410
  21
 816.013
  31
0.0
   0
LINE
   8
LEVEL003
   6
CONTINUOUS
  62
7
  10
 837.410
  20
 794.513
  30
0.0
  11
 837.410
  21
 771.174
  31
0.0
   0
LINE
   8
LEVEL001
   6
CONTINUOUS
  62
7
  10
 835.410
  20
 794.513
  30
0.0
  11
 835.410
  21
 773.219
  31
0.0
   0
LINE
   8
LEVEL001
   6
CONTINUOUS
  62
7
  10
 884.410
  20
 823.013
  30
0.0
  11
 884.410
  21
 814.263
  31
0.0
   0
LINE
   8
LEVEL001
   6
CONTINUOUS
  62
7
  10
 884.410
  20
 796.263
  30
0.0
  11
 884.410
  21
 787.513
  31
0.0
   0
ARC
   8
LEVEL001
   6
CONTINUOUS
  62
7
  10
 881.910
  20
 794.263
  30
0.0
  40
 2.00000
  50
 90.0000
  51
 180.000
   0
LINE
   8
LEVEL001
   6
CONTINUOUS
  62
7
  10
 886.410
  20
 823.760
  30
0.0
  11
 889.610
  21
 823.760
  31
0.0
   0
LINE
   8
LEVEL003
   6
CONTINUOUS
  62
7
  10
 886.410
  20
 823.760
  30
0.0
  11
 886.410
  21
 790.526
  31
0.0
   0
LINE
   8
LEVEL003
   6
CONTINUOUS
  62
7
  10
 889.610
  20
 816.263
  30
0.0
  11
 889.910
  21
 816.263
  31
0.0
   0
LINE
   8
LEVEL001
   6
CONTINUOUS
  62
7
  10
 886.410
  20
 793.426
  30
0.0
  11
 889.610
  21
 793.426
  31
0.0
   0
LINE
   8
LEVEL003
   6
CONTINUOUS
  62
7
  10
 889.610
  20
 794.263
  30
0.0
  11
 889.910
  21
 794.263
  31
0.0
   0
LINE
   8
LEVEL003
   6
CONTINUOUS
  62
7
  10
 889.610
  20
 823.760
  30
0.0
  11
 889.610
  21
 793.426
  31
0.0
   0
LINE
   8
LEVEL003
   6
CONTINUOUS
  62
7
  10
 835.410
  20
 777.263
  30
0.0
  11
 826.410
  21
 777.263
  31
0.0
   0
ARC
   8
LEVEL003
   6
CONTINUOUS
  62
7
  10
 883.580
  20
 811.263
  30
0.0
  40
 17.3301
  50
 6.62704
  51
 20.2562
   0
ARC
   8
LEVEL003
   6
CONTINUOUS
  62
7
  10
 883.580
  20
 799.263
  30
0.0
  40
 17.3301
  50
 339.744
  51
 353.373
   0
LINE
   8
LEVEL014
   6
CONTINUOUS
  62
7
  10
 558.983
  20
 816.013
  30
0.0
  11
 876.604
  21
 816.013
  31
0.0
   0
LINE
   8
LEVEL014
   6
CONTINUOUS
  62
7
  10
 876.604
  20
 816.013
  30
0.0
  11
 879.354
  21
 813.263
  31
0.0
   0
LINE
   8
LEVEL014
   6
CONTINUOUS
  62
7
  10
 879.354
  20
 813.263
  30
0.0
  11
 886.410
  21
 813.263
  31
0.0
   0
LINE
   8
LEVEL014
   6
CONTINUOUS
  62
7
  10
 558.983
  20
 794.513
  30
0.0
  11
 876.604
  21
 794.513
  31
0.0
   0
LINE
   8
LEVEL014
   6
CONTINUOUS
  62
7
  10
 876.604
  20
 794.513
  30
0.0
  11
 879.354
  21
 797.263
  31
0.0
   0
LINE
   8
LEVEL014
   6
CONTINUOUS
  62
7
  10
 879.354
  20
 797.263
  30
0.0
  11
 886.410
  21
 797.263
  31
0.0
   0
ARC
   8
LEVEL001
   6
CONTINUOUS
  62
7
  10
 876.910
  20
 794.513
  30
0.0
  40
 3.00000
  50
 0.212783E-9
  51
 49.1274
   0
LINE
   8
LEVEL001
   6
CONTINUOUS
  62
7
  10
 878.354
  20
 814.263
  30
0.0
  11
 884.410
  21
 814.263
  31
0.0
   0
LINE
   8
LEVEL001
   6
CONTINUOUS
  62
7
  10
 881.910
  20
 796.263
  30
0.0
  11
 884.410
  21
 796.263
  31
0.0
   0
LINE
   8
LEVEL003
   6
CONTINUOUS
  62
7
  10
 879.910
  20
 770.263
  30
0.0
  11
 879.910
  21
 794.513
  31
0.0
   0
ARC
   8
LEVEL001
   6
CONTINUOUS
  62
7
  10
 884.410
  20
 798.263
  30
0.0
  40
 2.00000
  50
 270.000
  51
 330.000
   0
ARC
   8
LEVEL001
   6
CONTINUOUS
  62
7
  10
 884.410
  20
 812.263
  30
0.0
  40
 2.00000
  50
 30.0000
  51
 90.0000
   0
LINE
   8
LEVEL001
   6
DASHDOT
  62
1
  10
 442.177
  20
 333.448
  30
0.0
  11
 434.980
  21
 333.236
  31
0.0
   0
LINE
   8
LEVEL001
   6
DASHDOT
  62
1
  10
 438.472
  20
 336.941
  30
0.0
  11
 438.685
  21
 329.744
  31
0.0
   0
LINE
   8
LEVEL001
   6
DASHDOT
  62
1
  10
 462.168
  20
 334.039
  30
0.0
  11
 454.971
  21
 333.826
  31
0.0
   0
LINE
   8
LEVEL001
   6
DASHDOT
  62
1
  10
 458.463
  20
 337.531
  30
0.0
  11
 458.676
  21
 330.334
  31
0.0
   0
ARC
   8
LEVEL001
   6
CONTINUOUS
  62
7
  10
 466.881
  20
 391.246
  30
0.0
  40
 3.00000
  50
 181.692
  51
 271.692
   0
LINE
   8
LEVEL001
   6
CONTINUOUS
  62
7
  10
 466.970
  20
 388.247
  30
0.0
  11
 468.214
  21
 388.284
  31
0.0
   0
ARC
   8
LEVEL001
   6
CONTINUOUS
  62
7
  10
 468.273
  20
 386.285
  30
0.0
  40
 2.00000
  50
 1.69191
  51
 91.6919
   0
ARC
   8
LEVEL001
   6
CONTINUOUS
  62
7
  10
 421.430
  20
 405.867
  30
0.0
  40
 3.00000
  50
 181.692
  51
 271.692
   0
LINE
   8
LEVEL001
   6
CONTINUOUS
  62
7
  10
 418.431
  20
 405.779
  30
0.0
  11
 418.412
  21
 406.424
  31
0.0
   0
LINE
   8
LEVEL001
   6
CONTINUOUS
  62
7
  10
 421.518
  20
 402.869
  30
0.0
  11
 423.517
  21
 402.928
  31
0.0
   0
LINE
   8
LEVEL001
   6
CONTINUOUS
  62
7
  10
 463.500
  20
 404.109
  30
0.0
  11
 462.471
  21
 405.079
  31
0.0
   0
LINE
   8
LEVEL001
   6
CONTINUOUS
  62
7
  10
 424.487
  20
 403.957
  30
0.0
  11
 423.517
  21
 402.928
  31
0.0
   0
LINE
   8
LEVEL001
   6
CONTINUOUS
  62
7
  10
 463.882
  20
 391.157
  30
0.0
  11
 463.500
  21
 404.109
  31
0.0
   0
ARC
   8
LEVEL001
   6
CONTINUOUS
  62
7
  10
 433.405
  20
 406.867
  30
0.0
  40
 15.0000
  50
 142.305
  51
 181.692
   0
ARC
   8
LEVEL001
   6
CONTINUOUS
  62
7
  10
 429.441
  20
 405.604
  30
0.0
  40
 30.0000
  50
 150.249
  51
 214.079
   0
LINE
   8
LEVEL001
   6
DASHDOT
  62
1
  10
 423.876
  20
 356.918
  30
0.0
  11
 424.053
  21
 350.921
  31
0.0
   0
LINE
   8
LEVEL001
   6
DASHDOT
  62
1
  10
 393.978
  20
 353.034
  30
0.0
  11
 457.950
  21
 354.923
  31
0.0
   0
ARC
   8
LEVEL001
   6
CONTINUOUS
  62
7
  10
 392.169
  20
 380.388
  30
0.0
  40
 15.0000
  50
 1.69177
  51
 34.0793
   0
ARC
   8
LEVEL001
   6
CONTINUOUS
  62
7
  10
 392.169
  20
 380.388
  30
0.0
  40
 15.0000
  50
 1.69177
  51
 34.0793
   0
LINE
   8
LEVEL001
   6
CONTINUOUS
  62
7
  10
 397.915
  20
 372.158
  30
0.0
  11
 398.948
  21
 337.174
  31
0.0
   0
ARC
   8
LEVEL001
   6
CONTINUOUS
  62
7
  10
 420.093
  20
 334.797
  30
0.0
  40
 3.00000
  50
 75.7292
  51
 91.6919
   0
ARC
   8
LEVEL001
   6
CONTINUOUS
  62
7
  10
 424.964
  20
 353.949
  30
0.0
  40
 16.7620
  50
 255.729
  51
 261.100
   0
LINE
   8
LEVEL001
   6
CONTINUOUS
  62
7
  10
 398.948
  20
 337.174
  30
0.0
  11
 420.004
  21
 337.796
  31
0.0
   0
ARC
   8
LEVEL001
   6
CONTINUOUS
  62
7
  10
 421.597
  20
 332.449
  30
0.0
  40
 5.00000
  50
 1.69191
  51
 81.1003
   0
LINE
   8
LEVEL001
   6
CONTINUOUS
  62
7
  10
 427.410
  20
 305.000
  30
0.0
  11
 467.382
  21
 306.181
  31
0.0
   0
LINE
   8
LEVEL001
   6
CONTINUOUS
  62
7
  10
 427.410
  20
 305.000
  30
0.0
  11
 426.595
  21
 332.597
  31
0.0
   0
LINE
   8
LEVEL001
   6
DASHDOT
  62
1
  10
 454.931
  20
 318.318
  30
0.0
  11
 475.405
  21
 318.923
  31
0.0
   0
LINE
   8
LEVEL001
   6
DASHDOT
  62
1
  10
 424.592
  20
 317.422
  30
0.0
  11
 451.993
  21
 318.232
  31
0.0
   0
ARC
   8
LEVEL001
   6
CONTINUOUS
  62
7
  10
 475.433
  20
 380.951
  30
0.0
  40
 5.00000
  50
 181.692
  51
 223.195
   0
LINE
   8
LEVEL001
   6
CONTINUOUS
  62
7
  10
 470.272
  20
 386.344
  30
0.0
  11
 470.436
  21
 380.803
  31
0.0
   0
ARC
   8
LEVEL001
   6
CONTINUOUS
  62
7
  10
 470.354
  20
 305.768
  30
0.0
  40
 3.00000
  50
 91.6919
  51
 172.098
   0
LINE
   8
LEVEL001
   6
CONTINUOUS
  62
7
  10
 470.265
  20
 308.767
  30
0.0
  11
 473.316
  21
 308.857
  31
0.0
   0
LINE
   8
LEVEL001
   6
CONTINUOUS
  62
7
  10
 473.316
  20
 308.857
  30
0.0
  11
 473.802
  21
 309.372
  31
0.0
   0
LINE
   8
LEVEL001
   6
CONTINUOUS
  62
7
  10
 473.802
  20
 309.372
  30
0.0
  11
 473.787
  21
 309.871
  31
0.0
   0
LINE
   8
LEVEL001
   6
DASHDOT
  62
1
  10
 446.402
  20
 305.561
  30
0.0
  11
 442.589
  21
 434.669
  31
0.0
   0
LINE
   8
LEVEL001
   6
CONTINUOUS
  62
7
  10
 417.431
  20
 405.749
  30
0.0
  11
 417.166
  21
 414.745
  31
0.0
   0
LINE
   8
LEVEL001
   6
CONTINUOUS
  62
7
  10
 416.432
  20
 405.720
  30
0.0
  11
 416.141
  21
 415.553
  31
0.0
   0
ARC
   8
LEVEL001
   6
CONTINUOUS
  62
7
  10
 421.430
  20
 405.867
  30
0.0
  40
 4.00000
  50
 181.690
  51
 271.692
   0
ARC
   8
LEVEL001
   6
CONTINUOUS
  62
7
  10
 421.430
  20
 405.867
  30
0.0
  40
 5.00000
  50
 181.692
  51
 271.559
   0
ARC
   8
LEVEL001
   6
CONTINUOUS
  62
7
  10
 421.430
  20
 405.867
  30
0.0
  40
 11.0000
  50
 181.692
  51
 271.692
   0
ARC
   8
LEVEL001
   6
CONTINUOUS
  62
7
  10
 421.430
  20
 405.867
  30
0.0
  40
 10.0000
  50
 181.692
  51
 271.592
   0
LINE
   8
LEVEL001
   6
CONTINUOUS
  62
7
  10
 410.434
  20
 405.543
  30
0.0
  11
 410.155
  21
 415.002
  31
0.0
   0
LINE
   8
LEVEL001
   6
CONTINUOUS
  62
7
  10
 411.434
  20
 405.572
  30
0.0
  11
 411.153
  21
 415.093
  31
0.0
   0
ARC
   8
LEVEL001
   6
CONTINUOUS
  62
7
  10
 420.164
  20
 414.834
  30
0.0
  40
 3.00000
  50
 164.195
  51
 181.692
   0
ARC
   8
LEVEL001
   6
CONTINUOUS
  62
7
  10
 413.814
  20
 409.644
  30
0.0
  40
 2.50000
  50
 158.114
  51
 181.692
   0
LINE
   8
LEVEL001
   6
CONTINUOUS
  62
7
  10
 411.495
  20
 410.576
  30
0.0
  11
 416.075
  21
 410.712
  31
0.0
   0
LINE
   8
LEVEL001
   6
CONTINUOUS
  62
7
  10
 437.592
  20
 366.723
  30
0.0
  11
 457.584
  21
 367.314
  31
0.0
   0
ARC
   8
LEVEL003
   6
CONTINUOUS
  62
7
  10
 464.378
  20
 391.299
  30
0.0
  40
 3.00000
  50
 121.692
  51
 181.692
   0
LINE
   8
LEVEL003
   6
CONTINUOUS
  62
7
  10
 426.326
  20
 392.506
  30
0.0
  11
 461.311
  21
 393.540
  31
0.0
   0
ARC
   8
LEVEL003
   6
CONTINUOUS
  62
7
  10
 423.396
  20
 390.088
  30
0.0
  40
 3.00000
  50
 1.69191
  51
 61.6919
   0
ARC
   8
LEVEL003
   6
CONTINUOUS
  62
7
  10
 425.767
  20
 394.491
  30
0.0
  40
 2.00000
  50
 181.692
  51
 241.692
   0
LINE
   8
LEVEL003
   6
CONTINUOUS
  62
7
  10
 423.754
  20
 394.931
  30
0.0
  11
 423.768
  21
 394.431
  31
0.0
   0
ARC
   8
LEVEL003
   6
CONTINUOUS
  62
7
  10
 429.168
  20
 404.095
  30
0.0
  40
 2.00000
  50
 271.692
  51
 1.69191
   0
ARC
   8
LEVEL003
   6
CONTINUOUS
  62
7
  10
 429.197
  20
 403.096
  30
0.0
  40
 2.00000
  50
 271.692
  51
 1.69191
   0
ARC
   8
LEVEL003
   6
CONTINUOUS
  62
7
  10
 429.492
  20
 393.100
  30
0.0
  40
 2.00000
  50
 1.69191
  51
 91.6919
   0
ARC
   8
LEVEL003
   6
CONTINUOUS
  62
7
  10
 429.463
  20
 394.099
  30
0.0
  40
 2.00000
  50
 1.69191
  51
 91.6919
   0
LINE
   8
LEVEL001
   6
CONTINUOUS
  62
7
  10
 429.227
  20
 402.096
  30
0.0
  11
 421.548
  21
 401.869
  31
0.0
   0
LINE
   8
LEVEL001
   6
CONTINUOUS
  62
7
  10
 429.256
  20
 401.096
  30
0.0
  11
 421.566
  21
 400.869
  31
0.0
   0
LINE
   8
LEVEL001
   6
CONTINUOUS
  62
7
  10
 429.404
  20
 396.099
  30
0.0
  11
 421.707
  21
 395.871
  31
0.0
   0
LINE
   8
LEVEL001
   6
CONTINUOUS
  62
7
  10
 429.433
  20
 395.099
  30
0.0
  11
 421.754
  21
 394.872
  31
0.0
   0
LINE
   8
LEVEL003
   6
CONTINUOUS
  62
7
  10
 445.135
  20
 382.333
  30
0.0
  11
 445.062
  21
 382.672
  31
0.0
   0
LINE
   8
LEVEL003
   6
CONTINUOUS
  62
7
  10
 445.062
  20
 382.672
  30
0.0
  11
 444.866
  21
 383.003
  31
0.0
   0
LINE
   8
LEVEL003
   6
CONTINUOUS
  62
7
  10
 444.866
  20
 383.003
  30
0.0
  11
 444.550
  21
 383.319
  31
0.0
   0
LINE
   8
LEVEL003
   6
CONTINUOUS
  62
7
  10
 444.550
  20
 383.319
  30
0.0
  11
 444.117
  21
 383.616
  31
0.0
   0
LINE
   8
LEVEL003
   6
CONTINUOUS
  62
7
  10
 444.117
  20
 383.616
  30
0.0
  11
 443.576
  21
 383.889
  31
0.0
   0
LINE
   8
LEVEL003
   6
CONTINUOUS
  62
7
  10
 443.576
  20
 383.889
  30
0.0
  11
 442.934
  21
 384.134
  31
0.0
   0
LINE
   8
LEVEL003
   6
CONTINUOUS
  62
7
  10
 442.934
  20
 384.134
  30
0.0
  11
 442.202
  21
 384.348
  31
0.0
   0
LINE
   8
LEVEL003
   6
CONTINUOUS
  62
7
  10
 442.202
  20
 384.348
  30
0.0
  11
 441.391
  21
 384.526
  31
0.0
   0
LINE
   8
LEVEL003
   6
CONTINUOUS
  62
7
  10
 441.391
  20
 384.526
  30
0.0
  11
 440.513
  21
 384.667
  31
0.0
   0
LINE
   8
LEVEL003
   6
CONTINUOUS
  62
7
  10
 440.513
  20
 384.667
  30
0.0
  11
 439.583
  21
 384.767
  31
0.0
   0
LINE
   8
LEVEL003
   6
CONTINUOUS
  62
7
  10
 439.583
  20
 384.767
  30
0.0
  11
 438.615
  21
 384.826
  31
0.0
   0
LINE
   8
LEVEL003
   6
CONTINUOUS
  62
7
  10
 438.615
  20
 384.826
  30
0.0
  11
 437.623
  21
 384.842
  31
0.0
   0
LINE
   8
LEVEL003
   6
CONTINUOUS
  62
7
  10
 437.623
  20
 384.842
  30
0.0
  11
 436.624
  21
 384.815
  31
0.0
   0
LINE
   8
LEVEL003
   6
CONTINUOUS
  62
7
  10
 436.624
  20
 384.815
  30
0.0
  11
 435.633
  21
 384.746
  31
0.0
   0
LINE
   8
LEVEL003
   6
CONTINUOUS
  62
7
  10
 435.633
  20
 384.746
  30
0.0
  11
 434.666
  21
 384.636
  31
0.0
   0
LINE
   8
LEVEL003
   6
CONTINUOUS
  62
7
  10
 434.666
  20
 384.636
  30
0.0
  11
 433.737
  21
 384.486
  31
0.0
   0
LINE
   8
LEVEL003
   6
CONTINUOUS
  62
7
  10
 433.737
  20
 384.486
  30
0.0
  11
 432.861
  21
 384.298
  31
0.0
   0
LINE
   8
LEVEL003
   6
CONTINUOUS
  62
7
  10
 432.861
  20
 384.298
  30
0.0
  11
 432.052
  21
 384.077
  31
0.0
   0
LINE
   8
LEVEL003
   6
CONTINUOUS
  62
7
  10
 432.052
  20
 384.077
  30
0.0
  11
 431.323
  21
 383.824
  31
0.0
   0
LINE
   8
LEVEL003
   6
CONTINUOUS
  62
7
  10
 431.323
  20
 383.824
  30
0.0
  11
 430.684
  21
 383.545
  31
0.0
   0
LINE
   8
LEVEL003
   6
CONTINUOUS
  62
7
  10
 430.684
  20
 383.545
  30
0.0
  11
 430.145
  21
 383.243
  31
0.0
   0
LINE
   8
LEVEL003
   6
CONTINUOUS
  62
7
  10
 430.145
  20
 383.243
  30
0.0
  11
 429.716
  21
 382.923
  31
0.0
   0
LINE
   8
LEVEL003
   6
CONTINUOUS
  62
7
  10
 429.716
  20
 382.923
  30
0.0
  11
 429.403
  21
 382.590
  31
0.0
   0
LINE
   8
LEVEL003
   6
CONTINUOUS
  62
7
  10
 429.403
  20
 382.590
  30
0.0
  11
 429.210
  21
 382.249
  31
0.0
   0
LINE
   8
LEVEL003
   6
CONTINUOUS
  62
7
  10
 429.210
  20
 382.249
  30
0.0
  11
 429.142
  21
 381.906
  31
0.0
   0
LINE
   8
LEVEL003
   6
CONTINUOUS
  62
7
  10
 429.142
  20
 381.906
  30
0.0
  11
 429.197
  21
 381.566
  31
0.0
   0
LINE
   8
LEVEL003
   6
CONTINUOUS
  62
7
  10
 429.197
  20
 381.566
  30
0.0
  11
 429.377
  21
 381.235
  31
0.0
   0
LINE
   8
LEVEL003
   6
CONTINUOUS
  62
7
  10
 429.377
  20
 381.235
  30
0.0
  11
 429.678
  21
 380.917
  31
0.0
   0
LINE
   8
LEVEL003
   6
CONTINUOUS
  62
7
  10
 429.678
  20
 380.917
  30
0.0
  11
 430.096
  21
 380.617
  31
0.0
   0
LINE
   8
LEVEL003
   6
CONTINUOUS
  62
7
  10
 430.096
  20
 380.617
  30
0.0
  11
 430.623
  21
 380.340
  31
0.0
   0
LINE
   8
LEVEL003
   6
CONTINUOUS
  62
7
  10
 430.623
  20
 380.340
  30
0.0
  11
 431.252
  21
 380.091
  31
0.0
   0
LINE
   8
LEVEL003
   6
CONTINUOUS
  62
7
  10
 431.252
  20
 380.091
  30
0.0
  11
 431.973
  21
 379.873
  31
0.0
   0
LINE
   8
LEVEL003
   6
CONTINUOUS
  62
7
  10
 431.973
  20
 379.873
  30
0.0
  11
 432.774
  21
 379.690
  31
0.0
   0
LINE
   8
LEVEL003
   6
CONTINUOUS
  62
7
  10
 432.774
  20
 379.690
  30
0.0
  11
 433.643
  21
 379.544
  31
0.0
   0
LINE
   8
LEVEL003
   6
CONTINUOUS
  62
7
  10
 433.643
  20
 379.544
  30
0.0
  11
 434.567
  21
 379.438
  31
0.0
   0
LINE
   8
LEVEL003
   6
CONTINUOUS
  62
7
  10
 434.567
  20
 379.438
  30
0.0
  11
 435.532
  21
 379.374
  31
0.0
   0
LINE
   8
LEVEL003
   6
CONTINUOUS
  62
7
  10
 435.532
  20
 379.374
  30
0.0
  11
 436.521
  21
 379.352
  31
0.0
   0
LINE
   8
LEVEL003
   6
CONTINUOUS
  62
7
  10
 436.521
  20
 379.352
  30
0.0
  11
 437.520
  21
 379.373
  31
0.0
   0
LINE
   8
LEVEL003
   6
CONTINUOUS
  62
7
  10
 437.520
  20
 379.373
  30
0.0
  11
 438.513
  21
 379.436
  31
0.0
   0
LINE
   8
LEVEL003
   6
CONTINUOUS
  62
7
  10
 438.513
  20
 379.436
  30
0.0
  11
 439.484
  21
 379.542
  31
0.0
   0
LINE
   8
LEVEL003
   6
CONTINUOUS
  62
7
  10
 439.484
  20
 379.542
  30
0.0
  11
 440.419
  21
 379.686
  31
0.0
   0
LINE
   8
LEVEL003
   6
CONTINUOUS
  62
7
  10
 440.419
  20
 379.686
  30
0.0
  11
 441.303
  21
 379.869
  31
0.0
   0
LINE
   8
LEVEL003
   6
CONTINUOUS
  62
7
  10
 441.303
  20
 379.869
  30
0.0
  11
 442.121
  21
 380.086
  31
0.0
   0
LINE
   8
LEVEL003
   6
CONTINUOUS
  62
7
  10
 442.121
  20
 380.086
  30
0.0
  11
 442.862
  21
 380.335
  31
0.0
   0
LINE
   8
LEVEL003
   6
CONTINUOUS
  62
7
  10
 442.862
  20
 380.335
  30
0.0
  11
 443.514
  21
 380.611
  31
0.0
   0
LINE
   8
LEVEL003
   6
CONTINUOUS
  62
7
  10
 443.514
  20
 380.611
  30
0.0
  11
 444.066
  21
 380.910
  31
0.0
   0
LINE
   8
LEVEL003
   6
CONTINUOUS
  62
7
  10
 444.066
  20
 380.910
  30
0.0
  11
 444.510
  21
 381.228
  31
0.0
   0
LINE
   8
LEVEL003
   6
CONTINUOUS
  62
7
  10
 444.510
  20
 381.228
  30
0.0
  11
 444.839
  21
 381.560
  31
0.0
   0
LINE
   8
LEVEL003
   6
CONTINUOUS
  62
7
  10
 444.839
  20
 381.560
  30
0.0
  11
 445.048
  21
 381.900
  31
0.0
   0
LINE
   8
LEVEL003
   6
CONTINUOUS
  62
7
  10
 445.048
  20
 381.900
  30
0.0
  11
 445.133
  21
 382.242
  31
0.0
   0
LINE
   8
LEVEL003
   6
CONTINUOUS
  62
7
  10
 445.133
  20
 382.242
  30
0.0
  11
 445.135
  21
 382.333
  31
0.0
   0
LINE
   8
LEVEL003
   6
CONTINUOUS
  62
7
  10
 430.372
  20
 383.380
  30
0.0
  11
 429.688
  21
 383.057
  31
0.0
   0
LINE
   8
LEVEL003
   6
CONTINUOUS
  62
7
  10
 429.688
  20
 383.057
  30
0.0
  11
 429.121
  21
 382.710
  31
0.0
   0
LINE
   8
LEVEL003
   6
CONTINUOUS
  62
7
  10
 429.121
  20
 382.710
  30
0.0
  11
 428.679
  21
 382.345
  31
0.0
   0
LINE
   8
LEVEL003
   6
CONTINUOUS
  62
7
  10
 428.679
  20
 382.345
  30
0.0
  11
 428.369
  21
 381.967
  31
0.0
   0
LINE
   8
LEVEL003
   6
CONTINUOUS
  62
7
  10
 428.369
  20
 381.967
  30
0.0
  11
 428.196
  21
 381.582
  31
0.0
   0
LINE
   8
LEVEL003
   6
CONTINUOUS
  62
7
  10
 428.196
  20
 381.582
  30
0.0
  11
 428.163
  21
 381.197
  31
0.0
   0
LINE
   8
LEVEL003
   6
CONTINUOUS
  62
7
  10
 428.163
  20
 381.197
  30
0.0
  11
 428.271
  21
 380.817
  31
0.0
   0
LINE
   8
LEVEL003
   6
CONTINUOUS
  62
7
  10
 428.271
  20
 380.817
  30
0.0
  11
 428.517
  21
 380.448
  31
0.0
   0
LINE
   8
LEVEL003
   6
CONTINUOUS
  62
7
  10
 428.517
  20
 380.448
  30
0.0
  11
 428.898
  21
 380.096
  31
0.0
   0
LINE
   8
LEVEL003
   6
CONTINUOUS
  62
7
  10
 428.898
  20
 380.096
  30
0.0
  11
 429.408
  21
 379.766
  31
0.0
   0
LINE
   8
LEVEL003
   6
CONTINUOUS
  62
7
  10
 429.408
  20
 379.766
  30
0.0
  11
 430.038
  21
 379.464
  31
0.0
   0
LINE
   8
LEVEL003
   6
CONTINUOUS
  62
7
  10
 430.038
  20
 379.464
  30
0.0
  11
 430.780
  21
 379.195
  31
0.0
   0
LINE
   8
LEVEL003
   6
CONTINUOUS
  62
7
  10
 430.780
  20
 379.195
  30
0.0
  11
 431.621
  21
 378.961
  31
0.0
   0
LINE
   8
LEVEL003
   6
CONTINUOUS
  62
7
  10
 431.621
  20
 378.961
  30
0.0
  11
 432.548
  21
 378.768
  31
0.0
   0
LINE
   8
LEVEL003
   6
CONTINUOUS
  62
7
  10
 432.548
  20
 378.768
  30
0.0
  11
 433.548
  21
 378.618
  31
0.0
   0
LINE
   8
LEVEL003
   6
CONTINUOUS
  62
7
  10
 433.548
  20
 378.618
  30
0.0
  11
 434.604
  21
 378.514
  31
0.0
   0
LINE
   8
LEVEL003
   6
CONTINUOUS
  62
7
  10
 434.604
  20
 378.514
  30
0.0
  11
 435.699
  21
 378.457
  31
0.0
   0
LINE
   8
LEVEL003
   6
CONTINUOUS
  62
7
  10
 435.699
  20
 378.457
  30
0.0
  11
 436.817
  21
 378.448
  31
0.0
   0
LINE
   8
LEVEL003
   6
CONTINUOUS
  62
7
  10
 436.817
  20
 378.448
  30
0.0
  11
 437.941
  21
 378.486
  31
0.0
   0
LINE
   8
LEVEL003
   6
CONTINUOUS
  62
7
  10
 437.941
  20
 378.486
  30
0.0
  11
 439.052
  21
 378.573
  31
0.0
   0
LINE
   8
LEVEL003
   6
CONTINUOUS
  62
7
  10
 439.052
  20
 378.573
  30
0.0
  11
 440.134
  21
 378.706
  31
0.0
   0
LINE
   8
LEVEL003
   6
CONTINUOUS
  62
7
  10
 440.134
  20
 378.706
  30
0.0
  11
 441.169
  21
 378.882
  31
0.0
   0
LINE
   8
LEVEL003
   6
CONTINUOUS
  62
7
  10
 441.169
  20
 378.882
  30
0.0
  11
 442.141
  21
 379.101
  31
0.0
   0
LINE
   8
LEVEL003
   6
CONTINUOUS
  62
7
  10
 442.141
  20
 379.101
  30
0.0
  11
 443.036
  21
 379.357
  31
0.0
   0
LINE
   8
LEVEL003
   6
CONTINUOUS
  62
7
  10
 443.036
  20
 379.357
  30
0.0
  11
 443.839
  21
 379.647
  31
0.0
   0
LINE
   8
LEVEL003
   6
CONTINUOUS
  62
7
  10
 443.839
  20
 379.647
  30
0.0
  11
 444.537
  21
 379.966
  31
0.0
   0
LINE
   8
LEVEL003
   6
CONTINUOUS
  62
7
  10
 444.537
  20
 379.966
  30
0.0
  11
 445.121
  21
 380.310
  31
0.0
   0
LINE
   8
LEVEL003
   6
CONTINUOUS
  62
7
  10
 445.121
  20
 380.310
  30
0.0
  11
 445.580
  21
 380.673
  31
0.0
   0
LINE
   8
LEVEL003
   6
CONTINUOUS
  62
7
  10
 445.580
  20
 380.673
  30
0.0
  11
 445.908
  21
 381.050
  31
0.0
   0
LINE
   8
LEVEL003
   6
CONTINUOUS
  62
7
  10
 445.908
  20
 381.050
  30
0.0
  11
 446.099
  21
 381.434
  31
0.0
   0
LINE
   8
LEVEL003
   6
CONTINUOUS
  62
7
  10
 446.099
  20
 381.434
  30
0.0
  11
 446.150
  21
 381.819
  31
0.0
   0
LINE
   8
LEVEL003
   6
CONTINUOUS
  62
7
  10
 446.150
  20
 381.819
  30
0.0
  11
 446.061
  21
 382.201
  31
0.0
   0
LINE
   8
LEVEL003
   6
CONTINUOUS
  62
7
  10
 446.061
  20
 382.201
  30
0.0
  11
 445.834
  21
 382.571
  31
0.0
   0
LINE
   8
LEVEL003
   6
CONTINUOUS
  62
7
  10
 445.834
  20
 382.571
  30
0.0
  11
 445.470
  21
 382.926
  31
0.0
   0
LINE
   8
LEVEL003
   6
CONTINUOUS
  62
7
  10
 445.470
  20
 382.926
  30
0.0
  11
 444.977
  21
 383.259
  31
0.0
   0
LINE
   8
LEVEL003
   6
CONTINUOUS
  62
7
  10
 444.977
  20
 383.259
  30
0.0
  11
 444.362
  21
 383.565
  31
0.0
   0
LINE
   8
LEVEL003
   6
CONTINUOUS
  62
7
  10
 444.362
  20
 383.565
  30
0.0
  11
 443.817
  21
 383.777
  31
0.0
   0
LINE
   8
LEVEL003
   6
CONTINUOUS
  62
7
  10
 428.475
  20
 370.560
  30
0.0
  11
 428.557
  21
 370.178
  31
0.0
   0
LINE
   8
LEVEL003
   6
CONTINUOUS
  62
7
  10
 428.557
  20
 370.178
  30
0.0
  11
 428.777
  21
 369.807
  31
0.0
   0
LINE
   8
LEVEL003
   6
CONTINUOUS
  62
7
  10
 428.777
  20
 369.807
  30
0.0
  11
 429.134
  21
 369.452
  31
0.0
   0
LINE
   8
LEVEL003
   6
CONTINUOUS
  62
7
  10
 429.134
  20
 369.452
  30
0.0
  11
 429.620
  21
 369.117
  31
0.0
   0
LINE
   8
LEVEL003
   6
CONTINUOUS
  62
7
  10
 429.620
  20
 369.117
  30
0.0
  11
 430.229
  21
 368.810
  31
0.0
   0
LINE
   8
LEVEL003
   6
CONTINUOUS
  62
7
  10
 430.229
  20
 368.810
  30
0.0
  11
 430.951
  21
 368.534
  31
0.0
   0
LINE
   8
LEVEL003
   6
CONTINUOUS
  62
7
  10
 430.951
  20
 368.534
  30
0.0
  11
 431.775
  21
 368.294
  31
0.0
   0
LINE
   8
LEVEL003
   6
CONTINUOUS
  62
7
  10
 431.775
  20
 368.294
  30
0.0
  11
 432.687
  21
 368.093
  31
0.0
   0
LINE
   8
LEVEL003
   6
CONTINUOUS
  62
7
  10
 432.687
  20
 368.093
  30
0.0
  11
 433.674
  21
 367.935
  31
0.0
   0
LINE
   8
LEVEL003
   6
CONTINUOUS
  62
7
  10
 433.674
  20
 367.935
  30
0.0
  11
 434.721
  21
 367.822
  31
0.0
   0
LINE
   8
LEVEL003
   6
CONTINUOUS
  62
7
  10
 434.721
  20
 367.822
  30
0.0
  11
 435.810
  21
 367.756
  31
0.0
   0
LINE
   8
LEVEL003
   6
CONTINUOUS
  62
7
  10
 435.810
  20
 367.756
  30
0.0
  11
 436.926
  21
 367.738
  31
0.0
   0
LINE
   8
LEVEL003
   6
CONTINUOUS
  62
7
  10
 436.926
  20
 367.738
  30
0.0
  11
 438.049
  21
 367.768
  31
0.0
   0
LINE
   8
LEVEL003
   6
CONTINUOUS
  62
7
  10
 438.049
  20
 367.768
  30
0.0
  11
 439.164
  21
 367.846
  31
0.0
   0
LINE
   8
LEVEL003
   6
CONTINUOUS
  62
7
  10
 439.164
  20
 367.846
  30
0.0
  11
 440.253
  21
 367.970
  31
0.0
   0
LINE
   8
LEVEL003
   6
CONTINUOUS
  62
7
  10
 440.253
  20
 367.970
  30
0.0
  11
 441.298
  21
 368.139
  31
0.0
   0
LINE
   8
LEVEL003
   6
CONTINUOUS
  62
7
  10
 441.298
  20
 368.139
  30
0.0
  11
 442.283
  21
 368.349
  31
0.0
   0
LINE
   8
LEVEL003
   6
CONTINUOUS
  62
7
  10
 442.283
  20
 368.349
  30
0.0
  11
 443.193
  21
 368.599
  31
0.0
   0
LINE
   8
LEVEL003
   6
CONTINUOUS
  62
7
  10
 443.193
  20
 368.599
  30
0.0
  11
 444.014
  21
 368.883
  31
0.0
   0
LINE
   8
LEVEL003
   6
CONTINUOUS
  62
7
  10
 444.014
  20
 368.883
  30
0.0
  11
 444.733
  21
 369.197
  31
0.0
   0
LINE
   8
LEVEL003
   6
CONTINUOUS
  62
7
  10
 444.733
  20
 369.197
  30
0.0
  11
 445.338
  21
 369.537
  31
0.0
   0
LINE
   8
LEVEL003
   6
CONTINUOUS
  62
7
  10
 445.338
  20
 369.537
  30
0.0
  11
 445.821
  21
 369.897
  31
0.0
   0
LINE
   8
LEVEL003
   6
CONTINUOUS
  62
7
  10
 445.821
  20
 369.897
  30
0.0
  11
 446.173
  21
 370.272
  31
0.0
   0
LINE
   8
LEVEL003
   6
CONTINUOUS
  62
7
  10
 446.173
  20
 370.272
  30
0.0
  11
 446.390
  21
 370.655
  31
0.0
   0
LINE
   8
LEVEL003
   6
CONTINUOUS
  62
7
  10
 446.390
  20
 370.655
  30
0.0
  11
 446.468
  21
 371.040
  31
0.0
   0
LINE
   8
LEVEL003
   6
CONTINUOUS
  62
7
  10
 446.468
  20
 371.040
  30
0.0
  11
 446.467
  21
 371.091
  31
0.0
   0
LINE
   8
LEVEL003
   6
CONTINUOUS
  62
7
  10
 428.159
  20
 381.268
  30
0.0
  11
 428.475
  21
 370.560
  31
0.0
   0
LINE
   8
LEVEL003
   6
CONTINUOUS
  62
7
  10
 446.151
  20
 381.799
  30
0.0
  11
 446.467
  21
 371.091
  31
0.0
   0
LINE
   8
LEVEL003
   6
CONTINUOUS
  62
7
  10
 465.126
  20
 382.924
  30
0.0
  11
 465.054
  21
 383.263
  31
0.0
   0
LINE
   8
LEVEL003
   6
CONTINUOUS
  62
7
  10
 465.054
  20
 383.263
  30
0.0
  11
 464.858
  21
 383.593
  31
0.0
   0
LINE
   8
LEVEL003
   6
CONTINUOUS
  62
7
  10
 464.858
  20
 383.593
  30
0.0
  11
 464.541
  21
 383.909
  31
0.0
   0
LINE
   8
LEVEL003
   6
CONTINUOUS
  62
7
  10
 464.541
  20
 383.909
  30
0.0
  11
 464.108
  21
 384.206
  31
0.0
   0
LINE
   8
LEVEL003
   6
CONTINUOUS
  62
7
  10
 464.108
  20
 384.206
  30
0.0
  11
 463.567
  21
 384.479
  31
0.0
   0
LINE
   8
LEVEL003
   6
CONTINUOUS
  62
7
  10
 463.567
  20
 384.479
  30
0.0
  11
 462.925
  21
 384.725
  31
0.0
   0
LINE
   8
LEVEL003
   6
CONTINUOUS
  62
7
  10
 462.925
  20
 384.725
  30
0.0
  11
 462.193
  21
 384.938
  31
0.0
   0
LINE
   8
LEVEL003
   6
CONTINUOUS
  62
7
  10
 462.193
  20
 384.938
  30
0.0
  11
 461.382
  21
 385.117
  31
0.0
   0
LINE
   8
LEVEL003
   6
CONTINUOUS
  62
7
  10
 461.382
  20
 385.117
  30
0.0
  11
 460.505
  21
 385.257
  31
0.0
   0
LINE
   8
LEVEL003
   6
CONTINUOUS
  62
7
  10
 460.505
  20
 385.257
  30
0.0
  11
 459.574
  21
 385.358
  31
0.0
   0
LINE
   8
LEVEL003
   6
CONTINUOUS
  62
7
  10
 459.574
  20
 385.358
  30
0.0
  11
 458.606
  21
 385.416
  31
0.0
   0
LINE
   8
LEVEL003
   6
CONTINUOUS
  62
7
  10
 458.606
  20
 385.416
  30
0.0
  11
 457.615
  21
 385.432
  31
0.0
   0
LINE
   8
LEVEL003
   6
CONTINUOUS
  62
7
  10
 457.615
  20
 385.432
  30
0.0
  11
 456.616
  21
 385.406
  31
0.0
   0
LINE
   8
LEVEL003
   6
CONTINUOUS
  62
7
  10
 456.616
  20
 385.406
  30
0.0
  11
 455.625
  21
 385.337
  31
0.0
   0
LINE
   8
LEVEL003
   6
CONTINUOUS
  62
7
  10
 455.625
  20
 385.337
  30
0.0
  11
 454.657
  21
 385.226
  31
0.0
   0
LINE
   8
LEVEL003
   6
CONTINUOUS
  62
7
  10
 454.657
  20
 385.226
  30
0.0
  11
 453.728
  21
 385.076
  31
0.0
   0
LINE
   8
LEVEL003
   6
CONTINUOUS
  62
7
  10
 453.728
  20
 385.076
  30
0.0
  11
 452.853
  21
 384.889
  31
0.0
   0
LINE
   8
LEVEL003
   6
CONTINUOUS
  62
7
  10
 452.853
  20
 384.889
  30
0.0
  11
 452.044
  21
 384.667
  31
0.0
   0
LINE
   8
LEVEL003
   6
CONTINUOUS
  62
7
  10
 452.044
  20
 384.667
  30
0.0
  11
 451.314
  21
 384.415
  31
0.0
   0
LINE
   8
LEVEL003
   6
CONTINUOUS
  62
7
  10
 451.314
  20
 384.415
  30
0.0
  11
 450.675
  21
 384.135
  31
0.0
   0
LINE
   8
LEVEL003
   6
CONTINUOUS
  62
7
  10
 450.675
  20
 384.135
  30
0.0
  11
 450.137
  21
 383.833
  31
0.0
   0
LINE
   8
LEVEL003
   6
CONTINUOUS
  62
7
  10
 450.137
  20
 383.833
  30
0.0
  11
 449.708
  21
 383.513
  31
0.0
   0
LINE
   8
LEVEL003
   6
CONTINUOUS
  62
7
  10
 449.708
  20
 383.513
  30
0.0
  11
 449.394
  21
 383.180
  31
0.0
   0
LINE
   8
LEVEL003
   6
CONTINUOUS
  62
7
  10
 449.394
  20
 383.180
  30
0.0
  11
 449.202
  21
 382.840
  31
0.0
   0
LINE
   8
LEVEL003
   6
CONTINUOUS
  62
7
  10
 449.202
  20
 382.840
  30
0.0
  11
 449.133
  21
 382.497
  31
0.0
   0
LINE
   8
LEVEL003
   6
CONTINUOUS
  62
7
  10
 449.133
  20
 382.497
  30
0.0
  11
 449.189
  21
 382.157
  31
0.0
   0
LINE
   8
LEVEL003
   6
CONTINUOUS
  62
7
  10
 449.189
  20
 382.157
  30
0.0
  11
 449.369
  21
 381.825
  31
0.0
   0
LINE
   8
LEVEL003
   6
CONTINUOUS
  62
7
  10
 449.369
  20
 381.825
  30
0.0
  11
 449.670
  21
 381.507
  31
0.0
   0
LINE
   8
LEVEL003
   6
CONTINUOUS
  62
7
  10
 449.670
  20
 381.507
  30
0.0
  11
 450.087
  21
 381.207
  31
0.0
   0
LINE
   8
LEVEL003
   6
CONTINUOUS
  62
7
  10
 450.087
  20
 381.207
  30
0.0
  11
 450.614
  21
 380.931
  31
0.0
   0
LINE
   8
LEVEL003
   6
CONTINUOUS
  62
7
  10
 450.614
  20
 380.931
  30
0.0
  11
 451.243
  21
 380.681
  31
0.0
   0
LINE
   8
LEVEL003
   6
CONTINUOUS
  62
7
  10
 451.243
  20
 380.681
  30
0.0
  11
 451.964
  21
 380.463
  31
0.0
   0
LINE
   8
LEVEL003
   6
CONTINUOUS
  62
7
  10
 451.964
  20
 380.463
  30
0.0
  11
 452.765
  21
 380.280
  31
0.0
   0
LINE
   8
LEVEL003
   6
CONTINUOUS
  62
7
  10
 452.765
  20
 380.280
  30
0.0
  11
 453.635
  21
 380.135
  31
0.0
   0
LINE
   8
LEVEL003
   6
CONTINUOUS
  62
7
  10
 453.635
  20
 380.135
  30
0.0
  11
 454.559
  21
 380.029
  31
0.0
   0
LINE
   8
LEVEL003
   6
CONTINUOUS
  62
7
  10
 454.559
  20
 380.029
  30
0.0
  11
 455.523
  21
 379.964
  31
0.0
   0
LINE
   8
LEVEL003
   6
CONTINUOUS
  62
7
  10
 455.523
  20
 379.964
  30
0.0
  11
 456.512
  21
 379.942
  31
0.0
   0
LINE
   8
LEVEL003
   6
CONTINUOUS
  62
7
  10
 456.512
  20
 379.942
  30
0.0
  11
 457.511
  21
 379.963
  31
0.0
   0
LINE
   8
LEVEL003
   6
CONTINUOUS
  62
7
  10
 457.511
  20
 379.963
  30
0.0
  11
 458.504
  21
 380.027
  31
0.0
   0
LINE
   8
LEVEL003
   6
CONTINUOUS
  62
7
  10
 458.504
  20
 380.027
  30
0.0
  11
 459.475
  21
 380.132
  31
0.0
   0
LINE
   8
LEVEL003
   6
CONTINUOUS
  62
7
  10
 459.475
  20
 380.132
  30
0.0
  11
 460.410
  21
 380.277
  31
0.0
   0
LINE
   8
LEVEL003
   6
CONTINUOUS
  62
7
  10
 460.410
  20
 380.277
  30
0.0
  11
 461.294
  21
 380.459
  31
0.0
   0
LINE
   8
LEVEL003
   6
CONTINUOUS
  62
7
  10
 461.294
  20
 380.459
  30
0.0
  11
 462.113
  21
 380.677
  31
0.0
   0
LINE
   8
LEVEL003
   6
CONTINUOUS
  62
7
  10
 462.113
  20
 380.677
  30
0.0
  11
 462.853
  21
 380.925
  31
0.0
   0
LINE
   8
LEVEL003
   6
CONTINUOUS
  62
7
  10
 462.853
  20
 380.925
  30
0.0
  11
 463.505
  21
 381.202
  31
0.0
   0
LINE
   8
LEVEL003
   6
CONTINUOUS
  62
7
  10
 463.505
  20
 381.202
  30
0.0
  11
 464.057
  21
 381.501
  31
0.0
   0
LINE
   8
LEVEL003
   6
CONTINUOUS
  62
7
  10
 464.057
  20
 381.501
  30
0.0
  11
 464.501
  21
 381.819
  31
0.0
   0
LINE
   8
LEVEL003
   6
CONTINUOUS
  62
7
  10
 464.501
  20
 381.819
  30
0.0
  11
 464.830
  21
 382.150
  31
0.0
   0
LINE
   8
LEVEL003
   6
CONTINUOUS
  62
7
  10
 464.830
  20
 382.150
  30
0.0
  11
 465.039
  21
 382.490
  31
0.0
   0
LINE
   8
LEVEL003
   6
CONTINUOUS
  62
7
  10
 465.039
  20
 382.490
  30
0.0
  11
 465.124
  21
 382.833
  31
0.0
   0
LINE
   8
LEVEL003
   6
CONTINUOUS
  62
7
  10
 465.124
  20
 382.833
  30
0.0
  11
 465.126
  21
 382.924
  31
0.0
   0
LINE
   8
LEVEL003
   6
CONTINUOUS
  62
7
  10
 450.363
  20
 383.970
  30
0.0
  11
 449.679
  21
 383.647
  31
0.0
   0
LINE
   8
LEVEL003
   6
CONTINUOUS
  62
7
  10
 449.679
  20
 383.647
  30
0.0
  11
 449.112
  21
 383.300
  31
0.0
   0
LINE
   8
LEVEL003
   6
CONTINUOUS
  62
7
  10
 449.112
  20
 383.300
  30
0.0
  11
 448.670
  21
 382.935
  31
0.0
   0
LINE
   8
LEVEL003
   6
CONTINUOUS
  62
7
  10
 448.670
  20
 382.935
  30
0.0
  11
 448.360
  21
 382.557
  31
0.0
   0
LINE
   8
LEVEL003
   6
CONTINUOUS
  62
7
  10
 448.360
  20
 382.557
  30
0.0
  11
 448.188
  21
 382.173
  31
0.0
   0
LINE
   8
LEVEL003
   6
CONTINUOUS
  62
7
  10
 448.188
  20
 382.173
  30
0.0
  11
 448.155
  21
 381.787
  31
0.0
   0
LINE
   8
LEVEL003
   6
CONTINUOUS
  62
7
  10
 448.155
  20
 381.787
  30
0.0
  11
 448.262
  21
 381.407
  31
0.0
   0
LINE
   8
LEVEL003
   6
CONTINUOUS
  62
7
  10
 448.262
  20
 381.407
  30
0.0
  11
 448.508
  21
 381.038
  31
0.0
   0
LINE
   8
LEVEL003
   6
CONTINUOUS
  62
7
  10
 448.508
  20
 381.038
  30
0.0
  11
 448.889
  21
 380.686
  31
0.0
   0
LINE
   8
LEVEL003
   6
CONTINUOUS
  62
7
  10
 448.889
  20
 380.686
  30
0.0
  11
 449.399
  21
 380.357
  31
0.0
   0
LINE
   8
LEVEL003
   6
CONTINUOUS
  62
7
  10
 449.399
  20
 380.357
  30
0.0
  11
 450.029
  21
 380.055
  31
0.0
   0
LINE
   8
LEVEL003
   6
CONTINUOUS
  62
7
  10
 450.029
  20
 380.055
  30
0.0
  11
 450.771
  21
 379.785
  31
0.0
   0
LINE
   8
LEVEL003
   6
CONTINUOUS
  62
7
  10
 450.771
  20
 379.785
  30
0.0
  11
 451.612
  21
 379.552
  31
0.0
   0
LINE
   8
LEVEL003
   6
CONTINUOUS
  62
7
  10
 451.612
  20
 379.552
  30
0.0
  11
 452.540
  21
 379.359
  31
0.0
   0
LINE
   8
LEVEL003
   6
CONTINUOUS
  62
7
  10
 452.540
  20
 379.359
  30
0.0
  11
 453.539
  21
 379.209
  31
0.0
   0
LINE
   8
LEVEL003
   6
CONTINUOUS
  62
7
  10
 453.539
  20
 379.209
  30
0.0
  11
 454.595
  21
 379.105
  31
0.0
   0
LINE
   8
LEVEL003
   6
CONTINUOUS
  62
7
  10
 454.595
  20
 379.105
  30
0.0
  11
 455.690
  21
 379.047
  31
0.0
   0
LINE
   8
LEVEL003
   6
CONTINUOUS
  62
7
  10
 455.690
  20
 379.047
  30
0.0
  11
 456.809
  21
 379.038
  31
0.0
   0
LINE
   8
LEVEL003
   6
CONTINUOUS
  62
7
  10
 456.809
  20
 379.038
  30
0.0
  11
 457.932
  21
 379.077
  31
0.0
   0
LINE
   8
LEVEL003
   6
CONTINUOUS
  62
7
  10
 457.932
  20
 379.077
  30
0.0
  11
 459.043
  21
 379.163
  31
0.0
   0
LINE
   8
LEVEL003
   6
CONTINUOUS
  62
7
  10
 459.043
  20
 379.163
  30
0.0
  11
 460.125
  21
 379.296
  31
0.0
   0
LINE
   8
LEVEL003
   6
CONTINUOUS
  62
7
  10
 460.125
  20
 379.296
  30
0.0
  11
 461.160
  21
 379.473
  31
0.0
   0
LINE
   8
LEVEL003
   6
CONTINUOUS
  62
7
  10
 461.160
  20
 379.473
  30
0.0
  11
 462.133
  21
 379.691
  31
0.0
   0
LINE
   8
LEVEL003
   6
CONTINUOUS
  62
7
  10
 462.133
  20
 379.691
  30
0.0
  11
 463.027
  21
 379.947
  31
0.0
   0
LINE
   8
LEVEL003
   6
CONTINUOUS
  62
7
  10
 463.027
  20
 379.947
  30
0.0
  11
 463.830
  21
 380.237
  31
0.0
   0
LINE
   8
LEVEL003
   6
CONTINUOUS
  62
7
  10
 463.830
  20
 380.237
  30
0.0
  11
 464.529
  21
 380.557
  31
0.0
   0
LINE
   8
LEVEL003
   6
CONTINUOUS
  62
7
  10
 464.529
  20
 380.557
  30
0.0
  11
 465.112
  21
 380.901
  31
0.0
   0
LINE
   8
LEVEL003
   6
CONTINUOUS
  62
7
  10
 465.112
  20
 380.901
  30
0.0
  11
 465.571
  21
 381.264
  31
0.0
   0
LINE
   8
LEVEL003
   6
CONTINUOUS
  62
7
  10
 465.571
  20
 381.264
  30
0.0
  11
 465.899
  21
 381.640
  31
0.0
   0
LINE
   8
LEVEL003
   6
CONTINUOUS
  62
7
  10
 465.899
  20
 381.640
  30
0.0
  11
 466.090
  21
 382.024
  31
0.0
   0
LINE
   8
LEVEL003
   6
CONTINUOUS
  62
7
  10
 466.090
  20
 382.024
  30
0.0
  11
 466.142
  21
 382.410
  31
0.0
   0
LINE
   8
LEVEL003
   6
CONTINUOUS
  62
7
  10
 466.142
  20
 382.410
  30
0.0
  11
 466.053
  21
 382.791
  31
0.0
   0
LINE
   8
LEVEL003
   6
CONTINUOUS
  62
7
  10
 466.053
  20
 382.791
  30
0.0
  11
 465.825
  21
 383.162
  31
0.0
   0
LINE
   8
LEVEL003
   6
CONTINUOUS
  62
7
  10
 465.825
  20
 383.162
  30
0.0
  11
 465.462
  21
 383.516
  31
0.0
   0
LINE
   8
LEVEL003
   6
CONTINUOUS
  62
7
  10
 465.462
  20
 383.516
  30
0.0
  11
 464.968
  21
 383.849
  31
0.0
   0
LINE
   8
LEVEL003
   6
CONTINUOUS
  62
7
  10
 464.968
  20
 383.849
  30
0.0
  11
 464.353
  21
 384.155
  31
0.0
   0
LINE
   8
LEVEL003
   6
CONTINUOUS
  62
7
  10
 464.353
  20
 384.155
  30
0.0
  11
 463.808
  21
 384.367
  31
0.0
   0
LINE
   8
LEVEL003
   6
CONTINUOUS
  62
7
  10
 448.150
  20
 381.858
  30
0.0
  11
 448.466
  21
 371.151
  31
0.0
   0
LINE
   8
LEVEL003
   6
CONTINUOUS
  62
7
  10
 448.466
  20
 371.151
  30
0.0
  11
 448.548
  21
 370.769
  31
0.0
   0
LINE
   8
LEVEL003
   6
CONTINUOUS
  62
7
  10
 448.548
  20
 370.769
  30
0.0
  11
 448.769
  21
 370.398
  31
0.0
   0
LINE
   8
LEVEL003
   6
CONTINUOUS
  62
7
  10
 448.769
  20
 370.398
  30
0.0
  11
 449.125
  21
 370.042
  31
0.0
   0
LINE
   8
LEVEL003
   6
CONTINUOUS
  62
7
  10
 449.125
  20
 370.042
  30
0.0
  11
 449.611
  21
 369.708
  31
0.0
   0
LINE
   8
LEVEL003
   6
CONTINUOUS
  62
7
  10
 449.611
  20
 369.708
  30
0.0
  11
 450.220
  21
 369.401
  31
0.0
   0
LINE
   8
LEVEL003
   6
CONTINUOUS
  62
7
  10
 450.220
  20
 369.401
  30
0.0
  11
 450.942
  21
 369.125
  31
0.0
   0
LINE
   8
LEVEL003
   6
CONTINUOUS
  62
7
  10
 450.942
  20
 369.125
  30
0.0
  11
 451.766
  21
 368.884
  31
0.0
   0
LINE
   8
LEVEL003
   6
CONTINUOUS
  62
7
  10
 451.766
  20
 368.884
  30
0.0
  11
 452.678
  21
 368.684
  31
0.0
   0
LINE
   8
LEVEL003
   6
CONTINUOUS
  62
7
  10
 452.678
  20
 368.684
  30
0.0
  11
 453.666
  21
 368.526
  31
0.0
   0
LINE
   8
LEVEL003
   6
CONTINUOUS
  62
7
  10
 453.666
  20
 368.526
  30
0.0
  11
 454.712
  21
 368.413
  31
0.0
   0
LINE
   8
LEVEL003
   6
CONTINUOUS
  62
7
  10
 454.712
  20
 368.413
  30
0.0
  11
 455.802
  21
 368.347
  31
0.0
   0
LINE
   8
LEVEL003
   6
CONTINUOUS
  62
7
  10
 455.802
  20
 368.347
  30
0.0
  11
 456.917
  21
 368.328
  31
0.0
   0
LINE
   8
LEVEL003
   6
CONTINUOUS
  62
7
  10
 456.917
  20
 368.328
  30
0.0
  11
 458.041
  21
 368.358
  31
0.0
   0
LINE
   8
LEVEL003
   6
CONTINUOUS
  62
7
  10
 458.041
  20
 368.358
  30
0.0
  11
 459.155
  21
 368.436
  31
0.0
   0
LINE
   8
LEVEL003
   6
CONTINUOUS
  62
7
  10
 459.155
  20
 368.436
  30
0.0
  11
 460.244
  21
 368.560
  31
0.0
   0
LINE
   8
LEVEL003
   6
CONTINUOUS
  62
7
  10
 460.244
  20
 368.560
  30
0.0
  11
 461.289
  21
 368.729
  31
0.0
   0
LINE
   8
LEVEL003
   6
CONTINUOUS
  62
7
  10
 461.289
  20
 368.729
  30
0.0
  11
 462.274
  21
 368.940
  31
0.0
   0
LINE
   8
LEVEL003
   6
CONTINUOUS
  62
7
  10
 462.274
  20
 368.940
  30
0.0
  11
 463.184
  21
 369.189
  31
0.0
   0
LINE
   8
LEVEL003
   6
CONTINUOUS
  62
7
  10
 463.184
  20
 369.189
  30
0.0
  11
 464.005
  21
 369.473
  31
0.0
   0
LINE
   8
LEVEL003
   6
CONTINUOUS
  62
7
  10
 464.005
  20
 369.473
  30
0.0
  11
 464.724
  21
 369.788
  31
0.0
   0
LINE
   8
LEVEL003
   6
CONTINUOUS
  62
7
  10
 464.724
  20
 369.788
  30
0.0
  11
 465.330
  21
 370.128
  31
0.0
   0
LINE
   8
LEVEL003
   6
CONTINUOUS
  62
7
  10
 465.330
  20
 370.128
  30
0.0
  11
 465.812
  21
 370.488
  31
0.0
   0
LINE
   8
LEVEL003
   6
CONTINUOUS
  62
7
  10
 465.812
  20
 370.488
  30
0.0
  11
 466.165
  21
 370.862
  31
0.0
   0
LINE
   8
LEVEL003
   6
CONTINUOUS
  62
7
  10
 466.165
  20
 370.862
  30
0.0
  11
 466.381
  21
 371.245
  31
0.0
   0
LINE
   8
LEVEL003
   6
CONTINUOUS
  62
7
  10
 466.381
  20
 371.245
  30
0.0
  11
 466.459
  21
 371.631
  31
0.0
   0
LINE
   8
LEVEL003
   6
CONTINUOUS
  62
7
  10
 466.459
  20
 371.631
  30
0.0
  11
 466.459
  21
 371.682
  31
0.0
   0
ARC
   8
LEVEL001
   6
CONTINUOUS
  62
7
  10
 441.169
  20
 384.941
  30
0.0
  40
 3.00000
  50
 336.263
  51
 181.962
   0
LINE
   8
LEVEL001
   6
CONTINUOUS
  62
7
  10
 445.669
  20
 382.751
  30
0.0
  11
 448.583
  21
 388.161
  31
0.0
   0
LINE
   8
LEVEL001
   6
CONTINUOUS
  62
7
  10
 448.583
  20
 388.161
  30
0.0
  11
 454.354
  21
 388.332
  31
0.0
   0
LINE
   8
LEVEL001
   6
CONTINUOUS
  62
7
  10
 454.354
  20
 388.332
  30
0.0
  11
 452.443
  21
 384.783
  31
0.0
   0
LINE
   8
LEVEL001
   6
CONTINUOUS
  62
7
  10
 448.260
  20
 378.147
  30
0.0
  11
 446.261
  21
 378.088
  31
0.0
   0
LINE
   8
LEVEL003
   6
CONTINUOUS
  62
7
  10
 461.380
  20
 391.210
  30
0.0
  11
 461.561
  21
 385.082
  31
0.0
   0
ARC
   8
LEVEL003
   6
CONTINUOUS
  62
7
  10
 421.727
  20
 378.862
  30
0.0
  40
 5.00000
  50
 300.325
  51
 1.69191
   0
LINE
   8
LEVEL003
   6
CONTINUOUS
  62
7
  10
 424.759
  20
 372.667
  30
0.0
  11
 425.539
  21
 370.094
  31
0.0
   0
LINE
   8
LEVEL003
   6
CONTINUOUS
  62
7
  10
 457.584
  20
 367.314
  30
0.0
  11
 459.078
  21
 367.390
  31
0.0
   0
LINE
   8
LEVEL003
   6
CONTINUOUS
  62
7
  10
 459.078
  20
 367.390
  30
0.0
  11
 460.547
  21
 367.529
  31
0.0
   0
LINE
   8
LEVEL003
   6
CONTINUOUS
  62
7
  10
 460.547
  20
 367.529
  30
0.0
  11
 461.969
  21
 367.729
  31
0.0
   0
LINE
   8
LEVEL003
   6
CONTINUOUS
  62
7
  10
 461.969
  20
 367.729
  30
0.0
  11
 463.319
  21
 367.986
  31
0.0
   0
LINE
   8
LEVEL003
   6
CONTINUOUS
  62
7
  10
 463.319
  20
 367.986
  30
0.0
  11
 464.579
  21
 368.297
  31
0.0
   0
LINE
   8
LEVEL003
   6
CONTINUOUS
  62
7
  10
 464.579
  20
 368.297
  30
0.0
  11
 465.727
  21
 368.656
  31
0.0
   0
LINE
   8
LEVEL003
   6
CONTINUOUS
  62
7
  10
 465.727
  20
 368.656
  30
0.0
  11
 466.747
  21
 369.059
  31
0.0
   0
LINE
   8
LEVEL003
   6
CONTINUOUS
  62
7
  10
 466.747
  20
 369.059
  30
0.0
  11
 467.621
  21
 369.498
  31
0.0
   0
LINE
   8
LEVEL003
   6
CONTINUOUS
  62
7
  10
 467.621
  20
 369.498
  30
0.0
  11
 468.337
  21
 369.967
  31
0.0
   0
LINE
   8
LEVEL003
   6
CONTINUOUS
  62
7
  10
 468.337
  20
 369.967
  30
0.0
  11
 468.884
  21
 370.459
  31
0.0
   0
LINE
   8
LEVEL003
   6
CONTINUOUS
  62
7
  10
 468.884
  20
 370.459
  30
0.0
  11
 469.252
  21
 370.966
  31
0.0
   0
LINE
   8
LEVEL003
   6
CONTINUOUS
  62
7
  10
 469.252
  20
 370.966
  30
0.0
  11
 469.417
  21
 371.390
  31
0.0
   0
LINE
   8
LEVEL003
   6
CONTINUOUS
  62
7
  10
 446.354
  20
 374.911
  30
0.0
  11
 448.354
  21
 374.971
  31
0.0
   0
LINE
   8
LEVEL003
   6
CONTINUOUS
  62
7
  10
 425.282
  20
 374.774
  30
0.0
  11
 428.352
  21
 374.742
  31
0.0
   0
LINE
   8
LEVEL003
   6
CONTINUOUS
  62
7
  10
 426.395
  20
 390.177
  30
0.0
  11
 426.725
  21
 379.009
  31
0.0
   0
LINE
   8
LEVEL003
   6
CONTINUOUS
  62
7
  10
 425.539
  20
 370.094
  30
0.0
  11
 425.785
  21
 369.595
  31
0.0
   0
LINE
   8
LEVEL003
   6
CONTINUOUS
  62
7
  10
 425.785
  20
 369.595
  30
0.0
  11
 426.213
  21
 369.115
  31
0.0
   0
LINE
   8
LEVEL003
   6
CONTINUOUS
  62
7
  10
 426.213
  20
 369.115
  30
0.0
  11
 426.818
  21
 368.661
  31
0.0
   0
LINE
   8
LEVEL003
   6
CONTINUOUS
  62
7
  10
 426.818
  20
 368.661
  30
0.0
  11
 427.588
  21
 368.241
  31
0.0
   0
LINE
   8
LEVEL003
   6
CONTINUOUS
  62
7
  10
 427.588
  20
 368.241
  30
0.0
  11
 428.513
  21
 367.862
  31
0.0
   0
LINE
   8
LEVEL003
   6
CONTINUOUS
  62
7
  10
 428.513
  20
 367.862
  30
0.0
  11
 429.577
  21
 367.528
  31
0.0
   0
LINE
   8
LEVEL003
   6
CONTINUOUS
  62
7
  10
 429.577
  20
 367.528
  30
0.0
  11
 430.765
  21
 367.247
  31
0.0
   0
LINE
   8
LEVEL003
   6
CONTINUOUS
  62
7
  10
 430.765
  20
 367.247
  30
0.0
  11
 432.057
  21
 367.021
  31
0.0
   0
LINE
   8
LEVEL003
   6
CONTINUOUS
  62
7
  10
 432.057
  20
 367.021
  30
0.0
  11
 433.434
  21
 366.854
  31
0.0
   0
LINE
   8
LEVEL003
   6
CONTINUOUS
  62
7
  10
 433.434
  20
 366.854
  30
0.0
  11
 434.874
  21
 366.750
  31
0.0
   0
LINE
   8
LEVEL003
   6
CONTINUOUS
  62
7
  10
 434.874
  20
 366.750
  30
0.0
  11
 436.354
  21
 366.709
  31
0.0
   0
LINE
   8
LEVEL003
   6
CONTINUOUS
  62
7
  10
 436.354
  20
 366.709
  30
0.0
  11
 437.592
  21
 366.723
  31
0.0
   0
ARC
   8
LEVEL003
   6
CONTINUOUS
  62
7
  10
 461.752
  20
 395.553
  30
0.0
  40
 2.00000
  50
 301.692
  51
 1.69191
   0
LINE
   8
LEVEL003
   6
CONTINUOUS
  62
7
  10
 466.142
  20
 382.390
  30
0.0
  11
 466.459
  21
 371.682
  31
0.0
   0
LINE
   8
LEVEL003
   6
CONTINUOUS
  62
7
  10
 470.025
  20
 373.926
  30
0.0
  11
 469.417
  21
 371.390
  31
0.0
   0
LINE
   8
LEVEL003
   6
CONTINUOUS
  62
7
  10
 470.559
  20
 376.158
  30
0.0
  11
 466.335
  21
 375.864
  31
0.0
   0
ARC
   8
LEVEL003
   6
CONTINUOUS
  62
7
  10
 472.942
  20
 373.228
  30
0.0
  40
 3.00000
  50
 111.697
  51
 166.532
   0
LINE
   8
LEVEL003
   6
CONTINUOUS
  62
7
  10
 458.502
  20
 336.241
  30
0.0
  11
 460.535
  21
 335.146
  31
0.0
   0
LINE
   8
LEVEL003
   6
CONTINUOUS
  62
7
  10
 460.535
  20
 335.146
  30
0.0
  11
 460.603
  21
 332.837
  31
0.0
   0
LINE
   8
LEVEL003
   6
CONTINUOUS
  62
7
  10
 460.603
  20
 332.837
  30
0.0
  11
 458.638
  21
 331.624
  31
0.0
   0
LINE
   8
LEVEL003
   6
CONTINUOUS
  62
7
  10
 458.638
  20
 331.624
  30
0.0
  11
 456.605
  21
 332.719
  31
0.0
   0
LINE
   8
LEVEL003
   6
CONTINUOUS
  62
7
  10
 456.605
  20
 332.719
  30
0.0
  11
 456.536
  21
 335.028
  31
0.0
   0
LINE
   8
LEVEL003
   6
CONTINUOUS
  62
7
  10
 456.536
  20
 335.028
  30
0.0
  11
 458.502
  21
 336.241
  31
0.0
   0
CIRCLE
   8
LEVEL003
   6
CONTINUOUS
  62
7
  10
 458.570
  20
 333.933
  30
0.0
  40
 4.00000
   0
LINE
   8
LEVEL003
   6
CONTINUOUS
  62
7
  10
 438.510
  20
 335.650
  30
0.0
  11
 440.543
  21
 334.555
  31
0.0
   0
LINE
   8
LEVEL003
   6
CONTINUOUS
  62
7
  10
 440.543
  20
 334.555
  30
0.0
  11
 440.612
  21
 332.247
  31
0.0
   0
LINE
   8
LEVEL003
   6
CONTINUOUS
  62
7
  10
 440.612
  20
 332.247
  30
0.0
  11
 438.647
  21
 331.034
  31
0.0
   0
LINE
   8
LEVEL003
   6
CONTINUOUS
  62
7
  10
 438.647
  20
 331.034
  30
0.0
  11
 436.613
  21
 332.129
  31
0.0
   0
LINE
   8
LEVEL003
   6
CONTINUOUS
  62
7
  10
 436.613
  20
 332.129
  30
0.0
  11
 436.545
  21
 334.437
  31
0.0
   0
LINE
   8
LEVEL003
   6
CONTINUOUS
  62
7
  10
 436.545
  20
 334.437
  30
0.0
  11
 438.510
  21
 335.650
  31
0.0
   0
CIRCLE
   8
LEVEL003
   6
CONTINUOUS
  62
7
  10
 438.578
  20
 333.342
  30
0.0
  40
 4.00000
   0
CIRCLE
   8
LEVEL003
   6
CONTINUOUS
  62
3
  10
 438.578
  20
 333.342
  30
0.0
  40
 3.37500
   0
CIRCLE
   8
LEVEL003
   6
CONTINUOUS
  62
3
  10
 458.570
  20
 333.933
  30
0.0
  40
 3.37500
   0
ARC
   8
LEVEL003
   6
CONTINUOUS
  62
7
  10
 420.367
  20
 377.824
  30
0.0
  40
 5.00000
  50
 271.692
  51
 314.366
   0
LINE
   8
LEVEL003
   6
CONTINUOUS
  62
7
  10
 425.602
  20
 337.120
  30
0.0
  11
 436.276
  21
 349.570
  31
0.0
   0
ARC
   8
LEVEL003
   6
CONTINUOUS
  62
7
  10
 430.961
  20
 354.126
  30
0.0
  40
 7.00000
  50
 319.393
  51
 42.4744
   0
LINE
   8
LEVEL003
   6
CONTINUOUS
  62
7
  10
 438.785
  20
 326.345
  30
0.0
  11
 458.776
  21
 326.936
  31
0.0
   0
LINE
   8
LEVEL003
   6
CONTINUOUS
  62
7
  10
 438.372
  20
 340.339
  30
0.0
  11
 458.363
  21
 340.930
  31
0.0
   0
ARC
   8
LEVEL003
   6
CONTINUOUS
  62
7
  10
 438.578
  20
 333.342
  30
0.0
  40
 7.00000
  50
 91.6919
  51
 271.692
   0
LINE
   8
LEVEL003
   6
CONTINUOUS
  62
7
  10
 430.776
  20
 364.696
  30
0.0
  11
 436.125
  21
 358.853
  31
0.0
   0
LINE
   8
LEVEL001
   6
CONTINUOUS
  62
7
  10
 407.263
  20
 377.437
  30
0.0
  11
 407.163
  21
 380.831
  31
0.0
   0
ARC
   8
LEVEL001
   6
CONTINUOUS
  62
7
  10
 402.265
  20
 377.289
  30
0.0
  40
 5.00000
  50
 271.692
  51
 1.69191
   0
POINT
   8
LEVEL001
  62
7
  10
 407.411
  20
 372.439
  30
0.0
   0
LINE
   8
LEVEL001
   6
CONTINUOUS
  62
7
  10
 397.915
  20
 372.158
  30
0.0
  11
 420.514
  21
 372.826
  31
0.0
   0
LINE
   8
LEVEL001
   6
CONTINUOUS
  62
7
  10
 423.400
  20
 373.849
  30
0.0
  11
 424.760
  21
 374.887
  31
0.0
   0
ARC
   8
LEVEL001
   6
CONTINUOUS
  62
7
  10
 433.834
  20
 309.191
  30
0.0
  40
 2.00000
  50
 91.6919
  51
 181.692
   0
LINE
   8
LEVEL001
   6
CONTINUOUS
  62
7
  10
 431.835
  20
 309.132
  30
0.0
  11
 431.938
  21
 305.634
  31
0.0
   0
LINE
   8
LEVEL003
   6
CONTINUOUS
  62
7
  10
 433.775
  20
 311.191
  30
0.0
  11
 460.669
  21
 311.985
  31
0.0
   0
LINE
   8
LEVEL001
   6
CONTINUOUS
  62
7
  10
 433.697
  20
 313.839
  30
0.0
  11
 460.591
  21
 314.633
  31
0.0
   0
LINE
   8
LEVEL001
   6
CONTINUOUS
  62
7
  10
 428.335
  20
 309.084
  30
0.0
  11
 429.857
  21
 311.599
  31
0.0
   0
ARC
   8
LEVEL001
   6
CONTINUOUS
  62
7
  10
 433.834
  20
 309.191
  30
0.0
  40
 4.64950
  50
 91.6919
  51
 148.815
   0
ARC
   8
LEVEL003
   6
CONTINUOUS
  62
7
  10
 460.728
  20
 309.986
  30
0.0
  40
 2.00000
  50
 1.69191
  51
 91.6919
   0
LINE
   8
LEVEL001
   6
CONTINUOUS
  62
7
  10
 462.727
  20
 310.045
  30
0.0
  11
 462.831
  21
 306.546
  31
0.0
   0
LINE
   8
LEVEL001
   6
CONTINUOUS
  62
7
  10
 466.225
  20
 310.203
  30
0.0
  11
 464.557
  21
 312.624
  31
0.0
   0
ARC
   8
LEVEL001
   6
CONTINUOUS
  62
7
  10
 460.728
  20
 309.986
  30
0.0
  40
 4.64950
  50
 34.5686
  51
 91.6919
   0
ARC
   8
LEVEL001
   6
CONTINUOUS
  62
7
  10
 433.938
  20
 305.693
  30
0.0
  40
 2.00000
  50
 181.692
  51
 196.169
   0
ARC
   8
LEVEL001
   6
CONTINUOUS
  62
7
  10
 460.832
  20
 306.487
  30
0.0
  40
 2.00000
  50
 347.214
  51
 1.69191
   0
ARC
   8
LEVEL001
   6
CONTINUOUS
  62
7
  10
 410.801
  20
 332.666
  30
0.0
  40
 4.00000
  50
 238.229
  51
 316.692
   0
LINE
   8
LEVEL001
   6
CONTINUOUS
  62
7
  10
 417.339
  20
 333.770
  30
0.0
  11
 413.712
  21
 329.922
  31
0.0
   0
ARC
   8
LEVEL001
   6
CONTINUOUS
  62
7
  10
 423.161
  20
 328.283
  30
0.0
  40
 8.00000
  50
 99.1626
  51
 136.692
   0
ARC
   8
LEVEL001
   6
CONTINUOUS
  62
7
  10
 423.964
  20
 353.920
  30
0.0
  40
 29.0000
  50
 215.155
  51
 238.229
   0
ARC
   8
LEVEL001
   6
CONTINUOUS
  62
7
  10
 425.072
  20
 316.436
  30
0.0
  40
 20.0000
  50
 91.2897
  51
 99.1626
   0
ARC
   8
LEVEL001
   6
CONTINUOUS
  62
7
  10
 423.964
  20
 353.920
  30
0.0
  40
 29.0000
  50
 125.155
  51
 140.759
   0
LINE
   8
LEVEL001
   6
DASHDOT
  62
1
  10
 456.571
  20
 333.903
  30
0.0
  11
 455.537
  21
 368.888
  31
0.0
   0
LINE
   8
LEVEL003
   6
CONTINUOUS
  62
7
  10
 498.474
  20
 371.598
  30
0.0
  11
 824.332
  21
 381.223
  31
0.0
   0
LINE
   8
LEVEL001
   6
CONTINUOUS
  62
7
  10
 490.280
  20
 310.329
  30
0.0
  11
 491.250
  21
 311.358
  31
0.0
   0
LINE
   8
LEVEL001
   6
CONTINUOUS
  62
7
  10
 491.250
  20
 311.358
  30
0.0
  11
 491.146
  21
 314.857
  31
0.0
   0
LINE
   8
LEVEL003
   6
CONTINUOUS
  62
7
  10
 500.157
  20
 314.623
  30
0.0
  11
 826.015
  21
 324.248
  31
0.0
   0
ARC
   8
LEVEL001
   6
CONTINUOUS
  62
7
  10
 903.680
  20
 336.736
  30
0.0
  40
 20.0000
  50
 181.692
  51
 261.216
   0
ARC
   8
LEVEL001
   6
CONTINUOUS
  62
7
  10
 900.321
  20
 314.994
  30
0.0
  40
 2.00000
  50
 1.69191
  51
 81.2162
   0
ARC
   8
LEVEL001
   6
CONTINUOUS
  62
7
  10
 868.573
  20
 305.968
  30
0.0
  40
 1.00000
  50
 181.692
  51
 270.055
   0
LINE
   8
LEVEL001
   6
CONTINUOUS
  62
7
  10
 868.574
  20
 304.968
  30
0.0
  11
 901.588
  21
 305.000
  31
0.0
   0
ARC
   8
LEVEL001
   6
CONTINUOUS
  62
7
  10
 901.587
  20
 306.000
  30
0.0
  40
 1.00000
  50
 270.055
  51
 1.69191
   0
LINE
   8
LEVEL001
   6
CONTINUOUS
  62
7
  10
 902.586
  20
 306.030
  30
0.0
  11
 902.320
  21
 315.053
  31
0.0
   0
ARC
   8
LEVEL001
   6
CONTINUOUS
  62
7
  10
 884.568
  20
 340.260
  30
0.0
  40
 1.00000
  50
 291.163
  51
 1.69191
   0
ARC
   8
LEVEL001
   6
CONTINUOUS
  62
7
  10
 885.651
  20
 337.462
  30
0.0
  40
 2.00000
  50
 111.163
  51
 181.692
   0
LINE
   8
LEVEL001
   6
CONTINUOUS
  62
7
  10
 883.652
  20
 337.403
  30
0.0
  11
 883.689
  21
 336.145
  31
0.0
   0
ARC
   8
LEVEL001
   6
CONTINUOUS
  62
7
  10
 869.308
  20
 314.964
  30
0.0
  40
 2.00000
  50
 90.0553
  51
 181.692
   0
LINE
   8
LEVEL001
   6
CONTINUOUS
  62
7
  10
 869.306
  20
 316.964
  30
0.0
  11
 900.319
  21
 316.994
  31
0.0
   0
LINE
   8
LEVEL001
   6
CONTINUOUS
  62
7
  10
 867.309
  20
 314.905
  30
0.0
  11
 867.574
  21
 305.939
  31
0.0
   0
LINE
   8
LEVEL050
   6
DASHDOT
  62
1
  10
 864.765
  20
 401.024
  30
0.0
  11
 866.454
  21
 343.853
  31
0.0
   0
ARC
   8
LEVEL001
   6
CONTINUOUS
  62
7
  10
 883.748
  20
 368.007
  30
0.0
  40
 1.00000
  50
 1.69191
  51
 61.6919
   0
ARC
   8
LEVEL001
   6
CONTINUOUS
  62
7
  10
 885.645
  20
 371.529
  30
0.0
  40
 3.00000
  50
 181.692
  51
 241.692
   0
LINE
   8
LEVEL001
   6
CONTINUOUS
  62
7
  10
 882.624
  20
 372.190
  30
0.0
  11
 882.646
  21
 371.440
  31
0.0
   0
ARC
   8
LEVEL001
   6
CONTINUOUS
  62
7
  10
 865.632
  20
 371.688
  30
0.0
  40
 17.0000
  50
 1.69191
  51
 44.3598
   0
ARC
   8
LEVEL003
   6
CONTINUOUS
  62
7
  10
 875.727
  20
 385.554
  30
0.0
  40
 2.00000
  50
 1.69191
  51
 89.5864
   0
LINE
   8
LEVEL001
   6
CONTINUOUS
  62
7
  10
 853.287
  20
 383.011
  30
0.0
  11
 853.826
  21
 382.646
  31
0.0
   0
LINE
   8
LEVEL001
   6
CONTINUOUS
  62
7
  10
 853.826
  20
 382.646
  30
0.0
  11
 854.543
  21
 382.307
  31
0.0
   0
LINE
   8
LEVEL001
   6
CONTINUOUS
  62
7
  10
 854.543
  20
 382.307
  30
0.0
  11
 855.428
  21
 381.998
  31
0.0
   0
LINE
   8
LEVEL001
   6
CONTINUOUS
  62
7
  10
 855.428
  20
 381.998
  30
0.0
  11
 856.465
  21
 381.725
  31
0.0
   0
LINE
   8
LEVEL001
   6
CONTINUOUS
  62
7
  10
 856.465
  20
 381.725
  30
0.0
  11
 857.641
  21
 381.491
  31
0.0
   0
LINE
   8
LEVEL001
   6
CONTINUOUS
  62
7
  10
 857.641
  20
 381.491
  30
0.0
  11
 858.935
  21
 381.301
  31
0.0
   0
LINE
   8
LEVEL001
   6
CONTINUOUS
  62
7
  10
 858.935
  20
 381.301
  30
0.0
  11
 860.328
  21
 381.157
  31
0.0
   0
LINE
   8
LEVEL001
   6
CONTINUOUS
  62
7
  10
 860.328
  20
 381.157
  30
0.0
  11
 861.797
  21
 381.061
  31
0.0
   0
LINE
   8
LEVEL001
   6
CONTINUOUS
  62
7
  10
 861.797
  20
 381.061
  30
0.0
  11
 863.321
  21
 381.016
  31
0.0
   0
LINE
   8
LEVEL001
   6
CONTINUOUS
  62
7
  10
 863.321
  20
 381.016
  30
0.0
  11
 864.875
  21
 381.021
  31
0.0
   0
LINE
   8
LEVEL001
   6
CONTINUOUS
  62
7
  10
 864.875
  20
 381.021
  30
0.0
  11
 866.435
  21
 381.076
  31
0.0
   0
LINE
   8
LEVEL001
   6
CONTINUOUS
  62
7
  10
 866.435
  20
 381.076
  30
0.0
  11
 867.977
  21
 381.182
  31
0.0
   0
LINE
   8
LEVEL001
   6
CONTINUOUS
  62
7
  10
 867.977
  20
 381.182
  30
0.0
  11
 869.476
  21
 381.336
  31
0.0
   0
LINE
   8
LEVEL001
   6
CONTINUOUS
  62
7
  10
 869.476
  20
 381.336
  30
0.0
  11
 870.910
  21
 381.535
  31
0.0
   0
LINE
   8
LEVEL001
   6
CONTINUOUS
  62
7
  10
 870.910
  20
 381.535
  30
0.0
  11
 872.255
  21
 381.777
  31
0.0
   0
LINE
   8
LEVEL001
   6
CONTINUOUS
  62
7
  10
 872.255
  20
 381.777
  30
0.0
  11
 873.491
  21
 382.058
  31
0.0
   0
LINE
   8
LEVEL001
   6
CONTINUOUS
  62
7
  10
 873.491
  20
 382.058
  30
0.0
  11
 874.599
  21
 382.374
  31
0.0
   0
LINE
   8
LEVEL001
   6
CONTINUOUS
  62
7
  10
 874.599
  20
 382.374
  30
0.0
  11
 875.561
  21
 382.718
  31
0.0
   0
LINE
   8
LEVEL001
   6
CONTINUOUS
  62
7
  10
 875.561
  20
 382.718
  30
0.0
  11
 876.363
  21
 383.087
  31
0.0
   0
LINE
   8
LEVEL001
   6
CONTINUOUS
  62
7
  10
 876.363
  20
 383.087
  30
0.0
  11
 876.991
  21
 383.475
  31
0.0
   0
LINE
   8
LEVEL001
   6
CONTINUOUS
  62
7
  10
 876.991
  20
 383.475
  30
0.0
  11
 877.332
  21
 383.764
  31
0.0
   0
LINE
   8
LEVEL001
   6
CONTINUOUS
  62
7
  10
 855.547
  20
 386.725
  30
0.0
  11
 857.279
  21
 385.202
  31
0.0
   0
LINE
   8
LEVEL001
   6
CONTINUOUS
  62
7
  10
 857.279
  20
 385.202
  30
0.0
  11
 857.623
  21
 384.960
  31
0.0
   0
LINE
   8
LEVEL001
   6
CONTINUOUS
  62
7
  10
 857.623
  20
 384.960
  30
0.0
  11
 858.086
  21
 384.734
  31
0.0
   0
LINE
   8
LEVEL001
   6
CONTINUOUS
  62
7
  10
 858.086
  20
 384.734
  30
0.0
  11
 858.659
  21
 384.528
  31
0.0
   0
LINE
   8
LEVEL001
   6
CONTINUOUS
  62
7
  10
 858.659
  20
 384.528
  30
0.0
  11
 859.335
  21
 384.346
  31
0.0
   0
LINE
   8
LEVEL001
   6
CONTINUOUS
  62
7
  10
 859.335
  20
 384.346
  30
0.0
  11
 860.103
  21
 384.189
  31
0.0
   0
LINE
   8
LEVEL001
   6
CONTINUOUS
  62
7
  10
 860.103
  20
 384.189
  30
0.0
  11
 860.950
  21
 384.060
  31
0.0
   0
LINE
   8
LEVEL001
   6
CONTINUOUS
  62
7
  10
 860.950
  20
 384.060
  30
0.0
  11
 861.864
  21
 383.962
  31
0.0
   0
LINE
   8
LEVEL001
   6
CONTINUOUS
  62
7
  10
 861.864
  20
 383.962
  30
0.0
  11
 862.830
  21
 383.896
  31
0.0
   0
LINE
   8
LEVEL001
   6
CONTINUOUS
  62
7
  10
 862.830
  20
 383.896
  30
0.0
  11
 863.833
  21
 383.863
  31
0.0
   0
LINE
   8
LEVEL001
   6
CONTINUOUS
  62
7
  10
 863.833
  20
 383.863
  30
0.0
  11
 864.857
  21
 383.863
  31
0.0
   0
LINE
   8
LEVEL001
   6
CONTINUOUS
  62
7
  10
 864.857
  20
 383.863
  30
0.0
  11
 865.887
  21
 383.897
  31
0.0
   0
LINE
   8
LEVEL001
   6
CONTINUOUS
  62
7
  10
 865.887
  20
 383.897
  30
0.0
  11
 866.906
  21
 383.963
  31
0.0
   0
LINE
   8
LEVEL001
   6
CONTINUOUS
  62
7
  10
 866.906
  20
 383.963
  30
0.0
  11
 867.899
  21
 384.062
  31
0.0
   0
LINE
   8
LEVEL001
   6
CONTINUOUS
  62
7
  10
 867.899
  20
 384.062
  30
0.0
  11
 868.850
  21
 384.191
  31
0.0
   0
LINE
   8
LEVEL001
   6
CONTINUOUS
  62
7
  10
 868.850
  20
 384.191
  30
0.0
  11
 869.744
  21
 384.348
  31
0.0
   0
LINE
   8
LEVEL001
   6
CONTINUOUS
  62
7
  10
 869.744
  20
 384.348
  30
0.0
  11
 870.568
  21
 384.531
  31
0.0
   0
LINE
   8
LEVEL001
   6
CONTINUOUS
  62
7
  10
 870.568
  20
 384.531
  30
0.0
  11
 871.307
  21
 384.737
  31
0.0
   0
LINE
   8
LEVEL001
   6
CONTINUOUS
  62
7
  10
 871.307
  20
 384.737
  30
0.0
  11
 871.952
  21
 384.963
  31
0.0
   0
LINE
   8
LEVEL001
   6
CONTINUOUS
  62
7
  10
 871.952
  20
 384.963
  30
0.0
  11
 872.491
  21
 385.205
  31
0.0
   0
LINE
   8
LEVEL001
   6
CONTINUOUS
  62
7
  10
 872.491
  20
 385.205
  30
0.0
  11
 872.917
  21
 385.460
  31
0.0
   0
LINE
   8
LEVEL001
   6
CONTINUOUS
  62
7
  10
 872.917
  20
 385.460
  30
0.0
  11
 873.172
  21
 385.671
  31
0.0
   0
LINE
   8
LEVEL001
   6
CONTINUOUS
  62
7
  10
 855.163
  20
 387.406
  30
0.0
  11
 855.250
  21
 387.086
  31
0.0
   0
LINE
   8
LEVEL001
   6
CONTINUOUS
  62
7
  10
 855.250
  20
 387.086
  30
0.0
  11
 855.493
  21
 386.775
  31
0.0
   0
LINE
   8
LEVEL001
   6
CONTINUOUS
  62
7
  10
 855.493
  20
 386.775
  30
0.0
  11
 855.886
  21
 386.479
  31
0.0
   0
LINE
   8
LEVEL001
   6
CONTINUOUS
  62
7
  10
 855.886
  20
 386.479
  30
0.0
  11
 856.423
  21
 386.202
  31
0.0
   0
LINE
   8
LEVEL001
   6
CONTINUOUS
  62
7
  10
 856.423
  20
 386.202
  30
0.0
  11
 857.097
  21
 385.948
  31
0.0
   0
LINE
   8
LEVEL001
   6
CONTINUOUS
  62
7
  10
 857.097
  20
 385.948
  30
0.0
  11
 857.897
  21
 385.722
  31
0.0
   0
LINE
   8
LEVEL001
   6
CONTINUOUS
  62
7
  10
 857.897
  20
 385.722
  30
0.0
  11
 858.810
  21
 385.526
  31
0.0
   0
LINE
   8
LEVEL001
   6
CONTINUOUS
  62
7
  10
 858.810
  20
 385.526
  30
0.0
  11
 859.822
  21
 385.365
  31
0.0
   0
LINE
   8
LEVEL001
   6
CONTINUOUS
  62
7
  10
 859.822
  20
 385.365
  30
0.0
  11
 860.918
  21
 385.240
  31
0.0
   0
LINE
   8
LEVEL001
   6
CONTINUOUS
  62
7
  10
 860.918
  20
 385.240
  30
0.0
  11
 862.079
  21
 385.153
  31
0.0
   0
LINE
   8
LEVEL001
   6
CONTINUOUS
  62
7
  10
 862.079
  20
 385.153
  30
0.0
  11
 863.289
  21
 385.106
  31
0.0
   0
LINE
   8
LEVEL001
   6
CONTINUOUS
  62
7
  10
 863.289
  20
 385.106
  30
0.0
  11
 864.528
  21
 385.100
  31
0.0
   0
LINE
   8
LEVEL001
   6
CONTINUOUS
  62
7
  10
 864.528
  20
 385.100
  30
0.0
  11
 865.776
  21
 385.134
  31
0.0
   0
LINE
   8
LEVEL001
   6
CONTINUOUS
  62
7
  10
 865.776
  20
 385.134
  30
0.0
  11
 867.015
  21
 385.208
  31
0.0
   0
LINE
   8
LEVEL001
   6
CONTINUOUS
  62
7
  10
 867.015
  20
 385.208
  30
0.0
  11
 868.226
  21
 385.321
  31
0.0
   0
LINE
   8
LEVEL001
   6
CONTINUOUS
  62
7
  10
 868.226
  20
 385.321
  30
0.0
  11
 869.388
  21
 385.472
  31
0.0
   0
LINE
   8
LEVEL001
   6
CONTINUOUS
  62
7
  10
 869.388
  20
 385.472
  30
0.0
  11
 870.484
  21
 385.657
  31
0.0
   0
LINE
   8
LEVEL001
   6
CONTINUOUS
  62
7
  10
 870.484
  20
 385.657
  30
0.0
  11
 871.497
  21
 385.874
  31
0.0
   0
LINE
   8
LEVEL001
   6
CONTINUOUS
  62
7
  10
 871.497
  20
 385.874
  30
0.0
  11
 872.411
  21
 386.119
  31
0.0
   0
LINE
   8
LEVEL001
   6
CONTINUOUS
  62
7
  10
 872.411
  20
 386.119
  30
0.0
  11
 873.212
  21
 386.389
  31
0.0
   0
LINE
   8
LEVEL001
   6
CONTINUOUS
  62
7
  10
 873.212
  20
 386.389
  30
0.0
  11
 873.888
  21
 386.680
  31
0.0
   0
LINE
   8
LEVEL001
   6
CONTINUOUS
  62
7
  10
 873.888
  20
 386.680
  30
0.0
  11
 874.427
  21
 386.987
  31
0.0
   0
LINE
   8
LEVEL001
   6
CONTINUOUS
  62
7
  10
 874.427
  20
 386.987
  30
0.0
  11
 874.821
  21
 387.304
  31
0.0
   0
LINE
   8
LEVEL001
   6
CONTINUOUS
  62
7
  10
 874.821
  20
 387.304
  30
0.0
  11
 875.065
  21
 387.628
  31
0.0
   0
LINE
   8
LEVEL001
   6
CONTINUOUS
  62
7
  10
 875.065
  20
 387.628
  30
0.0
  11
 875.154
  21
 387.953
  31
0.0
   0
LINE
   8
LEVEL001
   6
CONTINUOUS
  62
7
  10
 875.154
  20
 387.953
  30
0.0
  11
 875.154
  21
 387.996
  31
0.0
   0
LINE
   8
LEVEL001
   6
CONTINUOUS
  62
7
  10
 874.811
  20
 387.294
  30
0.0
  11
 873.172
  21
 385.671
  31
0.0
   0
LINE
   8
LEVEL001
   6
CONTINUOUS
  62
7
  10
 873.172
  20
 385.671
  30
0.0
  11
 872.689
  21
 384.640
  31
0.0
   0
LINE
   8
LEVEL001
   6
CONTINUOUS
  62
7
  10
 857.279
  20
 385.202
  30
0.0
  11
 857.822
  21
 384.201
  31
0.0
   0
LINE
   8
LEVEL001
   6
CONTINUOUS
  62
7
  10
 857.822
  20
 384.201
  30
0.0
  11
 858.008
  21
 383.969
  31
0.0
   0
LINE
   8
LEVEL001
   6
CONTINUOUS
  62
7
  10
 858.008
  20
 383.969
  30
0.0
  11
 858.307
  21
 383.747
  31
0.0
   0
LINE
   8
LEVEL001
   6
CONTINUOUS
  62
7
  10
 858.307
  20
 383.747
  30
0.0
  11
 858.715
  21
 383.540
  31
0.0
   0
LINE
   8
LEVEL001
   6
CONTINUOUS
  62
7
  10
 858.715
  20
 383.540
  30
0.0
  11
 859.224
  21
 383.350
  31
0.0
   0
LINE
   8
LEVEL001
   6
CONTINUOUS
  62
7
  10
 859.224
  20
 383.350
  30
0.0
  11
 859.828
  21
 383.181
  31
0.0
   0
LINE
   8
LEVEL001
   6
CONTINUOUS
  62
7
  10
 859.828
  20
 383.181
  30
0.0
  11
 860.516
  21
 383.036
  31
0.0
   0
LINE
   8
LEVEL001
   6
CONTINUOUS
  62
7
  10
 860.516
  20
 383.036
  30
0.0
  11
 861.278
  21
 382.916
  31
0.0
   0
LINE
   8
LEVEL001
   6
CONTINUOUS
  62
7
  10
 861.278
  20
 382.916
  30
0.0
  11
 862.101
  21
 382.823
  31
0.0
   0
LINE
   8
LEVEL001
   6
CONTINUOUS
  62
7
  10
 862.101
  20
 382.823
  30
0.0
  11
 862.974
  21
 382.759
  31
0.0
   0
LINE
   8
LEVEL001
   6
CONTINUOUS
  62
7
  10
 862.974
  20
 382.759
  30
0.0
  11
 863.883
  21
 382.725
  31
0.0
   0
LINE
   8
LEVEL001
   6
CONTINUOUS
  62
7
  10
 863.883
  20
 382.725
  30
0.0
  11
 864.812
  21
 382.722
  31
0.0
   0
LINE
   8
LEVEL001
   6
CONTINUOUS
  62
7
  10
 864.812
  20
 382.722
  30
0.0
  11
 865.749
  21
 382.749
  31
0.0
   0
LINE
   8
LEVEL001
   6
CONTINUOUS
  62
7
  10
 865.749
  20
 382.749
  30
0.0
  11
 866.678
  21
 382.806
  31
0.0
   0
LINE
   8
LEVEL001
   6
CONTINUOUS
  62
7
  10
 866.678
  20
 382.806
  30
0.0
  11
 867.584
  21
 382.892
  31
0.0
   0
LINE
   8
LEVEL001
   6
CONTINUOUS
  62
7
  10
 867.584
  20
 382.892
  30
0.0
  11
 868.454
  21
 383.005
  31
0.0
   0
LINE
   8
LEVEL001
   6
CONTINUOUS
  62
7
  10
 868.454
  20
 383.005
  30
0.0
  11
 869.274
  21
 383.145
  31
0.0
   0
LINE
   8
LEVEL001
   6
CONTINUOUS
  62
7
  10
 869.274
  20
 383.145
  30
0.0
  11
 870.031
  21
 383.309
  31
0.0
   0
LINE
   8
LEVEL001
   6
CONTINUOUS
  62
7
  10
 870.031
  20
 383.309
  30
0.0
  11
 870.713
  21
 383.494
  31
0.0
   0
LINE
   8
LEVEL001
   6
CONTINUOUS
  62
7
  10
 870.713
  20
 383.494
  30
0.0
  11
 871.310
  21
 383.697
  31
0.0
   0
LINE
   8
LEVEL001
   6
CONTINUOUS
  62
7
  10
 871.310
  20
 383.697
  30
0.0
  11
 871.813
  21
 383.916
  31
0.0
   0
LINE
   8
LEVEL001
   6
CONTINUOUS
  62
7
  10
 871.813
  20
 383.916
  30
0.0
  11
 872.213
  21
 384.146
  31
0.0
   0
LINE
   8
LEVEL001
   6
CONTINUOUS
  62
7
  10
 872.213
  20
 384.146
  30
0.0
  11
 872.505
  21
 384.385
  31
0.0
   0
LINE
   8
LEVEL001
   6
CONTINUOUS
  62
7
  10
 872.505
  20
 384.385
  30
0.0
  11
 872.683
  21
 384.628
  31
0.0
   0
LINE
   8
LEVEL001
   6
CONTINUOUS
  62
7
  10
 872.683
  20
 384.628
  30
0.0
  11
 872.689
  21
 384.640
  31
0.0
   0
LINE
   8
LEVEL001
   6
CONTINUOUS
  62
7
  10
 855.977
  20
 393.704
  30
0.0
  11
 856.196
  21
 386.308
  31
0.0
   0
LINE
   8
LEVEL001
   6
CONTINUOUS
  62
7
  10
 857.494
  20
 393.165
  30
0.0
  11
 857.712
  21
 385.768
  31
0.0
   0
LINE
   8
LEVEL001
   6
CONTINUOUS
  62
7
  10
 859.004
  20
 392.851
  30
0.0
  11
 859.222
  21
 385.454
  31
0.0
   0
LINE
   8
LEVEL001
   6
CONTINUOUS
  62
7
  10
 860.510
  20
 392.655
  30
0.0
  11
 860.729
  21
 385.258
  31
0.0
   0
LINE
   8
LEVEL001
   6
CONTINUOUS
  62
7
  10
 862.014
  20
 392.541
  30
0.0
  11
 862.233
  21
 385.145
  31
0.0
   0
LINE
   8
LEVEL001
   6
CONTINUOUS
  62
7
  10
 863.516
  20
 392.496
  30
0.0
  11
 863.735
  21
 385.099
  31
0.0
   0
LINE
   8
LEVEL001
   6
CONTINUOUS
  62
7
  10
 866.515
  20
 392.584
  30
0.0
  11
 866.733
  21
 385.188
  31
0.0
   0
LINE
   8
LEVEL001
   6
CONTINUOUS
  62
7
  10
 868.012
  20
 392.719
  30
0.0
  11
 868.230
  21
 385.322
  31
0.0
   0
LINE
   8
LEVEL001
   6
CONTINUOUS
  62
7
  10
 869.506
  20
 392.920
  30
0.0
  11
 869.725
  21
 385.524
  31
0.0
   0
LINE
   8
LEVEL001
   6
CONTINUOUS
  62
7
  10
 870.999
  20
 393.205
  30
0.0
  11
 871.217
  21
 385.809
  31
0.0
   0
LINE
   8
LEVEL001
   6
CONTINUOUS
  62
7
  10
 872.487
  20
 393.608
  30
0.0
  11
 872.706
  21
 386.211
  31
0.0
   0
LINE
   8
LEVEL003
   6
CONTINUOUS
  62
7
  10
 875.167
  20
 387.558
  30
0.0
  11
 875.741
  21
 387.554
  31
0.0
   0
ARC
   8
LEVEL003
   6
CONTINUOUS
  62
7
  10
 859.969
  20
 394.591
  30
0.0
  40
 5.00000
  50
 101.569
  51
 182.194
   0
LINE
   8
LEVEL050
   6
CONTINUOUS
  62
7
  10
 855.163
  20
 387.406
  30
0.0
  11
 854.956
  21
 394.399
  31
0.0
   0
ARC
   8
LEVEL003
   6
CONTINUOUS
  62
7
  10
 869.933
  20
 394.886
  30
0.0
  40
 5.00000
  50
 1.18933
  51
 81.8153
   0
LINE
   8
LEVEL001
   6
CONTINUOUS
  62
7
  10
 873.969
  20
 394.236
  30
0.0
  11
 874.188
  21
 386.839
  31
0.0
   0
LINE
   8
LEVEL001
   6
CONTINUOUS
  62
7
  10
 857.251
  20
 395.710
  30
0.0
  11
 858.117
  21
 395.501
  31
0.0
   0
LINE
   8
LEVEL001
   6
CONTINUOUS
  62
7
  10
 858.117
  20
 395.501
  30
0.0
  11
 859.089
  21
 395.325
  31
0.0
   0
LINE
   8
LEVEL001
   6
CONTINUOUS
  62
7
  10
 859.089
  20
 395.325
  30
0.0
  11
 860.151
  21
 395.184
  31
0.0
   0
LINE
   8
LEVEL001
   6
CONTINUOUS
  62
7
  10
 860.151
  20
 395.184
  30
0.0
  11
 861.287
  21
 395.081
  31
0.0
   0
LINE
   8
LEVEL001
   6
CONTINUOUS
  62
7
  10
 861.287
  20
 395.081
  30
0.0
  11
 862.479
  21
 395.017
  31
0.0
   0
LINE
   8
LEVEL001
   6
CONTINUOUS
  62
7
  10
 862.479
  20
 395.017
  30
0.0
  11
 863.708
  21
 394.993
  31
0.0
   0
LINE
   8
LEVEL001
   6
CONTINUOUS
  62
7
  10
 863.708
  20
 394.993
  30
0.0
  11
 864.954
  21
 395.010
  31
0.0
   0
LINE
   8
LEVEL001
   6
CONTINUOUS
  62
7
  10
 864.954
  20
 395.010
  30
0.0
  11
 866.200
  21
 395.067
  31
0.0
   0
LINE
   8
LEVEL001
   6
CONTINUOUS
  62
7
  10
 866.200
  20
 395.067
  30
0.0
  11
 867.425
  21
 395.164
  31
0.0
   0
LINE
   8
LEVEL001
   6
CONTINUOUS
  62
7
  10
 867.425
  20
 395.164
  30
0.0
  11
 868.609
  21
 395.299
  31
0.0
   0
LINE
   8
LEVEL001
   6
CONTINUOUS
  62
7
  10
 868.609
  20
 395.299
  30
0.0
  11
 869.736
  21
 395.470
  31
0.0
   0
LINE
   8
LEVEL001
   6
CONTINUOUS
  62
7
  10
 869.736
  20
 395.470
  30
0.0
  11
 870.786
  21
 395.674
  31
0.0
   0
LINE
   8
LEVEL001
   6
CONTINUOUS
  62
7
  10
 870.786
  20
 395.674
  30
0.0
  11
 871.744
  21
 395.907
  31
0.0
   0
LINE
   8
LEVEL001
   6
CONTINUOUS
  62
7
  10
 871.744
  20
 395.907
  30
0.0
  11
 871.861
  21
 395.940
  31
0.0
   0
LINE
   8
LEVEL001
   6
CONTINUOUS
  62
7
  10
 870.707
  20
 399.859
  30
0.0
  11
 869.651
  21
 400.002
  31
0.0
   0
LINE
   8
LEVEL001
   6
CONTINUOUS
  62
7
  10
 869.651
  20
 400.002
  30
0.0
  11
 868.519
  21
 400.108
  31
0.0
   0
LINE
   8
LEVEL001
   6
CONTINUOUS
  62
7
  10
 868.519
  20
 400.108
  30
0.0
  11
 867.330
  21
 400.174
  31
0.0
   0
LINE
   8
LEVEL001
   6
CONTINUOUS
  62
7
  10
 867.330
  20
 400.174
  30
0.0
  11
 866.103
  21
 400.200
  31
0.0
   0
LINE
   8
LEVEL001
   6
CONTINUOUS
  62
7
  10
 866.103
  20
 400.200
  30
0.0
  11
 864.857
  21
 400.186
  31
0.0
   0
LINE
   8
LEVEL001
   6
CONTINUOUS
  62
7
  10
 864.857
  20
 400.186
  30
0.0
  11
 863.611
  21
 400.131
  31
0.0
   0
LINE
   8
LEVEL001
   6
CONTINUOUS
  62
7
  10
 863.611
  20
 400.131
  30
0.0
  11
 862.384
  21
 400.037
  31
0.0
   0
LINE
   8
LEVEL001
   6
CONTINUOUS
  62
7
  10
 862.384
  20
 400.037
  30
0.0
  11
 861.196
  21
 399.904
  31
0.0
   0
LINE
   8
LEVEL001
   6
CONTINUOUS
  62
7
  10
 861.196
  20
 399.904
  30
0.0
  11
 860.066
  21
 399.736
  31
0.0
   0
LINE
   8
LEVEL001
   6
CONTINUOUS
  62
7
  10
 860.066
  20
 399.736
  30
0.0
  11
 859.010
  21
 399.534
  31
0.0
   0
LINE
   8
LEVEL001
   6
CONTINUOUS
  62
7
  10
 859.010
  20
 399.534
  30
0.0
  11
 858.902
  21
 399.510
  31
0.0
   0
LINE
   8
LEVEL050
   6
CONTINUOUS
  62
7
  10
 875.154
  20
 387.996
  30
0.0
  11
 874.948
  21
 394.990
  31
0.0
   0
LINE
   8
LEVEL001
   6
CONTINUOUS
  62
7
  10
 473.788
  20
 309.842
  30
0.0
  11
 490.280
  21
 310.329
  31
0.0
   0
LINE
   8
LEVEL001
   6
CONTINUOUS
  62
7
  10
 488.360
  20
 375.330
  30
0.0
  11
 471.868
  21
 374.843
  31
0.0
   0
ARC
   8
LEVEL001
   6
CONTINUOUS
  62
7
  10
 881.963
  20
 394.584
  30
0.0
  40
 2.00000
  50
 1.69191
  51
 90.4282
   0
LINE
   8
LEVEL001
   6
CONTINUOUS
  62
7
  10
 833.223
  20
 385.061
  30
0.0
  11
 835.161
  21
 387.163
  31
0.0
   0
LINE
   8
LEVEL001
   6
CONTINUOUS
  62
7
  10
 853.544
  20
 388.112
  30
0.0
  11
 835.161
  21
 387.163
  31
0.0
   0
LINE
   8
LEVEL003
   6
CONTINUOUS
  62
7
  10
 884.453
  20
 378.026
  30
0.0
  11
 887.651
  21
 378.121
  31
0.0
   0
ARC
   8
LEVEL001
   6
CONTINUOUS
  62
7
  10
 882.383
  20
 380.341
  30
0.0
  40
 2.00000
  50
 308.562
  51
 1.69191
   0
ARC
   8
LEVEL001
   6
CONTINUOUS
  62
7
  10
 885.500
  20
 376.432
  30
0.0
  40
 3.00000
  50
 128.562
  51
 181.692
   0
LINE
   8
LEVEL001
   6
CONTINUOUS
  62
7
  10
 884.747
  20
 368.066
  30
0.0
  11
 884.826
  21
 365.379
  31
0.0
   0
LINE
   8
LEVEL003
   6
DASHDOT
  62
1
  10
 897.294
  20
 387.910
  30
0.0
  11
 865.899
  21
 386.982
  31
0.0
   0
LINE
   8
LEVEL001
   6
CONTINUOUS
  62
7
  10
 835.115
  20
 321.000
  30
0.0
  11
 837.174
  21
 319.016
  31
0.0
   0
LINE
   8
LEVEL003
   6
CONTINUOUS
  62
7
  10
 859.356
  20
 319.182
  30
0.0
  11
 837.174
  21
 319.016
  31
0.0
   0
ARC
   8
LEVEL001
   6
CONTINUOUS
  62
7
  10
 859.415
  20
 311.182
  30
0.0
  40
 8.00000
  50
 1.69191
  51
 90.4282
   0
ARC
   8
LEVEL003
   6
CONTINUOUS
  62
7
  10
 886.755
  20
 366.589
  30
0.0
  40
 12.5359
  50
 337.827
  51
 1.69189
   0
LINE
   8
LEVEL003
   6
CONTINUOUS
  62
7
  10
 888.320
  20
 365.635
  30
0.0
  11
 888.261
  21
 367.634
  31
0.0
   0
LINE
   8
LEVEL003
   6
CONTINUOUS
  62
7
  10
 882.225
  20
 453.431
  30
0.0
  11
 882.530
  21
 443.130
  31
0.0
   0
LINE
   8
LEVEL003
   6
CONTINUOUS
  62
7
  10
 882.530
  20
 443.130
  30
0.0
  11
 885.728
  21
 443.225
  31
0.0
   0
LINE
   8
LEVEL003
   6
CONTINUOUS
  62
7
  10
 885.728
  20
 443.225
  30
0.0
  11
 885.424
  21
 453.525
  31
0.0
   0
LINE
   8
LEVEL003
   6
CONTINUOUS
  62
7
  10
 885.424
  20
 453.525
  30
0.0
  11
 882.225
  21
 453.431
  31
0.0
   0
LINE
   8
LEVEL001
   6
CONTINUOUS
  62
7
  10
 874.655
  20
 396.530
  30
0.0
  11
 881.948
  21
 396.584
  31
0.0
   0
ARC
   8
LEVEL001
   6
CONTINUOUS
  62
7
  10
 853.390
  20
 391.108
  30
0.0
  40
 3.00000
  50
 272.956
  51
 305.359
   0
LINE
   8
LEVEL003
   6
CONTINUOUS
  62
7
  10
 887.216
  20
 392.864
  30
0.0
  11
 888.015
  21
 392.888
  31
0.0
   0
LINE
   8
LEVEL003
   6
CONTINUOUS
  62
7
  10
 887.526
  20
 382.369
  30
0.0
  11
 888.325
  21
 382.392
  31
0.0
   0
ARC
   8
LEVEL011
   6
CONTINUOUS
  62
7
  10
 398.755
  20
 428.543
  30
0.0
  40
 2.00000
  50
 122.585
  51
 223.250
   0
LINE
   8
LEVEL011
   6
CONTINUOUS
  62
7
  10
 408.619
  20
 415.138
  30
0.0
  11
 397.298
  21
 427.173
  31
0.0
   0
ARC
   8
LEVEL011
   6
CONTINUOUS
  62
7
  10
 438.069
  20
 367.033
  30
0.0
  40
 75.0000
  50
 106.519
  51
 122.585
   0
LINE
   8
LEVEL011
   6
CONTINUOUS
  62
7
  10
 407.757
  20
 416.055
  30
0.0
  11
 408.843
  21
 423.950
  31
0.0
   0
LINE
   8
LEVEL011
   6
CONTINUOUS
  62
7
  10
 408.619
  20
 415.138
  30
0.0
  11
 426.375
  21
 416.351
  31
0.0
   0
ARC
   8
LEVEL011
   6
CONTINUOUS
  62
7
  10
 419.318
  20
 426.895
  30
0.0
  40
 10.0000
  50
 70.4092
  51
 150.644
   0
CIRCLE
   8
LEVEL011
   6
CONTINUOUS
  62
7
  10
 419.780
  20
 427.828
  30
0.0
  40
 4.00000
   0
ARC
   8
LEVEL011
   6
CONTINUOUS
  62
7
  10
 419.780
  20
 427.828
  30
0.0
  40
 5.00000
  50
 192.005
  51
 139.609
   0
CIRCLE
   8
LEVEL011
   6
CONTINUOUS
  62
7
  10
 419.780
  20
 427.828
  30
0.0
  40
 5.00000
   0
LINE
   8
LEVEL011
   6
DASHDOT
  62
1
  10
 420.464
  20
 417.822
  30
0.0
  11
 419.114
  21
 437.578
  31
0.0
   0
ARC
   8
LEVEL011
   6
CONTINUOUS
  62
7
  10
 414.384
  20
 424.653
  30
0.0
  40
 2.00000
  50
 93.9079
  51
 147.038
   0
ARC
   8
LEVEL011
   6
CONTINUOUS
  62
7
  10
 412.788
  20
 432.835
  30
0.0
  40
 2.00000
  50
 235.039
  51
 324.396
   0
ARC
   8
LEVEL011
   6
CONTINUOUS
  62
7
  10
 414.384
  20
 424.653
  30
0.0
  40
 3.60000
  50
 93.9079
  51
 147.038
   0
ARC
   8
LEVEL011
   6
CONTINUOUS
  62
7
  10
 412.788
  20
 432.835
  30
0.0
  40
 3.60000
  50
 235.039
  51
 324.396
   0
ARC
   8
LEVEL011
   6
CONTINUOUS
  62
7
  10
 419.780
  20
 427.828
  30
0.0
  40
 6.59982
  50
 43.4194
  51
 144.396
   0
LINE
   8
LEVEL011
   6
CONTINUOUS
  62
7
  10
 414.139
  20
 428.245
  30
0.0
  11
 414.802
  21
 428.290
  31
0.0
   0
LINE
   8
LEVEL011
   6
CONTINUOUS
  62
7
  10
 414.248
  20
 426.649
  30
0.0
  11
 414.911
  21
 426.694
  31
0.0
   0
LINE
   8
LEVEL011
   6
DASHDOT
  62
1
  10
 409.803
  20
 427.147
  30
0.0
  11
 436.289
  21
 428.956
  31
0.0
   0
ARC
   8
LEVEL011
   6
CONTINUOUS
  62
7
  10
 409.350
  20
 427.918
  30
0.0
  40
 4.00000
  50
 55.0388
  51
 327.038
   0
ARC
   8
LEVEL011
   6
CONTINUOUS
  62
7
  10
 409.350
  20
 427.918
  30
0.0
  40
 2.40000
  50
 55.0394
  51
 327.038
   0
ARC
   8
LEVEL011
   6
CONTINUOUS
  62
7
  10
 419.318
  20
 426.895
  30
0.0
  40
 10.0000
  50
 160.370
  51
 172.167
   0
LINE
   8
LEVEL011
   6
CONTINUOUS
  62
7
  10
 409.062
  20
 425.535
  30
0.0
  11
 409.436
  21
 428.259
  31
0.0
   0
ARC
   8
LEVEL011
   6
CONTINUOUS
  62
7
  10
 415.891
  20
 441.814
  30
0.0
  40
 3.00000
  50
 286.519
  51
 3.90777
   0
LINE
   8
LEVEL011
   6
CONTINUOUS
  62
7
  10
 420.683
  20
 445.030
  30
0.0
  11
 461.016
  21
 447.785
  31
0.0
   0
LINE
   8
LEVEL011
   6
CONTINUOUS
  62
7
  10
 418.796
  20
 443.297
  30
0.0
  11
 418.884
  21
 442.018
  31
0.0
   0
ARC
   8
LEVEL011
   6
CONTINUOUS
  62
7
  10
 420.819
  20
 443.035
  30
0.0
  40
 2.00000
  50
 93.9079
  51
 183.908
   0
LINE
   8
LEVEL011
   6
DASHDOT
  62
1
  10
 434.871
  20
 417.934
  30
0.0
  11
 452.948
  21
 419.169
  31
0.0
   0
LINE
   8
LEVEL011
   6
DASHDOT
  62
1
  10
 443.826
  20
 405.968
  30
0.0
  11
 442.289
  21
 428.464
  31
0.0
   0
ARC
   8
LEVEL011
   6
CONTINUOUS
  62
7
  10
 464.288
  20
 399.897
  30
0.0
  40
 48.0000
  50
 47.0510
  51
 93.9079
   0
ARC
   8
LEVEL011
   6
CONTINUOUS
  62
7
  10
 510.619
  20
 449.670
  30
0.0
  40
 20.0000
  50
 227.051
  51
 273.908
   0
LINE
   8
LEVEL011
   6
CONTINUOUS
  62
7
  10
 511.982
  20
 429.717
  30
0.0
  11
 546.358
  21
 432.065
  31
0.0
   0
ARC
   8
LEVEL011
   6
CONTINUOUS
  62
7
  10
 495.999
  20
 390.536
  30
0.0
  40
 5.00000
  50
 93.9079
  51
 183.908
   0
ARC
   8
LEVEL011
   6
CONTINUOUS
  62
7
  10
 547.356
  20
 432.133
  30
0.0
  40
 1.00000
  50
 93.9085
  51
 183.907
   0
LINE
   8
LEVEL011
   6
CONTINUOUS
  62
7
  10
 554.839
  20
 432.644
  30
0.0
  11
 553.773
  21
 433.574
  31
0.0
   0
LINE
   8
LEVEL011
   6
CONTINUOUS
  62
7
  10
 547.288
  20
 433.131
  30
0.0
  11
 553.773
  21
 433.574
  31
0.0
   0
ARC
   8
LEVEL011
   6
CONTINUOUS
  62
7
  10
 549.605
  20
 399.210
  30
0.0
  40
 1.00000
  50
 183.909
  51
 273.907
   0
LINE
   8
LEVEL011
   6
CONTINUOUS
  62
7
  10
 557.088
  20
 399.721
  30
0.0
  11
 556.158
  21
 398.655
  31
0.0
   0
LINE
   8
LEVEL011
   6
CONTINUOUS
  62
7
  10
 549.673
  20
 398.212
  30
0.0
  11
 556.158
  21
 398.655
  31
0.0
   0
LINE
   8
LEVEL011
   6
DASHDOT
  62
1
  10
 473.614
  20
 410.557
  30
0.0
  11
 555.963
  21
 416.183
  31
0.0
   0
LINE
   8
LEVEL012
   6
DASHDOT
  62
1
  10
 555.963
  20
 416.183
  30
0.0
  11
 986.689
  21
 445.606
  31
0.0
   0
LINE
   8
LEVEL012
   6
CONTINUOUS
  62
7
  10
 898.088
  20
 426.022
  30
0.0
  11
 896.248
  21
 452.959
  31
0.0
   0
LINE
   8
LEVEL012
   6
CONTINUOUS
  62
7
  10
 896.248
  20
 452.959
  30
0.0
  11
 906.293
  21
 452.643
  31
0.0
   0
LINE
   8
LEVEL012
   6
CONTINUOUS
  62
7
  10
 906.293
  20
 452.643
  30
0.0
  11
 907.997
  21
 427.701
  31
0.0
   0
LINE
   8
LEVEL012
   6
CONTINUOUS
  62
7
  10
 907.997
  20
 427.701
  30
0.0
  11
 898.088
  21
 426.022
  31
0.0
   0
LINE
   8
LEVEL012
   6
CONTINUOUS
  62
7
  10
 969.852
  20
 431.927
  30
0.0
  11
 968.149
  21
 456.869
  31
0.0
   0
LINE
   8
LEVEL012
   6
CONTINUOUS
  62
7
  10
 968.149
  20
 456.869
  30
0.0
  11
 978.057
  21
 458.548
  31
0.0
   0
LINE
   8
LEVEL012
   6
CONTINUOUS
  62
7
  10
 978.057
  20
 458.548
  30
0.0
  11
 979.897
  21
 431.611
  31
0.0
   0
LINE
   8
LEVEL012
   6
CONTINUOUS
  62
7
  10
 979.897
  20
 431.611
  30
0.0
  11
 969.852
  21
 431.927
  31
0.0
   0
ARC
   8
LEVEL012
   6
CONTINUOUS
  62
7
  10
 950.169
  20
 443.111
  30
0.0
  40
 31.8750
  50
 338.850
  51
 28.9655
   0
LINE
   8
LEVEL012
   6
CONTINUOUS
  62
3
  10
 910.002
  20
 427.684
  30
0.0
  11
 908.278
  21
 452.933
  31
0.0
   0
LINE
   8
LEVEL012
   6
CONTINUOUS
  62
3
  10
 908.278
  20
 452.933
  30
0.0
  11
 910.263
  21
 453.223
  31
0.0
   0
LINE
   8
LEVEL012
   6
CONTINUOUS
  62
3
  10
 910.263
  20
 453.223
  30
0.0
  11
 912.008
  21
 427.667
  31
0.0
   0
LINE
   8
LEVEL012
   6
CONTINUOUS
  62
3
  10
 912.008
  20
 427.667
  30
0.0
  11
 910.002
  21
 427.684
  31
0.0
   0
LINE
   8
LEVEL012
   6
CONTINUOUS
  62
3
  10
 906.395
  20
 451.142
  30
0.0
  11
 908.380
  21
 451.432
  31
0.0
   0
LINE
   8
LEVEL012
   6
CONTINUOUS
  62
3
  10
 914.014
  20
 427.650
  30
0.0
  11
 912.247
  21
 453.513
  31
0.0
   0
LINE
   8
LEVEL012
   6
CONTINUOUS
  62
3
  10
 912.247
  20
 453.513
  30
0.0
  11
 914.232
  21
 453.803
  31
0.0
   0
LINE
   8
LEVEL012
   6
CONTINUOUS
  62
3
  10
 914.232
  20
 453.803
  30
0.0
  11
 916.020
  21
 427.633
  31
0.0
   0
LINE
   8
LEVEL012
   6
CONTINUOUS
  62
3
  10
 916.020
  20
 427.633
  30
0.0
  11
 914.014
  21
 427.650
  31
0.0
   0
LINE
   8
LEVEL012
   6
CONTINUOUS
  62
3
  10
 918.026
  20
 427.616
  30
0.0
  11
 916.217
  21
 454.092
  31
0.0
   0
LINE
   8
LEVEL012
   6
CONTINUOUS
  62
3
  10
 916.217
  20
 454.092
  30
0.0
  11
 918.202
  21
 454.382
  31
0.0
   0
LINE
   8
LEVEL012
   6
CONTINUOUS
  62
3
  10
 918.202
  20
 454.382
  30
0.0
  11
 920.032
  21
 427.598
  31
0.0
   0
LINE
   8
LEVEL012
   6
CONTINUOUS
  62
3
  10
 920.032
  20
 427.598
  30
0.0
  11
 918.026
  21
 427.616
  31
0.0
   0
LINE
   8
LEVEL012
   6
CONTINUOUS
  62
3
  10
 922.037
  20
 427.581
  30
0.0
  11
 920.187
  21
 454.672
  31
0.0
   0
LINE
   8
LEVEL012
   6
CONTINUOUS
  62
3
  10
 920.187
  20
 454.672
  30
0.0
  11
 922.172
  21
 454.962
  31
0.0
   0
LINE
   8
LEVEL012
   6
CONTINUOUS
  62
3
  10
 922.172
  20
 454.962
  30
0.0
  11
 924.043
  21
 427.564
  31
0.0
   0
LINE
   8
LEVEL012
   6
CONTINUOUS
  62
3
  10
 924.043
  20
 427.564
  30
0.0
  11
 922.037
  21
 427.581
  31
0.0
   0
LINE
   8
LEVEL012
   6
CONTINUOUS
  62
3
  10
 926.049
  20
 427.547
  30
0.0
  11
 924.157
  21
 455.252
  31
0.0
   0
LINE
   8
LEVEL012
   6
CONTINUOUS
  62
3
  10
 924.157
  20
 455.252
  30
0.0
  11
 926.141
  21
 455.541
  31
0.0
   0
LINE
   8
LEVEL012
   6
CONTINUOUS
  62
3
  10
 926.141
  20
 455.541
  30
0.0
  11
 928.055
  21
 427.530
  31
0.0
   0
LINE
   8
LEVEL012
   6
CONTINUOUS
  62
3
  10
 928.055
  20
 427.530
  30
0.0
  11
 926.049
  21
 427.547
  31
0.0
   0
LINE
   8
LEVEL012
   6
CONTINUOUS
  62
3
  10
 930.061
  20
 427.512
  30
0.0
  11
 928.126
  21
 455.831
  31
0.0
   0
LINE
   8
LEVEL012
   6
CONTINUOUS
  62
3
  10
 928.126
  20
 455.831
  30
0.0
  11
 930.111
  21
 456.121
  31
0.0
   0
LINE
   8
LEVEL012
   6
CONTINUOUS
  62
3
  10
 930.111
  20
 456.121
  30
0.0
  11
 932.067
  21
 427.495
  31
0.0
   0
LINE
   8
LEVEL012
   6
CONTINUOUS
  62
3
  10
 932.067
  20
 427.495
  30
0.0
  11
 930.061
  21
 427.512
  31
0.0
   0
LINE
   8
LEVEL012
   6
CONTINUOUS
  62
3
  10
 934.072
  20
 427.478
  30
0.0
  11
 932.096
  21
 456.411
  31
0.0
   0
LINE
   8
LEVEL012
   6
CONTINUOUS
  62
3
  10
 932.096
  20
 456.411
  30
0.0
  11
 934.081
  21
 456.700
  31
0.0
   0
LINE
   8
LEVEL012
   6
CONTINUOUS
  62
3
  10
 934.081
  20
 456.700
  30
0.0
  11
 936.078
  21
 427.461
  31
0.0
   0
LINE
   8
LEVEL012
   6
CONTINUOUS
  62
3
  10
 936.078
  20
 427.461
  30
0.0
  11
 934.072
  21
 427.478
  31
0.0
   0
LINE
   8
LEVEL012
   6
CONTINUOUS
  62
3
  10
 910.365
  20
 451.722
  30
0.0
  11
 912.350
  21
 452.012
  31
0.0
   0
LINE
   8
LEVEL012
   6
CONTINUOUS
  62
3
  10
 914.335
  20
 452.302
  30
0.0
  11
 916.320
  21
 452.591
  31
0.0
   0
LINE
   8
LEVEL012
   6
CONTINUOUS
  62
3
  10
 918.305
  20
 452.881
  30
0.0
  11
 920.289
  21
 453.171
  31
0.0
   0
LINE
   8
LEVEL012
   6
CONTINUOUS
  62
3
  10
 907.894
  20
 429.202
  30
0.0
  11
 909.900
  21
 429.185
  31
0.0
   0
LINE
   8
LEVEL012
   6
CONTINUOUS
  62
3
  10
 911.906
  20
 429.168
  30
0.0
  11
 913.912
  21
 429.151
  31
0.0
   0
LINE
   8
LEVEL012
   6
CONTINUOUS
  62
3
  10
 915.917
  20
 429.134
  30
0.0
  11
 917.923
  21
 429.117
  31
0.0
   0
LINE
   8
LEVEL012
   6
CONTINUOUS
  62
3
  10
 919.929
  20
 429.099
  30
0.0
  11
 921.935
  21
 429.082
  31
0.0
   0
LINE
   8
LEVEL012
   6
CONTINUOUS
  62
3
  10
 923.941
  20
 429.065
  30
0.0
  11
 925.947
  21
 429.048
  31
0.0
   0
LINE
   8
LEVEL012
   6
CONTINUOUS
  62
3
  10
 927.952
  20
 429.031
  30
0.0
  11
 929.958
  21
 429.013
  31
0.0
   0
LINE
   8
LEVEL012
   6
CONTINUOUS
  62
3
  10
 931.964
  20
 428.996
  30
0.0
  11
 933.970
  21
 428.979
  31
0.0
   0
LINE
   8
LEVEL012
   6
CONTINUOUS
  62
3
  10
 946.047
  20
 428.262
  30
0.0
  11
 944.066
  21
 457.262
  31
0.0
   0
LINE
   8
LEVEL012
   6
CONTINUOUS
  62
3
  10
 944.066
  20
 457.262
  30
0.0
  11
 946.073
  21
 457.229
  31
0.0
   0
LINE
   8
LEVEL012
   6
CONTINUOUS
  62
3
  10
 946.073
  20
 457.229
  30
0.0
  11
 948.031
  21
 428.568
  31
0.0
   0
LINE
   8
LEVEL012
   6
CONTINUOUS
  62
3
  10
 948.031
  20
 428.568
  30
0.0
  11
 946.047
  21
 428.262
  31
0.0
   0
LINE
   8
LEVEL012
   6
CONTINUOUS
  62
3
  10
 950.014
  20
 428.873
  30
0.0
  11
 948.080
  21
 457.197
  31
0.0
   0
LINE
   8
LEVEL012
   6
CONTINUOUS
  62
3
  10
 948.080
  20
 457.197
  30
0.0
  11
 950.087
  21
 457.164
  31
0.0
   0
LINE
   8
LEVEL012
   6
CONTINUOUS
  62
3
  10
 950.087
  20
 457.164
  30
0.0
  11
 951.998
  21
 429.178
  31
0.0
   0
LINE
   8
LEVEL012
   6
CONTINUOUS
  62
3
  10
 951.998
  20
 429.178
  30
0.0
  11
 950.014
  21
 428.873
  31
0.0
   0
LINE
   8
LEVEL012
   6
CONTINUOUS
  62
3
  10
 953.982
  20
 429.484
  30
0.0
  11
 952.093
  21
 457.131
  31
0.0
   0
LINE
   8
LEVEL012
   6
CONTINUOUS
  62
3
  10
 952.093
  20
 457.131
  30
0.0
  11
 954.100
  21
 457.098
  31
0.0
   0
LINE
   8
LEVEL012
   6
CONTINUOUS
  62
3
  10
 954.100
  20
 457.098
  30
0.0
  11
 955.966
  21
 429.789
  31
0.0
   0
LINE
   8
LEVEL012
   6
CONTINUOUS
  62
3
  10
 955.966
  20
 429.789
  30
0.0
  11
 953.982
  21
 429.484
  31
0.0
   0
LINE
   8
LEVEL012
   6
CONTINUOUS
  62
3
  10
 957.950
  20
 430.095
  30
0.0
  11
 956.107
  21
 457.066
  31
0.0
   0
LINE
   8
LEVEL012
   6
CONTINUOUS
  62
3
  10
 956.107
  20
 457.066
  30
0.0
  11
 958.114
  21
 457.033
  31
0.0
   0
LINE
   8
LEVEL012
   6
CONTINUOUS
  62
3
  10
 958.114
  20
 457.033
  30
0.0
  11
 959.933
  21
 430.400
  31
0.0
   0
LINE
   8
LEVEL012
   6
CONTINUOUS
  62
3
  10
 959.933
  20
 430.400
  30
0.0
  11
 957.950
  21
 430.095
  31
0.0
   0
LINE
   8
LEVEL012
   6
CONTINUOUS
  62
3
  10
 961.917
  20
 430.705
  30
0.0
  11
 960.121
  21
 457.000
  31
0.0
   0
LINE
   8
LEVEL012
   6
CONTINUOUS
  62
3
  10
 960.121
  20
 457.000
  30
0.0
  11
 962.128
  21
 456.967
  31
0.0
   0
LINE
   8
LEVEL012
   6
CONTINUOUS
  62
3
  10
 962.128
  20
 456.967
  30
0.0
  11
 963.901
  21
 431.011
  31
0.0
   0
LINE
   8
LEVEL012
   6
CONTINUOUS
  62
3
  10
 963.901
  20
 431.011
  30
0.0
  11
 961.917
  21
 430.705
  31
0.0
   0
LINE
   8
LEVEL012
   6
CONTINUOUS
  62
3
  10
 965.885
  20
 431.316
  30
0.0
  11
 964.135
  21
 456.934
  31
0.0
   0
LINE
   8
LEVEL012
   6
CONTINUOUS
  62
3
  10
 964.135
  20
 456.934
  30
0.0
  11
 966.142
  21
 456.902
  31
0.0
   0
LINE
   8
LEVEL012
   6
CONTINUOUS
  62
3
  10
 966.142
  20
 456.902
  30
0.0
  11
 967.869
  21
 431.622
  31
0.0
   0
LINE
   8
LEVEL012
   6
CONTINUOUS
  62
3
  10
 967.869
  20
 431.622
  30
0.0
  11
 965.885
  21
 431.316
  31
0.0
   0
LINE
   8
LEVEL012
   6
CONTINUOUS
  62
3
  10
 955.863
  20
 431.291
  30
0.0
  11
 957.847
  21
 431.596
  31
0.0
   0
LINE
   8
LEVEL012
   6
CONTINUOUS
  62
3
  10
 959.831
  20
 431.902
  30
0.0
  11
 961.815
  21
 432.207
  31
0.0
   0
LINE
   8
LEVEL012
   6
CONTINUOUS
  62
3
  10
 963.798
  20
 432.513
  30
0.0
  11
 965.782
  21
 432.818
  31
0.0
   0
LINE
   8
LEVEL012
   6
CONTINUOUS
  62
3
  10
 967.766
  20
 433.123
  30
0.0
  11
 969.750
  21
 433.429
  31
0.0
   0
LINE
   8
LEVEL012
   6
CONTINUOUS
  62
3
  10
 935.976
  20
 428.962
  30
0.0
  11
 937.982
  21
 428.945
  31
0.0
   0
LINE
   8
LEVEL012
   6
CONTINUOUS
  62
3
  10
 939.993
  20
 428.848
  30
0.0
  11
 941.977
  21
 429.153
  31
0.0
   0
LINE
   8
LEVEL012
   6
CONTINUOUS
  62
3
  10
 943.960
  20
 429.459
  30
0.0
  11
 945.944
  21
 429.764
  31
0.0
   0
LINE
   8
LEVEL012
   6
CONTINUOUS
  62
3
  10
 947.928
  20
 430.069
  30
0.0
  11
 949.912
  21
 430.375
  31
0.0
   0
LINE
   8
LEVEL012
   6
CONTINUOUS
  62
3
  10
 951.896
  20
 430.680
  30
0.0
  11
 953.879
  21
 430.986
  31
0.0
   0
LINE
   8
LEVEL012
   6
CONTINUOUS
  62
3
  10
 937.075
  20
 442.217
  30
0.0
  11
 936.066
  21
 456.990
  31
0.0
   0
LINE
   8
LEVEL012
   6
CONTINUOUS
  62
3
  10
 936.066
  20
 456.990
  30
0.0
  11
 938.051
  21
 457.280
  31
0.0
   0
LINE
   8
LEVEL012
   6
CONTINUOUS
  62
3
  10
 938.051
  20
 457.280
  30
0.0
  11
 939.070
  21
 442.353
  31
0.0
   0
LINE
   8
LEVEL012
   6
CONTINUOUS
  62
3
  10
 941.066
  20
 442.490
  30
0.0
  11
 940.052
  21
 457.328
  31
0.0
   0
LINE
   8
LEVEL012
   6
CONTINUOUS
  62
3
  10
 940.052
  20
 457.328
  30
0.0
  11
 942.059
  21
 457.295
  31
0.0
   0
LINE
   8
LEVEL012
   6
CONTINUOUS
  62
3
  10
 942.059
  20
 457.295
  30
0.0
  11
 943.061
  21
 442.626
  31
0.0
   0
LINE
   8
LEVEL012
   6
CONTINUOUS
  62
3
  10
 937.075
  20
 442.217
  30
0.0
  11
 938.084
  21
 427.444
  31
0.0
   0
LINE
   8
LEVEL012
   6
CONTINUOUS
  62
3
  10
 938.084
  20
 427.444
  30
0.0
  11
 940.090
  21
 427.427
  31
0.0
   0
LINE
   8
LEVEL012
   6
CONTINUOUS
  62
3
  10
 940.090
  20
 427.427
  30
0.0
  11
 939.070
  21
 442.353
  31
0.0
   0
LINE
   8
LEVEL012
   6
CONTINUOUS
  62
3
  10
 941.066
  20
 442.490
  30
0.0
  11
 942.079
  21
 427.651
  31
0.0
   0
LINE
   8
LEVEL012
   6
CONTINUOUS
  62
3
  10
 942.079
  20
 427.651
  30
0.0
  11
 944.063
  21
 427.957
  31
0.0
   0
LINE
   8
LEVEL012
   6
CONTINUOUS
  62
3
  10
 944.063
  20
 427.957
  30
0.0
  11
 943.061
  21
 442.626
  31
0.0
   0
LINE
   8
LEVEL012
   6
CONTINUOUS
  62
3
  10
 922.274
  20
 453.461
  30
0.0
  11
 924.259
  21
 453.751
  31
0.0
   0
LINE
   8
LEVEL012
   6
CONTINUOUS
  62
3
  10
 926.244
  20
 454.040
  30
0.0
  11
 928.229
  21
 454.330
  31
0.0
   0
LINE
   8
LEVEL012
   6
CONTINUOUS
  62
3
  10
 930.214
  20
 454.620
  30
0.0
  11
 932.199
  21
 454.910
  31
0.0
   0
LINE
   8
LEVEL012
   6
CONTINUOUS
  62
3
  10
 934.183
  20
 455.200
  30
0.0
  11
 936.168
  21
 455.489
  31
0.0
   0
LINE
   8
LEVEL012
   6
CONTINUOUS
  62
3
  10
 938.148
  20
 455.859
  30
0.0
  11
 940.155
  21
 455.826
  31
0.0
   0
LINE
   8
LEVEL012
   6
CONTINUOUS
  62
3
  10
 942.162
  20
 455.793
  30
0.0
  11
 944.168
  21
 455.760
  31
0.0
   0
LINE
   8
LEVEL012
   6
CONTINUOUS
  62
3
  10
 946.175
  20
 455.728
  30
0.0
  11
 948.182
  21
 455.695
  31
0.0
   0
LINE
   8
LEVEL012
   6
CONTINUOUS
  62
3
  10
 950.189
  20
 455.662
  30
0.0
  11
 952.196
  21
 455.629
  31
0.0
   0
LINE
   8
LEVEL012
   6
CONTINUOUS
  62
3
  10
 954.203
  20
 455.596
  30
0.0
  11
 956.210
  21
 455.564
  31
0.0
   0
LINE
   8
LEVEL012
   6
CONTINUOUS
  62
3
  10
 958.217
  20
 455.531
  30
0.0
  11
 960.224
  21
 455.498
  31
0.0
   0
LINE
   8
LEVEL012
   6
CONTINUOUS
  62
3
  10
 962.231
  20
 455.465
  30
0.0
  11
 964.237
  21
 455.433
  31
0.0
   0
LINE
   8
LEVEL012
   6
CONTINUOUS
  62
3
  10
 966.244
  20
 455.400
  30
0.0
  11
 968.251
  21
 455.367
  31
0.0
   0
LINE
   8
LEVEL012
   6
CONTINUOUS
  62
7
  10
 873.208
  20
 427.079
  30
0.0
  11
 871.743
  21
 448.529
  31
0.0
   0
LINE
   8
LEVEL012
   6
CONTINUOUS
  62
7
  10
 875.764
  20
 430.010
  30
0.0
  11
 874.674
  21
 445.973
  31
0.0
   0
LINE
   8
LEVEL012
   6
CONTINUOUS
  62
7
  10
 555.226
  20
 426.907
  30
0.0
  11
 871.743
  21
 448.529
  31
0.0
   0
LINE
   8
LEVEL012
   6
CONTINUOUS
  62
7
  10
 556.700
  20
 405.458
  30
0.0
  11
 873.208
  21
 427.079
  31
0.0
   0
ARC
   8
LEVEL011
   6
CONTINUOUS
  62
7
  10
 427.056
  20
 406.374
  30
0.0
  40
 10.0000
  50
 37.2749
  51
 93.9079
   0
LINE
   8
LEVEL011
   6
CONTINUOUS
  62
7
  10
 431.402
  20
 434.295
  30
0.0
  11
 428.688
  21
 431.315
  31
0.0
   0
LINE
   8
LEVEL011
   6
CONTINUOUS
  62
7
  10
 430.219
  20
 435.372
  30
0.0
  11
 431.402
  21
 434.295
  31
0.0
   0
LINE
   8
LEVEL011
   6
CONTINUOUS
  62
7
  10
 430.219
  20
 435.372
  30
0.0
  11
 427.505
  21
 432.393
  31
0.0
   0
LINE
   8
LEVEL011
   6
CONTINUOUS
  62
7
  10
 432.995
  20
 429.533
  30
0.0
  11
 433.104
  21
 427.937
  31
0.0
   0
ARC
   8
LEVEL011
   6
CONTINUOUS
  62
7
  10
 426.027
  20
 433.739
  30
0.0
  40
 2.00000
  50
 223.419
  51
 317.670
   0
ARC
   8
LEVEL011
   6
CONTINUOUS
  62
7
  10
 426.027
  20
 433.739
  30
0.0
  40
 3.60000
  50
 223.420
  51
 317.668
   0
LINE
   8
LEVEL011
   6
CONTINUOUS
  62
7
  10
 424.650
  20
 428.963
  30
0.0
  11
 432.995
  21
 429.533
  31
0.0
   0
LINE
   8
LEVEL011
   6
CONTINUOUS
  62
7
  10
 424.759
  20
 427.367
  30
0.0
  11
 433.104
  21
 427.937
  31
0.0
   0
LINE
   8
LEVEL011
   6
CONTINUOUS
  62
7
  10
 422.696
  20
 436.318
  30
0.0
  11
 429.028
  21
 434.064
  31
0.0
   0
LINE
   8
LEVEL011
   6
CONTINUOUS
  62
7
  10
 430.662
  20
 433.482
  30
0.0
  11
 446.324
  21
 427.908
  31
0.0
   0
LINE
   8
LEVEL011
   6
CONTINUOUS
  62
7
  10
 443.653
  20
 408.510
  30
0.0
  11
 463.606
  21
 409.874
  31
0.0
   0
ARC
   8
LEVEL011
   6
CONTINUOUS
  62
7
  10
 442.971
  20
 418.487
  30
0.0
  40
 10.0000
  50
 217.275
  51
 273.908
   0
CIRCLE
   8
LEVEL001
   6
CONTINUOUS
  62
7
  10
 442.971
  20
 418.487
  30
0.0
  40
 5.00000
   0
ARC
   8
LEVEL011
   6
CONTINUOUS
  62
7
  10
 442.971
  20
 418.487
  30
0.0
  40
 10.0000
  50
 9.36053
  51
 70.4093
   0
LINE
   8
LEVEL011
   6
CONTINUOUS
  62
7
  10
 454.627
  20
 409.260
  30
0.0
  11
 452.838
  21
 420.114
  31
0.0
   0
LINE
   8
LEVEL011
   6
DASHDOT
  62
1
  10
 482.434
  20
 398.370
  30
0.0
  11
 484.171
  21
 372.934
  31
0.0
   0
ARC
   8
LEVEL011
   6
CONTINUOUS
  62
7
  10
 476.618
  20
 380.794
  30
0.0
  40
 3.00000
  50
 3.90799
  51
 82.3707
   0
ARC
   8
LEVEL011
   6
CONTINUOUS
  62
7
  10
 490.588
  20
 381.718
  30
0.0
  40
 3.00000
  50
 103.549
  51
 183.908
   0
ARC
   8
LEVEL011
   6
CONTINUOUS
  62
7
  10
 489.416
  20
 386.578
  30
0.0
  40
 2.00000
  50
 283.549
  51
 351.534
   0
LINE
   8
LEVEL011
   6
CONTINUOUS
  62
7
  10
 491.279
  20
 386.276
  30
0.0
  11
 491.011
  21
 390.195
  31
0.0
   0
ARC
   8
LEVEL011
   6
CONTINUOUS
  62
7
  10
 477.282
  20
 385.749
  30
0.0
  40
 2.00000
  50
 183.908
  51
 262.371
   0
LINE
   8
LEVEL011
   6
CONTINUOUS
  62
7
  10
 475.287
  20
 385.613
  30
0.0
  11
 474.264
  21
 400.578
  31
0.0
   0
LINE
   8
LEVEL012
   6
CONTINUOUS
  62
7
  10
 873.208
  20
 427.079
  30
0.0
  11
 875.764
  21
 430.010
  31
0.0
   0
LINE
   8
LEVEL012
   6
CONTINUOUS
  62
7
  10
 875.764
  20
 430.010
  30
0.0
  11
 897.713
  21
 431.509
  31
0.0
   0
LINE
   8
LEVEL001
   6
CONTINUOUS
  62
7
  10
 429.501
  20
 403.579
  30
0.0
  11
 430.471
  21
 404.608
  31
0.0
   0
ARC
   8
LEVEL001
   6
CONTINUOUS
  62
7
  10
 432.940
  20
 405.682
  30
0.0
  40
 1.00000
  50
 271.692
  51
 1.69191
   0
LINE
   8
LEVEL001
   6
CONTINUOUS
  62
7
  10
 457.489
  20
 404.406
  30
0.0
  11
 456.459
  21
 405.376
  31
0.0
   0
ARC
   8
LEVEL001
   6
CONTINUOUS
  62
7
  10
 453.931
  20
 406.302
  30
0.0
  40
 1.00000
  50
 181.692
  51
 271.692
   0
LINE
   8
LEVEL001
   6
CONTINUOUS
  62
7
  10
 452.931
  20
 406.272
  30
0.0
  11
 452.843
  21
 409.256
  31
0.0
   0
LINE
   8
LEVEL001
   6
CONTINUOUS
  62
7
  10
 433.940
  20
 405.711
  30
0.0
  11
 433.698
  21
 413.893
  31
0.0
   0
LINE
   8
LEVEL001
   6
CONTINUOUS
  62
7
  10
 456.459
  20
 405.376
  30
0.0
  11
 430.471
  21
 404.608
  31
0.0
   0
LINE
   8
LEVEL001
   6
CONTINUOUS
  62
7
  10
 462.471
  20
 405.079
  30
0.0
  11
 424.487
  21
 403.957
  31
0.0
   0
LINE
   8
LEVEL012
   6
CONTINUOUS
  62
7
  10
 885.625
  20
 446.721
  30
0.0
  11
 896.623
  21
 447.472
  31
0.0
   0
LINE
   8
LEVEL012
   6
CONTINUOUS
  62
7
  10
 871.743
  20
 448.529
  30
0.0
  11
 874.674
  21
 445.973
  31
0.0
   0
LINE
   8
LEVEL012
   6
CONTINUOUS
  62
7
  10
 874.674
  20
 445.973
  30
0.0
  11
 882.430
  21
 446.503
  31
0.0
   0
LINE
   8
LEVEL003
   6
CONTINUOUS
  62
7
  10
 886.098
  20
 430.716
  30
0.0
  11
 887.651
  21
 378.121
  31
0.0
   0
LINE
   8
LEVEL001
   6
CONTINUOUS
  62
7
  10
 882.903
  20
 430.498
  30
0.0
  11
 884.453
  21
 378.026
  31
0.0
   0
ARC
   8
LEVEL011
   6
CONTINUOUS
  62
7
  10
 486.933
  20
 376.520
  30
0.0
  40
 1.00000
  50
 273.909
  51
 3.90736
   0
ARC
   8
LEVEL011
   6
CONTINUOUS
  62
7
  10
 480.947
  20
 376.111
  30
0.0
  40
 1.00000
  50
 183.908
  51
 273.908
   0
LINE
   8
LEVEL011
   6
CONTINUOUS
  62
7
  10
 481.016
  20
 375.113
  30
0.0
  11
 487.002
  21
 375.522
  31
0.0
   0
LINE
   8
LEVEL011
   6
CONTINUOUS
  62
7
  10
 479.950
  20
 376.043
  30
0.0
  11
 479.611
  21
 380.998
  31
0.0
   0
LINE
   8
LEVEL011
   6
CONTINUOUS
  62
7
  10
 487.931
  20
 376.588
  30
0.0
  11
 487.595
  21
 381.513
  31
0.0
   0
LINE
   8
LEVEL003
   6
CONTINUOUS
  62
7
  10
 826.015
  20
 324.248
  30
0.0
  11
 824.332
  21
 381.223
  31
0.0
   0
LINE
   8
LEVEL001
   6
CONTINUOUS
  62
7
  10
 826.000
  20
 324.747
  30
0.0
  11
 834.996
  21
 325.013
  31
0.0
   0
LINE
   8
LEVEL001
   6
CONTINUOUS
  62
7
  10
 824.347
  20
 380.723
  30
0.0
  11
 833.343
  21
 380.989
  31
0.0
   0
LINE
   8
LEVEL001
   6
CONTINUOUS
  62
7
  10
 833.223
  20
 385.061
  30
0.0
  11
 834.169
  21
 353.031
  31
0.0
   0
ARC
   8
LEVEL003
   6
CONTINUOUS
  62
7
  10
 849.770
  20
 383.715
  30
0.0
  40
 3.00000
  50
 1.69191
  51
 91.6919
   0
LINE
   8
LEVEL001
   6
CONTINUOUS
  62
7
  10
 852.765
  20
 383.897
  30
0.0
  11
 853.912
  21
 345.080
  31
0.0
   0
LINE
   8
LEVEL001
   6
CONTINUOUS
  62
7
  10
 835.115
  20
 321.000
  30
0.0
  11
 834.169
  21
 353.031
  31
0.0
   0
LINE
   8
LEVEL001
   6
CONTINUOUS
  62
7
  10
 835.161
  20
 387.163
  30
0.0
  11
 837.174
  21
 319.016
  31
0.0
   0
LINE
   8
LEVEL003
   6
CONTINUOUS
  62
7
  10
 885.146
  20
 354.536
  30
0.0
  11
 885.567
  21
 340.289
  31
0.0
   0
LINE
   8
LEVEL003
   6
CONTINUOUS
  62
7
  10
 884.748
  20
 368.037
  30
0.0
  11
 885.146
  21
 354.536
  31
0.0
   0
LINE
   8
LEVEL003
   6
CONTINUOUS
  62
7
  10
 884.822
  20
 365.532
  30
0.0
  11
 888.320
  21
 365.635
  31
0.0
   0
LINE
   8
LEVEL003
   6
CONTINUOUS
  62
7
  10
 885.471
  20
 343.541
  30
0.0
  11
 888.970
  21
 343.644
  31
0.0
   0
LINE
   8
LEVEL003
   6
CONTINUOUS
  62
7
  10
 888.236
  20
 368.490
  30
0.0
  11
 898.160
  21
 368.783
  31
0.0
   0
LINE
   8
LEVEL003
   6
CONTINUOUS
  62
7
  10
 898.160
  20
 368.783
  30
0.0
  11
 899.286
  21
 366.959
  31
0.0
   0
LINE
   8
LEVEL003
   6
CONTINUOUS
  62
7
  10
 899.286
  20
 366.959
  30
0.0
  11
 899.994
  21
 342.970
  31
0.0
   0
LINE
   8
LEVEL003
   6
CONTINUOUS
  62
7
  10
 899.994
  20
 342.970
  30
0.0
  11
 898.978
  21
 341.082
  31
0.0
   0
LINE
   8
LEVEL003
   6
CONTINUOUS
  62
7
  10
 898.978
  20
 341.082
  30
0.0
  11
 889.054
  21
 340.789
  31
0.0
   0
LINE
   8
LEVEL003
   6
CONTINUOUS
  62
7
  10
 889.054
  20
 340.789
  30
0.0
  11
 888.645
  21
 354.640
  31
0.0
   0
LINE
   8
LEVEL003
   6
CONTINUOUS
  62
7
  10
 888.645
  20
 354.640
  30
0.0
  11
 888.236
  21
 368.490
  31
0.0
   0
LINE
   8
LEVEL003
   6
CONTINUOUS
  62
7
  10
 888.440
  20
 361.565
  30
0.0
  11
 898.364
  21
 361.858
  31
0.0
   0
LINE
   8
LEVEL003
   6
CONTINUOUS
  62
7
  10
 888.850
  20
 347.714
  30
0.0
  11
 898.773
  21
 348.008
  31
0.0
   0
ARC
   8
LEVEL003
   6
CONTINUOUS
  62
7
  10
 887.464
  20
 342.600
  30
0.0
  40
 12.5359
  50
 1.69193
  51
 25.5568
   0
ARC
   8
LEVEL003
   6
CONTINUOUS
  62
7
  10
 876.722
  20
 354.287
  30
0.0
  40
 22.9282
  50
 344.104
  51
 19.2799
   0
ARC
   8
LEVEL011
   6
CONTINUOUS
  62
7
  10
 510.177
  20
 427.589
  30
0.0
  40
 2.00000
  50
 5.90794
  51
 93.9079
   0
ARC
   8
LEVEL011
   6
CONTINUOUS
  62
7
  10
 516.043
  20
 419.470
  30
0.0
  40
 3.00000
  50
 185.908
  51
 273.908
   0
LINE
   8
LEVEL011
   6
CONTINUOUS
  62
7
  10
 512.166
  20
 427.794
  30
0.0
  11
 513.059
  21
 419.161
  31
0.0
   0
ARC
   8
LEVEL011
   6
CONTINUOUS
  62
7
  10
 516.861
  20
 407.497
  30
0.0
  40
 3.00000
  50
 93.9079
  51
 181.908
   0
ARC
   8
LEVEL011
   6
CONTINUOUS
  62
7
  10
 512.153
  20
 398.656
  30
0.0
  40
 2.00000
  50
 273.908
  51
 1.90794
   0
LINE
   8
LEVEL011
   6
CONTINUOUS
  62
7
  10
 513.863
  20
 407.398
  30
0.0
  11
 514.152
  21
 398.723
  31
0.0
   0
LINE
   8
LEVEL011
   6
CONTINUOUS
  62
7
  10
 554.839
  20
 432.644
  30
0.0
  11
 557.088
  21
 399.721
  31
0.0
   0
LINE
   8
LEVEL011
   6
CONTINUOUS
  62
7
  10
 553.773
  20
 433.574
  30
0.0
  11
 556.158
  21
 398.655
  31
0.0
   0
LINE
   8
LEVEL011
   6
CONTINUOUS
  62
7
  10
 546.358
  20
 432.065
  30
0.0
  11
 548.607
  21
 399.142
  31
0.0
   0
LINE
   8
LEVEL011
   6
CONTINUOUS
  62
7
  10
 477.418
  20
 383.754
  30
0.0
  11
 489.553
  21
 384.583
  31
0.0
   0
LINE
   8
LEVEL001
   6
CONTINUOUS
  62
7
  10
 488.360
  20
 375.301
  30
0.0
  11
 489.390
  21
 374.331
  31
0.0
   0
LINE
   8
LEVEL001
   6
CONTINUOUS
  62
7
  10
 489.390
  20
 374.331
  30
0.0
  11
 491.250
  21
 311.358
  31
0.0
   0
LINE
   8
LEVEL001
   6
CONTINUOUS
  62
7
  10
 489.493
  20
 370.832
  30
0.0
  11
 498.489
  21
 371.098
  31
0.0
   0
ARC
   8
LEVEL003
   6
CONTINUOUS
  62
7
  10
 458.570
  20
 333.933
  30
0.0
  40
 7.00000
  50
 271.692
  51
 91.6920
   0
LINE
   8
LEVEL001
   6
CONTINUOUS
  62
7
  10
 491.145
  20
 314.916
  30
0.0
  11
 500.141
  21
 315.181
  31
0.0
   0
LINE
   8
LEVEL003
   6
CONTINUOUS
  62
7
  10
 500.157
  20
 314.623
  30
0.0
  11
 498.474
  21
 371.598
  31
0.0
   0
LINE
   8
LEVEL003
   6
CONTINUOUS
  62
7
  10
 469.519
  20
 369.706
  30
0.0
  11
 469.709
  21
 363.269
  31
0.0
   0
LINE
   8
LEVEL003
   6
CONTINUOUS
  62
7
  10
 470.122
  20
 349.256
  30
0.0
  11
 471.255
  21
 310.798
  31
0.0
   0
ARC
   8
LEVEL003
   6
CONTINUOUS
  62
7
  10
 472.708
  20
 363.357
  30
0.0
  40
 3.00000
  50
 181.688
  51
 262.094
   0
ARC
   8
LEVEL003
   6
CONTINUOUS
  62
7
  10
 473.121
  20
 349.344
  30
0.0
  40
 3.00000
  50
 101.282
  51
 181.688
   0
LINE
   8
LEVEL001
   6
CONTINUOUS
  62
7
  10
 488.362
  20
 375.330
  30
0.0
  11
 490.277
  21
 310.359
  31
0.0
   0
LINE
   8
LEVEL001
   6
CONTINUOUS
  62
7
  10
 473.785
  20
 309.842
  30
0.0
  11
 471.790
  21
 377.530
  31
0.0
   0
LINE
   8
LEVEL001
   6
DOT
  62
3
  10
 398.721
  20
 344.839
  30
0.0
  11
 399.578
  21
 345.749
  31
0.0
   0
LINE
   8
LEVEL001
   6
DOT
  62
3
  10
 398.230
  20
 361.494
  30
0.0
  11
 399.139
  21
 360.637
  31
0.0
   0
LINE
   8
LEVEL001
   6
DOT
  62
3
  10
 398.230
  20
 361.494
  30
0.0
  11
 403.925
  21
 361.468
  31
0.0
   0
LINE
   8
LEVEL001
   6
DOT
  62
3
  10
 403.950
  20
 360.618
  30
0.0
  11
 399.139
  21
 360.637
  31
0.0
   0
LINE
   8
LEVEL001
   6
DOT
  62
3
  10
 399.139
  20
 360.637
  30
0.0
  11
 399.578
  21
 345.749
  31
0.0
   0
LINE
   8
LEVEL001
   6
DOT
  62
3
  10
 399.578
  20
 345.749
  30
0.0
  11
 404.380
  21
 346.051
  31
0.0
   0
LINE
   8
LEVEL001
   6
DOT
  62
3
  10
 398.721
  20
 344.839
  30
0.0
  11
 404.405
  21
 345.200
  31
0.0
   0
POINT
   8
LEVEL001
  62
7
  10
 427.410
  20
 305.000
  30
0.0
   0
LINE
   8
LEVEL011
   6
CONTINUOUS
  62
7
  10
 484.376
  20
 394.754
  30
0.0
  11
 548.607
  21
 399.142
  31
0.0
   0
ARC
   8
LEVEL011
   6
CONTINUOUS
  62
7
  10
 464.288
  20
 399.897
  30
0.0
  40
 10.0000
  50
 3.90769
  51
 93.9079
   0
ARC
   8
LEVEL011
   6
CONTINUOUS
  62
7
  10
 483.695
  20
 404.731
  30
0.0
  40
 10.0000
  50
 217.097
  51
 273.908
   0
LINE
   8
LEVEL001
   6
DASHDOT
  62
1
  10
 460.333
  20
 341.988
  30
0.0
  11
 662.860
  21
 347.970
  31
0.0
   0
LINE
   8
LEVEL001
   6
DASHDOT
  62
1
  10
 688.256
  20
 348.721
  30
0.0
  11
 906.632
  21
 355.171
  31
0.0
   0
LINE
   8
LEVEL011
   6
CONTINUOUS
  62
7
  10
 535.951
  20
 505.098
  30
0.0
  11
 536.047
  21
 503.687
  31
0.0
   0
ARC
   8
LEVEL011
   6
DASHDOT
  62
1
  10
 492.963
  20
 490.040
  30
0.0
  40
 3.00000
  50
 230.908
  51
 318.908
   0
ARC
   8
LEVEL011
   6
DASHDOT
  62
1
  10
 506.150
  20
 521.136
  30
0.0
  40
 1.00000
  50
 138.908
  51
 228.907
   0
ARC
   8
LEVEL011
   6
DASHDOT
  62
1
  10
 531.021
  20
 499.446
  30
0.0
  40
 1.00000
  50
 228.909
  51
 318.907
   0
ARC
   8
LEVEL011
   6
DASHDOT
  62
1
  10
 467.773
  20
 507.559
  30
0.0
  40
 20.0000
  50
 272.051
  51
 318.908
   0
ARC
   8
LEVEL011
   6
DASHDOT
  62
1
  10
 483.074
  20
 491.632
  30
0.0
  40
 2.00000
  50
 50.9079
  51
 138.908
   0
LINE
   8
LEVEL011
   6
DASHDOT
  62
1
  10
 511.080
  20
 526.788
  30
0.0
  11
 509.669
  21
 526.692
  31
0.0
   0
LINE
   8
LEVEL011
   6
DASHDOT
  62
1
  10
 505.397
  20
 521.793
  30
0.0
  11
 509.669
  21
 526.692
  31
0.0
   0
LINE
   8
LEVEL011
   6
DASHDOT
  62
1
  10
 511.080
  20
 526.788
  30
0.0
  11
 535.951
  21
 505.098
  31
0.0
   0
LINE
   8
LEVEL011
   6
DASHDOT
  62
1
  10
 509.669
  20
 526.692
  30
0.0
  11
 536.047
  21
 503.687
  31
0.0
   0
LINE
   8
LEVEL011
   6
DASHDOT
  62
1
  10
 505.493
  20
 520.382
  30
0.0
  11
 530.364
  21
 498.692
  31
0.0
   0
LINE
   8
LEVEL011
   6
DASHDOT
  62
1
  10
 531.775
  20
 498.788
  30
0.0
  11
 536.047
  21
 503.687
  31
0.0
   0
LINE
   8
LEVEL011
   6
DASHDOT
  62
1
  10
 482.846
  20
 494.414
  30
0.0
  11
 505.493
  21
 520.382
  31
0.0
   0
LINE
   8
LEVEL011
   6
DASHDOT
  62
1
  10
 484.335
  20
 493.185
  30
0.0
  11
 491.072
  21
 487.711
  31
0.0
   0
ARC
   8
LEVEL011
   6
DASHDOT
  62
1
  10
 504.930
  20
 472.571
  30
0.0
  40
 2.00000
  50
 318.908
  51
 46.9079
   0
ARC
   8
LEVEL011
   6
DASHDOT
  62
1
  10
 502.007
  20
 482.152
  30
0.0
  40
 3.00000
  50
 138.908
  51
 226.908
   0
LINE
   8
LEVEL011
   6
DASHDOT
  62
1
  10
 499.958
  20
 479.962
  30
0.0
  11
 506.296
  21
 474.032
  31
0.0
   0
LINE
   8
LEVEL011
   6
DASHDOT
  62
1
  10
 488.048
  20
 450.171
  30
0.0
  11
 530.364
  21
 498.692
  31
0.0
   0
LINE
   8
LEVEL011
   6
DASHDOT
  62
1
  10
 469.263
  20
 453.736
  30
0.0
  11
 523.515
  21
 515.943
  31
0.0
   0
ARC
   8
LEVEL011
   6
DASHDOT
  62
1
  10
 470.207
  20
 439.603
  30
0.0
  40
 48.0000
  50
 92.0510
  51
 138.908
   0
LINE
   8
LEVEL011
   6
DASHDOT
  62
1
  10
 407.459
  20
 440.683
  30
0.0
  11
 434.031
  21
 471.152
  31
0.0
   0
ARC
   8
LEVEL003
   6
CONTINUOUS
  62
3
  10
 428.946
  20
 407.506
  30
0.0
  40
 171.922
  50
 3.90791
  51
 48.9079
   0
LINE
   8
LEVEL003
   6
CONTINUOUS
  62
3
  10
 600.468
  20
 419.223
  30
0.0
  11
 601.479
  21
 431.366
  31
0.0
   0
LINE
   8
LEVEL003
   6
CONTINUOUS
  62
3
  10
 600.468
  20
 419.223
  30
0.0
  11
 597.264
  21
 430.979
  31
0.0
   0
LINE
   8
LEVEL003
   6
CONTINUOUS
  62
3
  10
 541.945
  20
 537.075
  30
0.0
  11
 549.375
  21
 527.418
  31
0.0
   0
LINE
   8
LEVEL003
   6
CONTINUOUS
  62
3
  10
 541.945
  20
 537.075
  30
0.0
  11
 552.230
  21
 530.542
  31
0.0
   0
TEXT
   8
LEVEL003
  62
3
  10
 535.364
  20
 458.046
  30
0.0
  40
 16.0000
   1
約45%%d
   7
STANDARD
  72
2
  11
 583.364
  21
 468.713
  31
0.0
  73
2
   0
LINE
   8
LEVEL012
   6
DASHDOT
  62
1
  10
 515.411
  20
 523.006
  30
0.0
  11
 548.347
  21
 560.771
  31
0.0
   0
LINE
   8
LEVEL012
   6
DASHDOT
  62
1
  10
 523.515
  20
 515.943
  30
0.0
  11
 556.449
  21
 553.706
  31
0.0
   0
LINE
   8
LEVEL012
   6
DASHDOT
  62
1
  10
 531.620
  20
 508.881
  30
0.0
  11
 564.550
  21
 546.640
  31
0.0
   0
LINE
   8
LEVEL003
   6
CONTINUOUS
  62
3
  10
 885.424
  20
 453.525
  30
0.0
  11
 909.150
  21
 504.116
  31
0.0
   0
LINE
   8
LEVEL003
   6
CONTINUOUS
  62
3
  10
 909.150
  20
 504.116
  30
0.0
  11
 965.945
  21
 504.116
  31
0.0
   0
LINE
   8
LEVEL003
   6
CONTINUOUS
  62
3
  10
 885.424
  20
 453.525
  30
0.0
  11
 892.435
  21
 463.491
  31
0.0
   0
LINE
   8
LEVEL003
   6
CONTINUOUS
  62
3
  10
 885.424
  20
 453.525
  30
0.0
  11
 888.604
  21
 465.288
  31
0.0
   0
TEXT
   8
LEVEL003
  62
3
  10
 914.809
  20
 506.685
  30
0.0
  40
 16.0000
   1
フック
   7
STANDARD
   0
TEXT
   8
LEVEL003
  62
3
  10
 672.911
  20
 502.381
  30
0.0
  40
 16.0000
   1
ハンドル棒
   7
STANDARD
   0
LINE
   8
LEVEL003
   6
CONTINUOUS
  62
3
  10
 640.189
  20
 432.880
  30
0.0
  11
 669.010
  21
 501.442
  31
0.0
   0
LINE
   8
LEVEL003
   6
CONTINUOUS
  62
3
  10
 669.010
  20
 501.442
  30
0.0
  11
 759.825
  21
 501.442
  31
0.0
   0
LINE
   8
LEVEL003
   6
CONTINUOUS
  62
3
  10
 640.189
  20
 432.880
  30
0.0
  11
 646.790
  21
 443.122
  31
0.0
   0
LINE
   8
LEVEL003
   6
CONTINUOUS
  62
3
  10
 640.189
  20
 432.880
  30
0.0
  11
 642.889
  21
 444.762
  31
0.0
   0
LINE
   8
LEVEL003
   6
CONTINUOUS
  62
3
  10
 982.057
  20
 458.548
  30
0.0
  11
 1048.00
  21
 458.548
  31
0.0
   0
LINE
   8
LEVEL003
   6
CONTINUOUS
  62
3
  10
 905.588
  20
 305.000
  30
0.0
  11
 1048.00
  21
 305.000
  31
0.0
   0
LINE
   8
LEVEL003
   6
CONTINUOUS
  62
3
  10
 1040.00
  20
 458.548
  30
0.0
  11
 1040.00
  21
 305.000
  31
0.0
   0
LINE
   8
LEVEL003
   6
CONTINUOUS
  62
3
  10
 1040.00
  20
 458.548
  30
0.0
  11
 1037.88
  21
 446.548
  31
0.0
   0
LINE
   8
LEVEL003
   6
CONTINUOUS
  62
3
  10
 1040.00
  20
 458.548
  30
0.0
  11
 1042.12
  21
 446.548
  31
0.0
   0
LINE
   8
LEVEL003
   6
CONTINUOUS
  62
3
  10
 1040.00
  20
 305.000
  30
0.0
  11
 1042.12
  21
 317.000
  31
0.0
   0
LINE
   8
LEVEL003
   6
CONTINUOUS
  62
3
  10
 1040.00
  20
 305.000
  30
0.0
  11
 1037.88
  21
 317.000
  31
0.0
   0
TEXT
   8
LEVEL003
  62
3
  10
 1036.80
  20
 361.774
  30
0.0
  40
 16.0000
   1
約150
  50
 90.0000
   7
STANDARD
  72
1
  11
 1036.80
  21
 381.774
  31
0.0
   0
CIRCLE
   8
LEVEL001
   6
CONTINUOUS
  62
7
  10
 439.410
  20
 835.263
  30
0.0
  40
 7.50000
   0
LINE
   8
LEVEL001
   6
CONTINUOUS
  62
7
  10
 439.410
  20
 825.801
  30
0.0
  11
 430.910
  21
 830.355
  31
0.0
   0
LINE
   8
LEVEL001
   6
CONTINUOUS
  62
7
  10
 430.910
  20
 830.355
  30
0.0
  11
 430.910
  21
 839.636
  31
0.0
   0
LINE
   8
LEVEL001
   6
CONTINUOUS
  62
7
  10
 430.910
  20
 839.636
  30
0.0
  11
 439.410
  21
 844.247
  31
0.0
   0
LINE
   8
LEVEL001
   6
CONTINUOUS
  62
7
  10
 439.410
  20
 844.247
  30
0.0
  11
 447.910
  21
 839.636
  31
0.0
   0
LINE
   8
LEVEL001
   6
CONTINUOUS
  62
7
  10
 447.910
  20
 839.636
  30
0.0
  11
 447.910
  21
 830.355
  31
0.0
   0
LINE
   8
LEVEL001
   6
CONTINUOUS
  62
7
  10
 447.910
  20
 830.355
  30
0.0
  11
 439.410
  21
 825.801
  31
0.0
   0
LINE
   8
LEVEL001
   6
CONTINUOUS
  62
7
  10
 430.910
  20
 834.998
  30
0.0
  11
 430.977
  21
 834.002
  31
0.0
   0
LINE
   8
LEVEL001
   6
CONTINUOUS
  62
7
  10
 430.977
  20
 834.002
  30
0.0
  11
 431.175
  21
 833.022
  31
0.0
   0
LINE
   8
LEVEL001
   6
CONTINUOUS
  62
7
  10
 431.175
  20
 833.022
  30
0.0
  11
 431.501
  21
 832.072
  31
0.0
   0
LINE
   8
LEVEL001
   6
CONTINUOUS
  62
7
  10
 431.501
  20
 832.072
  30
0.0
  11
 431.951
  21
 831.169
  31
0.0
   0
LINE
   8
LEVEL001
   6
CONTINUOUS
  62
7
  10
 431.951
  20
 831.169
  30
0.0
  11
 432.517
  21
 830.325
  31
0.0
   0
LINE
   8
LEVEL001
   6
CONTINUOUS
  62
7
  10
 432.517
  20
 830.325
  30
0.0
  11
 433.191
  21
 829.554
  31
0.0
   0
LINE
   8
LEVEL001
   6
CONTINUOUS
  62
7
  10
 433.191
  20
 829.554
  30
0.0
  11
 433.962
  21
 828.867
  31
0.0
   0
LINE
   8
LEVEL001
   6
CONTINUOUS
  62
7
  10
 433.962
  20
 828.867
  30
0.0
  11
 434.818
  21
 828.277
  31
0.0
   0
LINE
   8
LEVEL001
   6
CONTINUOUS
  62
7
  10
 434.818
  20
 828.277
  30
0.0
  11
 435.745
  21
 827.791
  31
0.0
   0
LINE
   8
LEVEL001
   6
CONTINUOUS
  62
7
  10
 435.745
  20
 827.791
  30
0.0
  11
 436.730
  21
 827.418
  31
0.0
   0
LINE
   8
LEVEL001
   6
CONTINUOUS
  62
7
  10
 436.730
  20
 827.418
  30
0.0
  11
 437.757
  21
 827.163
  31
0.0
   0
LINE
   8
LEVEL001
   6
CONTINUOUS
  62
7
  10
 437.757
  20
 827.163
  30
0.0
  11
 438.809
  21
 827.031
  31
0.0
   0
LINE
   8
LEVEL001
   6
CONTINUOUS
  62
7
  10
 438.809
  20
 827.031
  30
0.0
  11
 439.871
  21
 827.022
  31
0.0
   0
LINE
   8
LEVEL001
   6
CONTINUOUS
  62
7
  10
 439.871
  20
 827.022
  30
0.0
  11
 440.925
  21
 827.139
  31
0.0
   0
LINE
   8
LEVEL001
   6
CONTINUOUS
  62
7
  10
 440.925
  20
 827.139
  30
0.0
  11
 441.956
  21
 827.377
  31
0.0
   0
LINE
   8
LEVEL001
   6
CONTINUOUS
  62
7
  10
 441.956
  20
 827.377
  30
0.0
  11
 442.948
  21
 827.735
  31
0.0
   0
LINE
   8
LEVEL001
   6
CONTINUOUS
  62
7
  10
 442.948
  20
 827.735
  30
0.0
  11
 443.884
  21
 828.206
  31
0.0
   0
LINE
   8
LEVEL001
   6
CONTINUOUS
  62
7
  10
 443.884
  20
 828.206
  30
0.0
  11
 444.750
  21
 828.783
  31
0.0
   0
LINE
   8
LEVEL001
   6
CONTINUOUS
  62
7
  10
 444.750
  20
 828.783
  30
0.0
  11
 445.533
  21
 829.457
  31
0.0
   0
LINE
   8
LEVEL001
   6
CONTINUOUS
  62
7
  10
 445.533
  20
 829.457
  30
0.0
  11
 446.220
  21
 830.218
  31
0.0
   0
LINE
   8
LEVEL001
   6
CONTINUOUS
  62
7
  10
 446.220
  20
 830.218
  30
0.0
  11
 446.801
  21
 831.053
  31
0.0
   0
LINE
   8
LEVEL001
   6
CONTINUOUS
  62
7
  10
 446.801
  20
 831.053
  30
0.0
  11
 447.267
  21
 831.950
  31
0.0
   0
LINE
   8
LEVEL001
   6
CONTINUOUS
  62
7
  10
 447.267
  20
 831.950
  30
0.0
  11
 447.610
  21
 832.894
  31
0.0
   0
LINE
   8
LEVEL001
   6
CONTINUOUS
  62
7
  10
 447.610
  20
 832.894
  30
0.0
  11
 447.825
  21
 833.871
  31
0.0
   0
LINE
   8
LEVEL001
   6
CONTINUOUS
  62
7
  10
 447.825
  20
 833.871
  30
0.0
  11
 447.909
  21
 834.866
  31
0.0
   0
LINE
   8
LEVEL001
   6
CONTINUOUS
  62
7
  10
 447.909
  20
 834.866
  30
0.0
  11
 447.860
  21
 835.862
  31
0.0
   0
LINE
   8
LEVEL001
   6
CONTINUOUS
  62
7
  10
 447.860
  20
 835.862
  30
0.0
  11
 447.680
  21
 836.845
  31
0.0
   0
LINE
   8
LEVEL001
   6
CONTINUOUS
  62
7
  10
 447.680
  20
 836.845
  30
0.0
  11
 447.370
  21
 837.800
  31
0.0
   0
LINE
   8
LEVEL001
   6
CONTINUOUS
  62
7
  10
 447.370
  20
 837.800
  30
0.0
  11
 446.936
  21
 838.711
  31
0.0
   0
LINE
   8
LEVEL001
   6
CONTINUOUS
  62
7
  10
 446.936
  20
 838.711
  30
0.0
  11
 446.385
  21
 839.563
  31
0.0
   0
LINE
   8
LEVEL001
   6
CONTINUOUS
  62
7
  10
 446.385
  20
 839.563
  30
0.0
  11
 445.725
  21
 840.345
  31
0.0
   0
LINE
   8
LEVEL001
   6
CONTINUOUS
  62
7
  10
 445.725
  20
 840.345
  30
0.0
  11
 444.966
  21
 841.043
  31
0.0
   0
LINE
   8
LEVEL001
   6
CONTINUOUS
  62
7
  10
 444.966
  20
 841.043
  30
0.0
  11
 444.121
  21
 841.647
  31
0.0
   0
LINE
   8
LEVEL001
   6
CONTINUOUS
  62
7
  10
 444.121
  20
 841.647
  30
0.0
  11
 443.202
  21
 842.147
  31
0.0
   0
LINE
   8
LEVEL001
   6
CONTINUOUS
  62
7
  10
 443.202
  20
 842.147
  30
0.0
  11
 442.224
  21
 842.535
  31
0.0
   0
LINE
   8
LEVEL001
   6
CONTINUOUS
  62
7
  10
 442.224
  20
 842.535
  30
0.0
  11
 441.202
  21
 842.806
  31
0.0
   0
LINE
   8
LEVEL001
   6
CONTINUOUS
  62
7
  10
 441.202
  20
 842.806
  30
0.0
  11
 440.152
  21
 842.955
  31
0.0
   0
LINE
   8
LEVEL001
   6
CONTINUOUS
  62
7
  10
 440.152
  20
 842.955
  30
0.0
  11
 439.091
  21
 842.980
  31
0.0
   0
LINE
   8
LEVEL001
   6
CONTINUOUS
  62
7
  10
 439.091
  20
 842.980
  30
0.0
  11
 438.034
  21
 842.880
  31
0.0
   0
LINE
   8
LEVEL001
   6
CONTINUOUS
  62
7
  10
 438.034
  20
 842.880
  30
0.0
  11
 436.999
  21
 842.657
  31
0.0
   0
LINE
   8
LEVEL001
   6
CONTINUOUS
  62
7
  10
 436.999
  20
 842.657
  30
0.0
  11
 436.002
  21
 842.315
  31
0.0
   0
LINE
   8
LEVEL001
   6
CONTINUOUS
  62
7
  10
 436.002
  20
 842.315
  30
0.0
  11
 435.058
  21
 841.859
  31
0.0
   0
LINE
   8
LEVEL001
   6
CONTINUOUS
  62
7
  10
 435.058
  20
 841.859
  30
0.0
  11
 434.181
  21
 841.295
  31
0.0
   0
LINE
   8
LEVEL001
   6
CONTINUOUS
  62
7
  10
 434.181
  20
 841.295
  30
0.0
  11
 433.387
  21
 840.633
  31
0.0
   0
LINE
   8
LEVEL001
   6
CONTINUOUS
  62
7
  10
 433.387
  20
 840.633
  30
0.0
  11
 432.686
  21
 839.884
  31
0.0
   0
LINE
   8
LEVEL001
   6
CONTINUOUS
  62
7
  10
 432.686
  20
 839.884
  30
0.0
  11
 432.090
  21
 839.058
  31
0.0
   0
LINE
   8
LEVEL001
   6
CONTINUOUS
  62
7
  10
 432.090
  20
 839.058
  30
0.0
  11
 431.609
  21
 838.169
  31
0.0
   0
LINE
   8
LEVEL001
   6
CONTINUOUS
  62
7
  10
 431.609
  20
 838.169
  30
0.0
  11
 431.249
  21
 837.230
  31
0.0
   0
LINE
   8
LEVEL001
   6
CONTINUOUS
  62
7
  10
 431.249
  20
 837.230
  30
0.0
  11
 431.016
  21
 836.256
  31
0.0
   0
LINE
   8
LEVEL001
   6
CONTINUOUS
  62
7
  10
 431.016
  20
 836.256
  30
0.0
  11
 430.915
  21
 835.263
  31
0.0
   0
LINE
   8
LEVEL001
   6
CONTINUOUS
  62
7
  10
 430.915
  20
 835.263
  30
0.0
  11
 430.910
  21
 834.998
  31
0.0
   0
LINE
   8
LEVEL001
   6
CONTINUOUS
  62
7
  10
 429.043
  20
 836.827
  30
0.0
  11
 428.917
  21
 835.600
  31
0.0
   0
LINE
   8
LEVEL001
   6
CONTINUOUS
  62
7
  10
 428.917
  20
 835.600
  30
0.0
  11
 428.954
  21
 834.368
  31
0.0
   0
LINE
   8
LEVEL001
   6
CONTINUOUS
  62
7
  10
 428.954
  20
 834.368
  30
0.0
  11
 429.154
  21
 833.150
  31
0.0
   0
LINE
   8
LEVEL001
   6
CONTINUOUS
  62
7
  10
 429.154
  20
 833.150
  30
0.0
  11
 429.514
  21
 831.965
  31
0.0
   0
LINE
   8
LEVEL001
   6
CONTINUOUS
  62
7
  10
 429.514
  20
 831.965
  30
0.0
  11
 430.029
  21
 830.831
  31
0.0
   0
LINE
   8
LEVEL001
   6
CONTINUOUS
  62
7
  10
 430.029
  20
 830.831
  30
0.0
  11
 430.690
  21
 829.767
  31
0.0
   0
LINE
   8
LEVEL001
   6
CONTINUOUS
  62
7
  10
 430.690
  20
 829.767
  30
0.0
  11
 430.910
  21
 829.470
  31
0.0
   0
LINE
   8
LEVEL001
   6
CONTINUOUS
  62
7
  10
 431.739
  20
 827.063
  30
0.0
  11
 430.910
  21
 827.512
  31
0.0
   0
LINE
   8
LEVEL001
   6
CONTINUOUS
  62
7
  10
 430.910
  20
 827.512
  30
0.0
  11
 430.910
  21
 830.355
  31
0.0
   0
LINE
   8
LEVEL001
   6
CONTINUOUS
  62
7
  10
 448.467
  20
 840.256
  30
0.0
  11
 447.734
  21
 841.278
  31
0.0
   0
LINE
   8
LEVEL001
   6
CONTINUOUS
  62
7
  10
 447.734
  20
 841.278
  30
0.0
  11
 446.871
  21
 842.206
  31
0.0
   0
LINE
   8
LEVEL001
   6
CONTINUOUS
  62
7
  10
 446.871
  20
 842.206
  30
0.0
  11
 445.891
  21
 843.026
  31
0.0
   0
LINE
   8
LEVEL001
   6
CONTINUOUS
  62
7
  10
 445.891
  20
 843.026
  30
0.0
  11
 444.811
  21
 843.724
  31
0.0
   0
LINE
   8
LEVEL001
   6
CONTINUOUS
  62
7
  10
 444.811
  20
 843.724
  30
0.0
  11
 443.646
  21
 844.291
  31
0.0
   0
LINE
   8
LEVEL001
   6
CONTINUOUS
  62
7
  10
 443.646
  20
 844.291
  30
0.0
  11
 442.415
  21
 844.717
  31
0.0
   0
LINE
   8
LEVEL001
   6
CONTINUOUS
  62
7
  10
 442.415
  20
 844.717
  30
0.0
  11
 441.137
  21
 844.995
  31
0.0
   0
LINE
   8
LEVEL001
   6
CONTINUOUS
  62
7
  10
 441.137
  20
 844.995
  30
0.0
  11
 439.832
  21
 845.121
  31
0.0
   0
LINE
   8
LEVEL001
   6
CONTINUOUS
  62
7
  10
 439.832
  20
 845.121
  30
0.0
  11
 438.521
  21
 845.094
  31
0.0
   0
LINE
   8
LEVEL001
   6
CONTINUOUS
  62
7
  10
 438.521
  20
 845.094
  30
0.0
  11
 437.224
  21
 844.913
  31
0.0
   0
LINE
   8
LEVEL001
   6
CONTINUOUS
  62
7
  10
 437.224
  20
 844.913
  30
0.0
  11
 435.960
  21
 844.582
  31
0.0
   0
LINE
   8
LEVEL001
   6
CONTINUOUS
  62
7
  10
 435.960
  20
 844.582
  30
0.0
  11
 434.751
  21
 844.105
  31
0.0
   0
LINE
   8
LEVEL001
   6
CONTINUOUS
  62
7
  10
 434.751
  20
 844.105
  30
0.0
  11
 433.614
  21
 843.490
  31
0.0
   0
LINE
   8
LEVEL001
   6
CONTINUOUS
  62
7
  10
 433.614
  20
 843.490
  30
0.0
  11
 432.568
  21
 842.747
  31
0.0
   0
LINE
   8
LEVEL001
   6
CONTINUOUS
  62
7
  10
 432.568
  20
 842.747
  30
0.0
  11
 431.628
  21
 841.886
  31
0.0
   0
LINE
   8
LEVEL001
   6
CONTINUOUS
  62
7
  10
 431.628
  20
 841.886
  30
0.0
  11
 430.810
  21
 840.923
  31
0.0
   0
LINE
   8
LEVEL001
   6
CONTINUOUS
  62
7
  10
 430.810
  20
 840.923
  30
0.0
  11
 430.126
  21
 839.871
  31
0.0
   0
LINE
   8
LEVEL001
   6
CONTINUOUS
  62
7
  10
 430.126
  20
 839.871
  30
0.0
  11
 429.587
  21
 838.748
  31
0.0
   0
LINE
   8
LEVEL001
   6
CONTINUOUS
  62
7
  10
 429.587
  20
 838.748
  30
0.0
  11
 429.201
  21
 837.570
  31
0.0
   0
LINE
   8
LEVEL001
   6
CONTINUOUS
  62
7
  10
 429.201
  20
 837.570
  30
0.0
  11
 428.975
  21
 836.356
  31
0.0
   0
LINE
   8
LEVEL001
   6
CONTINUOUS
  62
7
  10
 428.975
  20
 836.356
  30
0.0
  11
 428.956
  21
 836.177
  31
0.0
   0
ARC
   8
LEVEL001
   6
CONTINUOUS
  62
7
  10
 449.360
  20
 843.663
  30
0.0
  40
 3.00000
  50
 231.910
  51
 308.090
   0
LINE
   8
LEVEL001
   6
CONTINUOUS
  62
7
  10
 472.865
  20
 836.177
  30
0.0
  11
 472.662
  21
 837.395
  31
0.0
   0
LINE
   8
LEVEL001
   6
CONTINUOUS
  62
7
  10
 472.662
  20
 837.395
  30
0.0
  11
 472.299
  21
 838.579
  31
0.0
   0
LINE
   8
LEVEL001
   6
CONTINUOUS
  62
7
  10
 472.299
  20
 838.579
  30
0.0
  11
 471.782
  21
 839.712
  31
0.0
   0
LINE
   8
LEVEL001
   6
CONTINUOUS
  62
7
  10
 471.782
  20
 839.712
  30
0.0
  11
 471.119
  21
 840.775
  31
0.0
   0
LINE
   8
LEVEL001
   6
CONTINUOUS
  62
7
  10
 471.119
  20
 840.775
  30
0.0
  11
 470.319
  21
 841.753
  31
0.0
   0
LINE
   8
LEVEL001
   6
CONTINUOUS
  62
7
  10
 470.319
  20
 841.753
  30
0.0
  11
 469.397
  21
 842.629
  31
0.0
   0
LINE
   8
LEVEL001
   6
CONTINUOUS
  62
7
  10
 469.397
  20
 842.629
  30
0.0
  11
 468.365
  21
 843.390
  31
0.0
   0
LINE
   8
LEVEL001
   6
CONTINUOUS
  62
7
  10
 468.365
  20
 843.390
  30
0.0
  11
 467.240
  21
 844.024
  31
0.0
   0
LINE
   8
LEVEL001
   6
CONTINUOUS
  62
7
  10
 467.240
  20
 844.024
  30
0.0
  11
 466.040
  21
 844.521
  31
0.0
   0
LINE
   8
LEVEL001
   6
CONTINUOUS
  62
7
  10
 466.040
  20
 844.521
  30
0.0
  11
 464.783
  21
 844.874
  31
0.0
   0
LINE
   8
LEVEL001
   6
CONTINUOUS
  62
7
  10
 464.783
  20
 844.874
  30
0.0
  11
 463.490
  21
 845.077
  31
0.0
   0
LINE
   8
LEVEL001
   6
CONTINUOUS
  62
7
  10
 463.490
  20
 845.077
  30
0.0
  11
 462.179
  21
 845.127
  31
0.0
   0
LINE
   8
LEVEL001
   6
CONTINUOUS
  62
7
  10
 462.179
  20
 845.127
  30
0.0
  11
 460.872
  21
 845.023
  31
0.0
   0
LINE
   8
LEVEL001
   6
CONTINUOUS
  62
7
  10
 460.872
  20
 845.023
  30
0.0
  11
 459.589
  21
 844.767
  31
0.0
   0
LINE
   8
LEVEL001
   6
CONTINUOUS
  62
7
  10
 459.589
  20
 844.767
  30
0.0
  11
 458.350
  21
 844.362
  31
0.0
   0
LINE
   8
LEVEL001
   6
CONTINUOUS
  62
7
  10
 458.350
  20
 844.362
  30
0.0
  11
 457.175
  21
 843.815
  31
0.0
   0
LINE
   8
LEVEL001
   6
CONTINUOUS
  62
7
  10
 457.175
  20
 843.815
  30
0.0
  11
 456.081
  21
 843.135
  31
0.0
   0
LINE
   8
LEVEL001
   6
CONTINUOUS
  62
7
  10
 456.081
  20
 843.135
  30
0.0
  11
 455.086
  21
 842.332
  31
0.0
   0
LINE
   8
LEVEL001
   6
CONTINUOUS
  62
7
  10
 455.086
  20
 842.332
  30
0.0
  11
 454.205
  21
 841.419
  31
0.0
   0
LINE
   8
LEVEL001
   6
CONTINUOUS
  62
7
  10
 454.205
  20
 841.419
  30
0.0
  11
 453.452
  21
 840.409
  31
0.0
   0
LINE
   8
LEVEL001
   6
CONTINUOUS
  62
7
  10
 453.452
  20
 840.409
  30
0.0
  11
 453.387
  21
 840.308
  31
0.0
   0
LINE
   8
LEVEL001
   6
CONTINUOUS
  62
7
  10
 459.360
  20
 845.129
  30
0.0
  11
 458.051
  21
 845.052
  31
0.0
   0
LINE
   8
LEVEL001
   6
CONTINUOUS
  62
7
  10
 458.051
  20
 845.052
  30
0.0
  11
 456.763
  21
 844.823
  31
0.0
   0
LINE
   8
LEVEL001
   6
CONTINUOUS
  62
7
  10
 456.763
  20
 844.823
  30
0.0
  11
 455.515
  21
 844.444
  31
0.0
   0
LINE
   8
LEVEL001
   6
CONTINUOUS
  62
7
  10
 455.515
  20
 844.444
  30
0.0
  11
 454.327
  21
 843.922
  31
0.0
   0
LINE
   8
LEVEL001
   6
CONTINUOUS
  62
7
  10
 454.327
  20
 843.922
  30
0.0
  11
 453.217
  21
 843.264
  31
0.0
   0
LINE
   8
LEVEL001
   6
CONTINUOUS
  62
7
  10
 453.217
  20
 843.264
  30
0.0
  11
 452.203
  21
 842.482
  31
0.0
   0
LINE
   8
LEVEL001
   6
CONTINUOUS
  62
7
  10
 452.203
  20
 842.482
  30
0.0
  11
 451.301
  21
 841.587
  31
0.0
   0
LINE
   8
LEVEL001
   6
CONTINUOUS
  62
7
  10
 451.301
  20
 841.587
  30
0.0
  11
 451.116
  21
 841.372
  31
0.0
   0
CIRCLE
   8
LEVEL001
   6
CONTINUOUS
  62
7
  10
 462.460
  20
 835.263
  30
0.0
  40
 7.50000
   0
LINE
   8
LEVEL001
   6
CONTINUOUS
  62
7
  10
 462.460
  20
 825.801
  30
0.0
  11
 453.960
  21
 830.355
  31
0.0
   0
LINE
   8
LEVEL001
   6
CONTINUOUS
  62
7
  10
 453.960
  20
 830.355
  30
0.0
  11
 453.960
  21
 839.636
  31
0.0
   0
LINE
   8
LEVEL001
   6
CONTINUOUS
  62
7
  10
 453.960
  20
 839.636
  30
0.0
  11
 462.460
  21
 844.247
  31
0.0
   0
LINE
   8
LEVEL001
   6
CONTINUOUS
  62
7
  10
 462.460
  20
 844.247
  30
0.0
  11
 470.960
  21
 839.636
  31
0.0
   0
LINE
   8
LEVEL001
   6
CONTINUOUS
  62
7
  10
 470.960
  20
 839.636
  30
0.0
  11
 470.960
  21
 830.355
  31
0.0
   0
LINE
   8
LEVEL001
   6
CONTINUOUS
  62
7
  10
 470.960
  20
 830.355
  30
0.0
  11
 462.460
  21
 825.801
  31
0.0
   0
LINE
   8
LEVEL001
   6
CONTINUOUS
  62
7
  10
 453.960
  20
 834.998
  30
0.0
  11
 454.027
  21
 834.002
  31
0.0
   0
LINE
   8
LEVEL001
   6
CONTINUOUS
  62
7
  10
 454.027
  20
 834.002
  30
0.0
  11
 454.224
  21
 833.022
  31
0.0
   0
LINE
   8
LEVEL001
   6
CONTINUOUS
  62
7
  10
 454.224
  20
 833.022
  30
0.0
  11
 454.551
  21
 832.072
  31
0.0
   0
LINE
   8
LEVEL001
   6
CONTINUOUS
  62
7
  10
 454.551
  20
 832.072
  30
0.0
  11
 455.001
  21
 831.169
  31
0.0
   0
LINE
   8
LEVEL001
   6
CONTINUOUS
  62
7
  10
 455.001
  20
 831.169
  30
0.0
  11
 455.567
  21
 830.325
  31
0.0
   0
LINE
   8
LEVEL001
   6
CONTINUOUS
  62
7
  10
 455.567
  20
 830.325
  30
0.0
  11
 456.241
  21
 829.554
  31
0.0
   0
LINE
   8
LEVEL001
   6
CONTINUOUS
  62
7
  10
 456.241
  20
 829.554
  30
0.0
  11
 457.012
  21
 828.867
  31
0.0
   0
LINE
   8
LEVEL001
   6
CONTINUOUS
  62
7
  10
 457.012
  20
 828.867
  30
0.0
  11
 457.868
  21
 828.277
  31
0.0
   0
LINE
   8
LEVEL001
   6
CONTINUOUS
  62
7
  10
 457.868
  20
 828.277
  30
0.0
  11
 458.795
  21
 827.791
  31
0.0
   0
LINE
   8
LEVEL001
   6
CONTINUOUS
  62
7
  10
 458.795
  20
 827.791
  30
0.0
  11
 459.780
  21
 827.418
  31
0.0
   0
LINE
   8
LEVEL001
   6
CONTINUOUS
  62
7
  10
 459.780
  20
 827.418
  30
0.0
  11
 460.807
  21
 827.163
  31
0.0
   0
LINE
   8
LEVEL001
   6
CONTINUOUS
  62
7
  10
 460.807
  20
 827.163
  30
0.0
  11
 461.859
  21
 827.031
  31
0.0
   0
LINE
   8
LEVEL001
   6
CONTINUOUS
  62
7
  10
 461.859
  20
 827.031
  30
0.0
  11
 462.921
  21
 827.022
  31
0.0
   0
LINE
   8
LEVEL001
   6
CONTINUOUS
  62
7
  10
 462.921
  20
 827.022
  30
0.0
  11
 463.975
  21
 827.139
  31
0.0
   0
LINE
   8
LEVEL001
   6
CONTINUOUS
  62
7
  10
 463.975
  20
 827.139
  30
0.0
  11
 465.006
  21
 827.377
  31
0.0
   0
LINE
   8
LEVEL001
   6
CONTINUOUS
  62
7
  10
 465.006
  20
 827.377
  30
0.0
  11
 465.997
  21
 827.735
  31
0.0
   0
LINE
   8
LEVEL001
   6
CONTINUOUS
  62
7
  10
 465.997
  20
 827.735
  30
0.0
  11
 466.933
  21
 828.206
  31
0.0
   0
LINE
   8
LEVEL001
   6
CONTINUOUS
  62
7
  10
 466.933
  20
 828.206
  30
0.0
  11
 467.800
  21
 828.783
  31
0.0
   0
LINE
   8
LEVEL001
   6
CONTINUOUS
  62
7
  10
 467.800
  20
 828.783
  30
0.0
  11
 468.583
  21
 829.457
  31
0.0
   0
LINE
   8
LEVEL001
   6
CONTINUOUS
  62
7
  10
 468.583
  20
 829.457
  30
0.0
  11
 469.270
  21
 830.218
  31
0.0
   0
LINE
   8
LEVEL001
   6
CONTINUOUS
  62
7
  10
 469.270
  20
 830.218
  30
0.0
  11
 469.851
  21
 831.053
  31
0.0
   0
LINE
   8
LEVEL001
   6
CONTINUOUS
  62
7
  10
 469.851
  20
 831.053
  30
0.0
  11
 470.317
  21
 831.950
  31
0.0
   0
LINE
   8
LEVEL001
   6
CONTINUOUS
  62
7
  10
 470.317
  20
 831.950
  30
0.0
  11
 470.660
  21
 832.894
  31
0.0
   0
LINE
   8
LEVEL001
   6
CONTINUOUS
  62
7
  10
 470.660
  20
 832.894
  30
0.0
  11
 470.875
  21
 833.871
  31
0.0
   0
LINE
   8
LEVEL001
   6
CONTINUOUS
  62
7
  10
 470.875
  20
 833.871
  30
0.0
  11
 470.959
  21
 834.866
  31
0.0
   0
LINE
   8
LEVEL001
   6
CONTINUOUS
  62
7
  10
 470.959
  20
 834.866
  30
0.0
  11
 470.910
  21
 835.862
  31
0.0
   0
LINE
   8
LEVEL001
   6
CONTINUOUS
  62
7
  10
 470.910
  20
 835.862
  30
0.0
  11
 470.730
  21
 836.845
  31
0.0
   0
LINE
   8
LEVEL001
   6
CONTINUOUS
  62
7
  10
 470.730
  20
 836.845
  30
0.0
  11
 470.420
  21
 837.800
  31
0.0
   0
LINE
   8
LEVEL001
   6
CONTINUOUS
  62
7
  10
 470.420
  20
 837.800
  30
0.0
  11
 469.986
  21
 838.711
  31
0.0
   0
LINE
   8
LEVEL001
   6
CONTINUOUS
  62
7
  10
 469.986
  20
 838.711
  30
0.0
  11
 469.435
  21
 839.563
  31
0.0
   0
LINE
   8
LEVEL001
   6
CONTINUOUS
  62
7
  10
 469.435
  20
 839.563
  30
0.0
  11
 468.775
  21
 840.345
  31
0.0
   0
LINE
   8
LEVEL001
   6
CONTINUOUS
  62
7
  10
 468.775
  20
 840.345
  30
0.0
  11
 468.016
  21
 841.043
  31
0.0
   0
LINE
   8
LEVEL001
   6
CONTINUOUS
  62
7
  10
 468.016
  20
 841.043
  30
0.0
  11
 467.171
  21
 841.647
  31
0.0
   0
LINE
   8
LEVEL001
   6
CONTINUOUS
  62
7
  10
 467.171
  20
 841.647
  30
0.0
  11
 466.252
  21
 842.147
  31
0.0
   0
LINE
   8
LEVEL001
   6
CONTINUOUS
  62
7
  10
 466.252
  20
 842.147
  30
0.0
  11
 465.274
  21
 842.535
  31
0.0
   0
LINE
   8
LEVEL001
   6
CONTINUOUS
  62
7
  10
 465.274
  20
 842.535
  30
0.0
  11
 464.252
  21
 842.806
  31
0.0
   0
LINE
   8
LEVEL001
   6
CONTINUOUS
  62
7
  10
 464.252
  20
 842.806
  30
0.0
  11
 463.202
  21
 842.955
  31
0.0
   0
LINE
   8
LEVEL001
   6
CONTINUOUS
  62
7
  10
 463.202
  20
 842.955
  30
0.0
  11
 462.141
  21
 842.980
  31
0.0
   0
LINE
   8
LEVEL001
   6
CONTINUOUS
  62
7
  10
 462.141
  20
 842.980
  30
0.0
  11
 461.084
  21
 842.880
  31
0.0
   0
LINE
   8
LEVEL001
   6
CONTINUOUS
  62
7
  10
 461.084
  20
 842.880
  30
0.0
  11
 460.049
  21
 842.657
  31
0.0
   0
LINE
   8
LEVEL001
   6
CONTINUOUS
  62
7
  10
 460.049
  20
 842.657
  30
0.0
  11
 459.052
  21
 842.315
  31
0.0
   0
LINE
   8
LEVEL001
   6
CONTINUOUS
  62
7
  10
 459.052
  20
 842.315
  30
0.0
  11
 458.108
  21
 841.859
  31
0.0
   0
LINE
   8
LEVEL001
   6
CONTINUOUS
  62
7
  10
 458.108
  20
 841.859
  30
0.0
  11
 457.231
  21
 841.295
  31
0.0
   0
LINE
   8
LEVEL001
   6
CONTINUOUS
  62
7
  10
 457.231
  20
 841.295
  30
0.0
  11
 456.437
  21
 840.633
  31
0.0
   0
LINE
   8
LEVEL001
   6
CONTINUOUS
  62
7
  10
 456.437
  20
 840.633
  30
0.0
  11
 455.736
  21
 839.884
  31
0.0
   0
LINE
   8
LEVEL001
   6
CONTINUOUS
  62
7
  10
 455.736
  20
 839.884
  30
0.0
  11
 455.140
  21
 839.058
  31
0.0
   0
LINE
   8
LEVEL001
   6
CONTINUOUS
  62
7
  10
 455.140
  20
 839.058
  30
0.0
  11
 454.659
  21
 838.169
  31
0.0
   0
LINE
   8
LEVEL001
   6
CONTINUOUS
  62
7
  10
 454.659
  20
 838.169
  30
0.0
  11
 454.299
  21
 837.230
  31
0.0
   0
LINE
   8
LEVEL001
   6
CONTINUOUS
  62
7
  10
 454.299
  20
 837.230
  30
0.0
  11
 454.066
  21
 836.256
  31
0.0
   0
LINE
   8
LEVEL001
   6
CONTINUOUS
  62
7
  10
 454.066
  20
 836.256
  30
0.0
  11
 453.965
  21
 835.263
  31
0.0
   0
LINE
   8
LEVEL001
   6
CONTINUOUS
  62
7
  10
 453.965
  20
 835.263
  30
0.0
  11
 453.960
  21
 834.998
  31
0.0
   0
LINE
   8
LEVEL001
   6
CONTINUOUS
  62
7
  10
 447.910
  20
 829.470
  30
0.0
  11
 448.613
  21
 830.511
  31
0.0
   0
LINE
   8
LEVEL001
   6
CONTINUOUS
  62
7
  10
 448.613
  20
 830.511
  30
0.0
  11
 449.171
  21
 831.626
  31
0.0
   0
LINE
   8
LEVEL001
   6
CONTINUOUS
  62
7
  10
 449.171
  20
 831.626
  30
0.0
  11
 449.578
  21
 832.798
  31
0.0
   0
LINE
   8
LEVEL001
   6
CONTINUOUS
  62
7
  10
 449.578
  20
 832.798
  30
0.0
  11
 449.825
  21
 834.008
  31
0.0
   0
LINE
   8
LEVEL001
   6
CONTINUOUS
  62
7
  10
 449.825
  20
 834.008
  30
0.0
  11
 449.910
  21
 835.238
  31
0.0
   0
LINE
   8
LEVEL001
   6
CONTINUOUS
  62
7
  10
 449.910
  20
 835.238
  30
0.0
  11
 449.832
  21
 836.469
  31
0.0
   0
LINE
   8
LEVEL001
   6
CONTINUOUS
  62
7
  10
 449.832
  20
 836.469
  30
0.0
  11
 449.590
  21
 837.680
  31
0.0
   0
LINE
   8
LEVEL001
   6
CONTINUOUS
  62
7
  10
 449.590
  20
 837.680
  30
0.0
  11
 449.190
  21
 838.854
  31
0.0
   0
LINE
   8
LEVEL001
   6
CONTINUOUS
  62
7
  10
 449.190
  20
 838.854
  30
0.0
  11
 448.818
  21
 839.646
  31
0.0
   0
LINE
   8
LEVEL001
   6
CONTINUOUS
  62
7
  10
 453.387
  20
 840.308
  30
0.0
  11
 452.788
  21
 839.212
  31
0.0
   0
LINE
   8
LEVEL001
   6
CONTINUOUS
  62
7
  10
 452.788
  20
 839.212
  30
0.0
  11
 452.339
  21
 838.054
  31
0.0
   0
LINE
   8
LEVEL001
   6
CONTINUOUS
  62
7
  10
 452.339
  20
 838.054
  30
0.0
  11
 452.047
  21
 836.852
  31
0.0
   0
LINE
   8
LEVEL001
   6
CONTINUOUS
  62
7
  10
 452.047
  20
 836.852
  30
0.0
  11
 451.917
  21
 835.626
  31
0.0
   0
LINE
   8
LEVEL001
   6
CONTINUOUS
  62
7
  10
 451.917
  20
 835.626
  30
0.0
  11
 451.951
  21
 834.393
  31
0.0
   0
LINE
   8
LEVEL001
   6
CONTINUOUS
  62
7
  10
 451.951
  20
 834.393
  30
0.0
  11
 452.148
  21
 833.175
  31
0.0
   0
LINE
   8
LEVEL001
   6
CONTINUOUS
  62
7
  10
 452.148
  20
 833.175
  30
0.0
  11
 452.505
  21
 831.989
  31
0.0
   0
LINE
   8
LEVEL001
   6
CONTINUOUS
  62
7
  10
 452.505
  20
 831.989
  30
0.0
  11
 453.017
  21
 830.854
  31
0.0
   0
LINE
   8
LEVEL001
   6
CONTINUOUS
  62
7
  10
 453.017
  20
 830.854
  30
0.0
  11
 453.675
  21
 829.788
  31
0.0
   0
LINE
   8
LEVEL001
   6
CONTINUOUS
  62
7
  10
 453.675
  20
 829.788
  30
0.0
  11
 453.960
  21
 829.406
  31
0.0
   0
LINE
   8
LEVEL001
   6
DASHDOT
  62
1
  10
 427.910
  20
 835.263
  30
0.0
  11
 450.910
  21
 835.263
  31
0.0
   0
LINE
   8
LEVEL001
   6
DASHDOT
  62
1
  10
 472.193
  20
 835.263
  30
0.0
  11
 452.952
  21
 835.263
  31
0.0
   0
LINE
   8
LEVEL001
   6
DASHDOT
  62
1
  10
 462.410
  20
 850.263
  30
0.0
  11
 462.410
  21
 820.017
  31
0.0
   0
LINE
   8
LEVEL001
   6
CONTINUOUS
  62
7
  10
 462.410
  20
 845.129
  30
0.0
  11
 459.360
  21
 845.129
  31
0.0
   0
LINE
   8
LEVEL001
   6
CONTINUOUS
  62
7
  10
 472.870
  20
 836.178
  30
0.0
  11
 473.910
  21
 824.291
  31
0.0
   0
LINE
   8
LEVEL001
   6
CONTINUOUS
  62
7
  10
 470.960
  20
 830.355
  30
0.0
  11
 470.960
  21
 827.512
  31
0.0
   0
LINE
   8
LEVEL001
   6
CONTINUOUS
  62
7
  10
 470.960
  20
 827.512
  30
0.0
  11
 462.460
  21
 822.900
  31
0.0
   0
LINE
   8
LEVEL001
   6
CONTINUOUS
  62
7
  10
 462.460
  20
 822.900
  30
0.0
  11
 453.960
  21
 827.512
  31
0.0
   0
LINE
   8
LEVEL001
   6
CONTINUOUS
  62
7
  10
 453.960
  20
 827.512
  30
0.0
  11
 453.960
  21
 830.355
  31
0.0
   0
LINE
   8
LEVEL001
   6
CONTINUOUS
  62
7
  10
 470.960
  20
 829.535
  30
0.0
  11
 471.653
  21
 830.582
  31
0.0
   0
LINE
   8
LEVEL001
   6
CONTINUOUS
  62
7
  10
 471.653
  20
 830.582
  30
0.0
  11
 472.202
  21
 831.701
  31
0.0
   0
LINE
   8
LEVEL001
   6
CONTINUOUS
  62
7
  10
 472.202
  20
 831.701
  30
0.0
  11
 472.599
  21
 832.876
  31
0.0
   0
LINE
   8
LEVEL001
   6
CONTINUOUS
  62
7
  10
 472.599
  20
 832.876
  30
0.0
  11
 472.836
  21
 834.088
  31
0.0
   0
LINE
   8
LEVEL001
   6
CONTINUOUS
  62
7
  10
 472.836
  20
 834.088
  30
0.0
  11
 472.910
  21
 835.319
  31
0.0
   0
LINE
   8
LEVEL001
   6
CONTINUOUS
  62
7
  10
 472.910
  20
 835.319
  30
0.0
  11
 472.865
  21
 836.177
  31
0.0
   0
LINE
   8
LEVEL001
   6
CONTINUOUS
  62
7
  10
 447.910
  20
 830.355
  30
0.0
  11
 447.910
  21
 827.512
  31
0.0
   0
LINE
   8
LEVEL001
   6
CONTINUOUS
  62
7
  10
 447.910
  20
 827.512
  30
0.0
  11
 443.268
  21
 824.994
  31
0.0
   0
LINE
   8
LEVEL001
   6
CONTINUOUS
  62
7
  10
 437.821
  20
 823.763
  30
0.0
  11
 434.665
  21
 825.475
  31
0.0
   0
LINE
   8
LEVEL001
   6
CONTINUOUS
  62
7
  10
 473.410
  20
 838.763
  30
0.0
  11
 472.228
  21
 838.763
  31
0.0
   0
ARC
   8
LEVEL001
   6
CONTINUOUS
  62
7
  10
 459.067
  20
 843.263
  30
0.0
  40
 5.00000
  50
 20.9505
  51
 90.0000
   0
LINE
   8
LEVEL001
   6
DASHDOT
  62
1
  10
 459.410
  20
 787.495
  30
0.0
  11
 459.410
  21
 764.179
  31
0.0
   0
ARC
   8
LEVEL001
   6
CONTINUOUS
  62
7
  10
 179.527
  20
 391.397
  30
0.0
  40
 7.50000
  50
 20.0000
  51
 200.000
   0
LINE
   8
LEVEL001
   6
CONTINUOUS
  62
7
  10
 191.911
  20
 386.070
  30
0.0
  11
 190.935
  21
 384.907
  31
0.0
   0
LINE
   8
LEVEL001
   6
CONTINUOUS
  62
7
  10
 190.935
  20
 384.907
  30
0.0
  11
 174.960
  21
 379.093
  31
0.0
   0
LINE
   8
LEVEL001
   6
CONTINUOUS
  62
7
  10
 174.960
  20
 379.093
  30
0.0
  11
 173.464
  21
 379.356
  31
0.0
   0
LINE
   8
LEVEL001
   6
CONTINUOUS
  62
7
  10
 173.464
  20
 379.356
  30
0.0
  11
 170.564
  21
 387.327
  31
0.0
   0
LINE
   8
LEVEL001
   6
CONTINUOUS
  62
7
  10
 170.564
  20
 387.327
  30
0.0
  11
 171.540
  21
 388.490
  31
0.0
   0
LINE
   8
LEVEL001
   6
CONTINUOUS
  62
7
  10
 171.540
  20
 388.490
  30
0.0
  11
 187.514
  21
 394.304
  31
0.0
   0
LINE
   8
LEVEL001
   6
CONTINUOUS
  62
7
  10
 187.514
  20
 394.304
  30
0.0
  11
 189.010
  21
 394.040
  31
0.0
   0
LINE
   8
LEVEL001
   6
CONTINUOUS
  62
7
  10
 189.010
  20
 394.040
  30
0.0
  11
 191.911
  21
 386.070
  31
0.0
   0
LINE
   8
LEVEL001
   6
CONTINUOUS
  62
7
  10
 178.076
  20
 381.035
  30
0.0
  11
 175.175
  21
 389.005
  31
0.0
   0
ARC
   8
LEVEL001
   6
CONTINUOUS
  62
7
  10
 185.082
  20
 376.136
  30
0.0
  40
 16.2408
  50
 92.4120
  51
 127.588
   0
ARC
   8
LEVEL001
   6
CONTINUOUS
  62
7
  10
 174.577
  20
 380.146
  30
0.0
  40
 8.87961
  50
 86.1351
  51
 110.000
   0
LINE
   8
LEVEL001
   6
CONTINUOUS
  62
7
  10
 187.299
  20
 384.392
  30
0.0
  11
 184.398
  21
 392.362
  31
0.0
   0
ARC
   8
LEVEL001
   6
CONTINUOUS
  62
7
  10
 190.551
  20
 385.960
  30
0.0
  40
 8.87961
  50
 110.000
  51
 133.865
   0
LINE
   8
LEVEL001
   6
DASHDOT
  62
1
  10
 176.088
  20
 400.845
  30
0.0
  11
 200.782
  21
 333.000
  31
0.0
   0
ARC
   8
LEVEL001
   6
CONTINUOUS
  62
7
  10
 177.393
  20
 397.261
  30
0.0
  40
 16.2408
  50
 272.412
  51
 307.588
   0
ARC
   8
LEVEL001
   6
CONTINUOUS
  62
7
  10
 187.898
  20
 393.251
  30
0.0
  40
 8.87961
  50
 266.135
  51
 290.000
   0
ARC
   8
LEVEL001
   6
CONTINUOUS
  62
7
  10
 171.923
  20
 387.437
  30
0.0
  40
 8.87961
  50
 290.000
  51
 313.865
   0
LINE
   8
LEVEL014
   6
CONTINUOUS
  62
3
  10
 945.349
  20
 805.263
  30
0.0
  11
 945.349
  21
 820.136
  31
0.0
   0
LINE
   8
LEVEL014
   6
CONTINUOUS
  62
3
  10
 945.349
  20
 820.136
  30
0.0
  11
 947.349
  21
 819.966
  31
0.0
   0
LINE
   8
LEVEL014
   6
CONTINUOUS
  62
3
  10
 947.349
  20
 819.966
  30
0.0
  11
 947.349
  21
 805.263
  31
0.0
   0
LINE
   8
LEVEL014
   6
CONTINUOUS
  62
3
  10
 945.349
  20
 805.263
  30
0.0
  11
 945.349
  21
 790.390
  31
0.0
   0
LINE
   8
LEVEL014
   6
CONTINUOUS
  62
3
  10
 945.349
  20
 790.390
  30
0.0
  11
 947.349
  21
 790.559
  31
0.0
   0
LINE
   8
LEVEL014
   6
CONTINUOUS
  62
3
  10
 947.349
  20
 790.559
  30
0.0
  11
 947.349
  21
 805.263
  31
0.0
   0
LINE
   8
LEVEL014
   6
CONTINUOUS
  62
3
  10
 941.349
  20
 805.263
  30
0.0
  11
 941.349
  21
 820.070
  31
0.0
   0
LINE
   8
LEVEL014
   6
CONTINUOUS
  62
3
  10
 941.349
  20
 820.070
  30
0.0
  11
 943.349
  21
 820.224
  31
0.0
   0
LINE
   8
LEVEL014
   6
CONTINUOUS
  62
3
  10
 943.349
  20
 820.224
  30
0.0
  11
 943.349
  21
 805.263
  31
0.0
   0
LINE
   8
LEVEL014
   6
CONTINUOUS
  62
3
  10
 941.349
  20
 805.263
  30
0.0
  11
 941.349
  21
 790.455
  31
0.0
   0
LINE
   8
LEVEL014
   6
CONTINUOUS
  62
3
  10
 941.349
  20
 790.455
  30
0.0
  11
 943.349
  21
 790.301
  31
0.0
   0
LINE
   8
LEVEL014
   6
CONTINUOUS
  62
3
  10
 943.349
  20
 790.301
  30
0.0
  11
 943.349
  21
 805.263
  31
0.0
   0
CIRCLE
   8
LEVEL001
   6
CONTINUOUS
  62
7
  10
 219.947
  20
 354.000
  30
0.0
  40
 7.47500
   0
CIRCLE
   8
LEVEL001
   6
CONTINUOUS
  62
3
  10
 219.947
  20
 354.000
  30
0.0
  40
 8.33100
   0
ARC
   8
LEVEL003
   6
CONTINUOUS
  62
7
  10
 876.170
  20
 368.495
  30
0.0
  40
 3.00000
  50
 290.479
  51
 359.996
   0
ARC
   8
LEVEL003
   6
CONTINUOUS
  62
7
  10
 881.593
  20
 353.974
  30
0.0
  40
 12.5000
  50
 110.479
  51
 249.513
   0
LINE
   8
LEVEL003
   6
CONTINUOUS
  62
7
  10
 881.742
  20
 366.208
  30
0.0
  11
 881.352
  21
 365.793
  31
0.0
   0
LINE
   8
LEVEL003
   6
CONTINUOUS
  62
7
  10
 881.352
  20
 365.793
  30
0.0
  11
 880.979
  21
 365.193
  31
0.0
   0
LINE
   8
LEVEL003
   6
CONTINUOUS
  62
7
  10
 880.979
  20
 365.193
  30
0.0
  11
 880.628
  21
 364.418
  31
0.0
   0
LINE
   8
LEVEL003
   6
CONTINUOUS
  62
7
  10
 880.628
  20
 364.418
  30
0.0
  11
 880.305
  21
 363.481
  31
0.0
   0
LINE
   8
LEVEL003
   6
CONTINUOUS
  62
7
  10
 880.305
  20
 363.481
  30
0.0
  11
 880.014
  21
 362.395
  31
0.0
   0
LINE
   8
LEVEL003
   6
CONTINUOUS
  62
7
  10
 880.014
  20
 362.395
  30
0.0
  11
 879.761
  21
 361.177
  31
0.0
   0
LINE
   8
LEVEL003
   6
CONTINUOUS
  62
7
  10
 879.761
  20
 361.177
  30
0.0
  11
 879.549
  21
 359.847
  31
0.0
   0
LINE
   8
LEVEL003
   6
CONTINUOUS
  62
7
  10
 879.549
  20
 359.847
  30
0.0
  11
 879.382
  21
 358.426
  31
0.0
   0
LINE
   8
LEVEL003
   6
CONTINUOUS
  62
7
  10
 879.382
  20
 358.426
  30
0.0
  11
 879.262
  21
 356.935
  31
0.0
   0
LINE
   8
LEVEL003
   6
CONTINUOUS
  62
7
  10
 879.262
  20
 356.935
  30
0.0
  11
 879.191
  21
 355.398
  31
0.0
   0
LINE
   8
LEVEL003
   6
CONTINUOUS
  62
7
  10
 879.191
  20
 355.398
  30
0.0
  11
 879.170
  21
 353.838
  31
0.0
   0
LINE
   8
LEVEL003
   6
CONTINUOUS
  62
7
  10
 879.170
  20
 353.838
  30
0.0
  11
 879.199
  21
 352.281
  31
0.0
   0
LINE
   8
LEVEL003
   6
CONTINUOUS
  62
7
  10
 879.199
  20
 352.281
  30
0.0
  11
 879.279
  21
 350.750
  31
0.0
   0
LINE
   8
LEVEL003
   6
CONTINUOUS
  62
7
  10
 879.279
  20
 350.750
  30
0.0
  11
 879.407
  21
 349.269
  31
0.0
   0
LINE
   8
LEVEL003
   6
CONTINUOUS
  62
7
  10
 879.407
  20
 349.269
  30
0.0
  11
 879.582
  21
 347.862
  31
0.0
   0
LINE
   8
LEVEL003
   6
CONTINUOUS
  62
7
  10
 879.582
  20
 347.862
  30
0.0
  11
 879.801
  21
 346.551
  31
0.0
   0
LINE
   8
LEVEL003
   6
CONTINUOUS
  62
7
  10
 879.801
  20
 346.551
  30
0.0
  11
 880.061
  21
 345.355
  31
0.0
   0
LINE
   8
LEVEL003
   6
CONTINUOUS
  62
7
  10
 880.061
  20
 345.355
  30
0.0
  11
 880.358
  21
 344.293
  31
0.0
   0
LINE
   8
LEVEL003
   6
CONTINUOUS
  62
7
  10
 880.358
  20
 344.293
  30
0.0
  11
 880.686
  21
 343.383
  31
0.0
   0
LINE
   8
LEVEL003
   6
CONTINUOUS
  62
7
  10
 880.686
  20
 343.383
  30
0.0
  11
 881.041
  21
 342.638
  31
0.0
   0
LINE
   8
LEVEL003
   6
CONTINUOUS
  62
7
  10
 881.041
  20
 342.638
  30
0.0
  11
 881.417
  21
 342.070
  31
0.0
   0
LINE
   8
LEVEL003
   6
CONTINUOUS
  62
7
  10
 881.417
  20
 342.070
  30
0.0
  11
 881.780
  21
 341.709
  31
0.0
   0
LINE
   8
LEVEL003
   6
CONTINUOUS
  62
7
  10
 883.836
  20
 367.905
  30
0.0
  11
 881.742
  21
 366.208
  31
0.0
   0
LINE
   8
LEVEL003
   6
CONTINUOUS
  62
7
  10
 884.229
  20
 339.849
  30
0.0
  11
 881.780
  21
 341.709
  31
0.0
   0
ARC
   8
LEVEL003
   6
CONTINUOUS
  62
7
  10
 876.169
  20
 339.455
  30
0.0
  40
 3.00000
  50
 359.996
  51
 69.5134
   0
LINE
   8
LEVEL001
   6
CONTINUOUS
  62
7
  10
 877.726
  20
 385.613
  30
0.0
  11
 878.294
  21
 366.376
  31
0.0
   0
ARC
   8
LEVEL001
   6
CONTINUOUS
  62
7
  10
 866.407
  20
 345.450
  30
0.0
  40
 12.5000
  50
 181.692
  51
 341.943
   0
LINE
   8
LEVEL001
   6
CONTINUOUS
  62
7
  10
 883.565
  20
 340.354
  30
0.0
  11
 883.652
  21
 337.403
  31
0.0
   0
LINE
   8
LEVEL001
   6
CONTINUOUS
  62
7
  10
 882.501
  20
 376.343
  30
0.0
  11
 882.776
  21
 367.046
  31
0.0
   0
LINE
   8
LEVEL014
   6
CONTINUOUS
  62
7
  10
 889.610
  20
 813.263
  30
0.0
  11
 901.349
  21
 813.263
  31
0.0
   0
LINE
   8
LEVEL014
   6
CONTINUOUS
  62
7
  10
 889.610
  20
 797.263
  30
0.0
  11
 901.349
  21
 797.263
  31
0.0
   0
LINE
   8
LEVEL003
   6
CONTINUOUS
  62
7
  10
 900.910
  20
 813.263
  30
0.0
  11
 900.910
  21
 817.263
  31
0.0
   0
LINE
   8
LEVEL003
   6
CONTINUOUS
  62
7
  10
 900.910
  20
 817.263
  30
0.0
  11
 889.910
  21
 817.263
  31
0.0
   0
LINE
   8
LEVEL003
   6
CONTINUOUS
  62
7
  10
 889.910
  20
 817.263
  30
0.0
  11
 889.910
  21
 813.263
  31
0.0
   0
LINE
   8
LEVEL003
   6
CONTINUOUS
  62
7
  10
 889.910
  20
 797.263
  30
0.0
  11
 889.910
  21
 793.263
  31
0.0
   0
LINE
   8
LEVEL003
   6
CONTINUOUS
  62
7
  10
 889.910
  20
 793.263
  30
0.0
  11
 900.910
  21
 793.263
  31
0.0
   0
LINE
   8
LEVEL003
   6
CONTINUOUS
  62
7
  10
 900.910
  20
 793.263
  30
0.0
  11
 900.910
  21
 797.263
  31
0.0
   0
LINE
   8
LEVEL001
   6
CONTINUOUS
  62
7
  10
 887.964
  20
 394.637
  30
0.0
  11
 890.207
  21
 394.507
  31
0.0
   0
ARC
   8
LEVEL001
   6
CONTINUOUS
  62
7
  10
 890.057
  20
 391.912
  30
0.0
  40
 2.60000
  50
 17.5728
  51
 86.6919
   0
LINE
   8
LEVEL001
   6
CONTINUOUS
  62
7
  10
 887.964
  20
 394.637
  30
0.0
  11
 888.377
  21
 380.643
  31
0.0
   0
ARC
   8
LEVEL001
   6
CONTINUOUS
  62
7
  10
 875.376
  20
 387.262
  30
0.0
  40
 18.0000
  50
 345.811
  51
 17.5728
   0
LINE
   8
LEVEL001
   6
CONTINUOUS
  62
7
  10
 888.377
  20
 380.643
  30
0.0
  11
 890.609
  21
 380.905
  31
0.0
   0
ARC
   8
LEVEL001
   6
CONTINUOUS
  62
7
  10
 890.306
  20
 383.487
  30
0.0
  40
 2.60000
  50
 276.692
  51
 345.811
   0
CIRCLE
   8
LEVEL003
   6
CONTINUOUS
  62
7
  10
 1238.09
  20
 79.6176
  30
0.0
  40
 9.00000
   0
LINE
   8
LEVEL003
   6
CONTINUOUS
  62
7
  10
 1255.75
  20
 88.6176
  30
0.0
  11
 1244.32
  21
 68.8176
  31
0.0
   0
LINE
   8
LEVEL003
   6
CONTINUOUS
  62
7
  10
 1244.32
  20
 68.8176
  30
0.0
  11
 1221.46
  21
 68.8176
  31
0.0
   0
LINE
   8
LEVEL003
   6
CONTINUOUS
  62
7
  10
 1218.86
  20
 64.3176
  30
0.0
  11
 1259.72
  21
 64.3176
  31
0.0
   0
LINE
   8
LEVEL003
   6
CONTINUOUS
  62
7
  10
 1259.72
  20
 64.3176
  30
0.0
  11
 1273.75
  21
 88.6176
  31
0.0
   0
LINE
   8
LEVEL003
   6
CONTINUOUS
  62
7
  10
 1273.75
  20
 88.6176
  30
0.0
  11
 1255.75
  21
 88.6176
  31
0.0
   0
LINE
   8
LEVEL003
   6
CONTINUOUS
  62
7
  10
 1221.46
  20
 68.8176
  30
0.0
  11
 1218.86
  21
 64.3176
  31
0.0
   0
TEXT
   8
LEVEL003
  62
7
  10
 1280.90
  20
 58.2976
  30
0.0
  40
 22.5000
   1
ＯＳＡＫＡ ＪＡＣＫ
   7
STANDARD
   0
TEXT
   8
LEVEL003
  62
7
  10
 1285.64
  20
 103.847
  30
0.0
  40
 15.0000
   1
Model : ＴＷＡ－０．７
   7
STANDARD
   0
ENDSEC
   0
EOF
