   0
SECTION
   2
HEADER
   9
$LIMMIN
  10
-66.0000
  20
0.0
   9
$LIMMAX
  10
 1680.00
  20
 1188.00
   9
$EXTMIN
  10
-66.0000
  20
0.0
   9
$EXTMAX
  10
 1680.00
  20
 1188.00
   9
$LTSCALE
  40
 34.9200
   0
ENDSEC
   0
SECTION
   2
TABLES
  0
TABLE
  2
LTYPE
 70
    25
  0
LTYPE
  2
CONTINUOUS
 70
    64
  3
Solid line
 72
    65
 73
     0
 40
0.0
  0
LTYPE
  2
BORDER
 70
    64
  3
__ __ . __ __ . __ __ . __ __ . __ __ . __ __ .
 72
    65
 73
     6
 40
1.75
 49
0.5
 49
-0.25
 49
0.5
 49
-0.25
 49
0.0
 49
-0.25
  0
LTYPE
  2
BORDER2
 70
    64
  3
__.__.__.__.__.__.__.__.__.__.__.__.__.__.__.__
 72
    65
 73
     6
 40
0.875
 49
0.25
 49
-0.125
 49
0.25
 49
-0.125
 49
0.0
 49
-0.125
  0
LTYPE
  2
BORDERX2
 70
    64
  3
____  ____  .  ____  ____  .  ____  ____  .  __
 72
    65
 73
     6
 40
3.5
 49
1.0
 49
-0.5
 49
1.0
 49
-0.5
 49
0.0
 49
-0.5
  0
LTYPE
  2
CENTER
 70
    64
  3
____ _ ____ _ ____ _ ____ _ ____ _ ____ _ ____ 
 72
    65
 73
     4
 40
2.0
 49
1.25
 49
-0.25
 49
0.25
 49
-0.25
  0
LTYPE
  2
CENTER2
 70
    64
  3
___ _ ___ _ ___ _ ___ _ ___ _ ___ _ ___ _ ___ _
 72
    65
 73
     4
 40
1.125
 49
0.75
 49
-0.125
 49
0.125
 49
-0.125
  0
LTYPE
  2
CENTERX2
 70
    64
  3
________  __  ________  __  ________  __  _____
 72
    65
 73
     4
 40
4.0
 49
2.5
 49
-0.5
 49
0.5
 49
-0.5
  0
LTYPE
  2
DASHDOT
 70
    64
  3
__ . __ . __ . __ . __ . __ . __ . __ . __ . __
 72
    65
 73
     4
 40
1.0
 49
0.5
 49
-0.25
 49
0.0
 49
-0.25
  0
LTYPE
  2
DASHDOT2
 70
    64
  3
_._._._._._._._._._._._._._._._._._._._._._._._
 72
    65
 73
     4
 40
0.5
 49
0.25
 49
-0.125
 49
0.0
 49
-0.125
  0
LTYPE
  2
DASHDOTX2
 70
    64
  3
____  .  ____  .  ____  .  ____  .  ____  .  __
 72
    65
 73
     4
 40
2.0
 49
1.0
 49
-0.5
 49
0.0
 49
-0.5
  0
LTYPE
  2
DASHED
 70
    64
  3
__ __ __ __ __ __ __ __ __ __ __ __ __ __ __ __
 72
    65
 73
     2
 40
0.75
 49
0.5
 49
-0.25
  0
LTYPE
  2
DASHED2
 70
    64
  3
_ _ _ _ _ _ _ _ _ _ _ _ _ _ _ _ _ _ _ _ _ _ _ _
 72
    65
 73
     2
 40
0.375
 49
0.25
 49
-0.125
  0
LTYPE
  2
DASHEDX2
 70
    64
  3
____  ____  ____  ____  ____  ____  ____  ____ 
 72
    65
 73
     2
 40
1.5
 49
1.0
 49
-0.5
  0
LTYPE
  2
DIVIDE
 70
    64
  3
____ . . ____ . . ____ . . ____ . . ____ . . __
 72
    65
 73
     6
 40
1.25
 49
0.5
 49
-0.25
 49
0.0
 49
-0.25
 49
0.0
 49
-0.25
  0
LTYPE
  2
DIVIDE2
 70
    64
  3
__..__..__..__..__..__..__..__..__..__..__..__.
 72
    65
 73
     6
 40
0.625
 49
0.25
 49
-0.125
 49
0.0
 49
-0.125
 49
0.0
 49
-0.125
  0
LTYPE
  2
DIVIDEX2
 70
    64
  3
________  .  .  ________  .  .  ________  .  . 
 72
    65
 73
     6
 40
2.5
 49
1.0
 49
-0.5
 49
0.0
 49
-0.5
 49
0.0
 49
-0.5
  0
LTYPE
  2
DOT
 70
    64
  3
. . . . . . . . . . . . . . . . . . . . . . . .
 72
    65
 73
     2
 40
0.25
 49
0.0
 49
-0.25
  0
LTYPE
  2
DOT2
 70
    64
  3
...............................................
 72
    65
 73
     2
 40
0.125
 49
0.0
 49
-0.125
  0
LTYPE
  2
DOTX2
 70
    64
  3
.  .  .  .  .  .  .  .  .  .  .  .  .  .  .  . 
 72
    65
 73
     2
 40
0.5
 49
0.0
 49
-0.5
  0
LTYPE
  2
HIDDEN
 70
    64
  3
__ __ __ __ __ __ __ __ __ __ __ __ __ __ __ __
 72
    65
 73
     2
 40
0.375
 49
0.25
 49
-0.125
  0
LTYPE
  2
HIDDEN2
 70
    64
  3
_ _ _ _ _ _ _ _ _ _ _ _ _ _ _ _ _ _ _ _ _ _ _ _
 72
    65
 73
     2
 40
0.1875
 49
0.125
 49
-0.0625
  0
LTYPE
  2
HIDDENX2
 70
    64
  3
____ ____ ____ ____ ____ ____ ____ ____ ____ __
 72
    65
 73
     2
 40
0.75
 49
0.5
 49
-0.25
  0
LTYPE
  2
PHANTOM
 70
    64
  3
______  __  __  ______  __  __  ______  __  __ 
 72
    65
 73
     6
 40
2.5
 49
1.25
 49
-0.25
 49
0.25
 49
-0.25
 49
0.25
 49
-0.25
  0
LTYPE
  2
PHANTOM2
 70
    64
  3
___ _ _ ___ _ _ ___ _ _ ___ _ _ ___ _ _ ___ _ _
 72
    65
 73
     6
 40
1.25
 49
0.625
 49
-0.125
 49
0.125
 49
-0.125
 49
0.125
 49
-0.125
  0
LTYPE
  2
PHANTOMX2
 70
    64
  3
____________    ____    ____    ____________   
 72
    65
 73
     6
 40
5.0
 49
2.5
 49
-0.5
 49
0.5
 49
-0.5
 49
0.5
 49
-0.5
  0
ENDTAB
  0
TABLE
  2
STYLE
 70
     2
  0
STYLE
  2
STANDARD
 70
0
 40
0.0
 41
1.0
 50
0.0
 71
0
 42
0.2
  3
TXT
  4
BIGFONT
  0
STYLE
  2
STANDARD1
 70
     4
 40
0.0
 41
1.0
 50
0.0
 71
     0
 42
0.2
  3
TXT
  4
BIGFONT
  0
ENDTAB
   0
TABLE
   2
LAYER
  70
11
   0
LAYER
   2
0
  70
0
  62
7
   6
CONTINUOUS
   0
LAYER
   2
LEVEL001
  70
0
  62
7
   6
CONTINUOUS
   0
LAYER
   2
LEVEL003
  70
0
  62
7
   6
CONTINUOUS
   0
LAYER
   2
LEVEL010
  70
0
  62
7
   6
CONTINUOUS
   0
LAYER
   2
LEVEL011
  70
0
  62
7
   6
CONTINUOUS
   0
LAYER
   2
LEVEL012
  70
0
  62
7
   6
CONTINUOUS
   0
LAYER
   2
LEVEL014
  70
0
  62
7
   6
CONTINUOUS
   0
LAYER
   2
LEVEL020
  70
0
  62
7
   6
CONTINUOUS
   0
LAYER
   2
LEVEL030
  70
0
  62
7
   6
CONTINUOUS
   0
LAYER
   2
LEVEL050
  70
0
  62
7
   6
CONTINUOUS
   0
LAYER
   2
LEVEL100
  70
0
  62
-7
   6
CONTINUOUS
   0
ENDTAB
   0
ENDSEC
   0
SECTION
   2
ENTITIES
   0
LINE
   8
LEVEL100
   6
CONTINUOUS
  62
7
  10
 1145.00
  20
 216.000
  30
0.0
  11
 1145.00
  21
 188.000
  31
0.0
   0
LINE
   8
LEVEL100
   6
CONTINUOUS
  62
7
  10
 1265.00
  20
 216.000
  30
0.0
  11
 1265.00
  21
 124.000
  31
0.0
   0
LINE
   8
LEVEL100
   6
CONTINUOUS
  62
7
  10
 1345.00
  20
 216.000
  30
0.0
  11
 1345.00
  21
 188.000
  31
0.0
   0
LINE
   8
LEVEL100
   6
CONTINUOUS
  62
7
  10
 1377.00
  20
 216.000
  30
0.0
  11
 1377.00
  21
 188.000
  31
0.0
   0
LINE
   8
LEVEL100
   6
CONTINUOUS
  62
7
  10
 1423.00
  20
 216.000
  30
0.0
  11
 1423.00
  21
 188.000
  31
0.0
   0
LINE
   8
LEVEL100
   6
CONTINUOUS
  62
7
  10
 1227.00
  20
 188.000
  30
0.0
  11
 1227.00
  21
 124.000
  31
0.0
   0
LINE
   8
LEVEL100
   6
CONTINUOUS
  62
7
  10
 1161.00
  20
 66.0000
  30
0.0
  11
 1181.00
  21
 86.0000
  31
0.0
   0
CIRCLE
   8
LEVEL100
   6
CONTINUOUS
  62
7
  10
 1133.00
  20
 6.00000
  30
0.0
  40
 1.60000
   0
CIRCLE
   8
LEVEL100
   6
CONTINUOUS
  62
7
  10
 1161.00
  20
 6.00000
  30
0.0
  40
 1.60000
   0
CIRCLE
   8
LEVEL100
   6
CONTINUOUS
  62
7
  10
 1133.00
  20
 6.00000
  30
0.0
  40
 1.00000
   0
CIRCLE
   8
LEVEL100
   6
CONTINUOUS
  62
7
  10
 1161.00
  20
 6.00000
  30
0.0
  40
 1.00000
   0
LINE
   8
LEVEL100
   6
CONTINUOUS
  62
7
  10
 1284.00
  20
 22.0000
  30
0.0
  11
 1284.00
  21
 26.0000
  31
0.0
   0
LINE
   8
LEVEL100
   6
CONTINUOUS
  62
7
  10
 1284.00
  20
 26.0000
  30
0.0
  11
 1296.00
  21
 26.0000
  31
0.0
   0
LINE
   8
LEVEL100
   6
CONTINUOUS
  62
7
  10
 1296.00
  20
 26.0000
  30
0.0
  11
 1296.00
  21
 22.0000
  31
0.0
   0
LINE
   8
LEVEL100
   6
CONTINUOUS
  62
7
  10
 1296.00
  20
 22.0000
  30
0.0
  11
 1284.00
  21
 22.0000
  31
0.0
   0
LINE
   8
LEVEL100
   6
CONTINUOUS
  62
7
  10
 1105.00
  20
0.0
  30
0.0
  11
 1105.00
  21
 216.000
  31
0.0
   0
LINE
   8
LEVEL100
   6
CONTINUOUS
  62
7
  10
 1189.00
  20
 188.000
  30
0.0
  11
 1189.00
  21
0.0
  31
0.0
   0
LINE
   8
LEVEL100
   6
CONTINUOUS
  62
7
  10
 1105.00
  20
 92.0000
  30
0.0
  11
 1189.00
  21
 92.0000
  31
0.0
   0
TEXT
   8
LEVEL100
  62
7
  10
 1203.00
  20
 14.0000
  30
0.0
  40
 20.0000
   1
ＯＪ
  41
 0.700000
   7
STANDARD
   0
LINE
   8
LEVEL100
   6
CONTINUOUS
  62
7
  10
 1105.00
  20
 188.000
  30
0.0
  11
 1532.60
  21
 188.000
  31
0.0
   0
LINE
   8
LEVEL100
   6
CONTINUOUS
  62
7
  10
 1105.00
  20
 172.000
  30
0.0
  11
 1532.60
  21
 172.000
  31
0.0
   0
LINE
   8
LEVEL100
   6
CONTINUOUS
  62
7
  10
 1105.00
  20
 216.000
  30
0.0
  11
 1532.60
  21
 216.000
  31
0.0
   0
LINE
   8
LEVEL100
   6
CONTINUOUS
  62
7
  10
 1208.60
  20
 1012.00
  30
0.0
  11
 1208.60
  21
 1112.00
  31
0.0
   0
LINE
   8
LEVEL100
   6
CONTINUOUS
  62
7
  10
 1208.60
  20
 1092.00
  30
0.0
  11
 1532.60
  21
 1092.00
  31
0.0
   0
LINE
   8
LEVEL100
   6
CONTINUOUS
  62
7
  10
 1208.60
  20
 1072.00
  30
0.0
  11
 1532.60
  21
 1072.00
  31
0.0
   0
LINE
   8
LEVEL100
   6
CONTINUOUS
  62
7
  10
 1244.60
  20
 1092.00
  30
0.0
  11
 1244.60
  21
 1072.00
  31
0.0
   0
LINE
   8
LEVEL100
   6
CONTINUOUS
  62
7
  10
 1452.60
  20
 1092.00
  30
0.0
  11
 1452.60
  21
 1072.00
  31
0.0
   0
LINE
   8
LEVEL100
   6
CONTINUOUS
  62
7
  10
 1500.60
  20
 1092.00
  30
0.0
  11
 1500.60
  21
 1072.00
  31
0.0
   0
LINE
   8
LEVEL100
   6
CONTINUOUS
  62
7
  10
 1105.00
  20
 124.000
  30
0.0
  11
 1532.60
  21
 124.000
  31
0.0
   0
LINE
   8
LEVEL100
   6
CONTINUOUS
  62
7
  10
 1105.00
  20
 60.0000
  30
0.0
  11
 1532.60
  21
 60.0000
  31
0.0
   0
LINE
   8
LEVEL100
   6
CONTINUOUS
  62
7
  10
 1420.60
  20
 60.0000
  30
0.0
  11
 1420.60
  21
0.0
  31
0.0
   0
LINE
   8
LEVEL100
   6
CONTINUOUS
  62
7
  10
 1436.60
  20
0.0
  30
0.0
  11
 1504.60
  21
 40.0000
  31
0.0
   0
LINE
   8
LEVEL100
   6
CONTINUOUS
  62
7
  10
0.0
  20
 1112.00
  30
0.0
  11
 1532.60
  21
 1112.00
  31
0.0
   0
LINE
   8
LEVEL100
   6
CONTINUOUS
  62
7
  10
 1532.60
  20
 1112.00
  30
0.0
  11
 1532.60
  21
0.0
  31
0.0
   0
LINE
   8
LEVEL100
   6
CONTINUOUS
  62
7
  10
 1532.60
  20
0.0
  30
0.0
  11
0.0
  21
0.0
  31
0.0
   0
LINE
   8
LEVEL100
   6
CONTINUOUS
  62
7
  10
0.0
  20
 1076.80
  30
0.0
  11
 200.600
  21
 1076.80
  31
0.0
   0
LINE
   8
LEVEL100
   6
CONTINUOUS
  62
7
  10
 200.600
  20
 1076.80
  30
0.0
  11
 200.600
  21
 1112.00
  31
0.0
   0
TEXT
   8
LEVEL100
  62
7
  10
 196.600
  20
 1104.40
  30
0.0
  40
 20.0000
   1
ＯＪ．
  50
 180.000
  41
 0.900000
   7
STANDARD
   0
LINE
   8
LEVEL100
   6
CONTINUOUS
  62
7
  10
 128.600
  20
 1096.40
  30
0.0
  11
 116.600
  21
 1096.40
  31
0.0
   0
LINE
   8
LEVEL100
   6
CONTINUOUS
  62
7
  10
 116.600
  20
 1096.40
  30
0.0
  11
 116.600
  21
 1092.40
  31
0.0
   0
LINE
   8
LEVEL100
   6
CONTINUOUS
  62
7
  10
 116.600
  20
 1092.40
  30
0.0
  11
 128.600
  21
 1092.40
  31
0.0
   0
LINE
   8
LEVEL100
   6
CONTINUOUS
  62
7
  10
 128.600
  20
 1092.40
  30
0.0
  11
 128.600
  21
 1096.40
  31
0.0
   0
TEXT
   8
LEVEL100
  62
7
  10
 1149.00
  20
 192.000
  30
0.0
  40
 16.0000
   1
Ｓ．ＩＭＡＮＩＳＨＩ
  41
 0.625000
   7
STANDARD
   0
LINE
   8
LEVEL001
   6
CONTINUOUS
  62
7
  10
 145.500
  20
 430.000
  30
0.0
  11
 146.500
  21
 429.000
  31
0.0
   0
LINE
   8
LEVEL001
   6
CONTINUOUS
  62
7
  10
 93.5000
  20
 429.000
  30
0.0
  11
 94.5000
  21
 430.000
  31
0.0
   0
LINE
   8
LEVEL001
   6
CONTINUOUS
  62
7
  10
 94.5000
  20
 430.000
  30
0.0
  11
 104.000
  21
 430.000
  31
0.0
   0
LINE
   8
LEVEL001
   6
CONTINUOUS
  62
7
  10
 136.000
  20
 430.000
  30
0.0
  11
 145.500
  21
 430.000
  31
0.0
   0
LINE
   8
LEVEL001
   6
CONTINUOUS
  62
7
  10
 93.5000
  20
 429.000
  30
0.0
  11
 104.000
  21
 429.000
  31
0.0
   0
LINE
   8
LEVEL001
   6
CONTINUOUS
  62
7
  10
 136.000
  20
 429.000
  30
0.0
  11
 146.500
  21
 429.000
  31
0.0
   0
LINE
   8
LEVEL001
   6
CONTINUOUS
  62
7
  10
 97.5000
  20
 309.000
  30
0.0
  11
 142.500
  21
 309.000
  31
0.0
   0
CIRCLE
   8
LEVEL001
   6
CONTINUOUS
  62
7
  10
 120.000
  20
 364.500
  30
0.0
  40
 7.47500
   0
CIRCLE
   8
LEVEL001
   6
CONTINUOUS
  62
7
  10
 120.000
  20
 364.500
  30
0.0
  40
 2.50000
   0
CIRCLE
   8
LEVEL001
   6
CONTINUOUS
  62
7
  10
 98.0000
  20
 364.500
  30
0.0
  40
 7.00000
   0
LINE
   8
LEVEL001
   6
CONTINUOUS
  62
7
  10
 97.7477
  20
 357.505
  30
0.0
  11
 98.9007
  21
 354.000
  31
0.0
   0
ARC
   8
LEVEL001
   6
CONTINUOUS
  62
7
  10
 106.500
  20
 356.500
  30
0.0
  40
 8.00000
  50
 198.210
  51
 265.000
   0
LINE
   8
LEVEL001
   6
CONTINUOUS
  62
7
  10
 157.970
  20
 372.192
  30
0.0
  11
 159.451
  21
 355.124
  31
0.0
   0
ARC
   8
LEVEL001
   6
CONTINUOUS
  62
7
  10
 136.000
  20
 331.000
  30
0.0
  40
 9.00000
  50
 275.000
  51
0.0
   0
LINE
   8
LEVEL001
   6
CONTINUOUS
  62
7
  10
 136.784
  20
 322.034
  30
0.0
  11
 120.000
  21
 320.566
  31
0.0
   0
ARC
   8
LEVEL001
   6
CONTINUOUS
  62
7
  10
 167.000
  20
 370.713
  30
0.0
  40
 2.00000
  50
 0.993351E-10
  51
 85.0000
   0
LINE
   8
LEVEL001
   6
CONTINUOUS
  62
7
  10
 169.000
  20
 370.713
  30
0.0
  11
 169.000
  21
 341.833
  31
0.0
   0
ARC
   8
LEVEL001
   6
CONTINUOUS
  62
7
  10
 167.000
  20
 341.833
  30
0.0
  40
 2.00000
  50
 275.000
  51
 0.537387E-10
   0
ARC
   8
LEVEL001
   6
CONTINUOUS
  62
7
  10
 120.000
  20
 365.000
  30
0.0
  40
 41.5000
  50
 311.843
  51
 320.330
   0
ARC
   8
LEVEL001
   6
CONTINUOUS
  62
7
  10
 71.4665
  20
 393.284
  30
0.0
  40
 2.00000
  50
 110.000
  51
 174.010
   0
ARC
   8
LEVEL001
   6
CONTINUOUS
  62
7
  10
 166.771
  20
 381.174
  30
0.0
  40
 2.00000
  50
 338.500
  51
 68.5000
   0
LINE
   8
LEVEL001
   6
CONTINUOUS
  62
7
  10
 168.632
  20
 380.441
  30
0.0
  11
 168.370
  21
 379.775
  31
0.0
   0
ARC
   8
LEVEL001
   6
CONTINUOUS
  62
7
  10
 171.150
  20
 378.680
  30
0.0
  40
 3.00000
  50
 153.333
  51
 218.151
   0
LINE
   8
LEVEL001
   6
CONTINUOUS
  62
7
  10
 171.611
  20
 371.169
  30
0.0
  11
 171.715
  21
 371.328
  31
0.0
   0
LINE
   8
LEVEL001
   6
CONTINUOUS
  62
7
  10
 171.715
  20
 371.328
  30
0.0
  11
 171.747
  21
 371.567
  31
0.0
   0
LINE
   8
LEVEL001
   6
CONTINUOUS
  62
7
  10
 171.747
  20
 371.567
  30
0.0
  11
 171.707
  21
 371.884
  31
0.0
   0
LINE
   8
LEVEL001
   6
CONTINUOUS
  62
7
  10
 171.707
  20
 371.884
  30
0.0
  11
 171.595
  21
 372.274
  31
0.0
   0
LINE
   8
LEVEL001
   6
CONTINUOUS
  62
7
  10
 171.595
  20
 372.274
  30
0.0
  11
 171.413
  21
 372.730
  31
0.0
   0
LINE
   8
LEVEL001
   6
CONTINUOUS
  62
7
  10
 171.413
  20
 372.730
  30
0.0
  11
 171.164
  21
 373.246
  31
0.0
   0
LINE
   8
LEVEL001
   6
CONTINUOUS
  62
7
  10
 171.164
  20
 373.246
  30
0.0
  11
 170.852
  21
 373.812
  31
0.0
   0
LINE
   8
LEVEL001
   6
CONTINUOUS
  62
7
  10
 170.852
  20
 373.812
  30
0.0
  11
 170.481
  21
 374.421
  31
0.0
   0
LINE
   8
LEVEL001
   6
CONTINUOUS
  62
7
  10
 170.481
  20
 374.421
  30
0.0
  11
 170.058
  21
 375.063
  31
0.0
   0
LINE
   8
LEVEL001
   6
CONTINUOUS
  62
7
  10
 170.058
  20
 375.063
  30
0.0
  11
 169.589
  21
 375.728
  31
0.0
   0
LINE
   8
LEVEL001
   6
CONTINUOUS
  62
7
  10
 169.589
  20
 375.728
  30
0.0
  11
 169.081
  21
 376.406
  31
0.0
   0
LINE
   8
LEVEL001
   6
CONTINUOUS
  62
7
  10
 169.081
  20
 376.406
  30
0.0
  11
 168.766
  21
 376.807
  31
0.0
   0
LINE
   8
LEVEL001
   6
CONTINUOUS
  62
7
  10
 171.611
  20
 371.169
  30
0.0
  11
 169.000
  21
 368.978
  31
0.0
   0
LINE
   8
LEVEL001
   6
CONTINUOUS
  62
7
  10
 168.370
  20
 379.775
  30
0.0
  11
 165.638
  21
 372.840
  31
0.0
   0
LINE
   8
LEVEL001
   6
CONTINUOUS
  62
7
  10
 144.500
  20
 414.536
  30
0.0
  11
 144.500
  21
 395.501
  31
0.0
   0
ARC
   8
LEVEL001
   6
CONTINUOUS
  62
7
  10
 149.500
  20
 395.501
  30
0.0
  40
 5.00000
  50
 180.000
  51
 248.500
   0
ARC
   8
LEVEL001
   6
CONTINUOUS
  62
7
  10
 146.655
  20
 389.098
  30
0.0
  40
 2.00000
  50
 68.5000
  51
 90.0000
   0
LINE
   8
LEVEL001
   6
CONTINUOUS
  62
7
  10
 147.667
  20
 390.849
  30
0.0
  11
 167.504
  21
 383.035
  31
0.0
   0
ARC
   8
LEVEL001
   6
CONTINUOUS
  62
7
  10
 128.500
  20
 397.713
  30
0.0
  40
 5.00000
  50
 180.000
  51
 265.000
   0
LINE
   8
LEVEL001
   6
CONTINUOUS
  62
7
  10
 146.830
  20
 391.090
  30
0.0
  11
 128.064
  21
 392.732
  31
0.0
   0
LINE
   8
LEVEL001
   6
CONTINUOUS
  62
7
  10
 150.697
  20
 379.470
  30
0.0
  11
 128.064
  21
 381.450
  31
0.0
   0
LINE
   8
LEVEL001
   6
CONTINUOUS
  62
7
  10
 120.000
  20
 386.731
  30
0.0
  11
 121.267
  21
 386.620
  31
0.0
   0
ARC
   8
LEVEL001
   6
CONTINUOUS
  62
7
  10
 121.006
  20
 383.631
  30
0.0
  40
 3.00000
  50
 20.4824
  51
 85.0000
   0
ARC
   8
LEVEL001
   6
CONTINUOUS
  62
7
  10
 128.500
  20
 386.431
  30
0.0
  40
 5.00000
  50
 180.000
  51
 265.000
   0
ARC
   8
LEVEL001
   6
CONTINUOUS
  62
7
  10
 111.500
  20
 401.444
  30
0.0
  40
 5.00000
  50
 274.000
  51
 0.130276E-11
   0
LINE
   8
LEVEL001
   6
CONTINUOUS
  62
7
  10
 68.7907
  20
 393.445
  30
0.0
  11
 111.849
  21
 396.456
  31
0.0
   0
ARC
   8
LEVEL001
   6
CONTINUOUS
  62
7
  10
 111.500
  20
 391.006
  30
0.0
  40
 5.00000
  50
 275.000
  51
 0.201927E-10
   0
LINE
   8
LEVEL001
   6
CONTINUOUS
  62
7
  10
 105.367
  20
 385.451
  30
0.0
  11
 120.000
  21
 386.731
  31
0.0
   0
LINE
   8
LEVEL001
   6
CONTINUOUS
  62
7
  10
 123.500
  20
 456.000
  30
0.0
  11
 123.500
  21
 386.431
  31
0.0
   0
ARC
   8
LEVEL001
   6
CONTINUOUS
  62
7
  10
 111.500
  20
 343.013
  30
0.0
  40
 5.00000
  50
 0.195413E-11
  51
 85.0000
   0
LINE
   8
LEVEL001
   6
CONTINUOUS
  62
7
  10
 105.803
  20
 348.530
  30
0.0
  11
 111.936
  21
 347.994
  31
0.0
   0
ARC
   8
LEVEL001
   6
CONTINUOUS
  62
7
  10
 107.000
  20
 327.871
  30
0.0
  40
 5.00000
  50
 0.651378E-12
  51
 86.0000
   0
ARC
   8
LEVEL001
   6
CONTINUOUS
  62
7
  10
 107.000
  20
 332.883
  30
0.0
  40
 5.00000
  50
 0.781653E-11
  51
 86.0000
   0
ARC
   8
LEVEL001
   6
CONTINUOUS
  62
7
  10
 150.000
  20
 336.344
  30
0.0
  40
 5.00000
  50
 101.212
  51
 180.000
   0
ARC
   8
LEVEL001
   6
CONTINUOUS
  62
7
  10
 146.500
  20
 354.000
  30
0.0
  40
 13.0000
  50
 281.212
  51
 4.96017
   0
ARC
   8
LEVEL001
   6
CONTINUOUS
  62
7
  10
 152.855
  20
 333.568
  30
0.0
  40
 5.00000
  50
 95.0000
  51
 158.500
   0
LINE
   8
LEVEL003
   6
CONTINUOUS
  62
7
  10
 167.174
  20
 339.840
  30
0.0
  11
 149.564
  21
 338.300
  31
0.0
   0
ARC
   8
LEVEL003
   6
CONTINUOUS
  62
7
  10
 150.000
  20
 333.319
  30
0.0
  40
 5.00000
  50
 95.0000
  51
 180.000
   0
LINE
   8
LEVEL001
   6
CONTINUOUS
  62
7
  10
 145.000
  20
 331.000
  30
0.0
  11
 145.000
  21
 336.344
  31
0.0
   0
LINE
   8
LEVEL001
   6
CONTINUOUS
  62
7
  10
 120.000
  20
 338.632
  30
0.0
  11
 119.239
  21
 338.699
  31
0.0
   0
ARC
   8
LEVEL001
   6
CONTINUOUS
  62
7
  10
 119.500
  20
 341.687
  30
0.0
  40
 3.00000
  50
 180.000
  51
 265.000
   0
LINE
   8
LEVEL001
   6
CONTINUOUS
  62
7
  10
 116.500
  20
 341.687
  30
0.0
  11
 116.500
  21
 343.013
  31
0.0
   0
LINE
   8
LEVEL001
   6
CONTINUOUS
  62
7
  10
 112.000
  20
 324.015
  30
0.0
  11
 112.000
  21
 332.883
  31
0.0
   0
ARC
   8
LEVEL001
   6
CONTINUOUS
  62
7
  10
 115.000
  20
 324.015
  30
0.0
  40
 3.00000
  50
 180.000
  51
 265.000
   0
LINE
   8
LEVEL001
   6
CONTINUOUS
  62
7
  10
 120.000
  20
 320.566
  30
0.0
  11
 114.739
  21
 321.026
  31
0.0
   0
ARC
   8
LEVEL001
   6
CONTINUOUS
  62
7
  10
 92.5000
  20
 312.105
  30
0.0
  40
 5.00000
  50
 0.312661E-10
  51
 20.0000
   0
LINE
   8
LEVEL003
   6
CONTINUOUS
  62
7
  10
 89.8211
  20
 334.084
  30
0.0
  11
 97.1985
  21
 313.815
  31
0.0
   0
LINE
   8
LEVEL001
   6
CONTINUOUS
  62
7
  10
 93.0970
  20
 333.855
  30
0.0
  11
 97.1985
  21
 322.586
  31
0.0
   0
ARC
   8
LEVEL001
   6
CONTINUOUS
  62
7
  10
 92.5000
  20
 320.876
  30
0.0
  40
 5.00000
  50
 0.475506E-10
  51
 20.0000
   0
ARC
   8
LEVEL001
   6
CONTINUOUS
  62
7
  10
 92.5000
  20
 328.885
  30
0.0
  40
 5.00000
  50
0.0
  51
 86.0000
   0
LINE
   8
LEVEL001
   6
CONTINUOUS
  62
7
  10
 97.5000
  20
 309.000
  30
0.0
  11
 97.5000
  21
 328.885
  31
0.0
   0
LINE
   8
LEVEL001
   6
CONTINUOUS
  62
7
  10
 68.7907
  20
 335.555
  30
0.0
  11
 107.000
  21
 332.883
  31
0.0
   0
LINE
   8
LEVEL001
   6
CONTINUOUS
  62
7
  10
 148.203
  20
 335.401
  30
0.0
  11
 142.848
  21
 321.806
  31
0.0
   0
ARC
   8
LEVEL001
   6
CONTINUOUS
  62
7
  10
 147.500
  20
 319.973
  30
0.0
  40
 5.00000
  50
 158.500
  51
 180.000
   0
LINE
   8
LEVEL001
   6
CONTINUOUS
  62
7
  10
 142.500
  20
 309.000
  30
0.0
  11
 142.500
  21
 324.775
  31
0.0
   0
LINE
   8
LEVEL001
   6
CONTINUOUS
  62
7
  10
 167.174
  20
 372.706
  30
0.0
  11
 160.671
  21
 373.274
  31
0.0
   0
ARC
   8
LEVEL001
   6
CONTINUOUS
  62
7
  10
 161.107
  20
 378.255
  30
0.0
  40
 5.00000
  50
 211.309
  51
 265.000
   0
ARC
   8
LEVEL001
   6
CONTINUOUS
  62
7
  10
 150.000
  20
 371.500
  30
0.0
  40
 8.00000
  50
 4.96017
  51
 85.0000
   0
LINE
   8
LEVEL001
   6
CONTINUOUS
  62
7
  10
 92.2101
  20
 402.963
  30
0.0
  11
 70.7825
  21
 395.164
  31
0.0
   0
LINE
   8
LEVEL001
   6
CONTINUOUS
  62
7
  10
 93.5000
  20
 429.000
  30
0.0
  11
 93.5000
  21
 418.000
  31
0.0
   0
ARC
   8
LEVEL001
   6
CONTINUOUS
  62
7
  10
 93.5000
  20
 414.536
  30
0.0
  40
 2.00000
  50
 0.569955E-10
  51
 60.0000
   0
ARC
   8
LEVEL001
   6
CONTINUOUS
  62
7
  10
 95.5000
  20
 418.000
  30
0.0
  40
 2.00000
  50
 180.000
  51
 240.000
   0
LINE
   8
LEVEL001
   6
CONTINUOUS
  62
7
  10
 146.500
  20
 429.000
  30
0.0
  11
 146.500
  21
 418.000
  31
0.0
   0
ARC
   8
LEVEL001
   6
CONTINUOUS
  62
7
  10
 146.500
  20
 414.536
  30
0.0
  40
 2.00000
  50
 120.000
  51
 180.000
   0
ARC
   8
LEVEL001
   6
CONTINUOUS
  62
7
  10
 144.500
  20
 418.000
  30
0.0
  40
 2.00000
  50
 300.000
  51
 0.814222E-11
   0
ARC
   8
LEVEL001
   6
CONTINUOUS
  62
7
  10
 134.000
  20
 421.833
  30
0.0
  40
 2.00000
  50
 275.000
  51
0.0
   0
ARC
   8
LEVEL001
   6
CONTINUOUS
  62
7
  10
 106.000
  20
 421.833
  30
0.0
  40
 2.00000
  50
 180.000
  51
 265.000
   0
LINE
   8
LEVEL001
   6
CONTINUOUS
  62
7
  10
 104.000
  20
 439.000
  30
0.0
  11
 104.000
  21
 421.833
  31
0.0
   0
LINE
   8
LEVEL001
   6
CONTINUOUS
  62
7
  10
 136.000
  20
 439.000
  30
0.0
  11
 136.000
  21
 421.833
  31
0.0
   0
LINE
   8
LEVEL001
   6
CONTINUOUS
  62
7
  10
 134.174
  20
 419.840
  30
0.0
  11
 128.064
  21
 419.306
  31
0.0
   0
ARC
   8
LEVEL001
   6
CONTINUOUS
  62
7
  10
 128.500
  20
 414.325
  30
0.0
  40
 5.00000
  50
 95.0000
  51
 180.000
   0
LINE
   8
LEVEL001
   6
CONTINUOUS
  62
7
  10
 105.826
  20
 419.840
  30
0.0
  11
 111.936
  21
 419.306
  31
0.0
   0
ARC
   8
LEVEL001
   6
CONTINUOUS
  62
7
  10
 111.500
  20
 414.325
  30
0.0
  40
 5.00000
  50
 0.651378E-12
  51
 85.0000
   0
LINE
   8
LEVEL001
   6
CONTINUOUS
  62
7
  10
 95.5000
  20
 407.661
  30
0.0
  11
 95.5000
  21
 414.536
  31
0.0
   0
ARC
   8
LEVEL001
   6
CONTINUOUS
  62
7
  10
 90.5000
  20
 407.661
  30
0.0
  40
 5.00000
  50
 290.000
  51
 0.104220E-10
   0
ARC
   8
LEVEL001
   6
CONTINUOUS
  62
7
  10
 126.500
  20
 456.000
  30
0.0
  40
 3.00000
  50
 90.0000
  51
 180.000
   0
ARC
   8
LEVEL001
   6
CONTINUOUS
  62
7
  10
 113.500
  20
 456.000
  30
0.0
  40
 3.00000
  50
0.0
  51
 90.0000
   0
LINE
   8
LEVEL001
   6
CONTINUOUS
  62
7
  10
 149.034
  20
 341.172
  30
0.0
  11
 120.000
  21
 338.632
  31
0.0
   0
ARC
   8
LEVEL001
   6
CONTINUOUS
  62
7
  10
 69.0000
  20
 338.548
  30
0.0
  40
 3.00000
  50
 259.867
  51
 266.000
   0
LINE
   8
LEVEL003
   6
CONTINUOUS
  62
7
  10
 68.5000
  20
 393.410
  30
0.0
  11
 68.5000
  21
 335.594
  31
0.0
   0
ARC
   8
LEVEL001
   6
CONTINUOUS
  62
7
  10
 69.0000
  20
 390.452
  30
0.0
  40
 3.00000
  50
 94.0000
  51
 99.5941
   0
LINE
   8
LEVEL001
   6
CONTINUOUS
  62
7
  10
 116.500
  20
 456.000
  30
0.0
  11
 116.500
  21
 391.006
  31
0.0
   0
LINE
   8
LEVEL001
   6
CONTINUOUS
  62
7
  10
 116.211
  20
 416.000
  30
0.0
  11
 95.5000
  21
 416.000
  31
0.0
   0
LINE
   8
LEVEL001
   6
CONTINUOUS
  62
7
  10
 144.500
  20
 416.000
  30
0.0
  11
 123.789
  21
 416.000
  31
0.0
   0
LINE
   8
LEVEL001
   6
CONTINUOUS
  62
7
  10
 104.000
  20
 439.000
  30
0.0
  11
 110.500
  21
 439.000
  31
0.0
   0
LINE
   8
LEVEL001
   6
CONTINUOUS
  62
7
  10
 110.500
  20
 439.000
  30
0.0
  11
 110.500
  21
 463.631
  31
0.0
   0
LINE
   8
LEVEL001
   6
CONTINUOUS
  62
7
  10
 129.500
  20
 439.000
  30
0.0
  11
 136.000
  21
 439.000
  31
0.0
   0
LINE
   8
LEVEL001
   6
CONTINUOUS
  62
7
  10
 129.500
  20
 439.000
  30
0.0
  11
 129.500
  21
 463.631
  31
0.0
   0
LINE
   8
LEVEL001
   6
CONTINUOUS
  62
7
  10
 129.500
  20
 463.631
  30
0.0
  11
 120.000
  21
 464.462
  31
0.0
   0
LINE
   8
LEVEL001
   6
CONTINUOUS
  62
7
  10
 110.500
  20
 463.631
  30
0.0
  11
 120.000
  21
 464.462
  31
0.0
   0
CIRCLE
   8
LEVEL001
   6
CONTINUOUS
  62
3
  10
 120.000
  20
 364.500
  30
0.0
  40
 8.33100
   0
LINE
   8
LEVEL001
   6
DASHDOT
  62
1
  10
 120.000
  20
 337.000
  30
0.0
  11
 170.322
  21
 379.225
  31
0.0
   0
LINE
   8
LEVEL001
   6
DASHDOT
  62
1
  10
 90.3846
  20
 365.000
  30
0.0
  11
 164.559
  21
 365.000
  31
0.0
   0
LINE
   8
LEVEL001
   6
DASHDOT
  62
1
  10
 150.000
  20
 371.500
  30
0.0
  11
 150.000
  21
 357.500
  31
0.0
   0
LINE
   8
LEVEL001
   6
DASHDOT
  62
1
  10
 142.864
  20
 332.000
  30
0.0
  11
 127.136
  21
 332.000
  31
0.0
   0
LINE
   8
LEVEL001
   6
DASHDOT
  62
1
  10
 135.000
  20
 339.864
  30
0.0
  11
 135.000
  21
 324.136
  31
0.0
   0
LINE
   8
LEVEL001
   6
DASHDOT
  62
1
  10
 98.0000
  20
 374.078
  30
0.0
  11
 98.0000
  21
 354.922
  31
0.0
   0
ARC
   8
LEVEL001
   6
CONTINUOUS
  62
7
  10
 106.500
  20
 372.500
  30
0.0
  40
 13.0000
  50
 95.0000
  51
 190.867
   0
LINE
   8
LEVEL001
   6
CONTINUOUS
  62
7
  10
 97.7477
  20
 357.505
  30
0.0
  11
 98.9007
  21
 354.000
  31
0.0
   0
LINE
   8
LEVEL001
   6
CONTINUOUS
  62
7
  10
 93.5000
  20
 309.000
  30
0.0
  11
 97.5000
  21
 313.000
  31
0.0
   0
LINE
   8
LEVEL001
   6
CONTINUOUS
  62
7
  10
 146.500
  20
 309.000
  30
0.0
  11
 142.500
  21
 313.000
  31
0.0
   0
LINE
   8
LEVEL001
   6
DASHDOT
  62
1
  10
 128.337
  20
 310.888
  30
0.0
  11
 163.816
  21
 400.958
  31
0.0
   0
LINE
   8
LEVEL003
   6
CONTINUOUS
  62
7
  10
 98.0000
  20
 367.964
  30
0.0
  11
 101.000
  21
 366.232
  31
0.0
   0
LINE
   8
LEVEL003
   6
CONTINUOUS
  62
7
  10
 101.000
  20
 366.232
  30
0.0
  11
 101.000
  21
 362.768
  31
0.0
   0
LINE
   8
LEVEL003
   6
CONTINUOUS
  62
7
  10
 101.000
  20
 362.768
  30
0.0
  11
 98.0000
  21
 361.036
  31
0.0
   0
LINE
   8
LEVEL003
   6
CONTINUOUS
  62
7
  10
 98.0000
  20
 361.036
  30
0.0
  11
 95.0000
  21
 362.768
  31
0.0
   0
LINE
   8
LEVEL003
   6
CONTINUOUS
  62
7
  10
 95.0000
  20
 362.768
  30
0.0
  11
 95.0000
  21
 366.232
  31
0.0
   0
LINE
   8
LEVEL003
   6
CONTINUOUS
  62
7
  10
 95.0000
  20
 366.232
  30
0.0
  11
 98.0000
  21
 367.964
  31
0.0
   0
CIRCLE
   8
LEVEL003
   6
CONTINUOUS
  62
7
  10
 98.0000
  20
 364.500
  30
0.0
  40
 6.57850
   0
CIRCLE
   8
LEVEL003
   6
CONTINUOUS
  62
3
  10
 98.0000
  20
 364.500
  30
0.0
  40
 5.72250
   0
LINE
   8
LEVEL003
   6
CONTINUOUS
  62
7
  10
 135.000
  20
 334.887
  30
0.0
  11
 137.500
  21
 333.443
  31
0.0
   0
LINE
   8
LEVEL003
   6
CONTINUOUS
  62
7
  10
 137.500
  20
 333.443
  30
0.0
  11
 137.500
  21
 330.557
  31
0.0
   0
LINE
   8
LEVEL003
   6
CONTINUOUS
  62
7
  10
 137.500
  20
 330.557
  30
0.0
  11
 135.000
  21
 329.113
  31
0.0
   0
LINE
   8
LEVEL003
   6
CONTINUOUS
  62
7
  10
 135.000
  20
 329.113
  30
0.0
  11
 132.500
  21
 330.557
  31
0.0
   0
LINE
   8
LEVEL003
   6
CONTINUOUS
  62
7
  10
 132.500
  20
 330.557
  30
0.0
  11
 132.500
  21
 333.443
  31
0.0
   0
LINE
   8
LEVEL003
   6
CONTINUOUS
  62
7
  10
 132.500
  20
 333.443
  30
0.0
  11
 135.000
  21
 334.887
  31
0.0
   0
CIRCLE
   8
LEVEL003
   6
CONTINUOUS
  62
7
  10
 135.000
  20
 332.000
  30
0.0
  40
 4.86400
   0
CIRCLE
   8
LEVEL003
   6
CONTINUOUS
  62
3
  10
 135.000
  20
 332.000
  30
0.0
  40
 4.28300
   0
LINE
   8
LEVEL003
   6
CONTINUOUS
  62
7
  10
 150.000
  20
 366.809
  30
0.0
  11
 152.000
  21
 365.655
  31
0.0
   0
LINE
   8
LEVEL003
   6
CONTINUOUS
  62
7
  10
 152.000
  20
 365.655
  30
0.0
  11
 152.000
  21
 363.345
  31
0.0
   0
LINE
   8
LEVEL003
   6
CONTINUOUS
  62
7
  10
 152.000
  20
 363.345
  30
0.0
  11
 150.000
  21
 362.191
  31
0.0
   0
LINE
   8
LEVEL003
   6
CONTINUOUS
  62
7
  10
 150.000
  20
 362.191
  30
0.0
  11
 148.000
  21
 363.345
  31
0.0
   0
LINE
   8
LEVEL003
   6
CONTINUOUS
  62
7
  10
 148.000
  20
 363.345
  30
0.0
  11
 148.000
  21
 365.655
  31
0.0
   0
LINE
   8
LEVEL003
   6
CONTINUOUS
  62
7
  10
 148.000
  20
 365.655
  30
0.0
  11
 150.000
  21
 366.809
  31
0.0
   0
CIRCLE
   8
LEVEL003
   6
CONTINUOUS
  62
7
  10
 150.000
  20
 364.500
  30
0.0
  40
 4.00000
   0
CIRCLE
   8
LEVEL003
   6
CONTINUOUS
  62
3
  10
 150.000
  20
 364.500
  30
0.0
  40
 3.37500
   0
ARC
   8
LEVEL003
   6
CONTINUOUS
  62
7
  10
 82.9729
  20
 364.500
  30
0.0
  40
 21.9729
  50
 162.412
  51
 197.588
   0
ARC
   8
LEVEL003
   6
CONTINUOUS
  62
7
  10
 73.0136
  20
 376.000
  30
0.0
  40
 12.0136
  50
 180.000
  51
 203.865
   0
ARC
   8
LEVEL003
   6
CONTINUOUS
  62
7
  10
 73.0136
  20
 353.000
  30
0.0
  40
 12.0136
  50
 156.135
  51
 180.000
   0
LINE
   8
LEVEL001
   6
CONTINUOUS
  62
7
  10
 52.4075
  20
 352.292
  30
0.0
  11
 52.4075
  21
 359.500
  31
0.0
   0
LINE
   8
LEVEL001
   6
CONTINUOUS
  62
7
  10
 52.4075
  20
 369.500
  30
0.0
  11
 52.4075
  21
 376.708
  31
0.0
   0
ARC
   8
LEVEL001
   6
CONTINUOUS
  62
7
  10
 45.4075
  20
 346.915
  30
0.0
  40
 3.00000
  50
 98.5311
  51
 179.999
   0
ARC
   8
LEVEL001
   6
CONTINUOUS
  62
7
  10
 33.1830
  20
 341.643
  30
0.0
  40
 2.00000
  50
 188.884
  51
 270.000
   0
LINE
   8
LEVEL001
   6
CONTINUOUS
  62
7
  10
 30.4075
  20
 347.207
  30
0.0
  11
 30.4075
  21
 381.790
  31
0.0
   0
ARC
   8
LEVEL001
   6
CONTINUOUS
  62
7
  10
 179.407
  20
 364.499
  30
0.0
  40
 150.000
  50
 186.620
  51
 188.884
   0
LINE
   8
LEVEL001
   6
CONTINUOUS
  62
7
  10
 41.4075
  20
 339.643
  30
0.0
  11
 33.1830
  21
 339.643
  31
0.0
   0
ARC
   8
LEVEL001
   6
CONTINUOUS
  62
7
  10
 41.4075
  20
 340.643
  30
0.0
  40
 1.00000
  50
 270.000
  51
 0.143303E-9
   0
LINE
   8
LEVEL001
   6
CONTINUOUS
  62
7
  10
 42.4075
  20
 340.643
  30
0.0
  11
 42.4075
  21
 364.500
  31
0.0
   0
ARC
   8
LEVEL010
   6
CONTINUOUS
  62
7
  10
 41.4075
  20
 352.026
  30
0.0
  40
 1.00000
  50
 270.000
  51
 0.390827E-10
   0
ARC
   8
LEVEL010
   6
CONTINUOUS
  62
7
  10
 33.2070
  20
 353.026
  30
0.0
  40
 2.00000
  50
 180.000
  51
 270.000
   0
LINE
   8
LEVEL010
   6
CONTINUOUS
  62
7
  10
 30.4075
  20
 361.000
  30
0.0
  11
 31.2167
  21
 352.829
  31
0.0
   0
ARC
   8
LEVEL010
   6
CONTINUOUS
  62
7
  10
 41.4075
  20
 350.026
  30
0.0
  40
 1.00000
  50
0.0
  51
 90.0000
   0
ARC
   8
LEVEL010
   6
CONTINUOUS
  62
7
  10
 33.2070
  20
 349.026
  30
0.0
  40
 2.00000
  50
 90.0000
  51
 180.000
   0
LINE
   8
LEVEL010
   6
CONTINUOUS
  62
7
  10
 41.4075
  20
 351.026
  30
0.0
  11
 33.2070
  21
 351.026
  31
0.0
   0
LINE
   8
LEVEL010
   6
CONTINUOUS
  62
7
  10
 31.2070
  20
 349.026
  30
0.0
  11
 31.2070
  21
 343.525
  31
0.0
   0
LINE
   8
LEVEL010
   6
CONTINUOUS
  62
7
  10
 41.4075
  20
 361.000
  30
0.0
  11
 33.2070
  21
 361.000
  31
0.0
   0
ARC
   8
LEVEL001
   6
CONTINUOUS
  62
7
  10
 45.4075
  20
 382.082
  30
0.0
  40
 3.00000
  50
 179.999
  51
 261.469
   0
ARC
   8
LEVEL001
   6
CONTINUOUS
  62
7
  10
 41.4075
  20
 388.355
  30
0.0
  40
 1.00000
  50
0.0
  51
 90.0000
   0
ARC
   8
LEVEL001
   6
CONTINUOUS
  62
7
  10
 33.1830
  20
 387.355
  30
0.0
  40
 2.00000
  50
 89.9999
  51
 171.117
   0
LINE
   8
LEVEL001
   6
CONTINUOUS
  62
7
  10
 41.4075
  20
 389.355
  30
0.0
  11
 33.1830
  21
 389.355
  31
0.0
   0
ARC
   8
LEVEL001
   6
CONTINUOUS
  62
7
  10
 179.408
  20
 364.499
  30
0.0
  40
 150.000
  50
 171.116
  51
 173.380
   0
LINE
   8
LEVEL001
   6
CONTINUOUS
  62
7
  10
 42.4075
  20
 364.500
  30
0.0
  11
 42.4075
  21
 388.355
  31
0.0
   0
ARC
   8
LEVEL010
   6
CONTINUOUS
  62
7
  10
 41.4075
  20
 376.974
  30
0.0
  40
 1.00000
  50
0.0
  51
 90.0000
   0
ARC
   8
LEVEL010
   6
CONTINUOUS
  62
7
  10
 33.2070
  20
 375.974
  30
0.0
  40
 2.00000
  50
 90.0000
  51
 180.000
   0
LINE
   8
LEVEL010
   6
CONTINUOUS
  62
7
  10
 30.4075
  20
 368.000
  30
0.0
  11
 31.2167
  21
 376.171
  31
0.0
   0
ARC
   8
LEVEL010
   6
CONTINUOUS
  62
7
  10
 41.4075
  20
 378.974
  30
0.0
  40
 1.00000
  50
 270.000
  51
0.0
   0
ARC
   8
LEVEL010
   6
CONTINUOUS
  62
7
  10
 33.2070
  20
 379.974
  30
0.0
  40
 2.00000
  50
 180.000
  51
 270.000
   0
LINE
   8
LEVEL010
   6
CONTINUOUS
  62
7
  10
 41.4075
  20
 377.974
  30
0.0
  11
 33.2070
  21
 377.974
  31
0.0
   0
LINE
   8
LEVEL010
   6
CONTINUOUS
  62
7
  10
 31.2070
  20
 379.974
  30
0.0
  11
 31.2070
  21
 385.475
  31
0.0
   0
LINE
   8
LEVEL010
   6
CONTINUOUS
  62
7
  10
 41.4075
  20
 368.000
  30
0.0
  11
 33.2070
  21
 368.000
  31
0.0
   0
ARC
   8
LEVEL001
   6
CONTINUOUS
  62
7
  10
 50.4075
  20
 376.276
  30
0.0
  40
 2.00000
  50
 0.768312E-3
  51
 81.4689
   0
LINE
   8
LEVEL001
   6
CONTINUOUS
  62
7
  10
 50.7042
  20
 378.254
  30
0.0
  11
 44.9625
  21
 379.115
  31
0.0
   0
LINE
   8
LEVEL001
   6
CONTINUOUS
  62
7
  10
 52.4075
  20
 364.500
  30
0.0
  11
 52.4075
  21
 376.276
  31
0.0
   0
ARC
   8
LEVEL001
   6
CONTINUOUS
  62
7
  10
 50.4075
  20
 352.721
  30
0.0
  40
 2.00000
  50
 278.531
  51
 0.980216E-3
   0
LINE
   8
LEVEL001
   6
CONTINUOUS
  62
7
  10
 50.7042
  20
 350.743
  30
0.0
  11
 44.9625
  21
 349.882
  31
0.0
   0
LINE
   8
LEVEL001
   6
CONTINUOUS
  62
7
  10
 52.4075
  20
 352.721
  30
0.0
  11
 52.4075
  21
 364.500
  31
0.0
   0
ARC
   8
LEVEL001
   6
CONTINUOUS
  62
7
  10
 179.408
  20
 364.500
  30
0.0
  40
 150.000
  50
 170.951
  51
 189.049
   0
LINE
   8
LEVEL001
   6
CONTINUOUS
  62
7
  10
 52.4075
  20
 358.149
  30
0.0
  11
 61.0000
  21
 358.149
  31
0.0
   0
LINE
   8
LEVEL001
   6
CONTINUOUS
  62
7
  10
 52.4075
  20
 370.849
  30
0.0
  11
 61.0000
  21
 370.849
  31
0.0
   0
LINE
   8
LEVEL001
   6
DASHDOT
  62
1
  10
 26.0067
  20
 364.500
  30
0.0
  11
 160.705
  21
 364.500
  31
0.0
   0
LINE
   8
LEVEL003
   6
CONTINUOUS
  62
7
  10
 68.5000
  20
 351.221
  30
0.0
  11
 62.0271
  21
 351.221
  31
0.0
   0
LINE
   8
LEVEL003
   6
CONTINUOUS
  62
7
  10
 62.0271
  20
 351.221
  30
0.0
  11
 61.0000
  21
 353.000
  31
0.0
   0
LINE
   8
LEVEL003
   6
CONTINUOUS
  62
7
  10
 61.0000
  20
 353.000
  30
0.0
  11
 61.0000
  21
 376.000
  31
0.0
   0
LINE
   8
LEVEL003
   6
CONTINUOUS
  62
7
  10
 61.0000
  20
 376.000
  30
0.0
  11
 62.0271
  21
 377.779
  31
0.0
   0
LINE
   8
LEVEL003
   6
CONTINUOUS
  62
7
  10
 62.0271
  20
 377.779
  30
0.0
  11
 68.5000
  21
 377.779
  31
0.0
   0
LINE
   8
LEVEL003
   6
CONTINUOUS
  62
7
  10
 68.5000
  20
 357.860
  30
0.0
  11
 62.0271
  21
 357.860
  31
0.0
   0
LINE
   8
LEVEL003
   6
CONTINUOUS
  62
7
  10
 68.5000
  20
 371.140
  30
0.0
  11
 62.0271
  21
 371.140
  31
0.0
   0
ARC
   8
LEVEL010
   6
CONTINUOUS
  62
7
  10
 101.500
  20
 466.000
  30
0.0
  40
 2.00000
  50
 270.000
  51
0.0
   0
LINE
   8
LEVEL010
   6
CONTINUOUS
  62
7
  10
 101.500
  20
 443.000
  30
0.0
  11
 104.000
  21
 443.000
  31
0.0
   0
LINE
   8
LEVEL010
   6
CONTINUOUS
  62
7
  10
 101.500
  20
 434.500
  30
0.0
  11
 101.500
  21
 464.000
  31
0.0
   0
ARC
   8
LEVEL010
   6
CONTINUOUS
  62
7
  10
 101.500
  20
 449.625
  30
0.0
  40
 2.00000
  50
 270.000
  51
0.0
   0
LINE
   8
LEVEL010
   6
CONTINUOUS
  62
7
  10
 101.500
  20
 449.000
  30
0.0
  11
 96.5000
  21
 449.000
  31
0.0
   0
LINE
   8
LEVEL010
   6
CONTINUOUS
  62
7
  10
 96.5000
  20
 449.000
  30
0.0
  11
 96.5000
  21
 459.000
  31
0.0
   0
LINE
   8
LEVEL010
   6
CONTINUOUS
  62
7
  10
 96.5000
  20
 459.000
  30
0.0
  11
 101.500
  21
 459.000
  31
0.0
   0
LINE
   8
LEVEL010
   6
CONTINUOUS
  62
7
  10
 96.5000
  20
 449.000
  30
0.0
  11
 95.5000
  21
 450.000
  31
0.0
   0
LINE
   8
LEVEL010
   6
CONTINUOUS
  62
7
  10
 95.5000
  20
 450.000
  30
0.0
  11
 95.5000
  21
 458.000
  31
0.0
   0
LINE
   8
LEVEL010
   6
CONTINUOUS
  62
7
  10
 95.5000
  20
 458.000
  30
0.0
  11
 96.5000
  21
 459.000
  31
0.0
   0
ARC
   8
LEVEL010
   6
CONTINUOUS
  62
7
  10
 138.500
  20
 466.000
  30
0.0
  40
 2.00000
  50
 180.000
  51
 270.000
   0
LINE
   8
LEVEL010
   6
CONTINUOUS
  62
7
  10
 136.000
  20
 443.000
  30
0.0
  11
 138.500
  21
 443.000
  31
0.0
   0
LINE
   8
LEVEL010
   6
CONTINUOUS
  62
7
  10
 138.500
  20
 434.500
  30
0.0
  11
 138.500
  21
 464.000
  31
0.0
   0
ARC
   8
LEVEL010
   6
CONTINUOUS
  62
7
  10
 138.500
  20
 449.625
  30
0.0
  40
 2.00000
  50
 180.000
  51
 270.000
   0
LINE
   8
LEVEL010
   6
CONTINUOUS
  62
7
  10
 138.500
  20
 459.000
  30
0.0
  11
 143.500
  21
 459.000
  31
0.0
   0
LINE
   8
LEVEL010
   6
CONTINUOUS
  62
7
  10
 143.500
  20
 459.000
  30
0.0
  11
 143.500
  21
 449.000
  31
0.0
   0
LINE
   8
LEVEL010
   6
CONTINUOUS
  62
7
  10
 143.500
  20
 449.000
  30
0.0
  11
 138.500
  21
 449.000
  31
0.0
   0
LINE
   8
LEVEL010
   6
CONTINUOUS
  62
7
  10
 143.500
  20
 459.000
  30
0.0
  11
 144.500
  21
 458.000
  31
0.0
   0
LINE
   8
LEVEL010
   6
CONTINUOUS
  62
7
  10
 144.500
  20
 458.000
  30
0.0
  11
 144.500
  21
 450.000
  31
0.0
   0
LINE
   8
LEVEL010
   6
CONTINUOUS
  62
7
  10
 144.500
  20
 450.000
  30
0.0
  11
 143.500
  21
 449.000
  31
0.0
   0
ARC
   8
LEVEL010
   6
CONTINUOUS
  62
7
  10
 136.500
  20
 434.500
  30
0.0
  40
 2.00000
  50
 270.000
  51
0.0
   0
LINE
   8
LEVEL010
   6
CONTINUOUS
  62
7
  10
 136.000
  20
 432.500
  30
0.0
  11
 136.500
  21
 432.500
  31
0.0
   0
ARC
   8
LEVEL010
   6
CONTINUOUS
  62
7
  10
 103.500
  20
 434.500
  30
0.0
  40
 2.00000
  50
 180.000
  51
 270.000
   0
LINE
   8
LEVEL010
   6
CONTINUOUS
  62
7
  10
 110.500
  20
 463.631
  30
0.0
  11
 110.500
  21
 470.081
  31
0.0
   0
LINE
   8
LEVEL010
   6
CONTINUOUS
  62
7
  10
 110.500
  20
 470.081
  30
0.0
  11
 129.500
  21
 470.081
  31
0.0
   0
LINE
   8
LEVEL010
   6
CONTINUOUS
  62
7
  10
 129.500
  20
 470.081
  30
0.0
  11
 129.500
  21
 463.631
  31
0.0
   0
LINE
   8
LEVEL010
   6
CONTINUOUS
  62
7
  10
 104.000
  20
 443.000
  30
0.0
  11
 110.500
  21
 447.643
  31
0.0
   0
LINE
   8
LEVEL010
   6
CONTINUOUS
  62
7
  10
 136.000
  20
 443.000
  30
0.0
  11
 129.500
  21
 447.643
  31
0.0
   0
LINE
   8
LEVEL001
   6
DASHDOT
  62
1
  10
 92.7384
  20
 454.000
  30
0.0
  11
 147.391
  21
 454.000
  31
0.0
   0
LINE
   8
LEVEL010
   6
CONTINUOUS
  62
7
  10
 104.000
  20
 432.500
  30
0.0
  11
 103.500
  21
 432.500
  31
0.0
   0
LINE
   8
LEVEL001
   6
DASHDOT
  62
1
  10
 99.0000
  20
 461.952
  30
0.0
  11
 99.0000
  21
 448.373
  31
0.0
   0
LINE
   8
LEVEL001
   6
CONTINUOUS
  62
7
  10
 99.8000
  20
 460.250
  30
0.0
  11
 99.8000
  21
 459.000
  31
0.0
   0
LINE
   8
LEVEL001
   6
CONTINUOUS
  62
7
  10
 98.2000
  20
 460.250
  30
0.0
  11
 98.2000
  21
 459.000
  31
0.0
   0
ARC
   8
LEVEL001
   6
CONTINUOUS
  62
7
  10
 99.0000
  20
 460.250
  30
0.0
  40
 0.800000
  50
0.0
  51
 180.000
   0
LINE
   8
LEVEL001
   6
CONTINUOUS
  62
7
  10
 99.8000
  20
 451.375
  30
0.0
  11
 99.8000
  21
 457.775
  31
0.0
   0
LINE
   8
LEVEL001
   6
CONTINUOUS
  62
7
  10
 98.2000
  20
 457.775
  30
0.0
  11
 98.2000
  21
 451.375
  31
0.0
   0
ARC
   8
LEVEL001
   6
CONTINUOUS
  62
7
  10
 99.0000
  20
 457.775
  30
0.0
  40
 0.800000
  50
0.0
  51
 180.000
   0
ARC
   8
LEVEL001
   6
CONTINUOUS
  62
7
  10
 99.0000
  20
 451.375
  30
0.0
  40
 0.800000
  50
 180.000
  51
0.0
   0
LINE
   8
LEVEL001
   6
CONTINUOUS
  62
7
  10
 101.250
  20
 449.000
  30
0.0
  11
 101.250
  21
 439.000
  31
0.0
   0
LINE
   8
LEVEL001
   6
CONTINUOUS
  62
7
  10
 101.250
  20
 439.000
  30
0.0
  11
 101.500
  21
 439.000
  31
0.0
   0
LINE
   8
LEVEL001
   6
CONTINUOUS
  62
7
  10
 101.250
  20
 439.000
  30
0.0
  11
 100.250
  21
 440.000
  31
0.0
   0
LINE
   8
LEVEL001
   6
CONTINUOUS
  62
7
  10
 100.250
  20
 448.000
  30
0.0
  11
 100.250
  21
 440.000
  31
0.0
   0
LINE
   8
LEVEL001
   6
CONTINUOUS
  62
7
  10
 101.250
  20
 449.000
  30
0.0
  11
 100.250
  21
 448.000
  31
0.0
   0
LINE
   8
LEVEL003
   6
DASHDOT
  62
1
  10
 97.0528
  20
 444.000
  30
0.0
  11
 142.053
  21
 444.000
  31
0.0
   0
LINE
   8
LEVEL001
   6
DASHDOT
  62
1
  10
 141.000
  20
 461.952
  30
0.0
  11
 141.000
  21
 448.373
  31
0.0
   0
LINE
   8
LEVEL001
   6
CONTINUOUS
  62
7
  10
 141.800
  20
 460.250
  30
0.0
  11
 141.800
  21
 459.000
  31
0.0
   0
ARC
   8
LEVEL001
   6
CONTINUOUS
  62
7
  10
 141.000
  20
 460.250
  30
0.0
  40
 0.800000
  50
0.0
  51
 180.000
   0
LINE
   8
LEVEL001
   6
CONTINUOUS
  62
7
  10
 140.200
  20
 460.250
  30
0.0
  11
 140.200
  21
 459.000
  31
0.0
   0
LINE
   8
LEVEL001
   6
CONTINUOUS
  62
7
  10
 140.200
  20
 451.375
  30
0.0
  11
 140.200
  21
 457.775
  31
0.0
   0
LINE
   8
LEVEL001
   6
CONTINUOUS
  62
7
  10
 141.800
  20
 457.775
  30
0.0
  11
 141.800
  21
 451.375
  31
0.0
   0
ARC
   8
LEVEL001
   6
CONTINUOUS
  62
7
  10
 141.000
  20
 457.775
  30
0.0
  40
 0.800000
  50
0.0
  51
 180.000
   0
ARC
   8
LEVEL001
   6
CONTINUOUS
  62
7
  10
 141.000
  20
 451.375
  30
0.0
  40
 0.800000
  50
 180.000
  51
0.0
   0
LINE
   8
LEVEL001
   6
CONTINUOUS
  62
7
  10
 138.750
  20
 449.000
  30
0.0
  11
 138.750
  21
 439.000
  31
0.0
   0
LINE
   8
LEVEL001
   6
CONTINUOUS
  62
7
  10
 138.750
  20
 449.000
  30
0.0
  11
 139.750
  21
 448.000
  31
0.0
   0
LINE
   8
LEVEL001
   6
CONTINUOUS
  62
7
  10
 138.750
  20
 439.000
  30
0.0
  11
 138.500
  21
 439.000
  31
0.0
   0
LINE
   8
LEVEL001
   6
CONTINUOUS
  62
7
  10
 138.750
  20
 439.000
  30
0.0
  11
 139.750
  21
 440.000
  31
0.0
   0
LINE
   8
LEVEL001
   6
CONTINUOUS
  62
7
  10
 139.750
  20
 448.000
  30
0.0
  11
 139.750
  21
 440.000
  31
0.0
   0
LINE
   8
LEVEL001
   6
CONTINUOUS
  62
7
  10
 169.611
  20
 392.476
  30
0.0
  11
 153.794
  21
 398.706
  31
0.0
   0
LINE
   8
LEVEL001
   6
CONTINUOUS
  62
7
  10
 150.291
  20
 389.815
  30
0.0
  11
 153.794
  21
 398.706
  31
0.0
   0
LINE
   8
LEVEL001
   6
CONTINUOUS
  62
7
  10
 153.794
  20
 398.706
  30
0.0
  11
 154.515
  21
 399.067
  31
0.0
   0
LINE
   8
LEVEL001
   6
CONTINUOUS
  62
7
  10
 154.515
  20
 399.067
  30
0.0
  11
 169.329
  21
 393.232
  31
0.0
   0
LINE
   8
LEVEL001
   6
CONTINUOUS
  62
7
  10
 169.329
  20
 393.232
  30
0.0
  11
 169.611
  21
 392.476
  31
0.0
   0
LINE
   8
LEVEL001
   6
CONTINUOUS
  62
7
  10
 169.611
  20
 392.476
  30
0.0
  11
 166.109
  21
 383.585
  31
0.0
   0
ARC
   8
LEVEL001
   6
CONTINUOUS
  62
7
  10
 120.000
  20
 365.000
  30
0.0
  40
 41.5000
  50
 41.1146
  51
 53.8173
   0
ARC
   8
LEVEL001
   6
CONTINUOUS
  62
7
  10
 120.000
  20
 464.106
  30
0.0
  40
 18.2500
  50
 154.704
  51
 180.000
   0
ARC
   8
LEVEL001
   6
CONTINUOUS
  62
7
  10
 120.000
  20
 463.479
  30
0.0
  40
 18.2500
  50
 154.704
  51
 178.031
   0
ARC
   8
LEVEL001
   6
CONTINUOUS
  62
7
  10
 120.000
  20
 464.106
  30
0.0
  40
 18.2500
  50
 0.178460E-11
  51
 25.2964
   0
ARC
   8
LEVEL001
   6
CONTINUOUS
  62
7
  10
 120.000
  20
 463.479
  30
0.0
  40
 18.2500
  50
 1.96882
  51
 25.2964
   0
ARC
   8
LEVEL001
   6
CONTINUOUS
  62
7
  10
 120.000
  20
 464.106
  30
0.0
  40
 18.2500
  50
 51.6775
  51
 128.323
   0
ARC
   8
LEVEL001
   6
CONTINUOUS
  62
7
  10
 120.000
  20
 463.479
  30
0.0
  40
 18.2500
  50
 102.661
  51
 125.026
   0
ARC
   8
LEVEL001
   6
CONTINUOUS
  62
7
  10
 120.000
  20
 463.479
  30
0.0
  40
 18.2500
  50
 54.9737
  51
 77.3392
   0
LINE
   8
LEVEL001
   6
CONTINUOUS
  62
7
  10
 124.000
  20
 481.913
  30
0.0
  11
 124.000
  21
 480.424
  31
0.0
   0
ARC
   8
LEVEL001
   6
CONTINUOUS
  62
7
  10
 126.000
  20
 480.424
  30
0.0
  40
 2.00000
  50
 180.000
  51
 270.000
   0
LINE
   8
LEVEL001
   6
CONTINUOUS
  62
7
  10
 116.000
  20
 480.424
  30
0.0
  11
 116.000
  21
 481.913
  31
0.0
   0
ARC
   8
LEVEL001
   6
CONTINUOUS
  62
7
  10
 114.000
  20
 480.424
  30
0.0
  40
 2.00000
  50
 270.000
  51
 0.227982E-10
   0
ARC
   8
LEVEL010
   6
CONTINUOUS
  62
7
  10
 135.500
  20
 472.000
  30
0.0
  40
 1.00000
  50
0.0
  51
 90.0000
   0
ARC
   8
LEVEL010
   6
CONTINUOUS
  62
7
  10
 135.500
  20
 473.000
  30
0.0
  40
 1.00000
  50
0.0
  51
 90.0000
   0
ARC
   8
LEVEL010
   6
CONTINUOUS
  62
7
  10
 104.500
  20
 472.000
  30
0.0
  40
 1.00000
  50
 90.0000
  51
 180.000
   0
LINE
   8
LEVEL010
   6
CONTINUOUS
  62
7
  10
 104.500
  20
 473.000
  30
0.0
  11
 135.500
  21
 473.000
  31
0.0
   0
ARC
   8
LEVEL010
   6
CONTINUOUS
  62
7
  10
 104.500
  20
 473.000
  30
0.0
  40
 1.00000
  50
 90.0000
  51
 180.000
   0
LINE
   8
LEVEL010
   6
CONTINUOUS
  62
7
  10
 104.500
  20
 474.000
  30
0.0
  11
 135.500
  21
 474.000
  31
0.0
   0
LINE
   8
LEVEL010
   6
CONTINUOUS
  62
7
  10
 136.500
  20
 477.424
  30
0.0
  11
 136.500
  21
 449.625
  31
0.0
   0
ARC
   8
LEVEL010
   6
CONTINUOUS
  62
7
  10
 135.500
  20
 477.424
  30
0.0
  40
 1.00000
  50
0.0
  51
 90.0000
   0
LINE
   8
LEVEL001
   6
CONTINUOUS
  62
7
  10
 135.500
  20
 478.424
  30
0.0
  11
 126.000
  21
 478.424
  31
0.0
   0
LINE
   8
LEVEL010
   6
CONTINUOUS
  62
7
  10
 103.500
  20
 449.625
  30
0.0
  11
 103.500
  21
 477.424
  31
0.0
   0
ARC
   8
LEVEL010
   6
CONTINUOUS
  62
7
  10
 104.500
  20
 477.424
  30
0.0
  40
 1.00000
  50
 90.0000
  51
 180.000
   0
LINE
   8
LEVEL001
   6
CONTINUOUS
  62
7
  10
 114.000
  20
 478.424
  30
0.0
  11
 104.500
  21
 478.424
  31
0.0
   0
LINE
   8
LEVEL001
   6
DASHDOT
  62
1
  10
 120.000
  20
 517.080
  30
0.0
  11
 120.000
  21
 290.000
  31
0.0
   0
LINE
   8
LEVEL001
   6
DASHDOT
  62
1
  10
 70.0000
  20
 389.000
  30
0.0
  11
 120.000
  21
 389.000
  31
0.0
   0
ARC
   8
LEVEL001
   6
CONTINUOUS
  62
7
  10
 69.0000
  20
 326.000
  30
0.0
  40
 15.0000
  50
 270.000
  51
0.0
   0
LINE
   8
LEVEL001
   6
CONTINUOUS
  62
7
  10
 56.0000
  20
 311.000
  30
0.0
  11
 69.0000
  21
 311.000
  31
0.0
   0
ARC
   8
LEVEL001
   6
CONTINUOUS
  62
7
  10
 56.0000
  20
 310.000
  30
0.0
  40
 1.00000
  50
 90.0000
  51
 180.000
   0
ARC
   8
LEVEL001
   6
CONTINUOUS
  62
7
  10
 171.000
  20
 326.000
  30
0.0
  40
 15.0000
  50
 180.000
  51
 270.000
   0
LINE
   8
LEVEL001
   6
CONTINUOUS
  62
7
  10
 184.000
  20
 311.000
  30
0.0
  11
 171.000
  21
 311.000
  31
0.0
   0
ARC
   8
LEVEL001
   6
CONTINUOUS
  62
7
  10
 184.000
  20
 310.000
  30
0.0
  40
 1.00000
  50
0.0
  51
 90.0000
   0
LINE
   8
LEVEL001
   6
CONTINUOUS
  62
7
  10
 84.0000
  20
 334.491
  30
0.0
  11
 84.0000
  21
 326.000
  31
0.0
   0
LINE
   8
LEVEL001
   6
CONTINUOUS
  62
7
  10
 156.000
  20
 338.863
  30
0.0
  11
 156.000
  21
 326.000
  31
0.0
   0
ARC
   8
LEVEL001
   6
CONTINUOUS
  62
7
  10
 120.000
  20
 389.000
  30
0.0
  40
 44.0000
  50
 8.52460
  51
 52.9672
   0
ARC
   8
LEVEL001
   6
CONTINUOUS
  62
7
  10
 120.000
  20
 389.000
  30
0.0
  40
 47.0000
  50
 6.43264
  51
 55.6789
   0
ARC
   8
LEVEL001
   6
CONTINUOUS
  62
7
  10
 120.000
  20
 389.000
  30
0.0
  40
 47.0000
  50
 60.7318
  51
 69.2277
   0
ARC
   8
LEVEL001
   6
CONTINUOUS
  62
7
  10
 120.000
  20
 389.000
  30
0.0
  40
 47.0000
  50
 111.649
  51
 119.268
   0
LINE
   8
LEVEL001
   6
CONTINUOUS
  62
7
  10
 185.000
  20
 310.000
  30
0.0
  11
 185.000
  21
 309.000
  31
0.0
   0
TEXT
   8
LEVEL003
  62
3
  10
 180.000
  20
 440.000
  30
0.0
  40
 16.0000
   1
Ｒｃ３／８
   7
STANDARD
   0
LINE
   8
LEVEL003
   6
CONTINUOUS
  62
3
  10
 125.150
  20
 371.049
  30
0.0
  11
 178.462
  21
 438.846
  31
0.0
   0
LINE
   8
LEVEL003
   6
CONTINUOUS
  62
3
  10
 178.462
  20
 438.846
  30
0.0
  11
 263.077
  21
 438.846
  31
0.0
   0
LINE
   8
LEVEL003
   6
CONTINUOUS
  62
3
  10
 125.150
  20
 371.049
  30
0.0
  11
 134.230
  21
 379.174
  31
0.0
   0
LINE
   8
LEVEL003
   6
CONTINUOUS
  62
3
  10
 125.150
  20
 371.049
  30
0.0
  11
 130.904
  21
 381.790
  31
0.0
   0
LINE
   8
LEVEL001
   6
CONTINUOUS
  62
7
  10
 339.659
  20
 308.994
  30
0.0
  11
 389.623
  21
 310.889
  31
0.0
   0
LINE
   8
LEVEL001
   6
CONTINUOUS
  62
7
  10
 389.623
  20
 310.889
  30
0.0
  11
 389.964
  21
 301.896
  31
0.0
   0
LINE
   8
LEVEL001
   6
CONTINUOUS
  62
7
  10
 389.964
  20
 301.896
  30
0.0
  11
 340.000
  21
 300.000
  31
0.0
   0
LINE
   8
LEVEL001
   6
CONTINUOUS
  62
7
  10
 340.000
  20
 300.000
  30
0.0
  11
 339.659
  21
 308.994
  31
0.0
   0
LINE
   8
LEVEL003
   6
CONTINUOUS
  62
7
  10
 379.539
  20
 431.594
  30
0.0
  11
 380.576
  21
 430.632
  31
0.0
   0
LINE
   8
LEVEL001
   6
CONTINUOUS
  62
7
  10
 319.535
  20
 441.669
  30
0.0
  11
 318.081
  21
 433.796
  31
0.0
   0
LINE
   8
LEVEL001
   6
CONTINUOUS
  62
7
  10
 380.576
  20
 430.632
  30
0.0
  11
 380.993
  21
 419.640
  31
0.0
   0
ARC
   8
LEVEL001
   6
CONTINUOUS
  62
7
  10
 381.125
  20
 416.179
  30
0.0
  40
 2.00000
  50
 122.173
  51
 182.173
   0
ARC
   8
LEVEL001
   6
CONTINUOUS
  62
7
  10
 378.995
  20
 419.564
  30
0.0
  40
 2.00000
  50
 302.173
  51
 2.17291
   0
ARC
   8
LEVEL001
   6
CONTINUOUS
  62
7
  10
 384.238
  20
 413.259
  30
0.0
  40
 5.00000
  50
 182.173
  51
 272.173
   0
LINE
   8
LEVEL001
   6
CONTINUOUS
  62
7
  10
 379.126
  20
 416.103
  30
0.0
  11
 379.241
  21
 413.069
  31
0.0
   0
ARC
   8
LEVEL001
   6
CONTINUOUS
  62
7
  10
 335.375
  20
 316.402
  30
0.0
  40
 4.00000
  50
 2.17291
  51
 92.1729
   0
ARC
   8
LEVEL001
   6
CONTINUOUS
  62
7
  10
 393.222
  20
 321.533
  30
0.0
  40
 4.00000
  50
 92.1729
  51
 182.173
   0
LINE
   8
LEVEL001
   6
CONTINUOUS
  62
7
  10
 325.154
  20
 322.019
  30
0.0
  11
 324.697
  21
 334.076
  31
0.0
   0
ARC
   8
LEVEL001
   6
CONTINUOUS
  62
7
  10
 327.153
  20
 322.095
  30
0.0
  40
 2.00000
  50
 182.173
  51
 272.173
   0
LINE
   8
LEVEL001
   6
CONTINUOUS
  62
7
  10
 335.223
  20
 320.399
  30
0.0
  11
 327.229
  21
 320.096
  31
0.0
   0
ARC
   8
LEVEL001
   6
CONTINUOUS
  62
7
  10
 320.700
  20
 333.925
  30
0.0
  40
 4.00000
  50
 2.17291
  51
 92.1729
   0
ARC
   8
LEVEL001
   6
CONTINUOUS
  62
7
  10
 331.559
  20
 364.219
  30
0.0
  40
 28.7500
  50
 246.268
  51
 254.150
   0
ARC
   8
LEVEL001
   6
CONTINUOUS
  62
7
  10
 316.782
  20
 437.775
  30
0.0
  40
 2.00000
  50
 349.538
  51
 13.8280
   0
LINE
   8
LEVEL001
   6
CONTINUOUS
  62
7
  10
 318.722
  20
 438.293
  30
0.0
  11
 312.696
  21
 438.064
  31
0.0
   0
LINE
   8
LEVEL003
   6
CONTINUOUS
  62
7
  10
 328.576
  20
 429.660
  30
0.0
  11
 327.614
  21
 428.623
  31
0.0
   0
LINE
   8
LEVEL001
   6
CONTINUOUS
  62
7
  10
 327.614
  20
 428.623
  30
0.0
  11
 325.116
  21
 428.528
  31
0.0
   0
ARC
   8
LEVEL001
   6
CONTINUOUS
  62
7
  10
 324.964
  20
 432.525
  30
0.0
  40
 4.00000
  50
 139.764
  51
 272.173
   0
LINE
   8
LEVEL001
   6
CONTINUOUS
  62
7
  10
 384.427
  20
 408.262
  30
0.0
  11
 391.922
  21
 408.547
  31
0.0
   0
LINE
   8
LEVEL001
   6
CONTINUOUS
  62
7
  10
 393.070
  20
 325.531
  30
0.0
  11
 395.069
  21
 325.606
  31
0.0
   0
LINE
   8
LEVEL001
   6
CONTINUOUS
  62
7
  10
 389.225
  20
 321.382
  30
0.0
  11
 389.623
  21
 310.889
  31
0.0
   0
LINE
   8
LEVEL001
   6
CONTINUOUS
  62
7
  10
 321.968
  20
 435.175
  30
0.0
  11
 328.598
  21
 442.670
  31
0.0
   0
ARC
   8
LEVEL001
   6
CONTINUOUS
  62
7
  10
 322.485
  20
 441.124
  30
0.0
  40
 3.00000
  50
 156.210
  51
 169.538
   0
LINE
   8
LEVEL001
   6
DASHDOT
  62
1
  10
 345.875
  20
 347.257
  30
0.0
  11
 379.587
  21
 348.536
  31
0.0
   0
LINE
   8
LEVEL001
   6
DASHDOT
  62
1
  10
 350.027
  20
 352.234
  30
0.0
  11
 350.417
  21
 341.941
  31
0.0
   0
LINE
   8
LEVEL001
   6
DASHDOT
  62
1
  10
 352.937
  20
 460.166
  30
0.0
  11
 355.184
  21
 400.926
  31
0.0
   0
LINE
   8
LEVEL001
   6
DASHDOT
  62
1
  10
 292.531
  20
 362.745
  30
0.0
  11
 338.004
  21
 364.471
  31
0.0
   0
ARC
   8
LEVEL001
   6
CONTINUOUS
  62
7
  10
 983.120
  20
 335.410
  30
0.0
  40
 25.0000
  50
 182.173
  51
 255.913
   0
LINE
   8
LEVEL001
   6
CONTINUOUS
  62
7
  10
 977.035
  20
 311.161
  30
0.0
  11
 977.452
  21
 300.169
  31
0.0
   0
ARC
   8
LEVEL001
   6
CONTINUOUS
  62
7
  10
 929.954
  20
 338.769
  30
0.0
  40
 2.00000
  50
 2.17291
  51
 89.4891
   0
ARC
   8
LEVEL001
   6
CONTINUOUS
  62
7
  10
 958.730
  20
 371.613
  30
0.0
  40
 2.00000
  50
 95.1729
  51
 182.173
   0
ARC
   8
LEVEL001
   6
CONTINUOUS
  62
7
  10
 964.101
  20
 375.111
  30
0.0
  40
 1.00000
  50
 275.173
  51
 2.17291
   0
LINE
   8
LEVEL001
   6
CONTINUOUS
  62
7
  10
 957.380
  20
 354.447
  30
0.0
  11
 958.878
  21
 354.504
  31
0.0
   0
LINE
   8
LEVEL001
   6
CONTINUOUS
  62
7
  10
 958.878
  20
 354.504
  30
0.0
  11
 959.390
  21
 341.014
  31
0.0
   0
LINE
   8
LEVEL001
   6
CONTINUOUS
  62
7
  10
 959.390
  20
 341.014
  30
0.0
  11
 957.891
  21
 340.957
  31
0.0
   0
LINE
   8
LEVEL001
   6
CONTINUOUS
  62
7
  10
 907.795
  20
 342.559
  30
0.0
  11
 909.529
  21
 340.951
  31
0.0
   0
LINE
   8
LEVEL001
   6
CONTINUOUS
  62
7
  10
 904.458
  20
 430.495
  30
0.0
  11
 906.066
  21
 432.230
  31
0.0
   0
LINE
   8
LEVEL001
   6
CONTINUOUS
  62
7
  10
 958.549
  20
 373.605
  30
0.0
  11
 964.191
  21
 374.116
  31
0.0
   0
LINE
   8
LEVEL003
   6
CONTINUOUS
  62
7
  10
 395.061
  20
 325.806
  30
0.0
  11
 897.699
  21
 344.878
  31
0.0
   0
LINE
   8
LEVEL003
   6
CONTINUOUS
  62
7
  10
 391.929
  20
 408.347
  30
0.0
  11
 894.568
  21
 427.418
  31
0.0
   0
LINE
   8
LEVEL001
   6
CONTINUOUS
  62
7
  10
 977.452
  20
 300.169
  30
0.0
  11
 933.427
  21
 300.000
  31
0.0
   0
LINE
   8
LEVEL003
   6
CONTINUOUS
  62
7
  10
 298.739
  20
 385.228
  30
0.0
  11
 300.563
  21
 337.163
  31
0.0
   0
ARC
   8
LEVEL001
   6
CONTINUOUS
  62
7
  10
 324.983
  20
 432.026
  30
0.0
  40
 25.0000
  50
 139.764
  51
 182.173
   0
LINE
   8
LEVEL001
   6
CONTINUOUS
  62
7
  10
 301.588
  20
 389.255
  30
0.0
  11
 300.001
  21
 431.078
  31
0.0
   0
LINE
   8
LEVEL001
   6
CONTINUOUS
  62
7
  10
 300.563
  20
 337.163
  30
0.0
  11
 320.548
  21
 337.922
  31
0.0
   0
ARC
   8
LEVEL001
   6
CONTINUOUS
  62
7
  10
 297.591
  20
 389.103
  30
0.0
  40
 4.00000
  50
 286.498
  51
 2.17291
   0
LINE
   8
LEVEL001
   6
CONTINUOUS
  62
7
  10
 306.442
  20
 448.816
  30
0.0
  11
 305.899
  21
 448.174
  31
0.0
   0
LINE
   8
LEVEL001
   6
CONTINUOUS
  62
7
  10
 312.695
  20
 443.694
  30
0.0
  11
 311.105
  21
 435.084
  31
0.0
   0
LINE
   8
LEVEL001
   6
CONTINUOUS
  62
7
  10
 313.637
  20
 442.921
  30
0.0
  11
 312.142
  21
 434.824
  31
0.0
   0
LINE
   8
LEVEL001
   6
DASHDOT
  62
1
  10
 359.000
  20
 829.133
  30
0.0
  11
 359.000
  21
 769.782
  31
0.0
   0
LINE
   8
LEVEL001
   6
DASHDOT
  62
1
  10
 352.000
  20
 853.476
  30
0.0
  11
 352.000
  21
 807.022
  31
0.0
   0
LINE
   8
LEVEL001
   6
DASHDOT
  62
1
  10
 352.000
  20
 797.457
  30
0.0
  11
 352.000
  21
 748.722
  31
0.0
   0
LINE
   8
LEVEL001
   6
DASHDOT
  62
1
  10
 376.000
  20
 855.390
  30
0.0
  11
 376.000
  21
 748.722
  31
0.0
   0
LINE
   8
LEVEL001
   6
DASHDOT
  62
1
  10
 334.000
  20
 770.000
  30
0.0
  11
 334.000
  21
 894.801
  31
0.0
   0
LINE
   8
LEVEL001
   6
DASHDOT
  62
1
  10
 399.327
  20
 822.000
  30
0.0
  11
 300.300
  21
 822.000
  31
0.0
   0
LINE
   8
LEVEL001
   6
CONTINUOUS
  62
7
  10
 941.047
  20
 753.055
  30
0.0
  11
 940.000
  21
 753.000
  31
0.0
   0
ARC
   8
LEVEL001
   6
CONTINUOUS
  62
7
  10
 940.000
  20
 773.027
  30
0.0
  40
 20.0000
  50
 273.000
  51
 0.156331E-10
   0
ARC
   8
LEVEL001
   6
CONTINUOUS
  62
7
  10
 976.000
  20
 737.069
  30
0.0
  40
 2.00000
  50
 268.047
  51
0.0
   0
LINE
   8
LEVEL001
   6
CONTINUOUS
  62
7
  10
 975.932
  20
 735.071
  30
0.0
  11
 935.932
  21
 736.434
  31
0.0
   0
ARC
   8
LEVEL001
   6
CONTINUOUS
  62
7
  10
 936.000
  20
 738.433
  30
0.0
  40
 2.00000
  50
 180.000
  51
 268.047
   0
LINE
   8
LEVEL001
   6
CONTINUOUS
  62
7
  10
 934.000
  20
 738.433
  30
0.0
  11
 934.000
  21
 753.281
  31
0.0
   0
LINE
   8
LEVEL001
   6
CONTINUOUS
  62
7
  10
 910.000
  20
 756.000
  30
0.0
  11
 911.672
  21
 754.328
  31
0.0
   0
LINE
   8
LEVEL001
   6
CONTINUOUS
  62
7
  10
 940.000
  20
 753.000
  30
0.0
  11
 911.672
  21
 754.328
  31
0.0
   0
LINE
   8
LEVEL001
   6
CONTINUOUS
  62
7
  10
 941.047
  20
 846.945
  30
0.0
  11
 940.000
  21
 847.000
  31
0.0
   0
ARC
   8
LEVEL001
   6
CONTINUOUS
  62
7
  10
 940.000
  20
 826.973
  30
0.0
  40
 20.0000
  50
0.0
  51
 87.0000
   0
ARC
   8
LEVEL001
   6
CONTINUOUS
  62
7
  10
 976.000
  20
 862.931
  30
0.0
  40
 2.00000
  50
0.0
  51
 91.9525
   0
LINE
   8
LEVEL001
   6
CONTINUOUS
  62
7
  10
 975.932
  20
 864.929
  30
0.0
  11
 935.932
  21
 863.566
  31
0.0
   0
ARC
   8
LEVEL001
   6
CONTINUOUS
  62
7
  10
 936.000
  20
 861.567
  30
0.0
  40
 2.00000
  50
 91.9525
  51
 180.000
   0
LINE
   8
LEVEL001
   6
CONTINUOUS
  62
7
  10
 934.000
  20
 861.567
  30
0.0
  11
 934.000
  21
 846.719
  31
0.0
   0
ARC
   8
LEVEL001
   6
CONTINUOUS
  62
7
  10
 962.000
  20
 816.898
  30
0.0
  40
 2.00000
  50
 180.000
  51
 267.000
   0
LINE
   8
LEVEL001
   6
CONTINUOUS
  62
7
  10
 910.000
  20
 844.000
  30
0.0
  11
 911.672
  21
 845.672
  31
0.0
   0
LINE
   8
LEVEL001
   6
CONTINUOUS
  62
7
  10
 940.000
  20
 847.000
  30
0.0
  11
 911.672
  21
 845.672
  31
0.0
   0
ARC
   8
LEVEL003
   6
CONTINUOUS
  62
7
  10
 339.750
  20
 842.392
  30
0.0
  40
 16.6080
  50
 69.7438
  51
 110.256
   0
ARC
   8
LEVEL003
   6
CONTINUOUS
  62
7
  10
 328.250
  20
 842.392
  30
0.0
  40
 16.6080
  50
 69.7438
  51
 110.256
   0
LINE
   8
LEVEL001
   6
CONTINUOUS
  62
7
  10
 321.792
  20
 867.592
  30
0.0
  11
 329.000
  21
 867.592
  31
0.0
   0
LINE
   8
LEVEL001
   6
CONTINUOUS
  62
7
  10
 339.000
  20
 867.592
  30
0.0
  11
 346.208
  21
 867.592
  31
0.0
   0
ARC
   8
LEVEL001
   6
CONTINUOUS
  62
7
  10
 316.415
  20
 874.592
  30
0.0
  40
 3.00000
  50
 8.53108
  51
 89.9986
   0
LINE
   8
LEVEL001
   6
CONTINUOUS
  62
7
  10
 309.143
  20
 878.592
  30
0.0
  11
 309.143
  21
 886.817
  31
0.0
   0
ARC
   8
LEVEL001
   6
CONTINUOUS
  62
7
  10
 310.143
  20
 878.592
  30
0.0
  40
 1.00000
  50
 180.000
  51
 270.000
   0
LINE
   8
LEVEL001
   6
CONTINUOUS
  62
7
  10
 310.143
  20
 877.592
  30
0.0
  11
 334.000
  21
 877.592
  31
0.0
   0
ARC
   8
LEVEL010
   6
CONTINUOUS
  62
7
  10
 321.526
  20
 878.592
  30
0.0
  40
 1.00000
  50
 180.000
  51
 270.000
   0
ARC
   8
LEVEL010
   6
CONTINUOUS
  62
7
  10
 322.526
  20
 886.793
  30
0.0
  40
 2.00000
  50
 90.0000
  51
 180.000
   0
ARC
   8
LEVEL010
   6
CONTINUOUS
  62
7
  10
 319.526
  20
 878.592
  30
0.0
  40
 1.00000
  50
 270.000
  51
0.0
   0
ARC
   8
LEVEL010
   6
CONTINUOUS
  62
7
  10
 318.526
  20
 886.793
  30
0.0
  40
 2.00000
  50
0.0
  51
 90.0000
   0
LINE
   8
LEVEL010
   6
CONTINUOUS
  62
7
  10
 320.526
  20
 878.592
  30
0.0
  11
 320.526
  21
 886.793
  31
0.0
   0
LINE
   8
LEVEL010
   6
CONTINUOUS
  62
7
  10
 330.500
  20
 878.592
  30
0.0
  11
 330.500
  21
 886.793
  31
0.0
   0
ARC
   8
LEVEL001
   6
CONTINUOUS
  62
7
  10
 351.582
  20
 874.592
  30
0.0
  40
 3.00000
  50
 89.9990
  51
 171.469
   0
ARC
   8
LEVEL001
   6
CONTINUOUS
  62
7
  10
 357.855
  20
 878.592
  30
0.0
  40
 1.00000
  50
 270.000
  51
 0.820736E-9
   0
LINE
   8
LEVEL001
   6
CONTINUOUS
  62
7
  10
 358.855
  20
 878.592
  30
0.0
  11
 358.855
  21
 886.817
  31
0.0
   0
LINE
   8
LEVEL001
   6
CONTINUOUS
  62
7
  10
 334.000
  20
 877.592
  30
0.0
  11
 357.855
  21
 877.592
  31
0.0
   0
ARC
   8
LEVEL010
   6
CONTINUOUS
  62
7
  10
 346.474
  20
 878.592
  30
0.0
  40
 1.00000
  50
 270.000
  51
 0.820736E-9
   0
ARC
   8
LEVEL010
   6
CONTINUOUS
  62
7
  10
 345.474
  20
 886.793
  30
0.0
  40
 2.00000
  50
0.0
  51
 90.0000
   0
ARC
   8
LEVEL010
   6
CONTINUOUS
  62
7
  10
 348.474
  20
 878.592
  30
0.0
  40
 1.00000
  50
 180.000
  51
 270.000
   0
ARC
   8
LEVEL010
   6
CONTINUOUS
  62
7
  10
 349.474
  20
 886.793
  30
0.0
  40
 2.00000
  50
 90.0000
  51
 180.000
   0
LINE
   8
LEVEL010
   6
CONTINUOUS
  62
7
  10
 347.474
  20
 878.592
  30
0.0
  11
 347.474
  21
 886.793
  31
0.0
   0
LINE
   8
LEVEL010
   6
CONTINUOUS
  62
7
  10
 337.500
  20
 878.592
  30
0.0
  11
 337.500
  21
 886.793
  31
0.0
   0
ARC
   8
LEVEL001
   6
CONTINUOUS
  62
7
  10
 345.776
  20
 869.592
  30
0.0
  40
 2.00000
  50
 270.001
  51
 351.469
   0
LINE
   8
LEVEL001
   6
CONTINUOUS
  62
7
  10
 347.754
  20
 869.296
  30
0.0
  11
 348.615
  21
 875.038
  31
0.0
   0
LINE
   8
LEVEL001
   6
CONTINUOUS
  62
7
  10
 334.000
  20
 867.592
  30
0.0
  11
 345.776
  21
 867.592
  31
0.0
   0
ARC
   8
LEVEL001
   6
CONTINUOUS
  62
7
  10
 322.221
  20
 869.592
  30
0.0
  40
 2.00000
  50
 188.531
  51
 270.001
   0
LINE
   8
LEVEL001
   6
CONTINUOUS
  62
7
  10
 320.243
  20
 869.296
  30
0.0
  11
 319.382
  21
 875.038
  31
0.0
   0
LINE
   8
LEVEL001
   6
CONTINUOUS
  62
7
  10
 322.221
  20
 867.592
  30
0.0
  11
 334.000
  21
 867.592
  31
0.0
   0
LINE
   8
LEVEL001
   6
CONTINUOUS
  62
7
  10
 327.649
  20
 867.592
  30
0.0
  11
 327.649
  21
 859.000
  31
0.0
   0
LINE
   8
LEVEL001
   6
CONTINUOUS
  62
7
  10
 340.349
  20
 867.592
  30
0.0
  11
 340.349
  21
 859.000
  31
0.0
   0
LINE
   8
LEVEL003
   6
CONTINUOUS
  62
7
  10
 334.000
  20
 851.500
  30
0.0
  11
 334.000
  21
 857.973
  31
0.0
   0
LINE
   8
LEVEL003
   6
CONTINUOUS
  62
7
  10
 345.500
  20
 851.500
  30
0.0
  11
 345.500
  21
 859.000
  31
0.0
   0
LINE
   8
LEVEL003
   6
CONTINUOUS
  62
7
  10
 345.500
  20
 859.000
  30
0.0
  11
 322.500
  21
 859.000
  31
0.0
   0
LINE
   8
LEVEL003
   6
CONTINUOUS
  62
7
  10
 322.500
  20
 859.000
  30
0.0
  11
 322.500
  21
 851.500
  31
0.0
   0
LINE
   8
LEVEL001
   6
DOT
  62
3
  10
 302.000
  20
 808.331
  30
0.0
  11
 302.884
  21
 807.447
  31
0.0
   0
LINE
   8
LEVEL001
   6
DOT
  62
3
  10
 302.884
  20
 792.553
  30
0.0
  11
 302.000
  21
 791.669
  31
0.0
   0
LINE
   8
LEVEL001
   6
DOT
  62
3
  10
 302.000
  20
 808.331
  30
0.0
  11
 313.166
  21
 808.082
  31
0.0
   0
LINE
   8
LEVEL001
   6
DOT
  62
3
  10
 313.166
  20
 807.206
  30
0.0
  11
 302.884
  21
 807.447
  31
0.0
   0
LINE
   8
LEVEL001
   6
DOT
  62
3
  10
 302.884
  20
 807.447
  30
0.0
  11
 302.884
  21
 792.553
  31
0.0
   0
LINE
   8
LEVEL001
   6
DOT
  62
3
  10
 302.884
  20
 792.553
  30
0.0
  11
 313.166
  21
 792.794
  31
0.0
   0
LINE
   8
LEVEL001
   6
DOT
  62
3
  10
 302.000
  20
 791.669
  30
0.0
  11
 313.166
  21
 791.918
  31
0.0
   0
LINE
   8
LEVEL003
   6
CONTINUOUS
  62
7
  10
 396.000
  20
 758.700
  30
0.0
  11
 899.000
  21
 758.700
  31
0.0
   0
LINE
   8
LEVEL003
   6
CONTINUOUS
  62
7
  10
 396.000
  20
 841.300
  30
0.0
  11
 899.000
  21
 841.300
  31
0.0
   0
LINE
   8
LEVEL003
   6
CONTINUOUS
  62
7
  10
 899.000
  20
 841.300
  30
0.0
  11
 899.000
  21
 810.750
  31
0.0
   0
LINE
   8
LEVEL003
   6
CONTINUOUS
  62
7
  10
 899.000
  20
 789.250
  30
0.0
  11
 899.000
  21
 758.700
  31
0.0
   0
LINE
   8
LEVEL001
   6
CONTINUOUS
  62
7
  10
 899.000
  20
 759.650
  30
0.0
  11
 910.000
  21
 759.650
  31
0.0
   0
LINE
   8
LEVEL001
   6
CONTINUOUS
  62
7
  10
 911.672
  20
 845.672
  30
0.0
  11
 911.672
  21
 810.750
  31
0.0
   0
LINE
   8
LEVEL001
   6
CONTINUOUS
  62
7
  10
 910.000
  20
 810.750
  30
0.0
  11
 910.000
  21
 844.000
  31
0.0
   0
LINE
   8
LEVEL001
   6
CONTINUOUS
  62
7
  10
 911.672
  20
 754.328
  30
0.0
  11
 911.672
  21
 789.250
  31
0.0
   0
LINE
   8
LEVEL001
   6
CONTINUOUS
  62
7
  10
 910.000
  20
 789.250
  30
0.0
  11
 910.000
  21
 756.000
  31
0.0
   0
LINE
   8
LEVEL001
   6
CONTINUOUS
  62
7
  10
 302.000
  20
 760.500
  30
0.0
  11
 302.000
  21
 826.500
  31
0.0
   0
ARC
   8
LEVEL001
   6
CONTINUOUS
  62
7
  10
 307.000
  20
 801.500
  30
0.0
  40
 2.00000
  50
 90.0000
  51
 180.000
   0
LINE
   8
LEVEL001
   6
CONTINUOUS
  62
7
  10
 305.000
  20
 801.500
  30
0.0
  11
 305.000
  21
 798.500
  31
0.0
   0
ARC
   8
LEVEL001
   6
CONTINUOUS
  62
7
  10
 307.000
  20
 798.500
  30
0.0
  40
 2.00000
  50
 180.000
  51
 270.000
   0
LINE
   8
LEVEL001
   6
CONTINUOUS
  62
7
  10
 305.055
  20
 851.209
  30
0.0
  11
 303.327
  21
 826.500
  31
0.0
   0
ARC
   8
LEVEL001
   6
CONTINUOUS
  62
7
  10
 357.167
  20
 753.000
  30
0.0
  40
 2.00000
  50
 270.000
  51
 355.000
   0
ARC
   8
LEVEL001
   6
CONTINUOUS
  62
7
  10
 327.785
  20
 753.000
  30
0.0
  40
 2.00000
  50
 185.000
  51
 270.000
   0
LINE
   8
LEVEL001
   6
CONTINUOUS
  62
7
  10
 302.000
  20
 760.500
  30
0.0
  11
 325.122
  21
 760.500
  31
0.0
   0
ARC
   8
LEVEL001
   6
CONTINUOUS
  62
7
  10
 321.935
  20
 762.500
  30
0.0
  40
 3.00000
  50
 5.00000
  51
 90.0000
   0
LINE
   8
LEVEL001
   6
CONTINUOUS
  62
7
  10
 325.793
  20
 752.826
  30
0.0
  11
 324.924
  21
 762.761
  31
0.0
   0
LINE
   8
LEVEL001
   6
CONTINUOUS
  62
7
  10
 302.000
  20
 826.500
  30
0.0
  11
 305.542
  21
 826.500
  31
0.0
   0
ARC
   8
LEVEL001
   6
CONTINUOUS
  62
7
  10
 305.542
  20
 829.500
  30
0.0
  40
 3.00000
  50
 270.000
  51
 356.000
   0
LINE
   8
LEVEL001
   6
CONTINUOUS
  62
7
  10
 361.962
  20
 842.572
  30
0.0
  11
 363.392
  21
 826.230
  31
0.0
   0
ARC
   8
LEVEL001
   6
CONTINUOUS
  62
7
  10
 311.325
  20
 808.500
  30
0.0
  40
 5.00000
  50
 270.000
  51
 355.000
   0
ARC
   8
LEVEL001
   6
CONTINUOUS
  62
7
  10
 311.325
  20
 791.500
  30
0.0
  40
 5.00000
  50
 5.00000
  51
 90.0000
   0
ARC
   8
LEVEL001
   6
CONTINUOUS
  62
7
  10
 315.252
  20
 791.500
  30
0.0
  40
 5.00000
  50
 5.19443
  51
 90.0000
   0
ARC
   8
LEVEL001
   6
CONTINUOUS
  62
7
  10
 315.252
  20
 808.500
  30
0.0
  40
 5.00000
  50
 270.000
  51
 354.806
   0
ARC
   8
LEVEL001
   6
CONTINUOUS
  62
7
  10
 363.897
  20
 750.461
  30
0.0
  40
 5.00000
  50
 43.1339
  51
 136.375
   0
ARC
   8
LEVEL001
   6
CONTINUOUS
  62
7
  10
 369.833
  20
 754.000
  30
0.0
  40
 2.00000
  50
 192.063
  51
 270.000
   0
LINE
   8
LEVEL001
   6
CONTINUOUS
  62
7
  10
 370.250
  20
 752.000
  30
0.0
  11
 369.833
  21
 752.000
  31
0.0
   0
LINE
   8
LEVEL001
   6
CONTINUOUS
  62
7
  10
 382.898
  20
 750.685
  30
0.0
  11
 383.373
  21
 750.214
  31
0.0
   0
LINE
   8
LEVEL001
   6
CONTINUOUS
  62
7
  10
 383.373
  20
 750.214
  30
0.0
  11
 383.936
  21
 749.783
  31
0.0
   0
LINE
   8
LEVEL001
   6
CONTINUOUS
  62
7
  10
 383.936
  20
 749.783
  30
0.0
  11
 384.578
  21
 749.402
  31
0.0
   0
LINE
   8
LEVEL001
   6
CONTINUOUS
  62
7
  10
 384.578
  20
 749.402
  30
0.0
  11
 385.289
  21
 749.075
  31
0.0
   0
LINE
   8
LEVEL001
   6
CONTINUOUS
  62
7
  10
 385.289
  20
 749.075
  30
0.0
  11
 386.058
  21
 748.807
  31
0.0
   0
LINE
   8
LEVEL001
   6
CONTINUOUS
  62
7
  10
 386.058
  20
 748.807
  30
0.0
  11
 386.873
  21
 748.603
  31
0.0
   0
LINE
   8
LEVEL001
   6
CONTINUOUS
  62
7
  10
 386.873
  20
 748.603
  30
0.0
  11
 387.721
  21
 748.466
  31
0.0
   0
LINE
   8
LEVEL001
   6
CONTINUOUS
  62
7
  10
 387.721
  20
 748.466
  30
0.0
  11
 388.589
  21
 748.398
  31
0.0
   0
LINE
   8
LEVEL001
   6
CONTINUOUS
  62
7
  10
 388.589
  20
 748.398
  30
0.0
  11
 389.464
  21
 748.400
  31
0.0
   0
LINE
   8
LEVEL001
   6
CONTINUOUS
  62
7
  10
 389.464
  20
 748.400
  30
0.0
  11
 390.331
  21
 748.473
  31
0.0
   0
LINE
   8
LEVEL001
   6
CONTINUOUS
  62
7
  10
 390.331
  20
 748.473
  30
0.0
  11
 391.177
  21
 748.614
  31
0.0
   0
LINE
   8
LEVEL001
   6
CONTINUOUS
  62
7
  10
 391.177
  20
 748.614
  30
0.0
  11
 391.990
  21
 748.821
  31
0.0
   0
LINE
   8
LEVEL001
   6
CONTINUOUS
  62
7
  10
 391.990
  20
 748.821
  30
0.0
  11
 392.755
  21
 749.093
  31
0.0
   0
LINE
   8
LEVEL001
   6
CONTINUOUS
  62
7
  10
 392.755
  20
 749.093
  30
0.0
  11
 393.463
  21
 749.423
  31
0.0
   0
LINE
   8
LEVEL001
   6
CONTINUOUS
  62
7
  10
 393.463
  20
 749.423
  30
0.0
  11
 394.100
  21
 749.808
  31
0.0
   0
LINE
   8
LEVEL001
   6
CONTINUOUS
  62
7
  10
 394.100
  20
 749.808
  30
0.0
  11
 394.658
  21
 750.241
  31
0.0
   0
LINE
   8
LEVEL001
   6
CONTINUOUS
  62
7
  10
 394.658
  20
 750.241
  30
0.0
  11
 395.128
  21
 750.715
  31
0.0
   0
LINE
   8
LEVEL001
   6
CONTINUOUS
  62
7
  10
 395.128
  20
 750.715
  30
0.0
  11
 395.502
  21
 751.223
  31
0.0
   0
LINE
   8
LEVEL001
   6
CONTINUOUS
  62
7
  10
 395.502
  20
 751.223
  30
0.0
  11
 395.774
  21
 751.757
  31
0.0
   0
LINE
   8
LEVEL001
   6
CONTINUOUS
  62
7
  10
 395.774
  20
 751.757
  30
0.0
  11
 395.936
  21
 752.283
  31
0.0
   0
ARC
   8
LEVEL001
   6
CONTINUOUS
  62
7
  10
 380.864
  20
 748.385
  30
0.0
  40
 3.00000
  50
 48.5191
  51
 108.435
   0
LINE
   8
LEVEL001
   6
CONTINUOUS
  62
7
  10
 307.000
  20
 803.500
  30
0.0
  11
 315.252
  21
 803.500
  31
0.0
   0
LINE
   8
LEVEL001
   6
CONTINUOUS
  62
7
  10
 307.000
  20
 796.500
  30
0.0
  11
 315.252
  21
 796.500
  31
0.0
   0
ARC
   8
LEVEL001
   6
CONTINUOUS
  62
7
  10
 308.048
  20
 851.000
  30
0.0
  40
 3.00000
  50
 170.406
  51
 176.000
   0
ARC
   8
LEVEL001
   6
CONTINUOUS
  62
7
  10
 359.952
  20
 851.000
  30
0.0
  40
 3.00000
  50
 4.00000
  51
 9.59407
   0
LINE
   8
LEVEL001
   6
CONTINUOUS
  62
7
  10
 362.945
  20
 851.209
  30
0.0
  11
 363.470
  21
 843.707
  31
0.0
   0
ARC
   8
LEVEL001
   6
CONTINUOUS
  62
7
  10
 391.124
  20
 846.355
  30
0.0
  40
 5.00000
  50
 213.690
  51
 270.000
   0
LINE
   8
LEVEL001
   6
CONTINUOUS
  62
7
  10
 391.124
  20
 841.500
  30
0.0
  11
 396.000
  21
 841.500
  31
0.0
   0
LINE
   8
LEVEL001
   6
CONTINUOUS
  62
7
  10
 320.364
  20
 809.500
  30
0.0
  11
 320.232
  21
 808.047
  31
0.0
   0
LINE
   8
LEVEL001
   6
CONTINUOUS
  62
7
  10
 320.232
  20
 791.953
  30
0.0
  11
 320.364
  21
 790.500
  31
0.0
   0
LINE
   8
LEVEL001
   6
DASHDOT
  62
1
  10
 361.051
  20
 837.000
  30
0.0
  11
 391.839
  21
 837.000
  31
0.0
   0
LINE
   8
LEVEL001
   6
CONTINUOUS
  62
7
  10
 393.961
  20
 753.557
  30
0.0
  11
 393.886
  21
 753.870
  31
0.0
   0
LINE
   8
LEVEL001
   6
CONTINUOUS
  62
7
  10
 393.886
  20
 753.870
  30
0.0
  11
 393.749
  21
 754.169
  31
0.0
   0
LINE
   8
LEVEL001
   6
CONTINUOUS
  62
7
  10
 393.749
  20
 754.169
  30
0.0
  11
 393.555
  21
 754.451
  31
0.0
   0
LINE
   8
LEVEL001
   6
CONTINUOUS
  62
7
  10
 393.555
  20
 754.451
  30
0.0
  11
 393.305
  21
 754.709
  31
0.0
   0
LINE
   8
LEVEL001
   6
CONTINUOUS
  62
7
  10
 393.305
  20
 754.709
  30
0.0
  11
 393.003
  21
 754.941
  31
0.0
   0
LINE
   8
LEVEL001
   6
CONTINUOUS
  62
7
  10
 393.003
  20
 754.941
  30
0.0
  11
 392.654
  21
 755.143
  31
0.0
   0
LINE
   8
LEVEL001
   6
CONTINUOUS
  62
7
  10
 392.654
  20
 755.143
  30
0.0
  11
 392.264
  21
 755.311
  31
0.0
   0
LINE
   8
LEVEL001
   6
CONTINUOUS
  62
7
  10
 392.264
  20
 755.311
  30
0.0
  11
 391.839
  21
 755.443
  31
0.0
   0
LINE
   8
LEVEL001
   6
CONTINUOUS
  62
7
  10
 391.839
  20
 755.443
  30
0.0
  11
 391.385
  21
 755.537
  31
0.0
   0
LINE
   8
LEVEL001
   6
CONTINUOUS
  62
7
  10
 391.385
  20
 755.537
  30
0.0
  11
 390.909
  21
 755.592
  31
0.0
   0
LINE
   8
LEVEL001
   6
CONTINUOUS
  62
7
  10
 390.909
  20
 755.592
  30
0.0
  11
 390.420
  21
 755.606
  31
0.0
   0
LINE
   8
LEVEL001
   6
CONTINUOUS
  62
7
  10
 390.420
  20
 755.606
  30
0.0
  11
 389.923
  21
 755.579
  31
0.0
   0
LINE
   8
LEVEL001
   6
CONTINUOUS
  62
7
  10
 389.923
  20
 755.579
  30
0.0
  11
 389.428
  21
 755.512
  31
0.0
   0
LINE
   8
LEVEL001
   6
CONTINUOUS
  62
7
  10
 389.428
  20
 755.512
  30
0.0
  11
 388.942
  21
 755.406
  31
0.0
   0
LINE
   8
LEVEL001
   6
CONTINUOUS
  62
7
  10
 388.942
  20
 755.406
  30
0.0
  11
 388.472
  21
 755.262
  31
0.0
   0
LINE
   8
LEVEL001
   6
CONTINUOUS
  62
7
  10
 388.472
  20
 755.262
  30
0.0
  11
 388.026
  21
 755.084
  31
0.0
   0
LINE
   8
LEVEL001
   6
CONTINUOUS
  62
7
  10
 388.026
  20
 755.084
  30
0.0
  11
 387.611
  21
 754.872
  31
0.0
   0
LINE
   8
LEVEL001
   6
CONTINUOUS
  62
7
  10
 387.611
  20
 754.872
  30
0.0
  11
 387.233
  21
 754.631
  31
0.0
   0
LINE
   8
LEVEL001
   6
CONTINUOUS
  62
7
  10
 387.233
  20
 754.631
  30
0.0
  11
 386.899
  21
 754.365
  31
0.0
   0
LINE
   8
LEVEL001
   6
CONTINUOUS
  62
7
  10
 386.899
  20
 754.365
  30
0.0
  11
 386.612
  21
 754.078
  31
0.0
   0
LINE
   8
LEVEL001
   6
CONTINUOUS
  62
7
  10
 386.612
  20
 754.078
  30
0.0
  11
 386.379
  21
 753.774
  31
0.0
   0
LINE
   8
LEVEL001
   6
CONTINUOUS
  62
7
  10
 386.379
  20
 753.774
  30
0.0
  11
 386.202
  21
 753.457
  31
0.0
   0
LINE
   8
LEVEL001
   6
CONTINUOUS
  62
7
  10
 386.202
  20
 753.457
  30
0.0
  11
 386.085
  21
 753.134
  31
0.0
   0
LINE
   8
LEVEL001
   6
CONTINUOUS
  62
7
  10
 386.085
  20
 753.134
  30
0.0
  11
 386.028
  21
 752.808
  31
0.0
   0
LINE
   8
LEVEL001
   6
CONTINUOUS
  62
7
  10
 386.028
  20
 752.808
  30
0.0
  11
 386.034
  21
 752.486
  31
0.0
   0
LINE
   8
LEVEL001
   6
CONTINUOUS
  62
7
  10
 386.034
  20
 752.486
  30
0.0
  11
 386.101
  21
 752.171
  31
0.0
   0
LINE
   8
LEVEL001
   6
CONTINUOUS
  62
7
  10
 386.101
  20
 752.171
  30
0.0
  11
 386.229
  21
 751.869
  31
0.0
   0
LINE
   8
LEVEL001
   6
CONTINUOUS
  62
7
  10
 386.229
  20
 751.869
  30
0.0
  11
 386.416
  21
 751.586
  31
0.0
   0
LINE
   8
LEVEL001
   6
CONTINUOUS
  62
7
  10
 386.416
  20
 751.586
  30
0.0
  11
 386.659
  21
 751.324
  31
0.0
   0
LINE
   8
LEVEL001
   6
CONTINUOUS
  62
7
  10
 386.659
  20
 751.324
  30
0.0
  11
 386.954
  21
 751.088
  31
0.0
   0
LINE
   8
LEVEL001
   6
CONTINUOUS
  62
7
  10
 386.954
  20
 751.088
  30
0.0
  11
 387.297
  21
 750.882
  31
0.0
   0
LINE
   8
LEVEL001
   6
CONTINUOUS
  62
7
  10
 387.297
  20
 750.882
  30
0.0
  11
 387.682
  21
 750.709
  31
0.0
   0
LINE
   8
LEVEL001
   6
CONTINUOUS
  62
7
  10
 387.682
  20
 750.709
  30
0.0
  11
 388.103
  21
 750.572
  31
0.0
   0
LINE
   8
LEVEL001
   6
CONTINUOUS
  62
7
  10
 388.103
  20
 750.572
  30
0.0
  11
 388.553
  21
 750.473
  31
0.0
   0
LINE
   8
LEVEL001
   6
CONTINUOUS
  62
7
  10
 388.553
  20
 750.473
  30
0.0
  11
 389.026
  21
 750.413
  31
0.0
   0
LINE
   8
LEVEL001
   6
CONTINUOUS
  62
7
  10
 389.026
  20
 750.413
  30
0.0
  11
 389.515
  21
 750.394
  31
0.0
   0
LINE
   8
LEVEL001
   6
CONTINUOUS
  62
7
  10
 389.515
  20
 750.394
  30
0.0
  11
 390.011
  21
 750.415
  31
0.0
   0
LINE
   8
LEVEL001
   6
CONTINUOUS
  62
7
  10
 390.011
  20
 750.415
  30
0.0
  11
 390.507
  21
 750.477
  31
0.0
   0
LINE
   8
LEVEL001
   6
CONTINUOUS
  62
7
  10
 390.507
  20
 750.477
  30
0.0
  11
 390.994
  21
 750.578
  31
0.0
   0
LINE
   8
LEVEL001
   6
CONTINUOUS
  62
7
  10
 390.994
  20
 750.578
  30
0.0
  11
 391.467
  21
 750.716
  31
0.0
   0
LINE
   8
LEVEL001
   6
CONTINUOUS
  62
7
  10
 391.467
  20
 750.716
  30
0.0
  11
 391.916
  21
 750.891
  31
0.0
   0
LINE
   8
LEVEL001
   6
CONTINUOUS
  62
7
  10
 391.916
  20
 750.891
  30
0.0
  11
 392.336
  21
 751.098
  31
0.0
   0
LINE
   8
LEVEL001
   6
CONTINUOUS
  62
7
  10
 392.336
  20
 751.098
  30
0.0
  11
 392.719
  21
 751.335
  31
0.0
   0
LINE
   8
LEVEL001
   6
CONTINUOUS
  62
7
  10
 392.719
  20
 751.335
  30
0.0
  11
 393.060
  21
 751.598
  31
0.0
   0
LINE
   8
LEVEL001
   6
CONTINUOUS
  62
7
  10
 393.060
  20
 751.598
  30
0.0
  11
 393.352
  21
 751.883
  31
0.0
   0
LINE
   8
LEVEL001
   6
CONTINUOUS
  62
7
  10
 393.352
  20
 751.883
  30
0.0
  11
 393.593
  21
 752.185
  31
0.0
   0
LINE
   8
LEVEL001
   6
CONTINUOUS
  62
7
  10
 393.593
  20
 752.185
  30
0.0
  11
 393.778
  21
 752.500
  31
0.0
   0
LINE
   8
LEVEL001
   6
CONTINUOUS
  62
7
  10
 393.778
  20
 752.500
  30
0.0
  11
 393.903
  21
 752.823
  31
0.0
   0
LINE
   8
LEVEL001
   6
CONTINUOUS
  62
7
  10
 393.903
  20
 752.823
  30
0.0
  11
 393.968
  21
 753.149
  31
0.0
   0
LINE
   8
LEVEL001
   6
CONTINUOUS
  62
7
  10
 393.968
  20
 753.149
  30
0.0
  11
 393.971
  21
 753.472
  31
0.0
   0
LINE
   8
LEVEL001
   6
CONTINUOUS
  62
7
  10
 393.971
  20
 753.472
  30
0.0
  11
 393.961
  21
 753.557
  31
0.0
   0
LINE
   8
LEVEL001
   6
CONTINUOUS
  62
3
  10
 393.342
  20
 753.470
  30
0.0
  11
 393.278
  21
 753.734
  31
0.0
   0
LINE
   8
LEVEL001
   6
CONTINUOUS
  62
3
  10
 393.278
  20
 753.734
  30
0.0
  11
 393.164
  21
 753.987
  31
0.0
   0
LINE
   8
LEVEL001
   6
CONTINUOUS
  62
3
  10
 393.164
  20
 753.987
  30
0.0
  11
 392.999
  21
 754.224
  31
0.0
   0
LINE
   8
LEVEL001
   6
CONTINUOUS
  62
3
  10
 392.999
  20
 754.224
  30
0.0
  11
 392.788
  21
 754.442
  31
0.0
   0
LINE
   8
LEVEL001
   6
CONTINUOUS
  62
3
  10
 392.788
  20
 754.442
  30
0.0
  11
 392.534
  21
 754.638
  31
0.0
   0
LINE
   8
LEVEL001
   6
CONTINUOUS
  62
3
  10
 392.534
  20
 754.638
  30
0.0
  11
 392.240
  21
 754.808
  31
0.0
   0
LINE
   8
LEVEL001
   6
CONTINUOUS
  62
3
  10
 392.240
  20
 754.808
  30
0.0
  11
 391.911
  21
 754.950
  31
0.0
   0
LINE
   8
LEVEL001
   6
CONTINUOUS
  62
3
  10
 391.911
  20
 754.950
  30
0.0
  11
 391.552
  21
 755.062
  31
0.0
   0
LINE
   8
LEVEL001
   6
CONTINUOUS
  62
3
  10
 391.552
  20
 755.062
  30
0.0
  11
 391.169
  21
 755.141
  31
0.0
   0
LINE
   8
LEVEL001
   6
CONTINUOUS
  62
3
  10
 391.169
  20
 755.141
  30
0.0
  11
 390.767
  21
 755.187
  31
0.0
   0
LINE
   8
LEVEL001
   6
CONTINUOUS
  62
3
  10
 390.767
  20
 755.187
  30
0.0
  11
 390.354
  21
 755.199
  31
0.0
   0
LINE
   8
LEVEL001
   6
CONTINUOUS
  62
3
  10
 390.354
  20
 755.199
  30
0.0
  11
 389.935
  21
 755.176
  31
0.0
   0
LINE
   8
LEVEL001
   6
CONTINUOUS
  62
3
  10
 389.935
  20
 755.176
  30
0.0
  11
 389.517
  21
 755.120
  31
0.0
   0
LINE
   8
LEVEL001
   6
CONTINUOUS
  62
3
  10
 389.517
  20
 755.120
  30
0.0
  11
 389.107
  21
 755.030
  31
0.0
   0
LINE
   8
LEVEL001
   6
CONTINUOUS
  62
3
  10
 389.107
  20
 755.030
  30
0.0
  11
 388.711
  21
 754.909
  31
0.0
   0
LINE
   8
LEVEL001
   6
CONTINUOUS
  62
3
  10
 388.711
  20
 754.909
  30
0.0
  11
 388.335
  21
 754.758
  31
0.0
   0
LINE
   8
LEVEL001
   6
CONTINUOUS
  62
3
  10
 388.335
  20
 754.758
  30
0.0
  11
 387.984
  21
 754.580
  31
0.0
   0
LINE
   8
LEVEL001
   6
CONTINUOUS
  62
3
  10
 387.984
  20
 754.580
  30
0.0
  11
 387.666
  21
 754.376
  31
0.0
   0
LINE
   8
LEVEL001
   6
CONTINUOUS
  62
3
  10
 387.666
  20
 754.376
  30
0.0
  11
 387.383
  21
 754.152
  31
0.0
   0
LINE
   8
LEVEL001
   6
CONTINUOUS
  62
3
  10
 387.383
  20
 754.152
  30
0.0
  11
 387.142
  21
 753.909
  31
0.0
   0
LINE
   8
LEVEL001
   6
CONTINUOUS
  62
3
  10
 387.142
  20
 753.909
  30
0.0
  11
 386.945
  21
 753.653
  31
0.0
   0
LINE
   8
LEVEL001
   6
CONTINUOUS
  62
3
  10
 386.945
  20
 753.653
  30
0.0
  11
 386.796
  21
 753.386
  31
0.0
   0
LINE
   8
LEVEL001
   6
CONTINUOUS
  62
3
  10
 386.796
  20
 753.386
  30
0.0
  11
 386.696
  21
 753.113
  31
0.0
   0
LINE
   8
LEVEL001
   6
CONTINUOUS
  62
3
  10
 386.696
  20
 753.113
  30
0.0
  11
 386.649
  21
 752.838
  31
0.0
   0
LINE
   8
LEVEL001
   6
CONTINUOUS
  62
3
  10
 386.649
  20
 752.838
  30
0.0
  11
 386.653
  21
 752.566
  31
0.0
   0
LINE
   8
LEVEL001
   6
CONTINUOUS
  62
3
  10
 386.653
  20
 752.566
  30
0.0
  11
 386.710
  21
 752.301
  31
0.0
   0
LINE
   8
LEVEL001
   6
CONTINUOUS
  62
3
  10
 386.710
  20
 752.301
  30
0.0
  11
 386.818
  21
 752.046
  31
0.0
   0
LINE
   8
LEVEL001
   6
CONTINUOUS
  62
3
  10
 386.818
  20
 752.046
  30
0.0
  11
 386.976
  21
 751.807
  31
0.0
   0
LINE
   8
LEVEL001
   6
CONTINUOUS
  62
3
  10
 386.976
  20
 751.807
  30
0.0
  11
 387.181
  21
 751.586
  31
0.0
   0
LINE
   8
LEVEL001
   6
CONTINUOUS
  62
3
  10
 387.181
  20
 751.586
  30
0.0
  11
 387.430
  21
 751.387
  31
0.0
   0
LINE
   8
LEVEL001
   6
CONTINUOUS
  62
3
  10
 387.430
  20
 751.387
  30
0.0
  11
 387.719
  21
 751.213
  31
0.0
   0
LINE
   8
LEVEL001
   6
CONTINUOUS
  62
3
  10
 387.719
  20
 751.213
  30
0.0
  11
 388.044
  21
 751.067
  31
0.0
   0
LINE
   8
LEVEL001
   6
CONTINUOUS
  62
3
  10
 388.044
  20
 751.067
  30
0.0
  11
 388.399
  21
 750.951
  31
0.0
   0
LINE
   8
LEVEL001
   6
CONTINUOUS
  62
3
  10
 388.399
  20
 750.951
  30
0.0
  11
 388.779
  21
 750.868
  31
0.0
   0
LINE
   8
LEVEL001
   6
CONTINUOUS
  62
3
  10
 388.779
  20
 750.868
  30
0.0
  11
 389.179
  21
 750.817
  31
0.0
   0
LINE
   8
LEVEL001
   6
CONTINUOUS
  62
3
  10
 389.179
  20
 750.817
  30
0.0
  11
 389.591
  21
 750.801
  31
0.0
   0
LINE
   8
LEVEL001
   6
CONTINUOUS
  62
3
  10
 389.591
  20
 750.801
  30
0.0
  11
 390.009
  21
 750.819
  31
0.0
   0
LINE
   8
LEVEL001
   6
CONTINUOUS
  62
3
  10
 390.009
  20
 750.819
  30
0.0
  11
 390.427
  21
 750.871
  31
0.0
   0
LINE
   8
LEVEL001
   6
CONTINUOUS
  62
3
  10
 390.427
  20
 750.871
  30
0.0
  11
 390.839
  21
 750.956
  31
0.0
   0
LINE
   8
LEVEL001
   6
CONTINUOUS
  62
3
  10
 390.839
  20
 750.956
  30
0.0
  11
 391.238
  21
 751.073
  31
0.0
   0
LINE
   8
LEVEL001
   6
CONTINUOUS
  62
3
  10
 391.238
  20
 751.073
  30
0.0
  11
 391.617
  21
 751.220
  31
0.0
   0
LINE
   8
LEVEL001
   6
CONTINUOUS
  62
3
  10
 391.617
  20
 751.220
  30
0.0
  11
 391.971
  21
 751.395
  31
0.0
   0
LINE
   8
LEVEL001
   6
CONTINUOUS
  62
3
  10
 391.971
  20
 751.395
  30
0.0
  11
 392.294
  21
 751.595
  31
0.0
   0
LINE
   8
LEVEL001
   6
CONTINUOUS
  62
3
  10
 392.294
  20
 751.595
  30
0.0
  11
 392.582
  21
 751.817
  31
0.0
   0
LINE
   8
LEVEL001
   6
CONTINUOUS
  62
3
  10
 392.582
  20
 751.817
  30
0.0
  11
 392.829
  21
 752.058
  31
0.0
   0
LINE
   8
LEVEL001
   6
CONTINUOUS
  62
3
  10
 392.829
  20
 752.058
  30
0.0
  11
 393.032
  21
 752.313
  31
0.0
   0
LINE
   8
LEVEL001
   6
CONTINUOUS
  62
3
  10
 393.032
  20
 752.313
  30
0.0
  11
 393.187
  21
 752.578
  31
0.0
   0
LINE
   8
LEVEL001
   6
CONTINUOUS
  62
3
  10
 393.187
  20
 752.578
  30
0.0
  11
 393.293
  21
 752.851
  31
0.0
   0
LINE
   8
LEVEL001
   6
CONTINUOUS
  62
3
  10
 393.293
  20
 752.851
  30
0.0
  11
 393.348
  21
 753.125
  31
0.0
   0
LINE
   8
LEVEL001
   6
CONTINUOUS
  62
3
  10
 393.348
  20
 753.125
  30
0.0
  11
 393.350
  21
 753.398
  31
0.0
   0
LINE
   8
LEVEL001
   6
CONTINUOUS
  62
3
  10
 393.350
  20
 753.398
  30
0.0
  11
 393.342
  21
 753.470
  31
0.0
   0
LINE
   8
LEVEL001
   6
DASHDOT
  62
1
  10
 384.426
  20
 752.217
  30
0.0
  11
 395.434
  21
 753.764
  31
0.0
   0
LINE
   8
LEVEL003
   6
CONTINUOUS
  62
7
  10
 387.713
  20
 752.679
  30
0.0
  11
 388.675
  21
 754.130
  31
0.0
   0
LINE
   8
LEVEL003
   6
CONTINUOUS
  62
7
  10
 388.675
  20
 754.130
  30
0.0
  11
 390.962
  21
 754.452
  31
0.0
   0
LINE
   8
LEVEL003
   6
CONTINUOUS
  62
7
  10
 390.962
  20
 754.452
  30
0.0
  11
 392.287
  21
 753.321
  31
0.0
   0
LINE
   8
LEVEL003
   6
CONTINUOUS
  62
7
  10
 392.287
  20
 753.321
  30
0.0
  11
 391.325
  21
 751.870
  31
0.0
   0
LINE
   8
LEVEL003
   6
CONTINUOUS
  62
7
  10
 391.325
  20
 751.870
  30
0.0
  11
 389.038
  21
 751.548
  31
0.0
   0
LINE
   8
LEVEL003
   6
CONTINUOUS
  62
7
  10
 389.038
  20
 751.548
  30
0.0
  11
 387.713
  21
 752.679
  31
0.0
   0
LINE
   8
LEVEL001
   6
DASHDOT
  62
1
  10
 389.328
  20
 757.779
  30
0.0
  11
 390.625
  21
 748.556
  31
0.0
   0
ARC
   8
LEVEL001
   6
CONTINUOUS
  62
7
  10
 311.143
  20
 886.817
  30
0.0
  40
 2.00000
  50
 98.8840
  51
 180.000
   0
LINE
   8
LEVEL001
   6
CONTINUOUS
  62
7
  10
 316.707
  20
 889.592
  30
0.0
  11
 351.290
  21
 889.592
  31
0.0
   0
ARC
   8
LEVEL001
   6
CONTINUOUS
  62
7
  10
 333.999
  20
 740.593
  30
0.0
  40
 150.000
  50
 96.6196
  51
 98.8839
   0
LINE
   8
LEVEL010
   6
CONTINUOUS
  62
7
  10
 330.500
  20
 889.592
  30
0.0
  11
 322.329
  21
 888.783
  31
0.0
   0
LINE
   8
LEVEL010
   6
CONTINUOUS
  62
7
  10
 318.526
  20
 888.793
  30
0.0
  11
 313.025
  21
 888.793
  31
0.0
   0
ARC
   8
LEVEL001
   6
CONTINUOUS
  62
7
  10
 334.000
  20
 740.592
  30
0.0
  40
 150.000
  50
 80.9510
  51
 99.0490
   0
ARC
   8
LEVEL001
   6
CONTINUOUS
  62
7
  10
 333.999
  20
 740.592
  30
0.0
  40
 150.000
  50
 81.1161
  51
 83.3804
   0
LINE
   8
LEVEL010
   6
CONTINUOUS
  62
7
  10
 349.474
  20
 888.793
  30
0.0
  11
 354.975
  21
 888.793
  31
0.0
   0
LINE
   8
LEVEL010
   6
CONTINUOUS
  62
7
  10
 337.500
  20
 889.592
  30
0.0
  11
 345.671
  21
 888.783
  31
0.0
   0
ARC
   8
LEVEL001
   6
CONTINUOUS
  62
7
  10
 356.855
  20
 886.817
  30
0.0
  40
 2.00000
  50
0.0
  51
 81.1169
   0
LINE
   8
LEVEL001
   6
CONTINUOUS
  62
7
  10
 354.000
  20
 818.750
  30
0.0
  11
 355.000
  21
 819.750
  31
0.0
   0
LINE
   8
LEVEL001
   6
CONTINUOUS
  62
7
  10
 355.000
  20
 819.750
  30
0.0
  11
 363.000
  21
 819.750
  31
0.0
   0
LINE
   8
LEVEL001
   6
CONTINUOUS
  62
7
  10
 354.000
  20
 818.750
  30
0.0
  11
 364.000
  21
 818.750
  31
0.0
   0
LINE
   8
LEVEL001
   6
CONTINUOUS
  62
7
  10
 364.000
  20
 818.750
  30
0.0
  11
 363.000
  21
 819.750
  31
0.0
   0
LINE
   8
LEVEL001
   6
CONTINUOUS
  62
7
  10
 354.000
  20
 781.250
  30
0.0
  11
 355.000
  21
 780.250
  31
0.0
   0
LINE
   8
LEVEL001
   6
CONTINUOUS
  62
7
  10
 355.000
  20
 780.250
  30
0.0
  11
 363.000
  21
 780.250
  31
0.0
   0
LINE
   8
LEVEL001
   6
CONTINUOUS
  62
7
  10
 354.000
  20
 781.250
  30
0.0
  11
 364.000
  21
 781.250
  31
0.0
   0
LINE
   8
LEVEL001
   6
CONTINUOUS
  62
7
  10
 364.000
  20
 781.250
  30
0.0
  11
 364.000
  21
 781.500
  31
0.0
   0
LINE
   8
LEVEL001
   6
CONTINUOUS
  62
7
  10
 364.000
  20
 781.250
  30
0.0
  11
 363.000
  21
 780.250
  31
0.0
   0
LINE
   8
LEVEL001
   6
CONTINUOUS
  62
7
  10
 354.000
  20
 781.250
  30
0.0
  11
 354.000
  21
 781.500
  31
0.0
   0
LINE
   8
LEVEL001
   6
CONTINUOUS
  62
7
  10
 342.038
  20
 842.572
  30
0.0
  11
 340.221
  21
 821.800
  31
0.0
   0
LINE
   8
LEVEL001
   6
CONTINUOUS
  62
7
  10
 340.081
  20
 820.200
  30
0.0
  11
 339.923
  21
 818.393
  31
0.0
   0
LINE
   8
LEVEL001
   6
CONTINUOUS
  62
7
  10
 340.046
  20
 760.754
  30
0.0
  11
 338.695
  21
 776.195
  31
0.0
   0
LINE
   8
LEVEL001
   6
CONTINUOUS
  62
7
  10
 354.000
  20
 818.750
  30
0.0
  11
 354.000
  21
 818.500
  31
0.0
   0
LINE
   8
LEVEL001
   6
CONTINUOUS
  62
7
  10
 364.000
  20
 818.750
  30
0.0
  11
 364.000
  21
 818.500
  31
0.0
   0
ARC
   8
LEVEL001
   6
CONTINUOUS
  62
7
  10
 359.000
  20
 800.000
  30
0.0
  40
 20.0000
  50
 260.931
  51
 279.069
   0
ARC
   8
LEVEL001
   6
CONTINUOUS
  62
7
  10
 359.000
  20
 800.000
  30
0.0
  40
 20.0000
  50
 80.9313
  51
 99.0687
   0
ARC
   8
LEVEL001
   6
CONTINUOUS
  62
7
  10
 359.000
  20
 800.000
  30
0.0
  40
 26.5000
  50
 224.276
  51
 229.664
   0
LINE
   8
LEVEL001
   6
CONTINUOUS
  62
7
  10
 316.306
  20
 791.936
  30
0.0
  11
 316.431
  21
 790.500
  31
0.0
   0
LINE
   8
LEVEL001
   6
CONTINUOUS
  62
7
  10
 316.306
  20
 808.064
  30
0.0
  11
 316.431
  21
 809.500
  31
0.0
   0
ARC
   8
LEVEL001
   6
CONTINUOUS
  62
7
  10
 359.000
  20
 800.000
  30
0.0
  40
 20.0000
  50
 102.108
  51
 112.332
   0
ARC
   8
LEVEL001
   6
CONTINUOUS
  62
7
  10
 359.000
  20
 800.000
  30
0.0
  40
 20.0000
  50
 247.668
  51
 257.892
   0
ARC
   8
LEVEL001
   6
CONTINUOUS
  62
7
  10
 359.000
  20
 800.000
  30
0.0
  40
 26.5000
  50
 130.336
  51
 135.724
   0
LINE
   8
LEVEL001
   6
CONTINUOUS
  62
7
  10
 390.000
  20
 832.509
  30
0.0
  11
 390.000
  21
 816.500
  31
0.0
   0
LINE
   8
LEVEL001
   6
CONTINUOUS
  62
7
  10
 389.890
  20
 783.500
  30
0.0
  11
 387.962
  21
 760.916
  31
0.0
   0
ARC
   8
LEVEL001
   6
CONTINUOUS
  62
7
  10
 359.000
  20
 800.000
  30
0.0
  40
 20.0000
  50
 282.107
  51
 292.332
   0
ARC
   8
LEVEL001
   6
CONTINUOUS
  62
7
  10
 359.000
  20
 800.000
  30
0.0
  40
 20.0000
  50
 67.6684
  51
 77.8932
   0
LINE
   8
LEVEL001
   6
CONTINUOUS
  62
7
  10
 396.000
  20
 816.500
  30
0.0
  11
 396.000
  21
 841.500
  31
0.0
   0
LINE
   8
LEVEL001
   6
CONTINUOUS
  62
7
  10
 396.000
  20
 783.500
  30
0.0
  11
 396.000
  21
 752.283
  31
0.0
   0
ARC
   8
LEVEL001
   6
CONTINUOUS
  62
7
  10
 316.385
  20
 821.000
  30
0.0
  40
 0.800000
  50
 90.0000
  51
 270.000
   0
LINE
   8
LEVEL001
   6
CONTINUOUS
  62
7
  10
 316.385
  20
 820.200
  30
0.0
  11
 343.297
  21
 820.200
  31
0.0
   0
LINE
   8
LEVEL001
   6
DASHDOT
  62
1
  10
 314.842
  20
 821.000
  30
0.0
  11
 344.214
  21
 821.000
  31
0.0
   0
LINE
   8
LEVEL001
   6
CONTINUOUS
  62
7
  10
 325.000
  20
 820.200
  30
0.0
  11
 325.000
  21
 818.500
  31
0.0
   0
LINE
   8
LEVEL010
   6
CONTINUOUS
  62
7
  10
 314.772
  20
 818.500
  30
0.0
  11
 369.000
  21
 818.500
  31
0.0
   0
ARC
   8
LEVEL010
   6
CONTINUOUS
  62
7
  10
 312.772
  20
 818.500
  30
0.0
  40
 2.00000
  50
 270.000
  51
0.0
   0
ARC
   8
LEVEL010
   6
CONTINUOUS
  62
7
  10
 311.809
  20
 814.500
  30
0.0
  40
 2.00000
  50
 90.0000
  51
 180.000
   0
LINE
   8
LEVEL010
   6
CONTINUOUS
  62
7
  10
 489.000
  20
 816.500
  30
0.0
  11
 311.809
  21
 816.500
  31
0.0
   0
LINE
   8
LEVEL010
   6
CONTINUOUS
  62
7
  10
 309.809
  20
 814.500
  30
0.0
  11
 309.809
  21
 809.500
  31
0.0
   0
LINE
   8
LEVEL001
   6
CONTINUOUS
  62
7
  10
 325.000
  20
 823.500
  30
0.0
  11
 326.000
  21
 824.500
  31
0.0
   0
LINE
   8
LEVEL001
   6
CONTINUOUS
  62
7
  10
 326.000
  20
 824.500
  30
0.0
  11
 334.000
  21
 824.500
  31
0.0
   0
LINE
   8
LEVEL001
   6
CONTINUOUS
  62
7
  10
 325.000
  20
 823.500
  30
0.0
  11
 335.000
  21
 823.500
  31
0.0
   0
LINE
   8
LEVEL001
   6
CONTINUOUS
  62
7
  10
 316.385
  20
 821.800
  30
0.0
  11
 343.297
  21
 821.800
  31
0.0
   0
LINE
   8
LEVEL001
   6
CONTINUOUS
  62
7
  10
 325.000
  20
 823.500
  30
0.0
  11
 325.000
  21
 821.800
  31
0.0
   0
LINE
   8
LEVEL001
   6
CONTINUOUS
  62
7
  10
 335.000
  20
 821.800
  30
0.0
  11
 335.000
  21
 823.500
  31
0.0
   0
LINE
   8
LEVEL001
   6
CONTINUOUS
  62
7
  10
 335.000
  20
 818.500
  30
0.0
  11
 335.000
  21
 820.200
  31
0.0
   0
LINE
   8
LEVEL001
   6
CONTINUOUS
  62
7
  10
 334.000
  20
 824.500
  30
0.0
  11
 335.000
  21
 823.500
  31
0.0
   0
LINE
   8
LEVEL001
   6
CONTINUOUS
  62
7
  10
 343.297
  20
 821.800
  30
0.0
  11
 343.297
  21
 820.200
  31
0.0
   0
ARC
   8
LEVEL001
   6
CONTINUOUS
  62
7
  10
 341.114
  20
 821.000
  30
0.0
  40
 0.800000
  50
 270.000
  51
 90.0000
   0
LINE
   8
LEVEL001
   6
CONTINUOUS
  62
7
  10
 325.000
  20
 776.500
  30
0.0
  11
 326.000
  21
 775.500
  31
0.0
   0
LINE
   8
LEVEL001
   6
CONTINUOUS
  62
7
  10
 326.000
  20
 775.500
  30
0.0
  11
 334.000
  21
 775.500
  31
0.0
   0
LINE
   8
LEVEL001
   6
CONTINUOUS
  62
7
  10
 325.000
  20
 776.500
  30
0.0
  11
 335.000
  21
 776.500
  31
0.0
   0
LINE
   8
LEVEL001
   6
CONTINUOUS
  62
7
  10
 316.385
  20
 778.200
  30
0.0
  11
 343.297
  21
 778.200
  31
0.0
   0
LINE
   8
LEVEL001
   6
CONTINUOUS
  62
7
  10
 316.385
  20
 779.800
  30
0.0
  11
 343.297
  21
 779.800
  31
0.0
   0
LINE
   8
LEVEL001
   6
CONTINUOUS
  62
7
  10
 325.000
  20
 776.500
  30
0.0
  11
 325.000
  21
 778.200
  31
0.0
   0
LINE
   8
LEVEL001
   6
CONTINUOUS
  62
7
  10
 325.000
  20
 779.800
  30
0.0
  11
 325.000
  21
 781.500
  31
0.0
   0
LINE
   8
LEVEL001
   6
CONTINUOUS
  62
7
  10
 334.000
  20
 775.500
  30
0.0
  11
 335.000
  21
 776.500
  31
0.0
   0
LINE
   8
LEVEL010
   6
CONTINUOUS
  62
7
  10
 314.772
  20
 781.500
  30
0.0
  11
 369.000
  21
 781.500
  31
0.0
   0
LINE
   8
LEVEL010
   6
CONTINUOUS
  62
7
  10
 489.000
  20
 783.500
  30
0.0
  11
 311.809
  21
 783.500
  31
0.0
   0
ARC
   8
LEVEL010
   6
CONTINUOUS
  62
7
  10
 328.000
  20
 807.500
  30
0.0
  40
 2.00000
  50
0.0
  51
 90.0000
   0
LINE
   8
LEVEL001
   6
CONTINUOUS
  62
7
  10
 309.809
  20
 809.500
  30
0.0
  11
 328.000
  21
 809.500
  31
0.0
   0
ARC
   8
LEVEL010
   6
CONTINUOUS
  62
7
  10
 328.000
  20
 792.500
  30
0.0
  40
 2.00000
  50
 270.000
  51
0.0
   0
LINE
   8
LEVEL010
   6
CONTINUOUS
  62
7
  10
 330.000
  20
 792.500
  30
0.0
  11
 330.000
  21
 807.500
  31
0.0
   0
LINE
   8
LEVEL001
   6
CONTINUOUS
  62
7
  10
 309.809
  20
 790.500
  30
0.0
  11
 328.000
  21
 790.500
  31
0.0
   0
LINE
   8
LEVEL001
   6
DASHDOT
  62
1
  10
 314.842
  20
 779.000
  30
0.0
  11
 344.214
  21
 779.000
  31
0.0
   0
ARC
   8
LEVEL001
   6
CONTINUOUS
  62
7
  10
 316.385
  20
 779.000
  30
0.0
  40
 0.800000
  50
 90.0000
  51
 270.000
   0
ARC
   8
LEVEL010
   6
CONTINUOUS
  62
7
  10
 312.772
  20
 781.500
  30
0.0
  40
 2.00000
  50
0.0
  51
 90.0000
   0
ARC
   8
LEVEL010
   6
CONTINUOUS
  62
7
  10
 311.809
  20
 785.500
  30
0.0
  40
 2.00000
  50
 180.000
  51
 270.000
   0
LINE
   8
LEVEL010
   6
CONTINUOUS
  62
7
  10
 309.809
  20
 790.500
  30
0.0
  11
 309.809
  21
 785.500
  31
0.0
   0
LINE
   8
LEVEL001
   6
CONTINUOUS
  62
7
  10
 335.000
  20
 778.200
  30
0.0
  11
 335.000
  21
 776.500
  31
0.0
   0
LINE
   8
LEVEL001
   6
CONTINUOUS
  62
7
  10
 335.000
  20
 781.500
  30
0.0
  11
 335.000
  21
 779.800
  31
0.0
   0
LINE
   8
LEVEL001
   6
CONTINUOUS
  62
7
  10
 343.297
  20
 778.200
  30
0.0
  11
 343.297
  21
 779.800
  31
0.0
   0
ARC
   8
LEVEL001
   6
CONTINUOUS
  62
7
  10
 341.114
  20
 779.000
  30
0.0
  40
 0.800000
  50
 270.000
  51
 90.0000
   0
ARC
   8
LEVEL010
   6
CONTINUOUS
  62
7
  10
 371.000
  20
 818.500
  30
0.0
  40
 2.00000
  50
 180.000
  51
 270.000
   0
LINE
   8
LEVEL001
   6
CONTINUOUS
  62
7
  10
 380.402
  20
 810.000
  30
0.0
  11
 381.000
  21
 810.000
  31
0.0
   0
LINE
   8
LEVEL001
   6
CONTINUOUS
  62
7
  10
 380.402
  20
 790.000
  30
0.0
  11
 381.000
  21
 790.000
  31
0.0
   0
LINE
   8
LEVEL010
   6
CONTINUOUS
  62
7
  10
 357.958
  20
 794.091
  30
0.0
  11
 396.952
  21
 787.215
  31
0.0
   0
LINE
   8
LEVEL010
   6
CONTINUOUS
  62
7
  10
 357.958
  20
 805.909
  30
0.0
  11
 396.952
  21
 812.785
  31
0.0
   0
ARC
   8
LEVEL010
   6
CONTINUOUS
  62
7
  10
 359.000
  20
 800.000
  30
0.0
  40
 6.00000
  50
 100.002
  51
 259.998
   0
CIRCLE
   8
LEVEL010
   6
CONTINUOUS
  62
7
  10
 409.000
  20
 800.000
  30
0.0
  40
 11.0000
   0
ARC
   8
LEVEL010
   6
CONTINUOUS
  62
7
  10
 395.215
  20
 822.633
  30
0.0
  40
 10.0000
  50
 279.999
  51
 301.343
   0
ARC
   8
LEVEL010
   6
CONTINUOUS
  62
7
  10
 395.215
  20
 777.367
  30
0.0
  40
 10.0000
  50
 58.6556
  51
 79.9993
   0
ARC
   8
LEVEL010
   6
CONTINUOUS
  62
7
  10
 431.500
  20
 786.000
  30
0.0
  40
 10.0000
  50
 89.9998
  51
 148.109
   0
ARC
   8
LEVEL010
   6
CONTINUOUS
  62
7
  10
 431.500
  20
 814.000
  30
0.0
  40
 10.0000
  50
 211.891
  51
 270.000
   0
ARC
   8
LEVEL010
   6
CONTINUOUS
  62
7
  10
 409.000
  20
 800.000
  30
0.0
  40
 16.5000
  50
 238.656
  51
 328.109
   0
ARC
   8
LEVEL010
   6
CONTINUOUS
  62
7
  10
 409.000
  20
 800.000
  30
0.0
  40
 16.5000
  50
 31.8909
  51
 121.344
   0
ARC
   8
LEVEL010
   6
CONTINUOUS
  62
7
  10
 371.000
  20
 781.500
  30
0.0
  40
 2.00000
  50
 90.0000
  51
 180.000
   0
LINE
   8
LEVEL010
   6
CONTINUOUS
  62
7
  10
 431.500
  20
 804.000
  30
0.0
  11
 494.000
  21
 804.000
  31
0.0
   0
LINE
   8
LEVEL010
   6
CONTINUOUS
  62
7
  10
 431.500
  20
 796.000
  30
0.0
  11
 494.000
  21
 796.000
  31
0.0
   0
ARC
   8
LEVEL010
   6
CONTINUOUS
  62
7
  10
 497.000
  20
 815.500
  30
0.0
  40
 2.00000
  50
0.0
  51
 90.0000
   0
LINE
   8
LEVEL010
   6
CONTINUOUS
  62
7
  10
 497.000
  20
 817.500
  30
0.0
  11
 489.000
  21
 817.500
  31
0.0
   0
LINE
   8
LEVEL010
   6
CONTINUOUS
  62
7
  10
 489.000
  20
 817.500
  30
0.0
  11
 489.000
  21
 804.000
  31
0.0
   0
ARC
   8
LEVEL010
   6
CONTINUOUS
  62
7
  10
 497.000
  20
 784.500
  30
0.0
  40
 2.00000
  50
 270.000
  51
 0.117248E-9
   0
LINE
   8
LEVEL010
   6
CONTINUOUS
  62
7
  10
 489.000
  20
 796.000
  30
0.0
  11
 489.000
  21
 782.500
  31
0.0
   0
LINE
   8
LEVEL010
   6
CONTINUOUS
  62
7
  10
 489.000
  20
 782.500
  30
0.0
  11
 497.000
  21
 782.500
  31
0.0
   0
LINE
   8
LEVEL010
   6
CONTINUOUS
  62
7
  10
 499.000
  20
 784.500
  30
0.0
  11
 499.000
  21
 815.500
  31
0.0
   0
LINE
   8
LEVEL010
   6
DASHDOT
  62
1
  10
 409.000
  20
 785.000
  30
0.0
  11
 409.000
  21
 815.000
  31
0.0
   0
LINE
   8
LEVEL001
   6
DASHDOT
  62
1
  10
 330.000
  20
 829.133
  30
0.0
  11
 330.000
  21
 769.782
  31
0.0
   0
ARC
   8
LEVEL001
   6
CONTINUOUS
  62
7
  10
 359.000
  20
 800.000
  30
0.0
  40
 26.5000
  50
 38.5093
  51
 126.341
   0
ARC
   8
LEVEL001
   6
CONTINUOUS
  62
7
  10
 359.000
  20
 800.000
  30
0.0
  40
 25.5000
  50
 40.3202
  51
 133.490
   0
ARC
   8
LEVEL001
   6
CONTINUOUS
  62
7
  10
 359.000
  20
 800.000
  30
0.0
  40
 25.5000
  50
 226.510
  51
 319.680
   0
ARC
   8
LEVEL001
   6
CONTINUOUS
  62
7
  10
 359.000
  20
 800.000
  30
0.0
  40
 26.5000
  50
 233.659
  51
 321.491
   0
LINE
   8
LEVEL003
   6
CONTINUOUS
  62
7
  10
 360.000
  20
 758.078
  30
0.0
  11
 359.938
  21
 759.006
  31
0.0
   0
LINE
   8
LEVEL003
   6
CONTINUOUS
  62
7
  10
 359.938
  20
 759.006
  30
0.0
  11
 359.751
  21
 759.919
  31
0.0
   0
LINE
   8
LEVEL003
   6
CONTINUOUS
  62
7
  10
 359.751
  20
 759.919
  30
0.0
  11
 359.444
  21
 760.804
  31
0.0
   0
LINE
   8
LEVEL003
   6
CONTINUOUS
  62
7
  10
 359.444
  20
 760.804
  30
0.0
  11
 359.021
  21
 761.646
  31
0.0
   0
LINE
   8
LEVEL003
   6
CONTINUOUS
  62
7
  10
 359.021
  20
 761.646
  30
0.0
  11
 358.488
  21
 762.433
  31
0.0
   0
LINE
   8
LEVEL003
   6
CONTINUOUS
  62
7
  10
 358.488
  20
 762.433
  30
0.0
  11
 357.854
  21
 763.151
  31
0.0
   0
LINE
   8
LEVEL003
   6
CONTINUOUS
  62
7
  10
 357.854
  20
 763.151
  30
0.0
  11
 357.128
  21
 763.791
  31
0.0
   0
LINE
   8
LEVEL003
   6
CONTINUOUS
  62
7
  10
 357.128
  20
 763.791
  30
0.0
  11
 356.322
  21
 764.341
  31
0.0
   0
LINE
   8
LEVEL003
   6
CONTINUOUS
  62
7
  10
 356.322
  20
 764.341
  30
0.0
  11
 355.449
  21
 764.794
  31
0.0
   0
LINE
   8
LEVEL003
   6
CONTINUOUS
  62
7
  10
 355.449
  20
 764.794
  30
0.0
  11
 354.523
  21
 765.141
  31
0.0
   0
LINE
   8
LEVEL003
   6
CONTINUOUS
  62
7
  10
 354.523
  20
 765.141
  30
0.0
  11
 353.556
  21
 765.379
  31
0.0
   0
LINE
   8
LEVEL003
   6
CONTINUOUS
  62
7
  10
 353.556
  20
 765.379
  30
0.0
  11
 352.566
  21
 765.503
  31
0.0
   0
LINE
   8
LEVEL003
   6
CONTINUOUS
  62
7
  10
 352.566
  20
 765.503
  30
0.0
  11
 351.567
  21
 765.510
  31
0.0
   0
LINE
   8
LEVEL003
   6
CONTINUOUS
  62
7
  10
 351.567
  20
 765.510
  30
0.0
  11
 350.574
  21
 765.402
  31
0.0
   0
LINE
   8
LEVEL003
   6
CONTINUOUS
  62
7
  10
 350.574
  20
 765.402
  30
0.0
  11
 349.604
  21
 765.179
  31
0.0
   0
LINE
   8
LEVEL003
   6
CONTINUOUS
  62
7
  10
 349.604
  20
 765.179
  30
0.0
  11
 348.671
  21
 764.846
  31
0.0
   0
LINE
   8
LEVEL003
   6
CONTINUOUS
  62
7
  10
 348.671
  20
 764.846
  30
0.0
  11
 347.790
  21
 764.407
  31
0.0
   0
LINE
   8
LEVEL003
   6
CONTINUOUS
  62
7
  10
 347.790
  20
 764.407
  30
0.0
  11
 346.975
  21
 763.869
  31
0.0
   0
LINE
   8
LEVEL003
   6
CONTINUOUS
  62
7
  10
 346.975
  20
 763.869
  30
0.0
  11
 346.238
  21
 763.241
  31
0.0
   0
LINE
   8
LEVEL003
   6
CONTINUOUS
  62
7
  10
 346.238
  20
 763.241
  30
0.0
  11
 345.591
  21
 762.532
  31
0.0
   0
LINE
   8
LEVEL003
   6
CONTINUOUS
  62
7
  10
 345.591
  20
 762.532
  30
0.0
  11
 345.044
  21
 761.754
  31
0.0
   0
LINE
   8
LEVEL003
   6
CONTINUOUS
  62
7
  10
 345.044
  20
 761.754
  30
0.0
  11
 344.606
  21
 760.919
  31
0.0
   0
LINE
   8
LEVEL003
   6
CONTINUOUS
  62
7
  10
 344.606
  20
 760.919
  30
0.0
  11
 344.283
  21
 760.039
  31
0.0
   0
LINE
   8
LEVEL003
   6
CONTINUOUS
  62
7
  10
 344.283
  20
 760.039
  30
0.0
  11
 344.080
  21
 759.128
  31
0.0
   0
LINE
   8
LEVEL003
   6
CONTINUOUS
  62
7
  10
 344.080
  20
 759.128
  30
0.0
  11
 344.001
  21
 758.201
  31
0.0
   0
LINE
   8
LEVEL003
   6
CONTINUOUS
  62
7
  10
 344.001
  20
 758.201
  30
0.0
  11
 344.047
  21
 757.272
  31
0.0
   0
LINE
   8
LEVEL003
   6
CONTINUOUS
  62
7
  10
 344.047
  20
 757.272
  30
0.0
  11
 344.217
  21
 756.356
  31
0.0
   0
LINE
   8
LEVEL003
   6
CONTINUOUS
  62
7
  10
 344.217
  20
 756.356
  30
0.0
  11
 344.508
  21
 755.467
  31
0.0
   0
LINE
   8
LEVEL003
   6
CONTINUOUS
  62
7
  10
 344.508
  20
 755.467
  30
0.0
  11
 344.917
  21
 754.618
  31
0.0
   0
LINE
   8
LEVEL003
   6
CONTINUOUS
  62
7
  10
 344.917
  20
 754.618
  30
0.0
  11
 345.436
  21
 753.823
  31
0.0
   0
LINE
   8
LEVEL003
   6
CONTINUOUS
  62
7
  10
 345.436
  20
 753.823
  30
0.0
  11
 346.057
  21
 753.095
  31
0.0
   0
LINE
   8
LEVEL003
   6
CONTINUOUS
  62
7
  10
 346.057
  20
 753.095
  30
0.0
  11
 346.771
  21
 752.445
  31
0.0
   0
LINE
   8
LEVEL003
   6
CONTINUOUS
  62
7
  10
 346.771
  20
 752.445
  30
0.0
  11
 347.566
  21
 751.882
  31
0.0
   0
LINE
   8
LEVEL003
   6
CONTINUOUS
  62
7
  10
 347.566
  20
 751.882
  30
0.0
  11
 348.431
  21
 751.416
  31
0.0
   0
LINE
   8
LEVEL003
   6
CONTINUOUS
  62
7
  10
 348.431
  20
 751.416
  30
0.0
  11
 349.352
  21
 751.054
  31
0.0
   0
LINE
   8
LEVEL003
   6
CONTINUOUS
  62
7
  10
 349.352
  20
 751.054
  30
0.0
  11
 350.314
  21
 750.802
  31
0.0
   0
LINE
   8
LEVEL003
   6
CONTINUOUS
  62
7
  10
 350.314
  20
 750.802
  30
0.0
  11
 351.302
  21
 750.663
  31
0.0
   0
LINE
   8
LEVEL003
   6
CONTINUOUS
  62
7
  10
 351.302
  20
 750.663
  30
0.0
  11
 352.301
  21
 750.640
  31
0.0
   0
LINE
   8
LEVEL003
   6
CONTINUOUS
  62
7
  10
 352.301
  20
 750.640
  30
0.0
  11
 353.295
  21
 750.733
  31
0.0
   0
LINE
   8
LEVEL003
   6
CONTINUOUS
  62
7
  10
 353.295
  20
 750.733
  30
0.0
  11
 354.269
  21
 750.940
  31
0.0
   0
LINE
   8
LEVEL003
   6
CONTINUOUS
  62
7
  10
 354.269
  20
 750.940
  30
0.0
  11
 355.208
  21
 751.259
  31
0.0
   0
LINE
   8
LEVEL003
   6
CONTINUOUS
  62
7
  10
 355.208
  20
 751.259
  30
0.0
  11
 356.097
  21
 751.684
  31
0.0
   0
LINE
   8
LEVEL003
   6
CONTINUOUS
  62
7
  10
 356.097
  20
 751.684
  30
0.0
  11
 356.921
  21
 752.210
  31
0.0
   0
LINE
   8
LEVEL003
   6
CONTINUOUS
  62
7
  10
 356.921
  20
 752.210
  30
0.0
  11
 357.669
  21
 752.826
  31
0.0
   0
LINE
   8
LEVEL003
   6
CONTINUOUS
  62
7
  10
 357.669
  20
 752.826
  30
0.0
  11
 358.329
  21
 753.525
  31
0.0
   0
LINE
   8
LEVEL003
   6
CONTINUOUS
  62
7
  10
 358.329
  20
 753.525
  30
0.0
  11
 358.890
  21
 754.295
  31
0.0
   0
LINE
   8
LEVEL003
   6
CONTINUOUS
  62
7
  10
 358.890
  20
 754.295
  30
0.0
  11
 359.343
  21
 755.123
  31
0.0
   0
LINE
   8
LEVEL003
   6
CONTINUOUS
  62
7
  10
 359.343
  20
 755.123
  30
0.0
  11
 359.681
  21
 755.998
  31
0.0
   0
LINE
   8
LEVEL003
   6
CONTINUOUS
  62
7
  10
 359.681
  20
 755.998
  30
0.0
  11
 359.900
  21
 756.905
  31
0.0
   0
LINE
   8
LEVEL003
   6
CONTINUOUS
  62
7
  10
 359.900
  20
 756.905
  30
0.0
  11
 359.996
  21
 757.831
  31
0.0
   0
LINE
   8
LEVEL003
   6
CONTINUOUS
  62
7
  10
 359.996
  20
 757.831
  30
0.0
  11
 360.000
  21
 758.078
  31
0.0
   0
LINE
   8
LEVEL003
   6
CONTINUOUS
  62
7
  10
 360.500
  20
 758.298
  30
0.0
  11
 360.434
  21
 759.284
  31
0.0
   0
LINE
   8
LEVEL003
   6
CONTINUOUS
  62
7
  10
 360.434
  20
 759.284
  30
0.0
  11
 360.236
  21
 760.254
  31
0.0
   0
LINE
   8
LEVEL003
   6
CONTINUOUS
  62
7
  10
 360.236
  20
 760.254
  30
0.0
  11
 359.909
  21
 761.194
  31
0.0
   0
LINE
   8
LEVEL003
   6
CONTINUOUS
  62
7
  10
 359.909
  20
 761.194
  30
0.0
  11
 359.459
  21
 762.089
  31
0.0
   0
LINE
   8
LEVEL003
   6
CONTINUOUS
  62
7
  10
 359.459
  20
 762.089
  30
0.0
  11
 358.893
  21
 762.925
  31
0.0
   0
LINE
   8
LEVEL003
   6
CONTINUOUS
  62
7
  10
 358.893
  20
 762.925
  30
0.0
  11
 358.219
  21
 763.688
  31
0.0
   0
LINE
   8
LEVEL003
   6
CONTINUOUS
  62
7
  10
 358.219
  20
 763.688
  30
0.0
  11
 357.448
  21
 764.368
  31
0.0
   0
LINE
   8
LEVEL003
   6
CONTINUOUS
  62
7
  10
 357.448
  20
 764.368
  30
0.0
  11
 356.593
  21
 764.953
  31
0.0
   0
LINE
   8
LEVEL003
   6
CONTINUOUS
  62
7
  10
 356.593
  20
 764.953
  30
0.0
  11
 355.665
  21
 765.433
  31
0.0
   0
LINE
   8
LEVEL003
   6
CONTINUOUS
  62
7
  10
 355.665
  20
 765.433
  30
0.0
  11
 354.680
  21
 765.803
  31
0.0
   0
LINE
   8
LEVEL003
   6
CONTINUOUS
  62
7
  10
 354.680
  20
 765.803
  30
0.0
  11
 353.654
  21
 766.055
  31
0.0
   0
LINE
   8
LEVEL003
   6
CONTINUOUS
  62
7
  10
 353.654
  20
 766.055
  30
0.0
  11
 352.601
  21
 766.186
  31
0.0
   0
LINE
   8
LEVEL003
   6
CONTINUOUS
  62
7
  10
 352.601
  20
 766.186
  30
0.0
  11
 351.539
  21
 766.195
  31
0.0
   0
LINE
   8
LEVEL003
   6
CONTINUOUS
  62
7
  10
 351.539
  20
 766.195
  30
0.0
  11
 350.485
  21
 766.080
  31
0.0
   0
LINE
   8
LEVEL003
   6
CONTINUOUS
  62
7
  10
 350.485
  20
 766.080
  30
0.0
  11
 349.454
  21
 765.843
  31
0.0
   0
LINE
   8
LEVEL003
   6
CONTINUOUS
  62
7
  10
 349.454
  20
 765.843
  30
0.0
  11
 348.463
  21
 765.489
  31
0.0
   0
LINE
   8
LEVEL003
   6
CONTINUOUS
  62
7
  10
 348.463
  20
 765.489
  30
0.0
  11
 347.527
  21
 765.023
  31
0.0
   0
LINE
   8
LEVEL003
   6
CONTINUOUS
  62
7
  10
 347.527
  20
 765.023
  30
0.0
  11
 346.661
  21
 764.451
  31
0.0
   0
LINE
   8
LEVEL003
   6
CONTINUOUS
  62
7
  10
 346.661
  20
 764.451
  30
0.0
  11
 345.878
  21
 763.784
  31
0.0
   0
LINE
   8
LEVEL003
   6
CONTINUOUS
  62
7
  10
 345.878
  20
 763.784
  30
0.0
  11
 345.190
  21
 763.031
  31
0.0
   0
LINE
   8
LEVEL003
   6
CONTINUOUS
  62
7
  10
 345.190
  20
 763.031
  30
0.0
  11
 344.609
  21
 762.204
  31
0.0
   0
LINE
   8
LEVEL003
   6
CONTINUOUS
  62
7
  10
 344.609
  20
 762.204
  30
0.0
  11
 344.143
  21
 761.316
  31
0.0
   0
LINE
   8
LEVEL003
   6
CONTINUOUS
  62
7
  10
 344.143
  20
 761.316
  30
0.0
  11
 343.800
  21
 760.381
  31
0.0
   0
LINE
   8
LEVEL003
   6
CONTINUOUS
  62
7
  10
 343.800
  20
 760.381
  30
0.0
  11
 343.585
  21
 759.414
  31
0.0
   0
LINE
   8
LEVEL003
   6
CONTINUOUS
  62
7
  10
 343.585
  20
 759.414
  30
0.0
  11
 343.501
  21
 758.429
  31
0.0
   0
LINE
   8
LEVEL003
   6
CONTINUOUS
  62
7
  10
 343.501
  20
 758.429
  30
0.0
  11
 343.550
  21
 757.442
  31
0.0
   0
LINE
   8
LEVEL003
   6
CONTINUOUS
  62
7
  10
 343.550
  20
 757.442
  30
0.0
  11
 343.730
  21
 756.469
  31
0.0
   0
LINE
   8
LEVEL003
   6
CONTINUOUS
  62
7
  10
 343.730
  20
 756.469
  30
0.0
  11
 344.040
  21
 755.524
  31
0.0
   0
LINE
   8
LEVEL003
   6
CONTINUOUS
  62
7
  10
 344.040
  20
 755.524
  30
0.0
  11
 344.474
  21
 754.622
  31
0.0
   0
LINE
   8
LEVEL003
   6
CONTINUOUS
  62
7
  10
 344.474
  20
 754.622
  30
0.0
  11
 345.025
  21
 753.777
  31
0.0
   0
LINE
   8
LEVEL003
   6
CONTINUOUS
  62
7
  10
 345.025
  20
 753.777
  30
0.0
  11
 345.685
  21
 753.004
  31
0.0
   0
LINE
   8
LEVEL003
   6
CONTINUOUS
  62
7
  10
 345.685
  20
 753.004
  30
0.0
  11
 346.444
  21
 752.313
  31
0.0
   0
LINE
   8
LEVEL003
   6
CONTINUOUS
  62
7
  10
 346.444
  20
 752.313
  30
0.0
  11
 347.289
  21
 751.715
  31
0.0
   0
LINE
   8
LEVEL003
   6
CONTINUOUS
  62
7
  10
 347.289
  20
 751.715
  30
0.0
  11
 348.208
  21
 751.220
  31
0.0
   0
LINE
   8
LEVEL003
   6
CONTINUOUS
  62
7
  10
 348.208
  20
 751.220
  30
0.0
  11
 349.186
  21
 750.835
  31
0.0
   0
LINE
   8
LEVEL003
   6
CONTINUOUS
  62
7
  10
 349.186
  20
 750.835
  30
0.0
  11
 350.208
  21
 750.567
  31
0.0
   0
LINE
   8
LEVEL003
   6
CONTINUOUS
  62
7
  10
 350.208
  20
 750.567
  30
0.0
  11
 351.258
  21
 750.419
  31
0.0
   0
LINE
   8
LEVEL003
   6
CONTINUOUS
  62
7
  10
 351.258
  20
 750.419
  30
0.0
  11
 352.320
  21
 750.395
  31
0.0
   0
LINE
   8
LEVEL003
   6
CONTINUOUS
  62
7
  10
 352.320
  20
 750.395
  30
0.0
  11
 353.376
  21
 750.493
  31
0.0
   0
LINE
   8
LEVEL003
   6
CONTINUOUS
  62
7
  10
 353.376
  20
 750.493
  30
0.0
  11
 354.411
  21
 750.714
  31
0.0
   0
LINE
   8
LEVEL003
   6
CONTINUOUS
  62
7
  10
 354.411
  20
 750.714
  30
0.0
  11
 355.409
  21
 751.053
  31
0.0
   0
LINE
   8
LEVEL003
   6
CONTINUOUS
  62
7
  10
 355.409
  20
 751.053
  30
0.0
  11
 356.353
  21
 751.505
  31
0.0
   0
LINE
   8
LEVEL003
   6
CONTINUOUS
  62
7
  10
 356.353
  20
 751.505
  30
0.0
  11
 357.229
  21
 752.063
  31
0.0
   0
LINE
   8
LEVEL003
   6
CONTINUOUS
  62
7
  10
 357.229
  20
 752.063
  30
0.0
  11
 358.024
  21
 752.718
  31
0.0
   0
LINE
   8
LEVEL003
   6
CONTINUOUS
  62
7
  10
 358.024
  20
 752.718
  30
0.0
  11
 358.724
  21
 753.460
  31
0.0
   0
LINE
   8
LEVEL003
   6
CONTINUOUS
  62
7
  10
 358.724
  20
 753.460
  30
0.0
  11
 359.320
  21
 754.278
  31
0.0
   0
LINE
   8
LEVEL003
   6
CONTINUOUS
  62
7
  10
 359.320
  20
 754.278
  30
0.0
  11
 359.802
  21
 755.158
  31
0.0
   0
LINE
   8
LEVEL003
   6
CONTINUOUS
  62
7
  10
 359.802
  20
 755.158
  30
0.0
  11
 360.161
  21
 756.088
  31
0.0
   0
LINE
   8
LEVEL003
   6
CONTINUOUS
  62
7
  10
 360.161
  20
 756.088
  30
0.0
  11
 360.394
  21
 757.052
  31
0.0
   0
LINE
   8
LEVEL003
   6
CONTINUOUS
  62
7
  10
 360.394
  20
 757.052
  30
0.0
  11
 360.495
  21
 758.035
  31
0.0
   0
LINE
   8
LEVEL003
   6
CONTINUOUS
  62
7
  10
 360.495
  20
 758.035
  30
0.0
  11
 360.500
  21
 758.298
  31
0.0
   0
LINE
   8
LEVEL003
   6
CONTINUOUS
  62
7
  10
 343.500
  20
 762.476
  30
0.0
  11
 343.500
  21
 758.298
  31
0.0
   0
LINE
   8
LEVEL003
   6
CONTINUOUS
  62
7
  10
 360.500
  20
 762.476
  30
0.0
  11
 360.500
  21
 758.298
  31
0.0
   0
LINE
   8
LEVEL003
   6
CONTINUOUS
  62
7
  10
 360.500
  20
 762.476
  30
0.0
  11
 360.434
  21
 763.462
  31
0.0
   0
LINE
   8
LEVEL003
   6
CONTINUOUS
  62
7
  10
 360.434
  20
 763.462
  30
0.0
  11
 360.236
  21
 764.432
  31
0.0
   0
LINE
   8
LEVEL003
   6
CONTINUOUS
  62
7
  10
 360.236
  20
 764.432
  30
0.0
  11
 359.909
  21
 765.373
  31
0.0
   0
LINE
   8
LEVEL003
   6
CONTINUOUS
  62
7
  10
 359.909
  20
 765.373
  30
0.0
  11
 359.459
  21
 766.267
  31
0.0
   0
LINE
   8
LEVEL003
   6
CONTINUOUS
  62
7
  10
 359.459
  20
 766.267
  30
0.0
  11
 358.893
  21
 767.103
  31
0.0
   0
LINE
   8
LEVEL003
   6
CONTINUOUS
  62
7
  10
 358.893
  20
 767.103
  30
0.0
  11
 358.219
  21
 767.867
  31
0.0
   0
LINE
   8
LEVEL003
   6
CONTINUOUS
  62
7
  10
 358.219
  20
 767.867
  30
0.0
  11
 357.448
  21
 768.546
  31
0.0
   0
LINE
   8
LEVEL003
   6
CONTINUOUS
  62
7
  10
 357.448
  20
 768.546
  30
0.0
  11
 356.593
  21
 769.131
  31
0.0
   0
LINE
   8
LEVEL003
   6
CONTINUOUS
  62
7
  10
 356.593
  20
 769.131
  30
0.0
  11
 355.665
  21
 769.611
  31
0.0
   0
LINE
   8
LEVEL003
   6
CONTINUOUS
  62
7
  10
 355.665
  20
 769.611
  30
0.0
  11
 354.680
  21
 769.981
  31
0.0
   0
LINE
   8
LEVEL003
   6
CONTINUOUS
  62
7
  10
 354.680
  20
 769.981
  30
0.0
  11
 353.654
  21
 770.233
  31
0.0
   0
LINE
   8
LEVEL003
   6
CONTINUOUS
  62
7
  10
 353.654
  20
 770.233
  30
0.0
  11
 352.601
  21
 770.365
  31
0.0
   0
LINE
   8
LEVEL003
   6
CONTINUOUS
  62
7
  10
 352.601
  20
 770.365
  30
0.0
  11
 351.539
  21
 770.373
  31
0.0
   0
LINE
   8
LEVEL003
   6
CONTINUOUS
  62
7
  10
 351.539
  20
 770.373
  30
0.0
  11
 350.485
  21
 770.258
  31
0.0
   0
LINE
   8
LEVEL003
   6
CONTINUOUS
  62
7
  10
 350.485
  20
 770.258
  30
0.0
  11
 349.454
  21
 770.021
  31
0.0
   0
LINE
   8
LEVEL003
   6
CONTINUOUS
  62
7
  10
 349.454
  20
 770.021
  30
0.0
  11
 348.463
  21
 769.667
  31
0.0
   0
LINE
   8
LEVEL003
   6
CONTINUOUS
  62
7
  10
 348.463
  20
 769.667
  30
0.0
  11
 347.527
  21
 769.201
  31
0.0
   0
LINE
   8
LEVEL003
   6
CONTINUOUS
  62
7
  10
 347.527
  20
 769.201
  30
0.0
  11
 346.661
  21
 768.629
  31
0.0
   0
LINE
   8
LEVEL003
   6
CONTINUOUS
  62
7
  10
 346.661
  20
 768.629
  30
0.0
  11
 345.878
  21
 767.962
  31
0.0
   0
LINE
   8
LEVEL003
   6
CONTINUOUS
  62
7
  10
 345.878
  20
 767.962
  30
0.0
  11
 345.190
  21
 767.209
  31
0.0
   0
LINE
   8
LEVEL003
   6
CONTINUOUS
  62
7
  10
 345.190
  20
 767.209
  30
0.0
  11
 344.609
  21
 766.382
  31
0.0
   0
LINE
   8
LEVEL003
   6
CONTINUOUS
  62
7
  10
 344.609
  20
 766.382
  30
0.0
  11
 344.143
  21
 765.494
  31
0.0
   0
LINE
   8
LEVEL003
   6
CONTINUOUS
  62
7
  10
 344.143
  20
 765.494
  30
0.0
  11
 343.800
  21
 764.559
  31
0.0
   0
LINE
   8
LEVEL003
   6
CONTINUOUS
  62
7
  10
 343.800
  20
 764.559
  30
0.0
  11
 343.585
  21
 763.592
  31
0.0
   0
LINE
   8
LEVEL003
   6
CONTINUOUS
  62
7
  10
 343.585
  20
 763.592
  30
0.0
  11
 343.501
  21
 762.607
  31
0.0
   0
LINE
   8
LEVEL003
   6
CONTINUOUS
  62
7
  10
 343.501
  20
 762.607
  30
0.0
  11
 343.500
  21
 762.476
  31
0.0
   0
LINE
   8
LEVEL001
   6
CONTINUOUS
  62
7
  10
 360.500
  20
 758.405
  30
0.0
  11
 360.889
  21
 759.418
  31
0.0
   0
LINE
   8
LEVEL001
   6
CONTINUOUS
  62
7
  10
 360.889
  20
 759.418
  30
0.0
  11
 361.138
  21
 760.467
  31
0.0
   0
LINE
   8
LEVEL001
   6
CONTINUOUS
  62
7
  10
 361.138
  20
 760.467
  30
0.0
  11
 361.246
  21
 761.538
  31
0.0
   0
LINE
   8
LEVEL001
   6
CONTINUOUS
  62
7
  10
 361.246
  20
 761.538
  30
0.0
  11
 361.209
  21
 762.612
  31
0.0
   0
LINE
   8
LEVEL001
   6
CONTINUOUS
  62
7
  10
 361.209
  20
 762.612
  30
0.0
  11
 361.028
  21
 763.674
  31
0.0
   0
LINE
   8
LEVEL001
   6
CONTINUOUS
  62
7
  10
 361.028
  20
 763.674
  30
0.0
  11
 360.706
  21
 764.707
  31
0.0
   0
LINE
   8
LEVEL001
   6
CONTINUOUS
  62
7
  10
 360.706
  20
 764.707
  30
0.0
  11
 360.249
  21
 765.694
  31
0.0
   0
LINE
   8
LEVEL001
   6
CONTINUOUS
  62
7
  10
 360.249
  20
 765.694
  30
0.0
  11
 359.663
  21
 766.621
  31
0.0
   0
LINE
   8
LEVEL001
   6
CONTINUOUS
  62
7
  10
 359.663
  20
 766.621
  30
0.0
  11
 358.957
  21
 767.472
  31
0.0
   0
LINE
   8
LEVEL001
   6
CONTINUOUS
  62
7
  10
 358.957
  20
 767.472
  30
0.0
  11
 358.143
  21
 768.235
  31
0.0
   0
LINE
   8
LEVEL001
   6
CONTINUOUS
  62
7
  10
 358.143
  20
 768.235
  30
0.0
  11
 357.233
  21
 768.897
  31
0.0
   0
LINE
   8
LEVEL001
   6
CONTINUOUS
  62
7
  10
 357.233
  20
 768.897
  30
0.0
  11
 356.241
  21
 769.449
  31
0.0
   0
LINE
   8
LEVEL001
   6
CONTINUOUS
  62
7
  10
 356.241
  20
 769.449
  30
0.0
  11
 355.183
  21
 769.881
  31
0.0
   0
LINE
   8
LEVEL001
   6
CONTINUOUS
  62
7
  10
 355.183
  20
 769.881
  30
0.0
  11
 354.075
  21
 770.187
  31
0.0
   0
LINE
   8
LEVEL001
   6
CONTINUOUS
  62
7
  10
 354.075
  20
 770.187
  30
0.0
  11
 352.935
  21
 770.362
  31
0.0
   0
LINE
   8
LEVEL001
   6
CONTINUOUS
  62
7
  10
 352.935
  20
 770.362
  30
0.0
  11
 351.780
  21
 770.404
  31
0.0
   0
LINE
   8
LEVEL001
   6
CONTINUOUS
  62
7
  10
 351.780
  20
 770.404
  30
0.0
  11
 350.629
  21
 770.311
  31
0.0
   0
LINE
   8
LEVEL001
   6
CONTINUOUS
  62
7
  10
 350.629
  20
 770.311
  30
0.0
  11
 349.499
  21
 770.086
  31
0.0
   0
LINE
   8
LEVEL001
   6
CONTINUOUS
  62
7
  10
 349.499
  20
 770.086
  30
0.0
  11
 348.409
  21
 769.731
  31
0.0
   0
LINE
   8
LEVEL001
   6
CONTINUOUS
  62
7
  10
 348.409
  20
 769.731
  30
0.0
  11
 347.374
  21
 769.253
  31
0.0
   0
LINE
   8
LEVEL001
   6
CONTINUOUS
  62
7
  10
 347.374
  20
 769.253
  30
0.0
  11
 346.411
  21
 768.658
  31
0.0
   0
LINE
   8
LEVEL001
   6
CONTINUOUS
  62
7
  10
 346.411
  20
 768.658
  30
0.0
  11
 345.536
  21
 767.956
  31
0.0
   0
LINE
   8
LEVEL001
   6
CONTINUOUS
  62
7
  10
 345.536
  20
 767.956
  30
0.0
  11
 344.761
  21
 767.158
  31
0.0
   0
LINE
   8
LEVEL001
   6
CONTINUOUS
  62
7
  10
 344.761
  20
 767.158
  30
0.0
  11
 344.100
  21
 766.277
  31
0.0
   0
LINE
   8
LEVEL001
   6
CONTINUOUS
  62
7
  10
 344.100
  20
 766.277
  30
0.0
  11
 343.562
  21
 765.325
  31
0.0
   0
LINE
   8
LEVEL001
   6
CONTINUOUS
  62
7
  10
 343.562
  20
 765.325
  30
0.0
  11
 343.155
  21
 764.319
  31
0.0
   0
LINE
   8
LEVEL001
   6
CONTINUOUS
  62
7
  10
 343.155
  20
 764.319
  30
0.0
  11
 342.887
  21
 763.273
  31
0.0
   0
LINE
   8
LEVEL001
   6
CONTINUOUS
  62
7
  10
 342.887
  20
 763.273
  30
0.0
  11
 342.760
  21
 762.205
  31
0.0
   0
LINE
   8
LEVEL001
   6
CONTINUOUS
  62
7
  10
 342.760
  20
 762.205
  30
0.0
  11
 342.778
  21
 761.130
  31
0.0
   0
LINE
   8
LEVEL001
   6
CONTINUOUS
  62
7
  10
 342.778
  20
 761.130
  30
0.0
  11
 342.940
  21
 760.065
  31
0.0
   0
LINE
   8
LEVEL001
   6
CONTINUOUS
  62
7
  10
 342.940
  20
 760.065
  30
0.0
  11
 343.243
  21
 759.028
  31
0.0
   0
LINE
   8
LEVEL001
   6
CONTINUOUS
  62
7
  10
 343.243
  20
 759.028
  30
0.0
  11
 343.500
  21
 758.405
  31
0.0
   0
LINE
   8
LEVEL001
   6
CONTINUOUS
  62
7
  10
 340.053
  20
 760.755
  30
0.0
  11
 340.286
  21
 759.377
  31
0.0
   0
LINE
   8
LEVEL001
   6
CONTINUOUS
  62
7
  10
 340.286
  20
 759.377
  30
0.0
  11
 340.702
  21
 758.037
  31
0.0
   0
LINE
   8
LEVEL001
   6
CONTINUOUS
  62
7
  10
 340.702
  20
 758.037
  30
0.0
  11
 341.294
  21
 756.756
  31
0.0
   0
LINE
   8
LEVEL001
   6
CONTINUOUS
  62
7
  10
 341.294
  20
 756.756
  30
0.0
  11
 342.054
  21
 755.553
  31
0.0
   0
LINE
   8
LEVEL001
   6
CONTINUOUS
  62
7
  10
 342.054
  20
 755.553
  30
0.0
  11
 342.968
  21
 754.448
  31
0.0
   0
LINE
   8
LEVEL001
   6
CONTINUOUS
  62
7
  10
 342.968
  20
 754.448
  30
0.0
  11
 344.024
  21
 753.458
  31
0.0
   0
LINE
   8
LEVEL001
   6
CONTINUOUS
  62
7
  10
 344.024
  20
 753.458
  30
0.0
  11
 345.204
  21
 752.598
  31
0.0
   0
LINE
   8
LEVEL001
   6
CONTINUOUS
  62
7
  10
 345.204
  20
 752.598
  30
0.0
  11
 346.490
  21
 751.881
  31
0.0
   0
LINE
   8
LEVEL001
   6
CONTINUOUS
  62
7
  10
 346.490
  20
 751.881
  30
0.0
  11
 347.862
  21
 751.320
  31
0.0
   0
LINE
   8
LEVEL001
   6
CONTINUOUS
  62
7
  10
 347.862
  20
 751.320
  30
0.0
  11
 348.292
  21
 751.181
  31
0.0
   0
LINE
   8
LEVEL001
   6
CONTINUOUS
  62
7
  10
 355.708
  20
 751.181
  30
0.0
  11
 357.102
  21
 751.694
  31
0.0
   0
LINE
   8
LEVEL001
   6
CONTINUOUS
  62
7
  10
 357.102
  20
 751.694
  30
0.0
  11
 358.417
  21
 752.365
  31
0.0
   0
LINE
   8
LEVEL001
   6
CONTINUOUS
  62
7
  10
 358.417
  20
 752.365
  30
0.0
  11
 359.631
  21
 753.183
  31
0.0
   0
LINE
   8
LEVEL001
   6
CONTINUOUS
  62
7
  10
 359.631
  20
 753.183
  30
0.0
  11
 360.382
  21
 753.811
  31
0.0
   0
LINE
   8
LEVEL001
   6
CONTINUOUS
  62
7
  10
 357.167
  20
 751.000
  30
0.0
  11
 355.276
  21
 751.000
  31
0.0
   0
LINE
   8
LEVEL001
   6
CONTINUOUS
  62
7
  10
 348.724
  20
 751.000
  30
0.0
  11
 327.785
  21
 751.000
  31
0.0
   0
LINE
   8
LEVEL003
   6
CONTINUOUS
  62
7
  10
 384.000
  20
 758.078
  30
0.0
  11
 383.938
  21
 759.006
  31
0.0
   0
LINE
   8
LEVEL003
   6
CONTINUOUS
  62
7
  10
 383.938
  20
 759.006
  30
0.0
  11
 383.751
  21
 759.919
  31
0.0
   0
LINE
   8
LEVEL003
   6
CONTINUOUS
  62
7
  10
 383.751
  20
 759.919
  30
0.0
  11
 383.444
  21
 760.804
  31
0.0
   0
LINE
   8
LEVEL003
   6
CONTINUOUS
  62
7
  10
 383.444
  20
 760.804
  30
0.0
  11
 383.021
  21
 761.646
  31
0.0
   0
LINE
   8
LEVEL003
   6
CONTINUOUS
  62
7
  10
 383.021
  20
 761.646
  30
0.0
  11
 382.488
  21
 762.433
  31
0.0
   0
LINE
   8
LEVEL003
   6
CONTINUOUS
  62
7
  10
 382.488
  20
 762.433
  30
0.0
  11
 381.854
  21
 763.151
  31
0.0
   0
LINE
   8
LEVEL003
   6
CONTINUOUS
  62
7
  10
 381.854
  20
 763.151
  30
0.0
  11
 381.128
  21
 763.791
  31
0.0
   0
LINE
   8
LEVEL003
   6
CONTINUOUS
  62
7
  10
 381.128
  20
 763.791
  30
0.0
  11
 380.322
  21
 764.341
  31
0.0
   0
LINE
   8
LEVEL003
   6
CONTINUOUS
  62
7
  10
 380.322
  20
 764.341
  30
0.0
  11
 379.449
  21
 764.794
  31
0.0
   0
LINE
   8
LEVEL003
   6
CONTINUOUS
  62
7
  10
 379.449
  20
 764.794
  30
0.0
  11
 378.523
  21
 765.141
  31
0.0
   0
LINE
   8
LEVEL003
   6
CONTINUOUS
  62
7
  10
 378.523
  20
 765.141
  30
0.0
  11
 377.556
  21
 765.379
  31
0.0
   0
LINE
   8
LEVEL003
   6
CONTINUOUS
  62
7
  10
 377.556
  20
 765.379
  30
0.0
  11
 376.566
  21
 765.503
  31
0.0
   0
LINE
   8
LEVEL003
   6
CONTINUOUS
  62
7
  10
 376.566
  20
 765.503
  30
0.0
  11
 375.567
  21
 765.510
  31
0.0
   0
LINE
   8
LEVEL003
   6
CONTINUOUS
  62
7
  10
 375.567
  20
 765.510
  30
0.0
  11
 374.574
  21
 765.402
  31
0.0
   0
LINE
   8
LEVEL003
   6
CONTINUOUS
  62
7
  10
 374.574
  20
 765.402
  30
0.0
  11
 373.604
  21
 765.179
  31
0.0
   0
LINE
   8
LEVEL003
   6
CONTINUOUS
  62
7
  10
 373.604
  20
 765.179
  30
0.0
  11
 372.671
  21
 764.846
  31
0.0
   0
LINE
   8
LEVEL003
   6
CONTINUOUS
  62
7
  10
 372.671
  20
 764.846
  30
0.0
  11
 371.790
  21
 764.407
  31
0.0
   0
LINE
   8
LEVEL003
   6
CONTINUOUS
  62
7
  10
 371.790
  20
 764.407
  30
0.0
  11
 370.975
  21
 763.869
  31
0.0
   0
LINE
   8
LEVEL003
   6
CONTINUOUS
  62
7
  10
 370.975
  20
 763.869
  30
0.0
  11
 370.238
  21
 763.241
  31
0.0
   0
LINE
   8
LEVEL003
   6
CONTINUOUS
  62
7
  10
 370.238
  20
 763.241
  30
0.0
  11
 369.591
  21
 762.532
  31
0.0
   0
LINE
   8
LEVEL003
   6
CONTINUOUS
  62
7
  10
 369.591
  20
 762.532
  30
0.0
  11
 369.044
  21
 761.754
  31
0.0
   0
LINE
   8
LEVEL003
   6
CONTINUOUS
  62
7
  10
 369.044
  20
 761.754
  30
0.0
  11
 368.606
  21
 760.919
  31
0.0
   0
LINE
   8
LEVEL003
   6
CONTINUOUS
  62
7
  10
 368.606
  20
 760.919
  30
0.0
  11
 368.283
  21
 760.039
  31
0.0
   0
LINE
   8
LEVEL003
   6
CONTINUOUS
  62
7
  10
 368.283
  20
 760.039
  30
0.0
  11
 368.080
  21
 759.128
  31
0.0
   0
LINE
   8
LEVEL003
   6
CONTINUOUS
  62
7
  10
 368.080
  20
 759.128
  30
0.0
  11
 368.001
  21
 758.201
  31
0.0
   0
LINE
   8
LEVEL003
   6
CONTINUOUS
  62
7
  10
 368.001
  20
 758.201
  30
0.0
  11
 368.047
  21
 757.272
  31
0.0
   0
LINE
   8
LEVEL003
   6
CONTINUOUS
  62
7
  10
 368.047
  20
 757.272
  30
0.0
  11
 368.217
  21
 756.356
  31
0.0
   0
LINE
   8
LEVEL003
   6
CONTINUOUS
  62
7
  10
 368.217
  20
 756.356
  30
0.0
  11
 368.508
  21
 755.467
  31
0.0
   0
LINE
   8
LEVEL003
   6
CONTINUOUS
  62
7
  10
 368.508
  20
 755.467
  30
0.0
  11
 368.917
  21
 754.618
  31
0.0
   0
LINE
   8
LEVEL003
   6
CONTINUOUS
  62
7
  10
 368.917
  20
 754.618
  30
0.0
  11
 369.436
  21
 753.823
  31
0.0
   0
LINE
   8
LEVEL003
   6
CONTINUOUS
  62
7
  10
 369.436
  20
 753.823
  30
0.0
  11
 370.057
  21
 753.095
  31
0.0
   0
LINE
   8
LEVEL003
   6
CONTINUOUS
  62
7
  10
 370.057
  20
 753.095
  30
0.0
  11
 370.771
  21
 752.445
  31
0.0
   0
LINE
   8
LEVEL003
   6
CONTINUOUS
  62
7
  10
 370.771
  20
 752.445
  30
0.0
  11
 371.566
  21
 751.882
  31
0.0
   0
LINE
   8
LEVEL003
   6
CONTINUOUS
  62
7
  10
 371.566
  20
 751.882
  30
0.0
  11
 372.431
  21
 751.416
  31
0.0
   0
LINE
   8
LEVEL003
   6
CONTINUOUS
  62
7
  10
 372.431
  20
 751.416
  30
0.0
  11
 373.352
  21
 751.054
  31
0.0
   0
LINE
   8
LEVEL003
   6
CONTINUOUS
  62
7
  10
 373.352
  20
 751.054
  30
0.0
  11
 374.314
  21
 750.802
  31
0.0
   0
LINE
   8
LEVEL003
   6
CONTINUOUS
  62
7
  10
 374.314
  20
 750.802
  30
0.0
  11
 375.302
  21
 750.663
  31
0.0
   0
LINE
   8
LEVEL003
   6
CONTINUOUS
  62
7
  10
 375.302
  20
 750.663
  30
0.0
  11
 376.301
  21
 750.640
  31
0.0
   0
LINE
   8
LEVEL003
   6
CONTINUOUS
  62
7
  10
 376.301
  20
 750.640
  30
0.0
  11
 377.295
  21
 750.733
  31
0.0
   0
LINE
   8
LEVEL003
   6
CONTINUOUS
  62
7
  10
 377.295
  20
 750.733
  30
0.0
  11
 378.269
  21
 750.940
  31
0.0
   0
LINE
   8
LEVEL003
   6
CONTINUOUS
  62
7
  10
 378.269
  20
 750.940
  30
0.0
  11
 379.208
  21
 751.259
  31
0.0
   0
LINE
   8
LEVEL003
   6
CONTINUOUS
  62
7
  10
 379.208
  20
 751.259
  30
0.0
  11
 380.097
  21
 751.684
  31
0.0
   0
LINE
   8
LEVEL003
   6
CONTINUOUS
  62
7
  10
 380.097
  20
 751.684
  30
0.0
  11
 380.921
  21
 752.210
  31
0.0
   0
LINE
   8
LEVEL003
   6
CONTINUOUS
  62
7
  10
 380.921
  20
 752.210
  30
0.0
  11
 381.669
  21
 752.826
  31
0.0
   0
LINE
   8
LEVEL003
   6
CONTINUOUS
  62
7
  10
 381.669
  20
 752.826
  30
0.0
  11
 382.329
  21
 753.525
  31
0.0
   0
LINE
   8
LEVEL003
   6
CONTINUOUS
  62
7
  10
 382.329
  20
 753.525
  30
0.0
  11
 382.890
  21
 754.295
  31
0.0
   0
LINE
   8
LEVEL003
   6
CONTINUOUS
  62
7
  10
 382.890
  20
 754.295
  30
0.0
  11
 383.343
  21
 755.123
  31
0.0
   0
LINE
   8
LEVEL003
   6
CONTINUOUS
  62
7
  10
 383.343
  20
 755.123
  30
0.0
  11
 383.681
  21
 755.998
  31
0.0
   0
LINE
   8
LEVEL003
   6
CONTINUOUS
  62
7
  10
 383.681
  20
 755.998
  30
0.0
  11
 383.900
  21
 756.905
  31
0.0
   0
LINE
   8
LEVEL003
   6
CONTINUOUS
  62
7
  10
 383.900
  20
 756.905
  30
0.0
  11
 383.996
  21
 757.831
  31
0.0
   0
LINE
   8
LEVEL003
   6
CONTINUOUS
  62
7
  10
 383.996
  20
 757.831
  30
0.0
  11
 384.000
  21
 758.078
  31
0.0
   0
LINE
   8
LEVEL003
   6
CONTINUOUS
  62
7
  10
 384.500
  20
 758.298
  30
0.0
  11
 384.434
  21
 759.284
  31
0.0
   0
LINE
   8
LEVEL003
   6
CONTINUOUS
  62
7
  10
 384.434
  20
 759.284
  30
0.0
  11
 384.236
  21
 760.254
  31
0.0
   0
LINE
   8
LEVEL003
   6
CONTINUOUS
  62
7
  10
 384.236
  20
 760.254
  30
0.0
  11
 383.909
  21
 761.194
  31
0.0
   0
LINE
   8
LEVEL003
   6
CONTINUOUS
  62
7
  10
 383.909
  20
 761.194
  30
0.0
  11
 383.459
  21
 762.089
  31
0.0
   0
LINE
   8
LEVEL003
   6
CONTINUOUS
  62
7
  10
 383.459
  20
 762.089
  30
0.0
  11
 382.893
  21
 762.925
  31
0.0
   0
LINE
   8
LEVEL003
   6
CONTINUOUS
  62
7
  10
 382.893
  20
 762.925
  30
0.0
  11
 382.219
  21
 763.688
  31
0.0
   0
LINE
   8
LEVEL003
   6
CONTINUOUS
  62
7
  10
 382.219
  20
 763.688
  30
0.0
  11
 381.448
  21
 764.368
  31
0.0
   0
LINE
   8
LEVEL003
   6
CONTINUOUS
  62
7
  10
 381.448
  20
 764.368
  30
0.0
  11
 380.593
  21
 764.953
  31
0.0
   0
LINE
   8
LEVEL003
   6
CONTINUOUS
  62
7
  10
 380.593
  20
 764.953
  30
0.0
  11
 379.665
  21
 765.433
  31
0.0
   0
LINE
   8
LEVEL003
   6
CONTINUOUS
  62
7
  10
 379.665
  20
 765.433
  30
0.0
  11
 378.680
  21
 765.803
  31
0.0
   0
LINE
   8
LEVEL003
   6
CONTINUOUS
  62
7
  10
 378.680
  20
 765.803
  30
0.0
  11
 377.654
  21
 766.055
  31
0.0
   0
LINE
   8
LEVEL003
   6
CONTINUOUS
  62
7
  10
 377.654
  20
 766.055
  30
0.0
  11
 376.601
  21
 766.186
  31
0.0
   0
LINE
   8
LEVEL003
   6
CONTINUOUS
  62
7
  10
 376.601
  20
 766.186
  30
0.0
  11
 375.539
  21
 766.195
  31
0.0
   0
LINE
   8
LEVEL003
   6
CONTINUOUS
  62
7
  10
 375.539
  20
 766.195
  30
0.0
  11
 374.485
  21
 766.080
  31
0.0
   0
LINE
   8
LEVEL003
   6
CONTINUOUS
  62
7
  10
 374.485
  20
 766.080
  30
0.0
  11
 373.454
  21
 765.843
  31
0.0
   0
LINE
   8
LEVEL003
   6
CONTINUOUS
  62
7
  10
 373.454
  20
 765.843
  30
0.0
  11
 372.463
  21
 765.489
  31
0.0
   0
LINE
   8
LEVEL003
   6
CONTINUOUS
  62
7
  10
 372.463
  20
 765.489
  30
0.0
  11
 371.527
  21
 765.023
  31
0.0
   0
LINE
   8
LEVEL003
   6
CONTINUOUS
  62
7
  10
 371.527
  20
 765.023
  30
0.0
  11
 370.661
  21
 764.451
  31
0.0
   0
LINE
   8
LEVEL003
   6
CONTINUOUS
  62
7
  10
 370.661
  20
 764.451
  30
0.0
  11
 369.878
  21
 763.784
  31
0.0
   0
LINE
   8
LEVEL003
   6
CONTINUOUS
  62
7
  10
 369.878
  20
 763.784
  30
0.0
  11
 369.190
  21
 763.031
  31
0.0
   0
LINE
   8
LEVEL003
   6
CONTINUOUS
  62
7
  10
 369.190
  20
 763.031
  30
0.0
  11
 368.609
  21
 762.204
  31
0.0
   0
LINE
   8
LEVEL003
   6
CONTINUOUS
  62
7
  10
 368.609
  20
 762.204
  30
0.0
  11
 368.143
  21
 761.316
  31
0.0
   0
LINE
   8
LEVEL003
   6
CONTINUOUS
  62
7
  10
 368.143
  20
 761.316
  30
0.0
  11
 367.800
  21
 760.381
  31
0.0
   0
LINE
   8
LEVEL003
   6
CONTINUOUS
  62
7
  10
 367.800
  20
 760.381
  30
0.0
  11
 367.585
  21
 759.414
  31
0.0
   0
LINE
   8
LEVEL003
   6
CONTINUOUS
  62
7
  10
 367.585
  20
 759.414
  30
0.0
  11
 367.501
  21
 758.429
  31
0.0
   0
LINE
   8
LEVEL003
   6
CONTINUOUS
  62
7
  10
 367.501
  20
 758.429
  30
0.0
  11
 367.550
  21
 757.442
  31
0.0
   0
LINE
   8
LEVEL003
   6
CONTINUOUS
  62
7
  10
 367.550
  20
 757.442
  30
0.0
  11
 367.730
  21
 756.469
  31
0.0
   0
LINE
   8
LEVEL003
   6
CONTINUOUS
  62
7
  10
 367.730
  20
 756.469
  30
0.0
  11
 368.040
  21
 755.524
  31
0.0
   0
LINE
   8
LEVEL003
   6
CONTINUOUS
  62
7
  10
 368.040
  20
 755.524
  30
0.0
  11
 368.474
  21
 754.622
  31
0.0
   0
LINE
   8
LEVEL003
   6
CONTINUOUS
  62
7
  10
 368.474
  20
 754.622
  30
0.0
  11
 369.025
  21
 753.777
  31
0.0
   0
LINE
   8
LEVEL003
   6
CONTINUOUS
  62
7
  10
 369.025
  20
 753.777
  30
0.0
  11
 369.685
  21
 753.004
  31
0.0
   0
LINE
   8
LEVEL003
   6
CONTINUOUS
  62
7
  10
 369.685
  20
 753.004
  30
0.0
  11
 370.444
  21
 752.313
  31
0.0
   0
LINE
   8
LEVEL003
   6
CONTINUOUS
  62
7
  10
 370.444
  20
 752.313
  30
0.0
  11
 371.289
  21
 751.715
  31
0.0
   0
LINE
   8
LEVEL003
   6
CONTINUOUS
  62
7
  10
 371.289
  20
 751.715
  30
0.0
  11
 372.208
  21
 751.220
  31
0.0
   0
LINE
   8
LEVEL003
   6
CONTINUOUS
  62
7
  10
 372.208
  20
 751.220
  30
0.0
  11
 373.186
  21
 750.835
  31
0.0
   0
LINE
   8
LEVEL003
   6
CONTINUOUS
  62
7
  10
 373.186
  20
 750.835
  30
0.0
  11
 374.208
  21
 750.567
  31
0.0
   0
LINE
   8
LEVEL003
   6
CONTINUOUS
  62
7
  10
 374.208
  20
 750.567
  30
0.0
  11
 375.258
  21
 750.419
  31
0.0
   0
LINE
   8
LEVEL003
   6
CONTINUOUS
  62
7
  10
 375.258
  20
 750.419
  30
0.0
  11
 376.320
  21
 750.395
  31
0.0
   0
LINE
   8
LEVEL003
   6
CONTINUOUS
  62
7
  10
 376.320
  20
 750.395
  30
0.0
  11
 377.376
  21
 750.493
  31
0.0
   0
LINE
   8
LEVEL003
   6
CONTINUOUS
  62
7
  10
 377.376
  20
 750.493
  30
0.0
  11
 378.411
  21
 750.714
  31
0.0
   0
LINE
   8
LEVEL003
   6
CONTINUOUS
  62
7
  10
 378.411
  20
 750.714
  30
0.0
  11
 379.409
  21
 751.053
  31
0.0
   0
LINE
   8
LEVEL003
   6
CONTINUOUS
  62
7
  10
 379.409
  20
 751.053
  30
0.0
  11
 380.353
  21
 751.505
  31
0.0
   0
LINE
   8
LEVEL003
   6
CONTINUOUS
  62
7
  10
 380.353
  20
 751.505
  30
0.0
  11
 381.229
  21
 752.063
  31
0.0
   0
LINE
   8
LEVEL003
   6
CONTINUOUS
  62
7
  10
 381.229
  20
 752.063
  30
0.0
  11
 382.024
  21
 752.718
  31
0.0
   0
LINE
   8
LEVEL003
   6
CONTINUOUS
  62
7
  10
 382.024
  20
 752.718
  30
0.0
  11
 382.724
  21
 753.460
  31
0.0
   0
LINE
   8
LEVEL003
   6
CONTINUOUS
  62
7
  10
 382.724
  20
 753.460
  30
0.0
  11
 383.320
  21
 754.278
  31
0.0
   0
LINE
   8
LEVEL003
   6
CONTINUOUS
  62
7
  10
 383.320
  20
 754.278
  30
0.0
  11
 383.802
  21
 755.158
  31
0.0
   0
LINE
   8
LEVEL003
   6
CONTINUOUS
  62
7
  10
 383.802
  20
 755.158
  30
0.0
  11
 384.161
  21
 756.088
  31
0.0
   0
LINE
   8
LEVEL003
   6
CONTINUOUS
  62
7
  10
 384.161
  20
 756.088
  30
0.0
  11
 384.394
  21
 757.052
  31
0.0
   0
LINE
   8
LEVEL003
   6
CONTINUOUS
  62
7
  10
 384.394
  20
 757.052
  30
0.0
  11
 384.495
  21
 758.035
  31
0.0
   0
LINE
   8
LEVEL003
   6
CONTINUOUS
  62
7
  10
 384.495
  20
 758.035
  30
0.0
  11
 384.500
  21
 758.298
  31
0.0
   0
LINE
   8
LEVEL003
   6
CONTINUOUS
  62
7
  10
 384.500
  20
 762.476
  30
0.0
  11
 384.434
  21
 763.462
  31
0.0
   0
LINE
   8
LEVEL003
   6
CONTINUOUS
  62
7
  10
 384.434
  20
 763.462
  30
0.0
  11
 384.236
  21
 764.432
  31
0.0
   0
LINE
   8
LEVEL003
   6
CONTINUOUS
  62
7
  10
 384.236
  20
 764.432
  30
0.0
  11
 383.909
  21
 765.373
  31
0.0
   0
LINE
   8
LEVEL003
   6
CONTINUOUS
  62
7
  10
 383.909
  20
 765.373
  30
0.0
  11
 383.459
  21
 766.267
  31
0.0
   0
LINE
   8
LEVEL003
   6
CONTINUOUS
  62
7
  10
 383.459
  20
 766.267
  30
0.0
  11
 382.893
  21
 767.103
  31
0.0
   0
LINE
   8
LEVEL003
   6
CONTINUOUS
  62
7
  10
 382.893
  20
 767.103
  30
0.0
  11
 382.219
  21
 767.867
  31
0.0
   0
LINE
   8
LEVEL003
   6
CONTINUOUS
  62
7
  10
 382.219
  20
 767.867
  30
0.0
  11
 381.448
  21
 768.546
  31
0.0
   0
LINE
   8
LEVEL003
   6
CONTINUOUS
  62
7
  10
 381.448
  20
 768.546
  30
0.0
  11
 380.593
  21
 769.131
  31
0.0
   0
LINE
   8
LEVEL003
   6
CONTINUOUS
  62
7
  10
 380.593
  20
 769.131
  30
0.0
  11
 379.665
  21
 769.611
  31
0.0
   0
LINE
   8
LEVEL003
   6
CONTINUOUS
  62
7
  10
 379.665
  20
 769.611
  30
0.0
  11
 378.680
  21
 769.981
  31
0.0
   0
LINE
   8
LEVEL003
   6
CONTINUOUS
  62
7
  10
 378.680
  20
 769.981
  30
0.0
  11
 377.654
  21
 770.233
  31
0.0
   0
LINE
   8
LEVEL003
   6
CONTINUOUS
  62
7
  10
 377.654
  20
 770.233
  30
0.0
  11
 376.601
  21
 770.365
  31
0.0
   0
LINE
   8
LEVEL003
   6
CONTINUOUS
  62
7
  10
 376.601
  20
 770.365
  30
0.0
  11
 375.539
  21
 770.373
  31
0.0
   0
LINE
   8
LEVEL003
   6
CONTINUOUS
  62
7
  10
 375.539
  20
 770.373
  30
0.0
  11
 374.485
  21
 770.258
  31
0.0
   0
LINE
   8
LEVEL003
   6
CONTINUOUS
  62
7
  10
 374.485
  20
 770.258
  30
0.0
  11
 373.454
  21
 770.021
  31
0.0
   0
LINE
   8
LEVEL003
   6
CONTINUOUS
  62
7
  10
 373.454
  20
 770.021
  30
0.0
  11
 372.463
  21
 769.667
  31
0.0
   0
LINE
   8
LEVEL003
   6
CONTINUOUS
  62
7
  10
 372.463
  20
 769.667
  30
0.0
  11
 371.527
  21
 769.201
  31
0.0
   0
LINE
   8
LEVEL003
   6
CONTINUOUS
  62
7
  10
 371.527
  20
 769.201
  30
0.0
  11
 370.661
  21
 768.629
  31
0.0
   0
LINE
   8
LEVEL003
   6
CONTINUOUS
  62
7
  10
 370.661
  20
 768.629
  30
0.0
  11
 369.878
  21
 767.962
  31
0.0
   0
LINE
   8
LEVEL003
   6
CONTINUOUS
  62
7
  10
 369.878
  20
 767.962
  30
0.0
  11
 369.190
  21
 767.209
  31
0.0
   0
LINE
   8
LEVEL003
   6
CONTINUOUS
  62
7
  10
 369.190
  20
 767.209
  30
0.0
  11
 368.609
  21
 766.382
  31
0.0
   0
LINE
   8
LEVEL003
   6
CONTINUOUS
  62
7
  10
 368.609
  20
 766.382
  30
0.0
  11
 368.143
  21
 765.494
  31
0.0
   0
LINE
   8
LEVEL003
   6
CONTINUOUS
  62
7
  10
 368.143
  20
 765.494
  30
0.0
  11
 367.800
  21
 764.559
  31
0.0
   0
LINE
   8
LEVEL003
   6
CONTINUOUS
  62
7
  10
 367.800
  20
 764.559
  30
0.0
  11
 367.585
  21
 763.592
  31
0.0
   0
LINE
   8
LEVEL003
   6
CONTINUOUS
  62
7
  10
 367.585
  20
 763.592
  30
0.0
  11
 367.501
  21
 762.607
  31
0.0
   0
LINE
   8
LEVEL003
   6
CONTINUOUS
  62
7
  10
 367.501
  20
 762.607
  30
0.0
  11
 367.500
  21
 762.476
  31
0.0
   0
LINE
   8
LEVEL001
   6
CONTINUOUS
  62
7
  10
 384.500
  20
 758.405
  30
0.0
  11
 384.889
  21
 759.418
  31
0.0
   0
LINE
   8
LEVEL001
   6
CONTINUOUS
  62
7
  10
 384.889
  20
 759.418
  30
0.0
  11
 385.138
  21
 760.467
  31
0.0
   0
LINE
   8
LEVEL001
   6
CONTINUOUS
  62
7
  10
 385.138
  20
 760.467
  30
0.0
  11
 385.246
  21
 761.538
  31
0.0
   0
LINE
   8
LEVEL001
   6
CONTINUOUS
  62
7
  10
 385.246
  20
 761.538
  30
0.0
  11
 385.209
  21
 762.612
  31
0.0
   0
LINE
   8
LEVEL001
   6
CONTINUOUS
  62
7
  10
 385.209
  20
 762.612
  30
0.0
  11
 385.028
  21
 763.674
  31
0.0
   0
LINE
   8
LEVEL001
   6
CONTINUOUS
  62
7
  10
 385.028
  20
 763.674
  30
0.0
  11
 384.706
  21
 764.707
  31
0.0
   0
LINE
   8
LEVEL001
   6
CONTINUOUS
  62
7
  10
 384.706
  20
 764.707
  30
0.0
  11
 384.249
  21
 765.694
  31
0.0
   0
LINE
   8
LEVEL001
   6
CONTINUOUS
  62
7
  10
 384.249
  20
 765.694
  30
0.0
  11
 383.663
  21
 766.621
  31
0.0
   0
LINE
   8
LEVEL001
   6
CONTINUOUS
  62
7
  10
 383.663
  20
 766.621
  30
0.0
  11
 382.957
  21
 767.472
  31
0.0
   0
LINE
   8
LEVEL001
   6
CONTINUOUS
  62
7
  10
 382.957
  20
 767.472
  30
0.0
  11
 382.143
  21
 768.235
  31
0.0
   0
LINE
   8
LEVEL001
   6
CONTINUOUS
  62
7
  10
 382.143
  20
 768.235
  30
0.0
  11
 381.233
  21
 768.897
  31
0.0
   0
LINE
   8
LEVEL001
   6
CONTINUOUS
  62
7
  10
 381.233
  20
 768.897
  30
0.0
  11
 380.241
  21
 769.449
  31
0.0
   0
LINE
   8
LEVEL001
   6
CONTINUOUS
  62
7
  10
 380.241
  20
 769.449
  30
0.0
  11
 379.183
  21
 769.881
  31
0.0
   0
LINE
   8
LEVEL001
   6
CONTINUOUS
  62
7
  10
 379.183
  20
 769.881
  30
0.0
  11
 378.075
  21
 770.187
  31
0.0
   0
LINE
   8
LEVEL001
   6
CONTINUOUS
  62
7
  10
 378.075
  20
 770.187
  30
0.0
  11
 376.935
  21
 770.362
  31
0.0
   0
LINE
   8
LEVEL001
   6
CONTINUOUS
  62
7
  10
 376.935
  20
 770.362
  30
0.0
  11
 375.780
  21
 770.404
  31
0.0
   0
LINE
   8
LEVEL001
   6
CONTINUOUS
  62
7
  10
 375.780
  20
 770.404
  30
0.0
  11
 374.629
  21
 770.311
  31
0.0
   0
LINE
   8
LEVEL001
   6
CONTINUOUS
  62
7
  10
 374.629
  20
 770.311
  30
0.0
  11
 373.499
  21
 770.086
  31
0.0
   0
LINE
   8
LEVEL001
   6
CONTINUOUS
  62
7
  10
 373.499
  20
 770.086
  30
0.0
  11
 372.409
  21
 769.731
  31
0.0
   0
LINE
   8
LEVEL001
   6
CONTINUOUS
  62
7
  10
 372.409
  20
 769.731
  30
0.0
  11
 371.374
  21
 769.253
  31
0.0
   0
LINE
   8
LEVEL001
   6
CONTINUOUS
  62
7
  10
 371.374
  20
 769.253
  30
0.0
  11
 370.411
  21
 768.658
  31
0.0
   0
LINE
   8
LEVEL001
   6
CONTINUOUS
  62
7
  10
 370.411
  20
 768.658
  30
0.0
  11
 369.536
  21
 767.956
  31
0.0
   0
LINE
   8
LEVEL001
   6
CONTINUOUS
  62
7
  10
 369.536
  20
 767.956
  30
0.0
  11
 368.761
  21
 767.158
  31
0.0
   0
LINE
   8
LEVEL001
   6
CONTINUOUS
  62
7
  10
 368.761
  20
 767.158
  30
0.0
  11
 368.100
  21
 766.277
  31
0.0
   0
LINE
   8
LEVEL001
   6
CONTINUOUS
  62
7
  10
 368.100
  20
 766.277
  30
0.0
  11
 367.562
  21
 765.325
  31
0.0
   0
LINE
   8
LEVEL001
   6
CONTINUOUS
  62
7
  10
 367.562
  20
 765.325
  30
0.0
  11
 367.155
  21
 764.319
  31
0.0
   0
LINE
   8
LEVEL001
   6
CONTINUOUS
  62
7
  10
 367.155
  20
 764.319
  30
0.0
  11
 366.887
  21
 763.273
  31
0.0
   0
LINE
   8
LEVEL001
   6
CONTINUOUS
  62
7
  10
 366.887
  20
 763.273
  30
0.0
  11
 366.760
  21
 762.205
  31
0.0
   0
LINE
   8
LEVEL001
   6
CONTINUOUS
  62
7
  10
 366.760
  20
 762.205
  30
0.0
  11
 366.778
  21
 761.130
  31
0.0
   0
LINE
   8
LEVEL001
   6
CONTINUOUS
  62
7
  10
 366.778
  20
 761.130
  30
0.0
  11
 366.940
  21
 760.065
  31
0.0
   0
LINE
   8
LEVEL001
   6
CONTINUOUS
  62
7
  10
 366.940
  20
 760.065
  30
0.0
  11
 367.243
  21
 759.028
  31
0.0
   0
LINE
   8
LEVEL001
   6
CONTINUOUS
  62
7
  10
 367.243
  20
 759.028
  30
0.0
  11
 367.500
  21
 758.405
  31
0.0
   0
LINE
   8
LEVEL003
   6
CONTINUOUS
  62
7
  10
 367.500
  20
 762.476
  30
0.0
  11
 367.500
  21
 758.298
  31
0.0
   0
LINE
   8
LEVEL003
   6
CONTINUOUS
  62
7
  10
 384.500
  20
 762.476
  30
0.0
  11
 384.500
  21
 758.298
  31
0.0
   0
LINE
   8
LEVEL001
   6
CONTINUOUS
  62
7
  10
 367.544
  20
 753.878
  30
0.0
  11
 368.672
  21
 752.959
  31
0.0
   0
LINE
   8
LEVEL001
   6
CONTINUOUS
  62
7
  10
 368.672
  20
 752.959
  30
0.0
  11
 369.914
  21
 752.178
  31
0.0
   0
LINE
   8
LEVEL001
   6
CONTINUOUS
  62
7
  10
 369.914
  20
 752.178
  30
0.0
  11
 371.251
  21
 751.547
  31
0.0
   0
LINE
   8
LEVEL001
   6
CONTINUOUS
  62
7
  10
 371.251
  20
 751.547
  30
0.0
  11
 372.292
  21
 751.181
  31
0.0
   0
LINE
   8
LEVEL001
   6
CONTINUOUS
  62
7
  10
 379.708
  20
 751.181
  30
0.0
  11
 381.102
  21
 751.694
  31
0.0
   0
LINE
   8
LEVEL001
   6
CONTINUOUS
  62
7
  10
 381.102
  20
 751.694
  30
0.0
  11
 382.417
  21
 752.365
  31
0.0
   0
LINE
   8
LEVEL001
   6
CONTINUOUS
  62
7
  10
 382.417
  20
 752.365
  30
0.0
  11
 383.631
  21
 753.183
  31
0.0
   0
LINE
   8
LEVEL001
   6
CONTINUOUS
  62
7
  10
 383.631
  20
 753.183
  30
0.0
  11
 384.726
  21
 754.135
  31
0.0
   0
LINE
   8
LEVEL001
   6
CONTINUOUS
  62
7
  10
 384.726
  20
 754.135
  30
0.0
  11
 385.685
  21
 755.207
  31
0.0
   0
LINE
   8
LEVEL001
   6
CONTINUOUS
  62
7
  10
 385.685
  20
 755.207
  30
0.0
  11
 386.493
  21
 756.382
  31
0.0
   0
LINE
   8
LEVEL001
   6
CONTINUOUS
  62
7
  10
 386.493
  20
 756.382
  30
0.0
  11
 387.137
  21
 757.642
  31
0.0
   0
LINE
   8
LEVEL001
   6
CONTINUOUS
  62
7
  10
 387.137
  20
 757.642
  30
0.0
  11
 387.607
  21
 758.966
  31
0.0
   0
LINE
   8
LEVEL001
   6
CONTINUOUS
  62
7
  10
 387.607
  20
 758.966
  30
0.0
  11
 387.896
  21
 760.335
  31
0.0
   0
LINE
   8
LEVEL001
   6
CONTINUOUS
  62
7
  10
 387.896
  20
 760.335
  30
0.0
  11
 387.947
  21
 760.755
  31
0.0
   0
LINE
   8
LEVEL001
   6
DASHDOT
  62
1
  10
 338.491
  20
 758.078
  30
0.0
  11
 391.278
  21
 758.078
  31
0.0
   0
LINE
   8
LEVEL003
   6
CONTINUOUS
  62
7
  10
 370.226
  20
 758.078
  30
0.0
  11
 373.113
  21
 762.730
  31
0.0
   0
LINE
   8
LEVEL003
   6
CONTINUOUS
  62
7
  10
 373.113
  20
 762.730
  30
0.0
  11
 378.887
  21
 762.730
  31
0.0
   0
LINE
   8
LEVEL003
   6
CONTINUOUS
  62
7
  10
 378.887
  20
 762.730
  30
0.0
  11
 381.774
  21
 758.078
  31
0.0
   0
LINE
   8
LEVEL003
   6
CONTINUOUS
  62
7
  10
 381.774
  20
 758.078
  30
0.0
  11
 378.887
  21
 753.426
  31
0.0
   0
LINE
   8
LEVEL003
   6
CONTINUOUS
  62
7
  10
 378.887
  20
 753.426
  30
0.0
  11
 373.113
  21
 753.426
  31
0.0
   0
LINE
   8
LEVEL003
   6
CONTINUOUS
  62
7
  10
 373.113
  20
 753.426
  30
0.0
  11
 370.226
  21
 758.078
  31
0.0
   0
LINE
   8
LEVEL003
   6
CONTINUOUS
  62
7
  10
 346.226
  20
 758.078
  30
0.0
  11
 349.113
  21
 762.730
  31
0.0
   0
LINE
   8
LEVEL003
   6
CONTINUOUS
  62
7
  10
 349.113
  20
 762.730
  30
0.0
  11
 354.887
  21
 762.730
  31
0.0
   0
LINE
   8
LEVEL003
   6
CONTINUOUS
  62
7
  10
 354.887
  20
 762.730
  30
0.0
  11
 357.774
  21
 758.078
  31
0.0
   0
LINE
   8
LEVEL003
   6
CONTINUOUS
  62
7
  10
 357.774
  20
 758.078
  30
0.0
  11
 354.887
  21
 753.426
  31
0.0
   0
LINE
   8
LEVEL003
   6
CONTINUOUS
  62
7
  10
 354.887
  20
 753.426
  30
0.0
  11
 349.113
  21
 753.426
  31
0.0
   0
LINE
   8
LEVEL003
   6
CONTINUOUS
  62
7
  10
 349.113
  20
 753.426
  30
0.0
  11
 346.226
  21
 758.078
  31
0.0
   0
ARC
   8
LEVEL001
   6
CONTINUOUS
  62
7
  10
 362.744
  20
 848.654
  30
0.0
  40
 5.00000
  50
 258.631
  51
 303.304
   0
LINE
   8
LEVEL001
   6
CONTINUOUS
  62
7
  10
 899.000
  20
 840.350
  30
0.0
  11
 910.000
  21
 840.350
  31
0.0
   0
ARC
   8
LEVEL001
   6
CONTINUOUS
  62
7
  10
 911.000
  20
 836.775
  30
0.0
  40
 5.50000
  50
 100.476
  51
 136.658
   0
LINE
   8
LEVEL003
   6
CONTINUOUS
  62
7
  10
 956.648
  20
 808.000
  30
0.0
  11
 956.648
  21
 792.000
  31
0.0
   0
LINE
   8
LEVEL003
   6
CONTINUOUS
  62
7
  10
 953.898
  20
 810.750
  30
0.0
  11
 953.898
  21
 789.250
  31
0.0
   0
LINE
   8
LEVEL001
   6
CONTINUOUS
  62
7
  10
 499.000
  20
 810.750
  30
0.0
  11
 953.898
  21
 810.750
  31
0.0
   0
LINE
   8
LEVEL001
   6
CONTINUOUS
  62
7
  10
 499.000
  20
 789.250
  30
0.0
  11
 953.898
  21
 789.250
  31
0.0
   0
LINE
   8
LEVEL001
   6
DASHDOT
  62
1
  10
 296.535
  20
 800.000
  30
0.0
  11
 1070.79
  21
 800.000
  31
0.0
   0
ARC
   8
LEVEL014
   6
CONTINUOUS
  62
7
  10
 1029.82
  20
 800.000
  30
0.0
  40
 31.8750
  50
 334.942
  51
 25.0576
   0
LINE
   8
LEVEL014
   6
CONTINUOUS
  62
7
  10
 1048.69
  20
 787.500
  30
0.0
  11
 1048.69
  21
 812.500
  31
0.0
   0
LINE
   8
LEVEL014
   6
CONTINUOUS
  62
7
  10
 1048.69
  20
 812.500
  30
0.0
  11
 1058.69
  21
 813.500
  31
0.0
   0
LINE
   8
LEVEL014
   6
CONTINUOUS
  62
7
  10
 1058.69
  20
 813.500
  30
0.0
  11
 1058.69
  21
 786.500
  31
0.0
   0
LINE
   8
LEVEL014
   6
CONTINUOUS
  62
7
  10
 1058.69
  20
 786.500
  30
0.0
  11
 1048.69
  21
 787.500
  31
0.0
   0
LINE
   8
LEVEL014
   6
CONTINUOUS
  62
7
  10
 976.691
  20
 786.500
  30
0.0
  11
 976.691
  21
 813.500
  31
0.0
   0
LINE
   8
LEVEL014
   6
CONTINUOUS
  62
7
  10
 976.691
  20
 813.500
  30
0.0
  11
 986.691
  21
 812.500
  31
0.0
   0
LINE
   8
LEVEL014
   6
CONTINUOUS
  62
7
  10
 986.691
  20
 812.500
  30
0.0
  11
 986.691
  21
 787.500
  31
0.0
   0
LINE
   8
LEVEL014
   6
CONTINUOUS
  62
7
  10
 986.691
  20
 787.500
  30
0.0
  11
 976.691
  21
 786.500
  31
0.0
   0
LINE
   8
LEVEL014
   6
CONTINUOUS
  62
3
  10
 986.691
  20
 789.004
  30
0.0
  11
 988.691
  21
 788.851
  31
0.0
   0
LINE
   8
LEVEL014
   6
CONTINUOUS
  62
3
  10
 988.691
  20
 787.346
  30
0.0
  11
 988.691
  21
 812.654
  31
0.0
   0
LINE
   8
LEVEL014
   6
CONTINUOUS
  62
3
  10
 988.691
  20
 812.654
  30
0.0
  11
 990.691
  21
 812.808
  31
0.0
   0
LINE
   8
LEVEL014
   6
CONTINUOUS
  62
3
  10
 990.691
  20
 812.808
  30
0.0
  11
 990.691
  21
 787.192
  31
0.0
   0
LINE
   8
LEVEL014
   6
CONTINUOUS
  62
3
  10
 990.691
  20
 787.192
  30
0.0
  11
 988.691
  21
 787.346
  31
0.0
   0
LINE
   8
LEVEL014
   6
CONTINUOUS
  62
3
  10
 986.691
  20
 810.996
  30
0.0
  11
 988.691
  21
 811.149
  31
0.0
   0
LINE
   8
LEVEL014
   6
CONTINUOUS
  62
3
  10
 990.691
  20
 788.697
  30
0.0
  11
 992.691
  21
 788.543
  31
0.0
   0
LINE
   8
LEVEL014
   6
CONTINUOUS
  62
3
  10
 994.691
  20
 788.389
  30
0.0
  11
 996.691
  21
 788.235
  31
0.0
   0
LINE
   8
LEVEL014
   6
CONTINUOUS
  62
3
  10
 998.691
  20
 788.081
  30
0.0
  11
 1000.69
  21
 787.927
  31
0.0
   0
LINE
   8
LEVEL014
   6
CONTINUOUS
  62
3
  10
 1002.69
  20
 787.774
  30
0.0
  11
 1004.69
  21
 787.620
  31
0.0
   0
LINE
   8
LEVEL014
   6
CONTINUOUS
  62
3
  10
 1006.69
  20
 787.466
  30
0.0
  11
 1008.69
  21
 787.312
  31
0.0
   0
LINE
   8
LEVEL014
   6
CONTINUOUS
  62
3
  10
 1010.69
  20
 787.158
  30
0.0
  11
 1012.69
  21
 787.004
  31
0.0
   0
LINE
   8
LEVEL014
   6
CONTINUOUS
  62
3
  10
 992.691
  20
 787.038
  30
0.0
  11
 992.691
  21
 812.962
  31
0.0
   0
LINE
   8
LEVEL014
   6
CONTINUOUS
  62
3
  10
 992.691
  20
 812.962
  30
0.0
  11
 994.691
  21
 813.115
  31
0.0
   0
LINE
   8
LEVEL014
   6
CONTINUOUS
  62
3
  10
 994.691
  20
 813.115
  30
0.0
  11
 994.691
  21
 786.885
  31
0.0
   0
LINE
   8
LEVEL014
   6
CONTINUOUS
  62
3
  10
 994.691
  20
 786.885
  30
0.0
  11
 992.691
  21
 787.038
  31
0.0
   0
LINE
   8
LEVEL014
   6
CONTINUOUS
  62
3
  10
 996.691
  20
 786.731
  30
0.0
  11
 996.691
  21
 813.269
  31
0.0
   0
LINE
   8
LEVEL014
   6
CONTINUOUS
  62
3
  10
 996.691
  20
 813.269
  30
0.0
  11
 998.691
  21
 813.423
  31
0.0
   0
LINE
   8
LEVEL014
   6
CONTINUOUS
  62
3
  10
 998.691
  20
 813.423
  30
0.0
  11
 998.691
  21
 786.577
  31
0.0
   0
LINE
   8
LEVEL014
   6
CONTINUOUS
  62
3
  10
 998.691
  20
 786.577
  30
0.0
  11
 996.691
  21
 786.731
  31
0.0
   0
LINE
   8
LEVEL014
   6
CONTINUOUS
  62
3
  10
 1000.69
  20
 786.423
  30
0.0
  11
 1000.69
  21
 813.577
  31
0.0
   0
LINE
   8
LEVEL014
   6
CONTINUOUS
  62
3
  10
 1000.69
  20
 813.577
  30
0.0
  11
 1002.69
  21
 813.731
  31
0.0
   0
LINE
   8
LEVEL014
   6
CONTINUOUS
  62
3
  10
 1002.69
  20
 813.731
  30
0.0
  11
 1002.69
  21
 786.269
  31
0.0
   0
LINE
   8
LEVEL014
   6
CONTINUOUS
  62
3
  10
 1002.69
  20
 786.269
  30
0.0
  11
 1000.69
  21
 786.423
  31
0.0
   0
LINE
   8
LEVEL014
   6
CONTINUOUS
  62
3
  10
 1004.69
  20
 786.115
  30
0.0
  11
 1004.69
  21
 813.885
  31
0.0
   0
LINE
   8
LEVEL014
   6
CONTINUOUS
  62
3
  10
 1004.69
  20
 813.885
  30
0.0
  11
 1006.69
  21
 814.038
  31
0.0
   0
LINE
   8
LEVEL014
   6
CONTINUOUS
  62
3
  10
 1006.69
  20
 814.038
  30
0.0
  11
 1006.69
  21
 785.962
  31
0.0
   0
LINE
   8
LEVEL014
   6
CONTINUOUS
  62
3
  10
 1006.69
  20
 785.962
  30
0.0
  11
 1004.69
  21
 786.115
  31
0.0
   0
LINE
   8
LEVEL014
   6
CONTINUOUS
  62
3
  10
 1008.69
  20
 785.808
  30
0.0
  11
 1008.69
  21
 814.192
  31
0.0
   0
LINE
   8
LEVEL014
   6
CONTINUOUS
  62
3
  10
 1008.69
  20
 814.192
  30
0.0
  11
 1010.69
  21
 814.346
  31
0.0
   0
LINE
   8
LEVEL014
   6
CONTINUOUS
  62
3
  10
 1010.69
  20
 814.346
  30
0.0
  11
 1010.69
  21
 785.654
  31
0.0
   0
LINE
   8
LEVEL014
   6
CONTINUOUS
  62
3
  10
 1010.69
  20
 785.654
  30
0.0
  11
 1008.69
  21
 785.808
  31
0.0
   0
LINE
   8
LEVEL014
   6
CONTINUOUS
  62
3
  10
 1012.69
  20
 785.500
  30
0.0
  11
 1012.69
  21
 814.500
  31
0.0
   0
LINE
   8
LEVEL014
   6
CONTINUOUS
  62
3
  10
 1012.69
  20
 814.500
  30
0.0
  11
 1014.69
  21
 814.654
  31
0.0
   0
LINE
   8
LEVEL014
   6
CONTINUOUS
  62
3
  10
 1014.69
  20
 814.654
  30
0.0
  11
 1014.69
  21
 785.346
  31
0.0
   0
LINE
   8
LEVEL014
   6
CONTINUOUS
  62
3
  10
 1014.69
  20
 785.346
  30
0.0
  11
 1012.69
  21
 785.500
  31
0.0
   0
LINE
   8
LEVEL014
   6
CONTINUOUS
  62
3
  10
 990.691
  20
 811.303
  30
0.0
  11
 992.691
  21
 811.457
  31
0.0
   0
LINE
   8
LEVEL014
   6
CONTINUOUS
  62
3
  10
 994.691
  20
 811.611
  30
0.0
  11
 996.691
  21
 811.765
  31
0.0
   0
LINE
   8
LEVEL014
   6
CONTINUOUS
  62
3
  10
 998.691
  20
 811.919
  30
0.0
  11
 1000.69
  21
 812.073
  31
0.0
   0
LINE
   8
LEVEL014
   6
CONTINUOUS
  62
3
  10
 1002.69
  20
 812.226
  30
0.0
  11
 1004.69
  21
 812.380
  31
0.0
   0
LINE
   8
LEVEL014
   6
CONTINUOUS
  62
3
  10
 1006.69
  20
 812.534
  30
0.0
  11
 1008.69
  21
 812.688
  31
0.0
   0
LINE
   8
LEVEL014
   6
CONTINUOUS
  62
3
  10
 1010.69
  20
 812.842
  30
0.0
  11
 1012.69
  21
 812.996
  31
0.0
   0
LINE
   8
LEVEL014
   6
CONTINUOUS
  62
3
  10
 1034.69
  20
 787.819
  30
0.0
  11
 1036.69
  21
 787.988
  31
0.0
   0
LINE
   8
LEVEL014
   6
CONTINUOUS
  62
3
  10
 1038.69
  20
 788.158
  30
0.0
  11
 1040.69
  21
 788.327
  31
0.0
   0
LINE
   8
LEVEL014
   6
CONTINUOUS
  62
3
  10
 1042.69
  20
 788.497
  30
0.0
  11
 1044.69
  21
 788.666
  31
0.0
   0
LINE
   8
LEVEL014
   6
CONTINUOUS
  62
3
  10
 1046.69
  20
 788.836
  30
0.0
  11
 1048.69
  21
 789.005
  31
0.0
   0
LINE
   8
LEVEL014
   6
CONTINUOUS
  62
3
  10
 1014.69
  20
 786.851
  30
0.0
  11
 1016.69
  21
 786.697
  31
0.0
   0
LINE
   8
LEVEL014
   6
CONTINUOUS
  62
3
  10
 1018.69
  20
 786.463
  30
0.0
  11
 1020.69
  21
 786.633
  31
0.0
   0
LINE
   8
LEVEL014
   6
CONTINUOUS
  62
3
  10
 1022.69
  20
 786.802
  30
0.0
  11
 1024.69
  21
 786.971
  31
0.0
   0
LINE
   8
LEVEL014
   6
CONTINUOUS
  62
3
  10
 1026.69
  20
 787.141
  30
0.0
  11
 1028.69
  21
 787.310
  31
0.0
   0
LINE
   8
LEVEL014
   6
CONTINUOUS
  62
3
  10
 1030.69
  20
 787.480
  30
0.0
  11
 1032.69
  21
 787.649
  31
0.0
   0
LINE
   8
LEVEL014
   6
CONTINUOUS
  62
3
  10
 1024.69
  20
 785.466
  30
0.0
  11
 1024.69
  21
 814.534
  31
0.0
   0
LINE
   8
LEVEL014
   6
CONTINUOUS
  62
3
  10
 1024.69
  20
 814.534
  30
0.0
  11
 1026.69
  21
 814.364
  31
0.0
   0
LINE
   8
LEVEL014
   6
CONTINUOUS
  62
3
  10
 1026.69
  20
 814.364
  30
0.0
  11
 1026.69
  21
 785.636
  31
0.0
   0
LINE
   8
LEVEL014
   6
CONTINUOUS
  62
3
  10
 1026.69
  20
 785.636
  30
0.0
  11
 1024.69
  21
 785.466
  31
0.0
   0
LINE
   8
LEVEL014
   6
CONTINUOUS
  62
3
  10
 1028.69
  20
 785.805
  30
0.0
  11
 1028.69
  21
 814.195
  31
0.0
   0
LINE
   8
LEVEL014
   6
CONTINUOUS
  62
3
  10
 1028.69
  20
 814.195
  30
0.0
  11
 1030.69
  21
 814.025
  31
0.0
   0
LINE
   8
LEVEL014
   6
CONTINUOUS
  62
3
  10
 1030.69
  20
 814.025
  30
0.0
  11
 1030.69
  21
 785.975
  31
0.0
   0
LINE
   8
LEVEL014
   6
CONTINUOUS
  62
3
  10
 1030.69
  20
 785.975
  30
0.0
  11
 1028.69
  21
 785.805
  31
0.0
   0
LINE
   8
LEVEL014
   6
CONTINUOUS
  62
3
  10
 1032.69
  20
 786.144
  30
0.0
  11
 1032.69
  21
 813.856
  31
0.0
   0
LINE
   8
LEVEL014
   6
CONTINUOUS
  62
3
  10
 1032.69
  20
 813.856
  30
0.0
  11
 1034.69
  21
 813.686
  31
0.0
   0
LINE
   8
LEVEL014
   6
CONTINUOUS
  62
3
  10
 1034.69
  20
 813.686
  30
0.0
  11
 1034.69
  21
 786.314
  31
0.0
   0
LINE
   8
LEVEL014
   6
CONTINUOUS
  62
3
  10
 1034.69
  20
 786.314
  30
0.0
  11
 1032.69
  21
 786.144
  31
0.0
   0
LINE
   8
LEVEL014
   6
CONTINUOUS
  62
3
  10
 1036.69
  20
 786.483
  30
0.0
  11
 1036.69
  21
 813.517
  31
0.0
   0
LINE
   8
LEVEL014
   6
CONTINUOUS
  62
3
  10
 1036.69
  20
 813.517
  30
0.0
  11
 1038.69
  21
 813.347
  31
0.0
   0
LINE
   8
LEVEL014
   6
CONTINUOUS
  62
3
  10
 1038.69
  20
 813.347
  30
0.0
  11
 1038.69
  21
 786.653
  31
0.0
   0
LINE
   8
LEVEL014
   6
CONTINUOUS
  62
3
  10
 1038.69
  20
 786.653
  30
0.0
  11
 1036.69
  21
 786.483
  31
0.0
   0
LINE
   8
LEVEL014
   6
CONTINUOUS
  62
3
  10
 1040.69
  20
 786.822
  30
0.0
  11
 1040.69
  21
 813.178
  31
0.0
   0
LINE
   8
LEVEL014
   6
CONTINUOUS
  62
3
  10
 1040.69
  20
 813.178
  30
0.0
  11
 1042.69
  21
 813.008
  31
0.0
   0
LINE
   8
LEVEL014
   6
CONTINUOUS
  62
3
  10
 1042.69
  20
 813.008
  30
0.0
  11
 1042.69
  21
 786.992
  31
0.0
   0
LINE
   8
LEVEL014
   6
CONTINUOUS
  62
3
  10
 1042.69
  20
 786.992
  30
0.0
  11
 1040.69
  21
 786.822
  31
0.0
   0
LINE
   8
LEVEL014
   6
CONTINUOUS
  62
3
  10
 1044.69
  20
 787.161
  30
0.0
  11
 1044.69
  21
 812.839
  31
0.0
   0
LINE
   8
LEVEL014
   6
CONTINUOUS
  62
3
  10
 1044.69
  20
 812.839
  30
0.0
  11
 1046.69
  21
 812.669
  31
0.0
   0
LINE
   8
LEVEL014
   6
CONTINUOUS
  62
3
  10
 1046.69
  20
 812.669
  30
0.0
  11
 1046.69
  21
 787.331
  31
0.0
   0
LINE
   8
LEVEL014
   6
CONTINUOUS
  62
3
  10
 1046.69
  20
 787.331
  30
0.0
  11
 1044.69
  21
 787.161
  31
0.0
   0
LINE
   8
LEVEL014
   6
CONTINUOUS
  62
3
  10
 1014.69
  20
 813.149
  30
0.0
  11
 1016.69
  21
 813.303
  31
0.0
   0
LINE
   8
LEVEL014
   6
CONTINUOUS
  62
3
  10
 1018.69
  20
 813.537
  30
0.0
  11
 1020.69
  21
 813.367
  31
0.0
   0
LINE
   8
LEVEL014
   6
CONTINUOUS
  62
3
  10
 1022.69
  20
 813.198
  30
0.0
  11
 1024.69
  21
 813.029
  31
0.0
   0
LINE
   8
LEVEL014
   6
CONTINUOUS
  62
3
  10
 1026.69
  20
 812.859
  30
0.0
  11
 1028.69
  21
 812.690
  31
0.0
   0
LINE
   8
LEVEL014
   6
CONTINUOUS
  62
3
  10
 1030.69
  20
 812.520
  30
0.0
  11
 1032.69
  21
 812.351
  31
0.0
   0
LINE
   8
LEVEL014
   6
CONTINUOUS
  62
3
  10
 1034.69
  20
 812.181
  30
0.0
  11
 1036.69
  21
 812.012
  31
0.0
   0
LINE
   8
LEVEL014
   6
CONTINUOUS
  62
3
  10
 1038.69
  20
 811.842
  30
0.0
  11
 1040.69
  21
 811.673
  31
0.0
   0
LINE
   8
LEVEL014
   6
CONTINUOUS
  62
3
  10
 1042.69
  20
 811.503
  30
0.0
  11
 1044.69
  21
 811.334
  31
0.0
   0
LINE
   8
LEVEL014
   6
CONTINUOUS
  62
3
  10
 1046.69
  20
 811.164
  30
0.0
  11
 1048.69
  21
 810.995
  31
0.0
   0
LINE
   8
LEVEL003
   6
CONTINUOUS
  62
7
  10
 972.000
  20
 808.000
  30
0.0
  11
 976.691
  21
 808.000
  31
0.0
   0
LINE
   8
LEVEL003
   6
CONTINUOUS
  62
7
  10
 972.000
  20
 792.000
  30
0.0
  11
 976.691
  21
 792.000
  31
0.0
   0
LINE
   8
LEVEL003
   6
CONTINUOUS
  62
7
  10
 976.691
  20
 812.000
  30
0.0
  11
 972.000
  21
 812.000
  31
0.0
   0
LINE
   8
LEVEL003
   6
CONTINUOUS
  62
7
  10
 972.000
  20
 812.000
  30
0.0
  11
 972.000
  21
 788.000
  31
0.0
   0
LINE
   8
LEVEL003
   6
CONTINUOUS
  62
7
  10
 972.000
  20
 788.000
  30
0.0
  11
 976.691
  21
 788.000
  31
0.0
   0
LINE
   8
LEVEL001
   6
CONTINUOUS
  62
7
  10
 978.000
  20
 737.069
  30
0.0
  11
 978.000
  21
 786.631
  31
0.0
   0
LINE
   8
LEVEL001
   6
CONTINUOUS
  62
7
  10
 978.000
  20
 862.931
  30
0.0
  11
 978.000
  21
 813.369
  31
0.0
   0
LINE
   8
LEVEL003
   6
CONTINUOUS
  62
7
  10
 328.576
  20
 429.660
  30
0.0
  11
 379.539
  21
 431.594
  31
0.0
   0
LINE
   8
LEVEL001
   6
DOT
  62
3
  10
 300.747
  20
 355.604
  30
0.0
  11
 299.898
  21
 354.688
  31
0.0
   0
LINE
   8
LEVEL001
   6
DOT
  62
3
  10
 299.898
  20
 354.688
  30
0.0
  11
 314.874
  21
 355.590
  31
0.0
   0
LINE
   8
LEVEL001
   6
DOT
  62
3
  10
 299.266
  20
 371.338
  30
0.0
  11
 300.182
  21
 370.488
  31
0.0
   0
LINE
   8
LEVEL001
   6
DOT
  62
3
  10
 299.266
  20
 371.338
  30
0.0
  11
 314.268
  21
 371.573
  31
0.0
   0
LINE
   8
LEVEL001
   6
DOT
  62
3
  10
 314.301
  20
 370.692
  30
0.0
  11
 300.182
  21
 370.488
  31
0.0
   0
LINE
   8
LEVEL001
   6
DOT
  62
3
  10
 300.182
  20
 370.488
  30
0.0
  11
 300.747
  21
 355.604
  31
0.0
   0
LINE
   8
LEVEL001
   6
DOT
  62
3
  10
 300.747
  20
 355.604
  30
0.0
  11
 314.841
  21
 356.471
  31
0.0
   0
LINE
   8
LEVEL001
   6
DASHDOT
  62
1
  10
 374.009
  20
 352.234
  30
0.0
  11
 374.400
  21
 341.941
  31
0.0
   0
LINE
   8
LEVEL001
   6
CONTINUOUS
  62
7
  10
 395.061
  20
 325.806
  30
0.0
  11
 391.922
  21
 408.547
  31
0.0
   0
LINE
   8
LEVEL001
   6
CONTINUOUS
  62
7
  10
 894.604
  20
 426.469
  30
0.0
  11
 904.596
  21
 426.848
  31
0.0
   0
LINE
   8
LEVEL001
   6
CONTINUOUS
  62
7
  10
 955.068
  20
 415.376
  30
0.0
  11
 958.138
  21
 334.462
  31
0.0
   0
LINE
   8
LEVEL003
   6
CONTINUOUS
  62
7
  10
 894.568
  20
 427.418
  30
0.0
  11
 897.699
  21
 344.878
  31
0.0
   0
LINE
   8
LEVEL001
   6
CONTINUOUS
  62
7
  10
 904.458
  20
 430.495
  30
0.0
  11
 907.795
  21
 342.559
  31
0.0
   0
LINE
   8
LEVEL001
   6
CONTINUOUS
  62
7
  10
 897.663
  20
 345.827
  30
0.0
  11
 907.656
  21
 346.206
  31
0.0
   0
LINE
   8
LEVEL001
   6
CONTINUOUS
  62
7
  10
 929.972
  20
 340.769
  30
0.0
  11
 909.529
  21
 340.951
  31
0.0
   0
LINE
   8
LEVEL001
   6
CONTINUOUS
  62
7
  10
 906.066
  20
 432.230
  30
0.0
  11
 909.529
  21
 340.951
  31
0.0
   0
LINE
   8
LEVEL003
   6
CONTINUOUS
  62
7
  10
 964.167
  20
 399.737
  30
0.0
  11
 964.667
  21
 399.756
  31
0.0
   0
LINE
   8
LEVEL003
   6
CONTINUOUS
  62
7
  10
 967.556
  20
 402.724
  30
0.0
  11
 977.477
  21
 403.101
  31
0.0
   0
LINE
   8
LEVEL003
   6
CONTINUOUS
  62
7
  10
 977.477
  20
 403.101
  30
0.0
  11
 978.619
  21
 401.286
  31
0.0
   0
LINE
   8
LEVEL003
   6
CONTINUOUS
  62
7
  10
 978.619
  20
 401.286
  30
0.0
  11
 979.529
  21
 377.304
  31
0.0
   0
LINE
   8
LEVEL003
   6
CONTINUOUS
  62
7
  10
 979.529
  20
 377.304
  30
0.0
  11
 978.528
  21
 375.408
  31
0.0
   0
LINE
   8
LEVEL003
   6
CONTINUOUS
  62
7
  10
 978.528
  20
 375.408
  30
0.0
  11
 968.607
  21
 375.031
  31
0.0
   0
ARC
   8
LEVEL001
   6
CONTINUOUS
  62
7
  10
 327.252
  20
 385.427
  30
0.0
  40
 4.00000
  50
 272.173
  51
 2.17291
   0
LINE
   8
LEVEL001
   6
CONTINUOUS
  62
7
  10
 298.924
  20
 380.349
  30
0.0
  11
 327.403
  21
 381.430
  31
0.0
   0
LINE
   8
LEVEL001
   6
CONTINUOUS
  62
7
  10
 373.927
  20
 355.326
  30
0.0
  11
 372.927
  21
 355.288
  31
0.0
   0
ARC
   8
LEVEL001
   6
CONTINUOUS
  62
7
  10
 374.192
  20
 348.331
  30
0.0
  40
 7.00000
  50
 272.173
  51
 92.1729
   0
ARC
   8
LEVEL001
   6
CONTINUOUS
  62
7
  10
 373.193
  20
 348.293
  30
0.0
  40
 7.00000
  50
 92.1729
  51
 272.173
   0
LINE
   8
LEVEL001
   6
CONTINUOUS
  62
7
  10
 346.021
  20
 362.640
  30
0.0
  11
 334.543
  21
 370.910
  31
0.0
   0
LINE
   8
LEVEL001
   6
CONTINUOUS
  62
7
  10
 346.021
  20
 362.640
  30
0.0
  11
 355.435
  21
 352.079
  31
0.0
   0
LINE
   8
LEVEL001
   6
CONTINUOUS
  62
7
  10
 334.639
  20
 350.012
  30
0.0
  11
 346.117
  21
 341.742
  31
0.0
   0
LINE
   8
LEVEL001
   6
CONTINUOUS
  62
7
  10
 334.639
  20
 350.012
  30
0.0
  11
 325.226
  21
 360.573
  31
0.0
   0
ARC
   8
LEVEL001
   6
CONTINUOUS
  62
7
  10
 330.451
  20
 365.231
  30
0.0
  40
 7.00000
  50
 54.2255
  51
 221.713
   0
ARC
   8
LEVEL001
   6
CONTINUOUS
  62
7
  10
 350.209
  20
 347.421
  30
0.0
  40
 7.00000
  50
 234.226
  51
 41.7130
   0
ARC
   8
LEVEL001
   6
CONTINUOUS
  62
7
  10
 324.964
  20
 432.525
  30
0.0
  40
 14.0936
  50
 169.836
  51
 272.173
   0
ARC
   8
LEVEL001
   6
CONTINUOUS
  62
7
  10
 324.964
  20
 432.525
  30
0.0
  40
 13.0000
  50
 169.836
  51
 272.173
   0
ARC
   8
LEVEL001
   6
CONTINUOUS
  62
7
  10
 329.988
  20
 428.713
  30
0.0
  40
 3.00000
  50
 272.173
  51
 2.17291
   0
LINE
   8
LEVEL001
   6
CONTINUOUS
  62
7
  10
 325.457
  20
 419.535
  30
0.0
  11
 330.329
  21
 419.719
  31
0.0
   0
ARC
   8
LEVEL001
   6
CONTINUOUS
  62
7
  10
 330.484
  20
 415.629
  30
0.0
  40
 3.00000
  50
 47.1729
  51
 92.1729
   0
ARC
   8
LEVEL001
   6
CONTINUOUS
  62
7
  10
 330.443
  20
 416.722
  30
0.0
  40
 3.00000
  50
 47.1729
  51
 92.1729
   0
ARC
   8
LEVEL001
   6
CONTINUOUS
  62
7
  10
 325.654
  20
 427.548
  30
0.0
  40
 2.00000
  50
 272.173
  51
 2.17291
   0
LINE
   8
LEVEL001
   6
CONTINUOUS
  62
7
  10
 325.230
  20
 425.530
  30
0.0
  11
 330.102
  21
 425.715
  31
0.0
   0
ARC
   8
LEVEL001
   6
CONTINUOUS
  62
7
  10
 324.964
  20
 432.525
  30
0.0
  40
 7.00000
  50
 169.538
  51
 272.173
   0
LINE
   8
LEVEL001
   6
CONTINUOUS
  62
7
  10
 379.071
  20
 417.566
  30
0.0
  11
 331.105
  21
 415.746
  31
0.0
   0
ARC
   8
LEVEL001
   6
CONTINUOUS
  62
7
  10
 325.971
  20
 415.458
  30
0.0
  40
 3.00000
  50
 33.2106
  51
 92.1729
   0
LINE
   8
LEVEL001
   6
CONTINUOUS
  62
7
  10
 325.499
  20
 418.442
  30
0.0
  11
 330.371
  21
 418.627
  31
0.0
   0
LINE
   8
LEVEL001
   6
CONTINUOUS
  62
7
  10
 330.162
  20
 414.237
  30
0.0
  11
 331.249
  21
 385.579
  31
0.0
   0
ARC
   8
LEVEL001
   6
CONTINUOUS
  62
7
  10
 327.164
  20
 414.123
  30
0.0
  40
 3.00000
  50
 2.17291
  51
 50.3626
   0
ARC
   8
LEVEL001
   6
CONTINUOUS
  62
7
  10
 330.991
  20
 418.744
  30
0.0
  40
 3.00000
  50
 213.211
  51
 230.363
   0
CIRCLE
   8
LEVEL001
   6
CONTINUOUS
  62
7
  10
 350.932
  20
 407.492
  30
0.0
  40
 3.99984
   0
ARC
   8
LEVEL001
   6
CONTINUOUS
  62
7
  10
 361.604
  20
 365.798
  30
0.0
  40
 19.0000
  50
 77.6831
  51
 108.333
   0
LINE
   8
LEVEL001
   6
CONTINUOUS
  62
7
  10
 335.946
  20
 389.419
  30
0.0
  11
 336.765
  21
 386.284
  31
0.0
   0
LINE
   8
LEVEL001
   6
CONTINUOUS
  62
7
  10
 336.765
  20
 386.284
  30
0.0
  11
 337.000
  21
 385.749
  31
0.0
   0
LINE
   8
LEVEL001
   6
CONTINUOUS
  62
7
  10
 337.000
  20
 385.749
  30
0.0
  11
 337.417
  21
 385.234
  31
0.0
   0
LINE
   8
LEVEL001
   6
CONTINUOUS
  62
7
  10
 337.417
  20
 385.234
  30
0.0
  11
 338.011
  21
 384.749
  31
0.0
   0
LINE
   8
LEVEL001
   6
CONTINUOUS
  62
7
  10
 338.011
  20
 384.749
  30
0.0
  11
 338.771
  21
 384.300
  31
0.0
   0
LINE
   8
LEVEL001
   6
CONTINUOUS
  62
7
  10
 338.771
  20
 384.300
  30
0.0
  11
 339.687
  21
 383.895
  31
0.0
   0
LINE
   8
LEVEL001
   6
CONTINUOUS
  62
7
  10
 339.687
  20
 383.895
  30
0.0
  11
 340.743
  21
 383.540
  31
0.0
   0
LINE
   8
LEVEL001
   6
CONTINUOUS
  62
7
  10
 340.743
  20
 383.540
  30
0.0
  11
 341.923
  21
 383.240
  31
0.0
   0
LINE
   8
LEVEL001
   6
CONTINUOUS
  62
7
  10
 341.923
  20
 383.240
  30
0.0
  11
 343.209
  21
 383.001
  31
0.0
   0
LINE
   8
LEVEL001
   6
CONTINUOUS
  62
7
  10
 343.209
  20
 383.001
  30
0.0
  11
 344.581
  21
 382.825
  31
0.0
   0
LINE
   8
LEVEL001
   6
CONTINUOUS
  62
7
  10
 344.581
  20
 382.825
  30
0.0
  11
 346.017
  21
 382.716
  31
0.0
   0
LINE
   8
LEVEL001
   6
CONTINUOUS
  62
7
  10
 346.017
  20
 382.716
  30
0.0
  11
 347.495
  21
 382.675
  31
0.0
   0
LINE
   8
LEVEL001
   6
CONTINUOUS
  62
7
  10
 347.495
  20
 382.675
  30
0.0
  11
 348.992
  21
 382.703
  31
0.0
   0
LINE
   8
LEVEL001
   6
CONTINUOUS
  62
7
  10
 348.992
  20
 382.703
  30
0.0
  11
 350.484
  21
 382.799
  31
0.0
   0
LINE
   8
LEVEL001
   6
CONTINUOUS
  62
7
  10
 350.484
  20
 382.799
  30
0.0
  11
 351.949
  21
 382.963
  31
0.0
   0
LINE
   8
LEVEL001
   6
CONTINUOUS
  62
7
  10
 351.949
  20
 382.963
  30
0.0
  11
 353.363
  21
 383.191
  31
0.0
   0
LINE
   8
LEVEL001
   6
CONTINUOUS
  62
7
  10
 353.363
  20
 383.191
  30
0.0
  11
 354.705
  21
 383.479
  31
0.0
   0
LINE
   8
LEVEL001
   6
CONTINUOUS
  62
7
  10
 354.705
  20
 383.479
  30
0.0
  11
 355.952
  21
 383.825
  31
0.0
   0
LINE
   8
LEVEL001
   6
CONTINUOUS
  62
7
  10
 355.952
  20
 383.825
  30
0.0
  11
 355.978
  21
 383.833
  31
0.0
   0
LINE
   8
LEVEL001
   6
CONTINUOUS
  62
7
  10
 365.454
  20
 384.255
  30
0.0
  11
 366.703
  21
 383.992
  31
0.0
   0
LINE
   8
LEVEL001
   6
CONTINUOUS
  62
7
  10
 366.703
  20
 383.992
  30
0.0
  11
 368.045
  21
 383.792
  31
0.0
   0
LINE
   8
LEVEL001
   6
CONTINUOUS
  62
7
  10
 368.045
  20
 383.792
  30
0.0
  11
 369.460
  21
 383.658
  31
0.0
   0
LINE
   8
LEVEL001
   6
CONTINUOUS
  62
7
  10
 369.460
  20
 383.658
  30
0.0
  11
 370.925
  21
 383.592
  31
0.0
   0
LINE
   8
LEVEL001
   6
CONTINUOUS
  62
7
  10
 370.925
  20
 383.592
  30
0.0
  11
 372.418
  21
 383.594
  31
0.0
   0
LINE
   8
LEVEL001
   6
CONTINUOUS
  62
7
  10
 372.418
  20
 383.594
  30
0.0
  11
 373.915
  21
 383.665
  31
0.0
   0
LINE
   8
LEVEL001
   6
CONTINUOUS
  62
7
  10
 373.915
  20
 383.665
  30
0.0
  11
 375.392
  21
 383.804
  31
0.0
   0
LINE
   8
LEVEL001
   6
CONTINUOUS
  62
7
  10
 375.392
  20
 383.804
  30
0.0
  11
 376.828
  21
 384.009
  31
0.0
   0
LINE
   8
LEVEL001
   6
CONTINUOUS
  62
7
  10
 376.828
  20
 384.009
  30
0.0
  11
 378.199
  21
 384.275
  31
0.0
   0
LINE
   8
LEVEL001
   6
CONTINUOUS
  62
7
  10
 378.199
  20
 384.275
  30
0.0
  11
 379.484
  21
 384.600
  31
0.0
   0
LINE
   8
LEVEL001
   6
CONTINUOUS
  62
7
  10
 379.484
  20
 384.600
  30
0.0
  11
 380.663
  21
 384.978
  31
0.0
   0
LINE
   8
LEVEL001
   6
CONTINUOUS
  62
7
  10
 380.663
  20
 384.978
  30
0.0
  11
 381.717
  21
 385.403
  31
0.0
   0
LINE
   8
LEVEL001
   6
CONTINUOUS
  62
7
  10
 381.717
  20
 385.403
  30
0.0
  11
 382.630
  21
 385.869
  31
0.0
   0
LINE
   8
LEVEL001
   6
CONTINUOUS
  62
7
  10
 382.630
  20
 385.869
  30
0.0
  11
 383.389
  21
 386.368
  31
0.0
   0
LINE
   8
LEVEL001
   6
CONTINUOUS
  62
7
  10
 383.389
  20
 386.368
  30
0.0
  11
 383.980
  21
 386.892
  31
0.0
   0
LINE
   8
LEVEL001
   6
CONTINUOUS
  62
7
  10
 383.980
  20
 386.892
  30
0.0
  11
 384.395
  21
 387.434
  31
0.0
   0
LINE
   8
LEVEL001
   6
CONTINUOUS
  62
7
  10
 384.395
  20
 387.434
  30
0.0
  11
 384.627
  21
 387.985
  31
0.0
   0
LINE
   8
LEVEL001
   6
CONTINUOUS
  62
7
  10
 384.627
  20
 387.985
  30
0.0
  11
 384.652
  21
 388.101
  31
0.0
   0
LINE
   8
LEVEL001
   6
CONTINUOUS
  62
7
  10
 336.846
  20
 383.130
  30
0.0
  11
 337.202
  21
 373.750
  31
0.0
   0
ARC
   8
LEVEL001
   6
CONTINUOUS
  62
7
  10
 362.662
  20
 337.905
  30
0.0
  40
 19.0000
  50
 77.6831
  51
 108.333
   0
LINE
   8
LEVEL001
   6
CONTINUOUS
  62
7
  10
 364.827
  20
 353.326
  30
0.0
  11
 365.075
  21
 346.795
  31
0.0
   0
LINE
   8
LEVEL001
   6
CONTINUOUS
  62
7
  10
 359.134
  20
 353.110
  30
0.0
  11
 359.382
  21
 346.579
  31
0.0
   0
LINE
   8
LEVEL001
   6
CONTINUOUS
  62
7
  10
 355.024
  20
 355.418
  30
0.0
  11
 356.327
  21
 355.733
  31
0.0
   0
LINE
   8
LEVEL001
   6
CONTINUOUS
  62
7
  10
 356.327
  20
 355.733
  30
0.0
  11
 357.037
  21
 355.940
  31
0.0
   0
LINE
   8
LEVEL001
   6
CONTINUOUS
  62
7
  10
 366.512
  20
 356.362
  30
0.0
  11
 367.761
  21
 356.100
  31
0.0
   0
LINE
   8
LEVEL001
   6
CONTINUOUS
  62
7
  10
 367.761
  20
 356.100
  30
0.0
  11
 369.103
  21
 355.900
  31
0.0
   0
LINE
   8
LEVEL001
   6
CONTINUOUS
  62
7
  10
 369.103
  20
 355.900
  30
0.0
  11
 370.518
  21
 355.766
  31
0.0
   0
LINE
   8
LEVEL001
   6
CONTINUOUS
  62
7
  10
 370.518
  20
 355.766
  30
0.0
  11
 371.984
  21
 355.699
  31
0.0
   0
LINE
   8
LEVEL001
   6
CONTINUOUS
  62
7
  10
 371.984
  20
 355.699
  30
0.0
  11
 373.476
  21
 355.702
  31
0.0
   0
LINE
   8
LEVEL001
   6
CONTINUOUS
  62
7
  10
 373.476
  20
 355.702
  30
0.0
  11
 374.973
  21
 355.773
  31
0.0
   0
LINE
   8
LEVEL001
   6
CONTINUOUS
  62
7
  10
 374.973
  20
 355.773
  30
0.0
  11
 376.451
  21
 355.912
  31
0.0
   0
LINE
   8
LEVEL001
   6
CONTINUOUS
  62
7
  10
 376.451
  20
 355.912
  30
0.0
  11
 377.886
  21
 356.116
  31
0.0
   0
LINE
   8
LEVEL001
   6
CONTINUOUS
  62
7
  10
 377.886
  20
 356.116
  30
0.0
  11
 379.257
  21
 356.383
  31
0.0
   0
LINE
   8
LEVEL001
   6
CONTINUOUS
  62
7
  10
 379.257
  20
 356.383
  30
0.0
  11
 380.542
  21
 356.708
  31
0.0
   0
LINE
   8
LEVEL001
   6
CONTINUOUS
  62
7
  10
 380.542
  20
 356.708
  30
0.0
  11
 381.721
  21
 357.086
  31
0.0
   0
LINE
   8
LEVEL001
   6
CONTINUOUS
  62
7
  10
 381.721
  20
 357.086
  30
0.0
  11
 382.775
  21
 357.511
  31
0.0
   0
LINE
   8
LEVEL001
   6
CONTINUOUS
  62
7
  10
 382.775
  20
 357.511
  30
0.0
  11
 383.689
  21
 357.977
  31
0.0
   0
LINE
   8
LEVEL001
   6
CONTINUOUS
  62
7
  10
 383.689
  20
 357.977
  30
0.0
  11
 384.447
  21
 358.476
  31
0.0
   0
LINE
   8
LEVEL001
   6
CONTINUOUS
  62
7
  10
 384.447
  20
 358.476
  30
0.0
  11
 385.038
  21
 359.000
  31
0.0
   0
LINE
   8
LEVEL001
   6
CONTINUOUS
  62
7
  10
 385.038
  20
 359.000
  30
0.0
  11
 385.453
  21
 359.542
  31
0.0
   0
LINE
   8
LEVEL001
   6
CONTINUOUS
  62
7
  10
 385.453
  20
 359.542
  30
0.0
  11
 385.686
  21
 360.093
  31
0.0
   0
LINE
   8
LEVEL001
   6
CONTINUOUS
  62
7
  10
 385.686
  20
 360.093
  30
0.0
  11
 385.711
  21
 360.208
  31
0.0
   0
LINE
   8
LEVEL001
   6
CONTINUOUS
  62
7
  10
 390.401
  20
 378.046
  30
0.0
  11
 390.419
  21
 378.369
  31
0.0
   0
LINE
   8
LEVEL001
   6
CONTINUOUS
  62
7
  10
 390.419
  20
 378.369
  30
0.0
  11
 390.384
  21
 378.694
  31
0.0
   0
LINE
   8
LEVEL001
   6
CONTINUOUS
  62
7
  10
 390.384
  20
 378.694
  30
0.0
  11
 390.297
  21
 379.016
  31
0.0
   0
LINE
   8
LEVEL001
   6
CONTINUOUS
  62
7
  10
 390.297
  20
 379.016
  30
0.0
  11
 390.160
  21
 379.330
  31
0.0
   0
LINE
   8
LEVEL001
   6
CONTINUOUS
  62
7
  10
 390.160
  20
 379.330
  30
0.0
  11
 389.975
  21
 379.631
  31
0.0
   0
LINE
   8
LEVEL001
   6
CONTINUOUS
  62
7
  10
 389.975
  20
 379.631
  30
0.0
  11
 389.744
  21
 379.915
  31
0.0
   0
LINE
   8
LEVEL001
   6
CONTINUOUS
  62
7
  10
 389.744
  20
 379.915
  30
0.0
  11
 389.471
  21
 380.177
  31
0.0
   0
LINE
   8
LEVEL001
   6
CONTINUOUS
  62
7
  10
 389.471
  20
 380.177
  30
0.0
  11
 389.160
  21
 380.412
  31
0.0
   0
LINE
   8
LEVEL001
   6
CONTINUOUS
  62
7
  10
 389.160
  20
 380.412
  30
0.0
  11
 388.817
  21
 380.618
  31
0.0
   0
LINE
   8
LEVEL001
   6
CONTINUOUS
  62
7
  10
 388.817
  20
 380.618
  30
0.0
  11
 388.446
  21
 380.791
  31
0.0
   0
LINE
   8
LEVEL001
   6
CONTINUOUS
  62
7
  10
 388.446
  20
 380.791
  30
0.0
  11
 388.053
  21
 380.928
  31
0.0
   0
LINE
   8
LEVEL001
   6
CONTINUOUS
  62
7
  10
 388.053
  20
 380.928
  30
0.0
  11
 387.645
  21
 381.028
  31
0.0
   0
LINE
   8
LEVEL001
   6
CONTINUOUS
  62
7
  10
 387.645
  20
 381.028
  30
0.0
  11
 387.228
  21
 381.088
  31
0.0
   0
LINE
   8
LEVEL001
   6
CONTINUOUS
  62
7
  10
 387.228
  20
 381.088
  30
0.0
  11
 386.808
  21
 381.107
  31
0.0
   0
LINE
   8
LEVEL001
   6
CONTINUOUS
  62
7
  10
 386.808
  20
 381.107
  30
0.0
  11
 386.392
  21
 381.087
  31
0.0
   0
LINE
   8
LEVEL001
   6
CONTINUOUS
  62
7
  10
 386.392
  20
 381.087
  30
0.0
  11
 385.986
  21
 381.026
  31
0.0
   0
LINE
   8
LEVEL001
   6
CONTINUOUS
  62
7
  10
 385.986
  20
 381.026
  30
0.0
  11
 385.597
  21
 380.925
  31
0.0
   0
LINE
   8
LEVEL001
   6
CONTINUOUS
  62
7
  10
 385.597
  20
 380.925
  30
0.0
  11
 385.231
  21
 380.787
  31
0.0
   0
LINE
   8
LEVEL001
   6
CONTINUOUS
  62
7
  10
 385.231
  20
 380.787
  30
0.0
  11
 384.893
  21
 380.613
  31
0.0
   0
LINE
   8
LEVEL001
   6
CONTINUOUS
  62
7
  10
 384.893
  20
 380.613
  30
0.0
  11
 384.589
  21
 380.406
  31
0.0
   0
LINE
   8
LEVEL001
   6
CONTINUOUS
  62
7
  10
 384.589
  20
 380.406
  30
0.0
  11
 384.324
  21
 380.170
  31
0.0
   0
LINE
   8
LEVEL001
   6
CONTINUOUS
  62
7
  10
 384.324
  20
 380.170
  30
0.0
  11
 384.101
  21
 379.908
  31
0.0
   0
LINE
   8
LEVEL001
   6
CONTINUOUS
  62
7
  10
 384.101
  20
 379.908
  30
0.0
  11
 383.925
  21
 379.623
  31
0.0
   0
LINE
   8
LEVEL001
   6
CONTINUOUS
  62
7
  10
 383.925
  20
 379.623
  30
0.0
  11
 383.797
  21
 379.322
  31
0.0
   0
LINE
   8
LEVEL001
   6
CONTINUOUS
  62
7
  10
 383.797
  20
 379.322
  30
0.0
  11
 383.720
  21
 379.007
  31
0.0
   0
LINE
   8
LEVEL001
   6
CONTINUOUS
  62
7
  10
 383.720
  20
 379.007
  30
0.0
  11
 383.695
  21
 378.685
  31
0.0
   0
LINE
   8
LEVEL001
   6
CONTINUOUS
  62
7
  10
 383.695
  20
 378.685
  30
0.0
  11
 383.723
  21
 378.360
  31
0.0
   0
LINE
   8
LEVEL001
   6
CONTINUOUS
  62
7
  10
 383.723
  20
 378.360
  30
0.0
  11
 383.803
  21
 378.037
  31
0.0
   0
LINE
   8
LEVEL001
   6
CONTINUOUS
  62
7
  10
 383.803
  20
 378.037
  30
0.0
  11
 383.933
  21
 377.722
  31
0.0
   0
LINE
   8
LEVEL001
   6
CONTINUOUS
  62
7
  10
 383.933
  20
 377.722
  30
0.0
  11
 384.112
  21
 377.418
  31
0.0
   0
LINE
   8
LEVEL001
   6
CONTINUOUS
  62
7
  10
 384.112
  20
 377.418
  30
0.0
  11
 384.338
  21
 377.132
  31
0.0
   0
LINE
   8
LEVEL001
   6
CONTINUOUS
  62
7
  10
 384.338
  20
 377.132
  30
0.0
  11
 384.605
  21
 376.867
  31
0.0
   0
LINE
   8
LEVEL001
   6
CONTINUOUS
  62
7
  10
 384.605
  20
 376.867
  30
0.0
  11
 384.911
  21
 376.628
  31
0.0
   0
LINE
   8
LEVEL001
   6
CONTINUOUS
  62
7
  10
 384.911
  20
 376.628
  30
0.0
  11
 385.251
  21
 376.418
  31
0.0
   0
LINE
   8
LEVEL001
   6
CONTINUOUS
  62
7
  10
 385.251
  20
 376.418
  30
0.0
  11
 385.618
  21
 376.240
  31
0.0
   0
LINE
   8
LEVEL001
   6
CONTINUOUS
  62
7
  10
 385.618
  20
 376.240
  30
0.0
  11
 386.008
  21
 376.098
  31
0.0
   0
LINE
   8
LEVEL001
   6
CONTINUOUS
  62
7
  10
 386.008
  20
 376.098
  30
0.0
  11
 386.415
  21
 375.994
  31
0.0
   0
LINE
   8
LEVEL001
   6
CONTINUOUS
  62
7
  10
 386.415
  20
 375.994
  30
0.0
  11
 386.831
  21
 375.928
  31
0.0
   0
LINE
   8
LEVEL001
   6
CONTINUOUS
  62
7
  10
 386.831
  20
 375.928
  30
0.0
  11
 387.251
  21
 375.903
  31
0.0
   0
LINE
   8
LEVEL001
   6
CONTINUOUS
  62
7
  10
 387.251
  20
 375.903
  30
0.0
  11
 387.668
  21
 375.919
  31
0.0
   0
LINE
   8
LEVEL001
   6
CONTINUOUS
  62
7
  10
 387.668
  20
 375.919
  30
0.0
  11
 388.076
  21
 375.975
  31
0.0
   0
LINE
   8
LEVEL001
   6
CONTINUOUS
  62
7
  10
 388.076
  20
 375.975
  30
0.0
  11
 388.467
  21
 376.070
  31
0.0
   0
LINE
   8
LEVEL001
   6
CONTINUOUS
  62
7
  10
 388.467
  20
 376.070
  30
0.0
  11
 388.837
  21
 376.203
  31
0.0
   0
LINE
   8
LEVEL001
   6
CONTINUOUS
  62
7
  10
 388.837
  20
 376.203
  30
0.0
  11
 389.178
  21
 376.372
  31
0.0
   0
LINE
   8
LEVEL001
   6
CONTINUOUS
  62
7
  10
 389.178
  20
 376.372
  30
0.0
  11
 389.487
  21
 376.575
  31
0.0
   0
LINE
   8
LEVEL001
   6
CONTINUOUS
  62
7
  10
 389.487
  20
 376.575
  30
0.0
  11
 389.758
  21
 376.808
  31
0.0
   0
LINE
   8
LEVEL001
   6
CONTINUOUS
  62
7
  10
 389.758
  20
 376.808
  30
0.0
  11
 389.986
  21
 377.067
  31
0.0
   0
LINE
   8
LEVEL001
   6
CONTINUOUS
  62
7
  10
 389.986
  20
 377.067
  30
0.0
  11
 390.169
  21
 377.348
  31
0.0
   0
LINE
   8
LEVEL001
   6
CONTINUOUS
  62
7
  10
 390.169
  20
 377.348
  30
0.0
  11
 390.304
  21
 377.648
  31
0.0
   0
LINE
   8
LEVEL001
   6
CONTINUOUS
  62
7
  10
 390.304
  20
 377.648
  30
0.0
  11
 390.387
  21
 377.961
  31
0.0
   0
LINE
   8
LEVEL001
   6
CONTINUOUS
  62
7
  10
 390.387
  20
 377.961
  30
0.0
  11
 390.401
  21
 378.046
  31
0.0
   0
LINE
   8
LEVEL001
   6
CONTINUOUS
  62
7
  10
 373.458
  20
 341.298
  30
0.0
  11
 374.457
  21
 341.336
  31
0.0
   0
ARC
   8
LEVEL001
   6
CONTINUOUS
  62
7
  10
 375.067
  20
 325.270
  30
0.0
  40
 3.00000
  50
 207.173
  51
 337.173
   0
ARC
   8
LEVEL001
   6
CONTINUOUS
  62
7
  10
 351.084
  20
 324.360
  30
0.0
  40
 3.00000
  50
 207.173
  51
 337.173
   0
LINE
   8
LEVEL001
   6
CONTINUOUS
  62
7
  10
 348.415
  20
 322.990
  30
0.0
  11
 341.499
  21
 336.464
  31
0.0
   0
LINE
   8
LEVEL001
   6
CONTINUOUS
  62
7
  10
 353.849
  20
 323.196
  30
0.0
  11
 359.873
  21
 337.508
  31
0.0
   0
ARC
   8
LEVEL001
   6
CONTINUOUS
  62
7
  10
 362.638
  20
 336.344
  30
0.0
  40
 3.00000
  50
 27.1729
  51
 157.173
   0
LINE
   8
LEVEL001
   6
CONTINUOUS
  62
7
  10
 372.398
  20
 323.900
  30
0.0
  11
 365.307
  21
 337.714
  31
0.0
   0
ARC
   8
LEVEL001
   6
CONTINUOUS
  62
7
  10
 338.656
  20
 335.434
  30
0.0
  40
 3.00000
  50
 27.1729
  51
 93.4139
   0
ARC
   8
LEVEL001
   6
CONTINUOUS
  62
7
  10
 386.621
  20
 337.254
  30
0.0
  40
 3.00000
  50
 93.5766
  51
 157.173
   0
LINE
   8
LEVEL001
   6
CONTINUOUS
  62
7
  10
 377.832
  20
 324.106
  30
0.0
  11
 383.856
  21
 338.418
  31
0.0
   0
ARC
   8
LEVEL001
   6
CONTINUOUS
  62
7
  10
 336.177
  20
 321.646
  30
0.0
  40
 3.00000
  50
 2.17291
  51
 92.1729
   0
LINE
   8
LEVEL001
   6
CONTINUOUS
  62
7
  10
 327.069
  20
 324.302
  30
0.0
  11
 336.063
  21
 324.643
  31
0.0
   0
LINE
   8
LEVEL001
   6
CONTINUOUS
  62
7
  10
 388.959
  20
 328.377
  30
0.0
  11
 387.902
  21
 356.235
  31
0.0
   0
LINE
   8
LEVEL001
   6
CONTINUOUS
  62
7
  10
 386.341
  20
 397.390
  30
0.0
  11
 386.040
  21
 405.321
  31
0.0
   0
LINE
   8
LEVEL001
   6
CONTINUOUS
  62
7
  10
 383.620
  20
 351.517
  30
0.0
  11
 383.896
  21
 344.254
  31
0.0
   0
LINE
   8
LEVEL001
   6
CONTINUOUS
  62
7
  10
 380.447
  20
 375.545
  30
0.0
  11
 381.003
  21
 374.987
  31
0.0
   0
LINE
   8
LEVEL001
   6
CONTINUOUS
  62
7
  10
 381.003
  20
 374.987
  30
0.0
  11
 381.638
  21
 374.483
  31
0.0
   0
LINE
   8
LEVEL001
   6
CONTINUOUS
  62
7
  10
 381.638
  20
 374.483
  30
0.0
  11
 382.342
  21
 374.038
  31
0.0
   0
LINE
   8
LEVEL001
   6
CONTINUOUS
  62
7
  10
 382.342
  20
 374.038
  30
0.0
  11
 383.103
  21
 373.660
  31
0.0
   0
LINE
   8
LEVEL001
   6
CONTINUOUS
  62
7
  10
 383.103
  20
 373.660
  30
0.0
  11
 383.912
  21
 373.355
  31
0.0
   0
LINE
   8
LEVEL001
   6
CONTINUOUS
  62
7
  10
 383.912
  20
 373.355
  30
0.0
  11
 384.753
  21
 373.128
  31
0.0
   0
LINE
   8
LEVEL001
   6
CONTINUOUS
  62
7
  10
 384.753
  20
 373.128
  30
0.0
  11
 385.616
  21
 372.982
  31
0.0
   0
LINE
   8
LEVEL001
   6
CONTINUOUS
  62
7
  10
 385.616
  20
 372.982
  30
0.0
  11
 386.485
  21
 372.920
  31
0.0
   0
LINE
   8
LEVEL001
   6
CONTINUOUS
  62
7
  10
 386.485
  20
 372.920
  30
0.0
  11
 387.347
  21
 372.942
  31
0.0
   0
LINE
   8
LEVEL001
   6
CONTINUOUS
  62
7
  10
 387.347
  20
 372.942
  30
0.0
  11
 388.190
  21
 373.048
  31
0.0
   0
LINE
   8
LEVEL001
   6
CONTINUOUS
  62
7
  10
 388.190
  20
 373.048
  30
0.0
  11
 388.999
  21
 373.237
  31
0.0
   0
LINE
   8
LEVEL001
   6
CONTINUOUS
  62
7
  10
 388.999
  20
 373.237
  30
0.0
  11
 389.763
  21
 373.505
  31
0.0
   0
LINE
   8
LEVEL001
   6
CONTINUOUS
  62
7
  10
 389.763
  20
 373.505
  30
0.0
  11
 390.468
  21
 373.849
  31
0.0
   0
LINE
   8
LEVEL001
   6
CONTINUOUS
  62
7
  10
 390.468
  20
 373.849
  30
0.0
  11
 390.515
  21
 373.875
  31
0.0
   0
ARC
   8
LEVEL001
   6
CONTINUOUS
  62
7
  10
 384.178
  20
 367.454
  30
0.0
  40
 3.00000
  50
 190.583
  51
 329.909
   0
LINE
   8
LEVEL001
   6
CONTINUOUS
  62
7
  10
 381.232
  20
 366.892
  30
0.0
  11
 379.447
  21
 376.237
  31
0.0
   0
LINE
   8
LEVEL001
   6
CONTINUOUS
  62
7
  10
 386.805
  20
 366.005
  30
0.0
  11
 392.500
  21
 376.331
  31
0.0
   0
ARC
   8
LEVEL001
   6
CONTINUOUS
  62
7
  10
 376.501
  20
 375.674
  30
0.0
  40
 3.00000
  50
 10.8096
  51
 97.1000
   0
LINE
   8
LEVEL001
   6
CONTINUOUS
  62
7
  10
 379.620
  20
 403.076
  30
0.0
  11
 379.636
  21
 402.652
  31
0.0
   0
ARC
   8
LEVEL001
   6
CONTINUOUS
  62
7
  10
 384.617
  20
 403.266
  30
0.0
  40
 5.00000
  50
 125.129
  51
 182.173
   0
LINE
   8
LEVEL001
   6
CONTINUOUS
  62
7
  10
 386.341
  20
 397.390
  30
0.0
  11
 384.652
  21
 388.101
  31
0.0
   0
LINE
   8
LEVEL001
   6
CONTINUOUS
  62
7
  10
 386.214
  20
 386.729
  30
0.0
  11
 379.678
  21
 379.290
  31
0.0
   0
LINE
   8
LEVEL001
   6
CONTINUOUS
  62
7
  10
 386.341
  20
 397.390
  30
0.0
  11
 386.040
  21
 405.321
  31
0.0
   0
LINE
   8
LEVEL001
   6
CONTINUOUS
  62
3
  10
 391.020
  20
 377.961
  30
0.0
  11
 391.041
  21
 378.343
  31
0.0
   0
LINE
   8
LEVEL001
   6
CONTINUOUS
  62
3
  10
 391.041
  20
 378.343
  30
0.0
  11
 391.000
  21
 378.728
  31
0.0
   0
LINE
   8
LEVEL001
   6
CONTINUOUS
  62
3
  10
 391.000
  20
 378.728
  30
0.0
  11
 390.897
  21
 379.110
  31
0.0
   0
LINE
   8
LEVEL001
   6
CONTINUOUS
  62
3
  10
 390.897
  20
 379.110
  30
0.0
  11
 390.735
  21
 379.483
  31
0.0
   0
LINE
   8
LEVEL001
   6
CONTINUOUS
  62
3
  10
 390.735
  20
 379.483
  30
0.0
  11
 390.515
  21
 379.840
  31
0.0
   0
LINE
   8
LEVEL001
   6
CONTINUOUS
  62
3
  10
 390.515
  20
 379.840
  30
0.0
  11
 390.241
  21
 380.176
  31
0.0
   0
LINE
   8
LEVEL001
   6
CONTINUOUS
  62
3
  10
 390.241
  20
 380.176
  30
0.0
  11
 389.918
  21
 380.486
  31
0.0
   0
LINE
   8
LEVEL001
   6
CONTINUOUS
  62
3
  10
 389.918
  20
 380.486
  30
0.0
  11
 389.549
  21
 380.765
  31
0.0
   0
LINE
   8
LEVEL001
   6
CONTINUOUS
  62
3
  10
 389.549
  20
 380.765
  30
0.0
  11
 389.142
  21
 381.009
  31
0.0
   0
LINE
   8
LEVEL001
   6
CONTINUOUS
  62
3
  10
 389.142
  20
 381.009
  30
0.0
  11
 388.703
  21
 381.214
  31
0.0
   0
LINE
   8
LEVEL001
   6
CONTINUOUS
  62
3
  10
 388.703
  20
 381.214
  30
0.0
  11
 388.238
  21
 381.377
  31
0.0
   0
LINE
   8
LEVEL001
   6
CONTINUOUS
  62
3
  10
 388.238
  20
 381.377
  30
0.0
  11
 387.754
  21
 381.495
  31
0.0
   0
LINE
   8
LEVEL001
   6
CONTINUOUS
  62
3
  10
 387.754
  20
 381.495
  30
0.0
  11
 387.259
  21
 381.566
  31
0.0
   0
LINE
   8
LEVEL001
   6
CONTINUOUS
  62
3
  10
 387.259
  20
 381.566
  30
0.0
  11
 386.762
  21
 381.589
  31
0.0
   0
LINE
   8
LEVEL001
   6
CONTINUOUS
  62
3
  10
 386.762
  20
 381.589
  30
0.0
  11
 386.268
  21
 381.565
  31
0.0
   0
LINE
   8
LEVEL001
   6
CONTINUOUS
  62
3
  10
 386.268
  20
 381.565
  30
0.0
  11
 385.788
  21
 381.492
  31
0.0
   0
LINE
   8
LEVEL001
   6
CONTINUOUS
  62
3
  10
 385.788
  20
 381.492
  30
0.0
  11
 385.327
  21
 381.373
  31
0.0
   0
LINE
   8
LEVEL001
   6
CONTINUOUS
  62
3
  10
 385.327
  20
 381.373
  30
0.0
  11
 384.893
  21
 381.209
  31
0.0
   0
LINE
   8
LEVEL001
   6
CONTINUOUS
  62
3
  10
 384.893
  20
 381.209
  30
0.0
  11
 384.492
  21
 381.003
  31
0.0
   0
LINE
   8
LEVEL001
   6
CONTINUOUS
  62
3
  10
 384.492
  20
 381.003
  30
0.0
  11
 384.132
  21
 380.758
  31
0.0
   0
LINE
   8
LEVEL001
   6
CONTINUOUS
  62
3
  10
 384.132
  20
 380.758
  30
0.0
  11
 383.818
  21
 380.478
  31
0.0
   0
LINE
   8
LEVEL001
   6
CONTINUOUS
  62
3
  10
 383.818
  20
 380.478
  30
0.0
  11
 383.554
  21
 380.167
  31
0.0
   0
LINE
   8
LEVEL001
   6
CONTINUOUS
  62
3
  10
 383.554
  20
 380.167
  30
0.0
  11
 383.344
  21
 379.830
  31
0.0
   0
LINE
   8
LEVEL001
   6
CONTINUOUS
  62
3
  10
 383.344
  20
 379.830
  30
0.0
  11
 383.193
  21
 379.473
  31
0.0
   0
LINE
   8
LEVEL001
   6
CONTINUOUS
  62
3
  10
 383.193
  20
 379.473
  30
0.0
  11
 383.102
  21
 379.100
  31
0.0
   0
LINE
   8
LEVEL001
   6
CONTINUOUS
  62
3
  10
 383.102
  20
 379.100
  30
0.0
  11
 383.073
  21
 378.718
  31
0.0
   0
LINE
   8
LEVEL001
   6
CONTINUOUS
  62
3
  10
 383.073
  20
 378.718
  30
0.0
  11
 383.105
  21
 378.333
  31
0.0
   0
LINE
   8
LEVEL001
   6
CONTINUOUS
  62
3
  10
 383.105
  20
 378.333
  30
0.0
  11
 383.200
  21
 377.951
  31
0.0
   0
LINE
   8
LEVEL001
   6
CONTINUOUS
  62
3
  10
 383.200
  20
 377.951
  30
0.0
  11
 383.355
  21
 377.577
  31
0.0
   0
LINE
   8
LEVEL001
   6
CONTINUOUS
  62
3
  10
 383.355
  20
 377.577
  30
0.0
  11
 383.567
  21
 377.217
  31
0.0
   0
LINE
   8
LEVEL001
   6
CONTINUOUS
  62
3
  10
 383.567
  20
 377.217
  30
0.0
  11
 383.834
  21
 376.878
  31
0.0
   0
LINE
   8
LEVEL001
   6
CONTINUOUS
  62
3
  10
 383.834
  20
 376.878
  30
0.0
  11
 384.151
  21
 376.564
  31
0.0
   0
LINE
   8
LEVEL001
   6
CONTINUOUS
  62
3
  10
 384.151
  20
 376.564
  30
0.0
  11
 384.514
  21
 376.280
  31
0.0
   0
LINE
   8
LEVEL001
   6
CONTINUOUS
  62
3
  10
 384.514
  20
 376.280
  30
0.0
  11
 384.916
  21
 376.031
  31
0.0
   0
LINE
   8
LEVEL001
   6
CONTINUOUS
  62
3
  10
 384.916
  20
 376.031
  30
0.0
  11
 385.352
  21
 375.821
  31
0.0
   0
LINE
   8
LEVEL001
   6
CONTINUOUS
  62
3
  10
 385.352
  20
 375.821
  30
0.0
  11
 385.814
  21
 375.653
  31
0.0
   0
LINE
   8
LEVEL001
   6
CONTINUOUS
  62
3
  10
 385.814
  20
 375.653
  30
0.0
  11
 386.296
  21
 375.529
  31
0.0
   0
LINE
   8
LEVEL001
   6
CONTINUOUS
  62
3
  10
 386.296
  20
 375.529
  30
0.0
  11
 386.789
  21
 375.451
  31
0.0
   0
LINE
   8
LEVEL001
   6
CONTINUOUS
  62
3
  10
 386.789
  20
 375.451
  30
0.0
  11
 387.287
  21
 375.421
  31
0.0
   0
LINE
   8
LEVEL001
   6
CONTINUOUS
  62
3
  10
 387.287
  20
 375.421
  30
0.0
  11
 387.781
  21
 375.440
  31
0.0
   0
LINE
   8
LEVEL001
   6
CONTINUOUS
  62
3
  10
 387.781
  20
 375.440
  30
0.0
  11
 388.264
  21
 375.506
  31
0.0
   0
LINE
   8
LEVEL001
   6
CONTINUOUS
  62
3
  10
 388.264
  20
 375.506
  30
0.0
  11
 388.728
  21
 375.619
  31
0.0
   0
LINE
   8
LEVEL001
   6
CONTINUOUS
  62
3
  10
 388.728
  20
 375.619
  30
0.0
  11
 389.166
  21
 375.777
  31
0.0
   0
LINE
   8
LEVEL001
   6
CONTINUOUS
  62
3
  10
 389.166
  20
 375.777
  30
0.0
  11
 389.571
  21
 375.977
  31
0.0
   0
LINE
   8
LEVEL001
   6
CONTINUOUS
  62
3
  10
 389.571
  20
 375.977
  30
0.0
  11
 389.937
  21
 376.217
  31
0.0
   0
LINE
   8
LEVEL001
   6
CONTINUOUS
  62
3
  10
 389.937
  20
 376.217
  30
0.0
  11
 390.258
  21
 376.493
  31
0.0
   0
LINE
   8
LEVEL001
   6
CONTINUOUS
  62
3
  10
 390.258
  20
 376.493
  30
0.0
  11
 390.529
  21
 376.800
  31
0.0
   0
LINE
   8
LEVEL001
   6
CONTINUOUS
  62
3
  10
 390.529
  20
 376.800
  30
0.0
  11
 390.746
  21
 377.134
  31
0.0
   0
LINE
   8
LEVEL001
   6
CONTINUOUS
  62
3
  10
 390.746
  20
 377.134
  30
0.0
  11
 390.905
  21
 377.489
  31
0.0
   0
LINE
   8
LEVEL001
   6
CONTINUOUS
  62
3
  10
 390.905
  20
 377.489
  30
0.0
  11
 391.004
  21
 377.860
  31
0.0
   0
LINE
   8
LEVEL001
   6
CONTINUOUS
  62
3
  10
 391.004
  20
 377.860
  30
0.0
  11
 391.020
  21
 377.961
  31
0.0
   0
LINE
   8
LEVEL001
   6
DASHDOT
  62
1
  10
 333.772
  20
 386.526
  30
0.0
  11
 393.751
  21
 388.802
  31
0.0
   0
LINE
   8
LEVEL001
   6
DASHDOT
  62
1
  10
 387.881
  20
 384.499
  30
0.0
  11
 378.364
  21
 315.263
  31
0.0
   0
LINE
   8
LEVEL001
   6
CONTINUOUS
  62
7
  10
 339.174
  20
 321.759
  30
0.0
  11
 339.659
  21
 308.994
  31
0.0
   0
LINE
   8
LEVEL001
   6
CONTINUOUS
  62
7
  10
 374.105
  20
 350.639
  30
0.0
  11
 376.147
  21
 349.561
  31
0.0
   0
LINE
   8
LEVEL001
   6
CONTINUOUS
  62
7
  10
 376.147
  20
 349.561
  30
0.0
  11
 376.234
  21
 347.253
  31
0.0
   0
LINE
   8
LEVEL001
   6
CONTINUOUS
  62
7
  10
 376.234
  20
 347.253
  30
0.0
  11
 374.280
  21
 346.023
  31
0.0
   0
LINE
   8
LEVEL001
   6
CONTINUOUS
  62
7
  10
 374.280
  20
 346.023
  30
0.0
  11
 372.237
  21
 347.101
  31
0.0
   0
LINE
   8
LEVEL001
   6
CONTINUOUS
  62
7
  10
 372.237
  20
 347.101
  30
0.0
  11
 372.150
  21
 349.409
  31
0.0
   0
LINE
   8
LEVEL001
   6
CONTINUOUS
  62
7
  10
 372.150
  20
 349.409
  30
0.0
  11
 374.105
  21
 350.639
  31
0.0
   0
CIRCLE
   8
LEVEL001
   6
CONTINUOUS
  62
7
  10
 374.192
  20
 348.331
  30
0.0
  40
 4.00000
   0
CIRCLE
   8
LEVEL001
   6
CONTINUOUS
  62
3
  10
 374.192
  20
 348.331
  30
0.0
  40
 3.37500
   0
LINE
   8
LEVEL001
   6
CONTINUOUS
  62
7
  10
 350.122
  20
 349.729
  30
0.0
  11
 352.164
  21
 348.651
  31
0.0
   0
LINE
   8
LEVEL001
   6
CONTINUOUS
  62
7
  10
 352.164
  20
 348.651
  30
0.0
  11
 352.252
  21
 346.343
  31
0.0
   0
LINE
   8
LEVEL001
   6
CONTINUOUS
  62
7
  10
 352.252
  20
 346.343
  30
0.0
  11
 350.297
  21
 345.113
  31
0.0
   0
LINE
   8
LEVEL001
   6
CONTINUOUS
  62
7
  10
 350.297
  20
 345.113
  30
0.0
  11
 348.255
  21
 346.191
  31
0.0
   0
LINE
   8
LEVEL001
   6
CONTINUOUS
  62
7
  10
 348.255
  20
 346.191
  30
0.0
  11
 348.167
  21
 348.499
  31
0.0
   0
LINE
   8
LEVEL001
   6
CONTINUOUS
  62
7
  10
 348.167
  20
 348.499
  30
0.0
  11
 350.122
  21
 349.729
  31
0.0
   0
CIRCLE
   8
LEVEL001
   6
CONTINUOUS
  62
7
  10
 350.209
  20
 347.421
  30
0.0
  40
 4.00000
   0
CIRCLE
   8
LEVEL001
   6
CONTINUOUS
  62
3
  10
 350.209
  20
 347.421
  30
0.0
  40
 3.37500
   0
LINE
   8
LEVEL003
   6
DASHDOT
  62
1
  10
 330.945
  20
 380.415
  30
0.0
  11
 332.135
  21
 349.044
  31
0.0
   0
LINE
   8
LEVEL001
   6
DASHDOT
  62
1
  10
 381.481
  20
 379.272
  30
0.0
  11
 392.494
  21
 377.758
  31
0.0
   0
LINE
   8
LEVEL003
   6
CONTINUOUS
  62
7
  10
 384.769
  20
 378.820
  30
0.0
  11
 386.091
  21
 379.954
  31
0.0
   0
LINE
   8
LEVEL003
   6
CONTINUOUS
  62
7
  10
 386.091
  20
 379.954
  30
0.0
  11
 388.379
  21
 379.639
  31
0.0
   0
LINE
   8
LEVEL003
   6
CONTINUOUS
  62
7
  10
 388.379
  20
 379.639
  30
0.0
  11
 389.345
  21
 378.191
  31
0.0
   0
LINE
   8
LEVEL003
   6
CONTINUOUS
  62
7
  10
 389.345
  20
 378.191
  30
0.0
  11
 388.024
  21
 377.057
  31
0.0
   0
LINE
   8
LEVEL003
   6
CONTINUOUS
  62
7
  10
 388.024
  20
 377.057
  30
0.0
  11
 385.736
  21
 377.371
  31
0.0
   0
LINE
   8
LEVEL003
   6
CONTINUOUS
  62
7
  10
 385.736
  20
 377.371
  30
0.0
  11
 384.769
  21
 378.820
  31
0.0
   0
LINE
   8
LEVEL001
   6
DASHDOT
  62
1
  10
 372.015
  20
 405.712
  30
0.0
  11
 375.311
  21
 318.841
  31
0.0
   0
LINE
   8
LEVEL001
   6
DASHDOT
  62
1
  10
 348.032
  20
 404.802
  30
0.0
  11
 351.364
  21
 316.994
  31
0.0
   0
LINE
   8
LEVEL001
   6
CONTINUOUS
  62
7
  10
 356.334
  20
 397.010
  30
0.0
  11
 356.257
  21
 397.381
  31
0.0
   0
LINE
   8
LEVEL001
   6
CONTINUOUS
  62
7
  10
 356.257
  20
 397.381
  30
0.0
  11
 356.057
  21
 397.742
  31
0.0
   0
LINE
   8
LEVEL001
   6
CONTINUOUS
  62
7
  10
 356.057
  20
 397.742
  30
0.0
  11
 355.736
  21
 398.086
  31
0.0
   0
LINE
   8
LEVEL001
   6
CONTINUOUS
  62
7
  10
 355.736
  20
 398.086
  30
0.0
  11
 355.300
  21
 398.409
  31
0.0
   0
LINE
   8
LEVEL001
   6
CONTINUOUS
  62
7
  10
 355.300
  20
 398.409
  30
0.0
  11
 354.756
  21
 398.705
  31
0.0
   0
LINE
   8
LEVEL001
   6
CONTINUOUS
  62
7
  10
 354.756
  20
 398.705
  30
0.0
  11
 354.111
  21
 398.970
  31
0.0
   0
LINE
   8
LEVEL001
   6
CONTINUOUS
  62
7
  10
 354.111
  20
 398.970
  30
0.0
  11
 353.376
  21
 399.200
  31
0.0
   0
LINE
   8
LEVEL001
   6
CONTINUOUS
  62
7
  10
 353.376
  20
 399.200
  30
0.0
  11
 352.563
  21
 399.391
  31
0.0
   0
LINE
   8
LEVEL001
   6
CONTINUOUS
  62
7
  10
 352.563
  20
 399.391
  30
0.0
  11
 351.684
  21
 399.540
  31
0.0
   0
LINE
   8
LEVEL001
   6
CONTINUOUS
  62
7
  10
 351.684
  20
 399.540
  30
0.0
  11
 350.752
  21
 399.645
  31
0.0
   0
LINE
   8
LEVEL001
   6
CONTINUOUS
  62
7
  10
 350.752
  20
 399.645
  30
0.0
  11
 349.783
  21
 399.704
  31
0.0
   0
LINE
   8
LEVEL001
   6
CONTINUOUS
  62
7
  10
 349.783
  20
 399.704
  30
0.0
  11
 348.791
  21
 399.716
  31
0.0
   0
LINE
   8
LEVEL001
   6
CONTINUOUS
  62
7
  10
 348.791
  20
 399.716
  30
0.0
  11
 347.793
  21
 399.681
  31
0.0
   0
LINE
   8
LEVEL001
   6
CONTINUOUS
  62
7
  10
 347.793
  20
 399.681
  30
0.0
  11
 346.803
  21
 399.600
  31
0.0
   0
LINE
   8
LEVEL001
   6
CONTINUOUS
  62
7
  10
 346.803
  20
 399.600
  30
0.0
  11
 345.836
  21
 399.473
  31
0.0
   0
LINE
   8
LEVEL001
   6
CONTINUOUS
  62
7
  10
 345.836
  20
 399.473
  30
0.0
  11
 344.909
  21
 399.304
  31
0.0
   0
LINE
   8
LEVEL001
   6
CONTINUOUS
  62
7
  10
 344.909
  20
 399.304
  30
0.0
  11
 344.036
  21
 399.094
  31
0.0
   0
LINE
   8
LEVEL001
   6
CONTINUOUS
  62
7
  10
 344.036
  20
 399.094
  30
0.0
  11
 343.229
  21
 398.847
  31
0.0
   0
LINE
   8
LEVEL001
   6
CONTINUOUS
  62
7
  10
 343.229
  20
 398.847
  30
0.0
  11
 342.502
  21
 398.566
  31
0.0
   0
LINE
   8
LEVEL001
   6
CONTINUOUS
  62
7
  10
 342.502
  20
 398.566
  30
0.0
  11
 341.867
  21
 398.256
  31
0.0
   0
LINE
   8
LEVEL001
   6
CONTINUOUS
  62
7
  10
 341.867
  20
 398.256
  30
0.0
  11
 341.332
  21
 397.923
  31
0.0
   0
LINE
   8
LEVEL001
   6
CONTINUOUS
  62
7
  10
 341.332
  20
 397.923
  30
0.0
  11
 340.907
  21
 397.570
  31
0.0
   0
LINE
   8
LEVEL001
   6
CONTINUOUS
  62
7
  10
 340.907
  20
 397.570
  30
0.0
  11
 340.598
  21
 397.203
  31
0.0
   0
LINE
   8
LEVEL001
   6
CONTINUOUS
  62
7
  10
 340.598
  20
 397.203
  30
0.0
  11
 340.409
  21
 396.829
  31
0.0
   0
LINE
   8
LEVEL001
   6
CONTINUOUS
  62
7
  10
 340.409
  20
 396.829
  30
0.0
  11
 340.344
  21
 396.454
  31
0.0
   0
LINE
   8
LEVEL001
   6
CONTINUOUS
  62
7
  10
 340.344
  20
 396.454
  30
0.0
  11
 340.404
  21
 396.082
  31
0.0
   0
LINE
   8
LEVEL001
   6
CONTINUOUS
  62
7
  10
 340.404
  20
 396.082
  30
0.0
  11
 340.588
  21
 395.719
  31
0.0
   0
LINE
   8
LEVEL001
   6
CONTINUOUS
  62
7
  10
 340.588
  20
 395.719
  30
0.0
  11
 340.893
  21
 395.373
  31
0.0
   0
LINE
   8
LEVEL001
   6
CONTINUOUS
  62
7
  10
 340.893
  20
 395.373
  30
0.0
  11
 341.314
  21
 395.047
  31
0.0
   0
LINE
   8
LEVEL001
   6
CONTINUOUS
  62
7
  10
 341.314
  20
 395.047
  30
0.0
  11
 341.844
  21
 394.747
  31
0.0
   0
LINE
   8
LEVEL001
   6
CONTINUOUS
  62
7
  10
 341.844
  20
 394.747
  30
0.0
  11
 342.476
  21
 394.477
  31
0.0
   0
LINE
   8
LEVEL001
   6
CONTINUOUS
  62
7
  10
 342.476
  20
 394.477
  30
0.0
  11
 343.200
  21
 394.242
  31
0.0
   0
LINE
   8
LEVEL001
   6
CONTINUOUS
  62
7
  10
 343.200
  20
 394.242
  30
0.0
  11
 344.004
  21
 394.046
  31
0.0
   0
LINE
   8
LEVEL001
   6
CONTINUOUS
  62
7
  10
 344.004
  20
 394.046
  30
0.0
  11
 344.875
  21
 393.892
  31
0.0
   0
LINE
   8
LEVEL001
   6
CONTINUOUS
  62
7
  10
 344.875
  20
 393.892
  30
0.0
  11
 345.800
  21
 393.781
  31
0.0
   0
LINE
   8
LEVEL001
   6
CONTINUOUS
  62
7
  10
 345.800
  20
 393.781
  30
0.0
  11
 346.765
  21
 393.716
  31
0.0
   0
LINE
   8
LEVEL001
   6
CONTINUOUS
  62
7
  10
 346.765
  20
 393.716
  30
0.0
  11
 347.755
  21
 393.697
  31
0.0
   0
LINE
   8
LEVEL001
   6
CONTINUOUS
  62
7
  10
 347.755
  20
 393.697
  30
0.0
  11
 348.753
  21
 393.726
  31
0.0
   0
LINE
   8
LEVEL001
   6
CONTINUOUS
  62
7
  10
 348.753
  20
 393.726
  30
0.0
  11
 349.746
  21
 393.801
  31
0.0
   0
LINE
   8
LEVEL001
   6
CONTINUOUS
  62
7
  10
 349.746
  20
 393.801
  30
0.0
  11
 350.716
  21
 393.921
  31
0.0
   0
LINE
   8
LEVEL001
   6
CONTINUOUS
  62
7
  10
 350.716
  20
 393.921
  30
0.0
  11
 351.649
  21
 394.085
  31
0.0
   0
LINE
   8
LEVEL001
   6
CONTINUOUS
  62
7
  10
 351.649
  20
 394.085
  30
0.0
  11
 352.531
  21
 394.290
  31
0.0
   0
LINE
   8
LEVEL001
   6
CONTINUOUS
  62
7
  10
 352.531
  20
 394.290
  30
0.0
  11
 353.347
  21
 394.533
  31
0.0
   0
LINE
   8
LEVEL001
   6
CONTINUOUS
  62
7
  10
 353.347
  20
 394.533
  30
0.0
  11
 354.085
  21
 394.809
  31
0.0
   0
LINE
   8
LEVEL001
   6
CONTINUOUS
  62
7
  10
 354.085
  20
 394.809
  30
0.0
  11
 354.733
  21
 395.115
  31
0.0
   0
LINE
   8
LEVEL001
   6
CONTINUOUS
  62
7
  10
 354.733
  20
 395.115
  30
0.0
  11
 355.282
  21
 395.446
  31
0.0
   0
LINE
   8
LEVEL001
   6
CONTINUOUS
  62
7
  10
 355.282
  20
 395.446
  30
0.0
  11
 355.722
  21
 395.797
  31
0.0
   0
LINE
   8
LEVEL001
   6
CONTINUOUS
  62
7
  10
 355.722
  20
 395.797
  30
0.0
  11
 356.047
  21
 396.162
  31
0.0
   0
LINE
   8
LEVEL001
   6
CONTINUOUS
  62
7
  10
 356.047
  20
 396.162
  30
0.0
  11
 356.252
  21
 396.535
  31
0.0
   0
LINE
   8
LEVEL001
   6
CONTINUOUS
  62
7
  10
 356.252
  20
 396.535
  30
0.0
  11
 356.333
  21
 396.911
  31
0.0
   0
LINE
   8
LEVEL001
   6
CONTINUOUS
  62
7
  10
 356.333
  20
 396.911
  30
0.0
  11
 356.334
  21
 397.010
  31
0.0
   0
LINE
   8
LEVEL001
   6
CONTINUOUS
  62
7
  10
 340.204
  20
 386.942
  30
0.0
  11
 339.867
  21
 395.827
  31
0.0
   0
LINE
   8
LEVEL001
   6
CONTINUOUS
  62
7
  10
 356.854
  20
 396.472
  30
0.0
  11
 357.191
  21
 387.587
  31
0.0
   0
LINE
   8
LEVEL001
   6
CONTINUOUS
  62
7
  10
 345.397
  20
 398.429
  30
0.0
  11
 351.143
  21
 398.647
  31
0.0
   0
LINE
   8
LEVEL001
   6
CONTINUOUS
  62
7
  10
 351.143
  20
 398.647
  30
0.0
  11
 354.085
  21
 396.925
  31
0.0
   0
LINE
   8
LEVEL001
   6
CONTINUOUS
  62
7
  10
 354.085
  20
 396.925
  30
0.0
  11
 351.282
  21
 394.985
  31
0.0
   0
LINE
   8
LEVEL001
   6
CONTINUOUS
  62
7
  10
 351.282
  20
 394.985
  30
0.0
  11
 345.536
  21
 394.767
  31
0.0
   0
LINE
   8
LEVEL001
   6
CONTINUOUS
  62
7
  10
 345.536
  20
 394.767
  30
0.0
  11
 342.593
  21
 396.489
  31
0.0
   0
LINE
   8
LEVEL001
   6
CONTINUOUS
  62
7
  10
 342.593
  20
 396.489
  30
0.0
  11
 345.397
  21
 398.429
  31
0.0
   0
LINE
   8
LEVEL001
   6
CONTINUOUS
  62
7
  10
 340.204
  20
 386.942
  30
0.0
  11
 340.285
  21
 386.548
  31
0.0
   0
LINE
   8
LEVEL001
   6
CONTINUOUS
  62
7
  10
 340.285
  20
 386.548
  30
0.0
  11
 340.498
  21
 386.165
  31
0.0
   0
LINE
   8
LEVEL001
   6
CONTINUOUS
  62
7
  10
 340.498
  20
 386.165
  30
0.0
  11
 340.838
  21
 385.799
  31
0.0
   0
LINE
   8
LEVEL001
   6
CONTINUOUS
  62
7
  10
 340.838
  20
 385.799
  30
0.0
  11
 341.301
  21
 385.456
  31
0.0
   0
LINE
   8
LEVEL001
   6
CONTINUOUS
  62
7
  10
 341.301
  20
 385.456
  30
0.0
  11
 341.880
  21
 385.142
  31
0.0
   0
LINE
   8
LEVEL001
   6
CONTINUOUS
  62
7
  10
 341.880
  20
 385.142
  30
0.0
  11
 342.565
  21
 384.860
  31
0.0
   0
LINE
   8
LEVEL001
   6
CONTINUOUS
  62
7
  10
 342.565
  20
 384.860
  30
0.0
  11
 343.346
  21
 384.616
  31
0.0
   0
LINE
   8
LEVEL001
   6
CONTINUOUS
  62
7
  10
 343.346
  20
 384.616
  30
0.0
  11
 344.210
  21
 384.413
  31
0.0
   0
LINE
   8
LEVEL001
   6
CONTINUOUS
  62
7
  10
 344.210
  20
 384.413
  30
0.0
  11
 345.144
  21
 384.255
  31
0.0
   0
LINE
   8
LEVEL001
   6
CONTINUOUS
  62
7
  10
 345.144
  20
 384.255
  30
0.0
  11
 346.134
  21
 384.143
  31
0.0
   0
LINE
   8
LEVEL001
   6
CONTINUOUS
  62
7
  10
 346.134
  20
 384.143
  30
0.0
  11
 347.164
  21
 384.081
  31
0.0
   0
LINE
   8
LEVEL001
   6
CONTINUOUS
  62
7
  10
 347.164
  20
 384.081
  30
0.0
  11
 348.217
  21
 384.068
  31
0.0
   0
LINE
   8
LEVEL001
   6
CONTINUOUS
  62
7
  10
 348.217
  20
 384.068
  30
0.0
  11
 349.278
  21
 384.105
  31
0.0
   0
LINE
   8
LEVEL001
   6
CONTINUOUS
  62
7
  10
 349.278
  20
 384.105
  30
0.0
  11
 350.330
  21
 384.191
  31
0.0
   0
LINE
   8
LEVEL001
   6
CONTINUOUS
  62
7
  10
 350.330
  20
 384.191
  30
0.0
  11
 351.357
  21
 384.325
  31
0.0
   0
LINE
   8
LEVEL001
   6
CONTINUOUS
  62
7
  10
 351.357
  20
 384.325
  30
0.0
  11
 352.342
  21
 384.505
  31
0.0
   0
LINE
   8
LEVEL001
   6
CONTINUOUS
  62
7
  10
 352.342
  20
 384.505
  30
0.0
  11
 353.270
  21
 384.729
  31
0.0
   0
LINE
   8
LEVEL001
   6
CONTINUOUS
  62
7
  10
 353.270
  20
 384.729
  30
0.0
  11
 354.127
  21
 384.991
  31
0.0
   0
LINE
   8
LEVEL001
   6
CONTINUOUS
  62
7
  10
 354.127
  20
 384.991
  30
0.0
  11
 354.899
  21
 385.290
  31
0.0
   0
LINE
   8
LEVEL001
   6
CONTINUOUS
  62
7
  10
 354.899
  20
 385.290
  30
0.0
  11
 355.575
  21
 385.619
  31
0.0
   0
LINE
   8
LEVEL001
   6
CONTINUOUS
  62
7
  10
 355.575
  20
 385.619
  30
0.0
  11
 356.143
  21
 385.973
  31
0.0
   0
LINE
   8
LEVEL001
   6
CONTINUOUS
  62
7
  10
 356.143
  20
 385.973
  30
0.0
  11
 356.595
  21
 386.348
  31
0.0
   0
LINE
   8
LEVEL001
   6
CONTINUOUS
  62
7
  10
 356.595
  20
 386.348
  30
0.0
  11
 356.923
  21
 386.737
  31
0.0
   0
LINE
   8
LEVEL001
   6
CONTINUOUS
  62
7
  10
 356.923
  20
 386.737
  30
0.0
  11
 357.124
  21
 387.135
  31
0.0
   0
LINE
   8
LEVEL001
   6
CONTINUOUS
  62
7
  10
 357.124
  20
 387.135
  30
0.0
  11
 357.192
  21
 387.534
  31
0.0
   0
LINE
   8
LEVEL001
   6
CONTINUOUS
  62
7
  10
 357.192
  20
 387.534
  30
0.0
  11
 357.191
  21
 387.587
  31
0.0
   0
LINE
   8
LEVEL001
   6
CONTINUOUS
  62
7
  10
 340.318
  20
 396.913
  30
0.0
  11
 340.770
  21
 397.426
  31
0.0
   0
LINE
   8
LEVEL001
   6
CONTINUOUS
  62
7
  10
 355.832
  20
 397.998
  30
0.0
  11
 356.321
  21
 397.521
  31
0.0
   0
LINE
   8
LEVEL001
   6
CONTINUOUS
  62
7
  10
 340.318
  20
 396.913
  30
0.0
  11
 340.040
  21
 396.520
  31
0.0
   0
LINE
   8
LEVEL001
   6
CONTINUOUS
  62
7
  10
 340.040
  20
 396.520
  30
0.0
  11
 339.892
  21
 396.121
  31
0.0
   0
LINE
   8
LEVEL001
   6
CONTINUOUS
  62
7
  10
 339.892
  20
 396.121
  30
0.0
  11
 339.875
  21
 395.723
  31
0.0
   0
LINE
   8
LEVEL001
   6
CONTINUOUS
  62
7
  10
 339.875
  20
 395.723
  30
0.0
  11
 339.991
  21
 395.331
  31
0.0
   0
LINE
   8
LEVEL001
   6
CONTINUOUS
  62
7
  10
 339.991
  20
 395.331
  30
0.0
  11
 340.238
  21
 394.952
  31
0.0
   0
LINE
   8
LEVEL001
   6
CONTINUOUS
  62
7
  10
 340.238
  20
 394.952
  30
0.0
  11
 340.611
  21
 394.591
  31
0.0
   0
LINE
   8
LEVEL001
   6
CONTINUOUS
  62
7
  10
 340.611
  20
 394.591
  30
0.0
  11
 341.105
  21
 394.255
  31
0.0
   0
LINE
   8
LEVEL001
   6
CONTINUOUS
  62
7
  10
 341.105
  20
 394.255
  30
0.0
  11
 341.713
  21
 393.949
  31
0.0
   0
LINE
   8
LEVEL001
   6
CONTINUOUS
  62
7
  10
 341.713
  20
 393.949
  30
0.0
  11
 342.424
  21
 393.677
  31
0.0
   0
LINE
   8
LEVEL001
   6
CONTINUOUS
  62
7
  10
 342.424
  20
 393.677
  30
0.0
  11
 343.228
  21
 393.443
  31
0.0
   0
LINE
   8
LEVEL001
   6
CONTINUOUS
  62
7
  10
 343.228
  20
 393.443
  30
0.0
  11
 344.112
  21
 393.252
  31
0.0
   0
LINE
   8
LEVEL001
   6
CONTINUOUS
  62
7
  10
 344.112
  20
 393.252
  30
0.0
  11
 345.062
  21
 393.106
  31
0.0
   0
LINE
   8
LEVEL001
   6
CONTINUOUS
  62
7
  10
 345.062
  20
 393.106
  30
0.0
  11
 346.064
  21
 393.007
  31
0.0
   0
LINE
   8
LEVEL001
   6
CONTINUOUS
  62
7
  10
 346.064
  20
 393.007
  30
0.0
  11
 347.102
  21
 392.957
  31
0.0
   0
LINE
   8
LEVEL001
   6
CONTINUOUS
  62
7
  10
 347.102
  20
 392.957
  30
0.0
  11
 348.159
  21
 392.957
  31
0.0
   0
LINE
   8
LEVEL001
   6
CONTINUOUS
  62
7
  10
 348.159
  20
 392.957
  30
0.0
  11
 349.219
  21
 393.007
  31
0.0
   0
LINE
   8
LEVEL001
   6
CONTINUOUS
  62
7
  10
 349.219
  20
 393.007
  30
0.0
  11
 350.266
  21
 393.107
  31
0.0
   0
LINE
   8
LEVEL001
   6
CONTINUOUS
  62
7
  10
 350.266
  20
 393.107
  30
0.0
  11
 351.283
  21
 393.253
  31
0.0
   0
LINE
   8
LEVEL001
   6
CONTINUOUS
  62
7
  10
 351.283
  20
 393.253
  30
0.0
  11
 352.255
  21
 393.445
  31
0.0
   0
LINE
   8
LEVEL001
   6
CONTINUOUS
  62
7
  10
 352.255
  20
 393.445
  30
0.0
  11
 353.166
  21
 393.679
  31
0.0
   0
LINE
   8
LEVEL001
   6
CONTINUOUS
  62
7
  10
 353.166
  20
 393.679
  30
0.0
  11
 354.002
  21
 393.951
  31
0.0
   0
LINE
   8
LEVEL001
   6
CONTINUOUS
  62
7
  10
 354.002
  20
 393.951
  30
0.0
  11
 354.749
  21
 394.258
  31
0.0
   0
LINE
   8
LEVEL001
   6
CONTINUOUS
  62
7
  10
 354.749
  20
 394.258
  30
0.0
  11
 355.398
  21
 394.594
  31
0.0
   0
LINE
   8
LEVEL001
   6
CONTINUOUS
  62
7
  10
 355.398
  20
 394.594
  30
0.0
  11
 355.936
  21
 394.955
  31
0.0
   0
LINE
   8
LEVEL001
   6
CONTINUOUS
  62
7
  10
 355.936
  20
 394.955
  30
0.0
  11
 356.356
  21
 395.334
  31
0.0
   0
LINE
   8
LEVEL001
   6
CONTINUOUS
  62
7
  10
 356.356
  20
 395.334
  30
0.0
  11
 356.651
  21
 395.726
  31
0.0
   0
LINE
   8
LEVEL001
   6
CONTINUOUS
  62
7
  10
 356.651
  20
 395.726
  30
0.0
  11
 356.817
  21
 396.124
  31
0.0
   0
LINE
   8
LEVEL001
   6
CONTINUOUS
  62
7
  10
 356.817
  20
 396.124
  30
0.0
  11
 356.851
  21
 396.523
  31
0.0
   0
LINE
   8
LEVEL001
   6
CONTINUOUS
  62
7
  10
 356.851
  20
 396.523
  30
0.0
  11
 356.753
  21
 396.916
  31
0.0
   0
LINE
   8
LEVEL001
   6
CONTINUOUS
  62
7
  10
 356.753
  20
 396.916
  30
0.0
  11
 356.523
  21
 397.297
  31
0.0
   0
LINE
   8
LEVEL001
   6
CONTINUOUS
  62
7
  10
 356.523
  20
 397.297
  30
0.0
  11
 356.321
  21
 397.521
  31
0.0
   0
LINE
   8
LEVEL001
   6
CONTINUOUS
  62
7
  10
 380.351
  20
 397.010
  30
0.0
  11
 380.274
  21
 397.381
  31
0.0
   0
LINE
   8
LEVEL001
   6
CONTINUOUS
  62
7
  10
 380.274
  20
 397.381
  30
0.0
  11
 380.074
  21
 397.742
  31
0.0
   0
LINE
   8
LEVEL001
   6
CONTINUOUS
  62
7
  10
 380.074
  20
 397.742
  30
0.0
  11
 379.754
  21
 398.086
  31
0.0
   0
LINE
   8
LEVEL001
   6
CONTINUOUS
  62
7
  10
 379.754
  20
 398.086
  30
0.0
  11
 379.318
  21
 398.409
  31
0.0
   0
LINE
   8
LEVEL001
   6
CONTINUOUS
  62
7
  10
 379.318
  20
 398.409
  30
0.0
  11
 378.773
  21
 398.705
  31
0.0
   0
LINE
   8
LEVEL001
   6
CONTINUOUS
  62
7
  10
 378.773
  20
 398.705
  30
0.0
  11
 378.128
  21
 398.970
  31
0.0
   0
LINE
   8
LEVEL001
   6
CONTINUOUS
  62
7
  10
 378.128
  20
 398.970
  30
0.0
  11
 377.394
  21
 399.200
  31
0.0
   0
LINE
   8
LEVEL001
   6
CONTINUOUS
  62
7
  10
 377.394
  20
 399.200
  30
0.0
  11
 376.580
  21
 399.391
  31
0.0
   0
LINE
   8
LEVEL001
   6
CONTINUOUS
  62
7
  10
 376.580
  20
 399.391
  30
0.0
  11
 375.701
  21
 399.540
  31
0.0
   0
LINE
   8
LEVEL001
   6
CONTINUOUS
  62
7
  10
 375.701
  20
 399.540
  30
0.0
  11
 374.770
  21
 399.645
  31
0.0
   0
LINE
   8
LEVEL001
   6
CONTINUOUS
  62
7
  10
 374.770
  20
 399.645
  30
0.0
  11
 373.800
  21
 399.704
  31
0.0
   0
LINE
   8
LEVEL001
   6
CONTINUOUS
  62
7
  10
 373.800
  20
 399.704
  30
0.0
  11
 372.809
  21
 399.716
  31
0.0
   0
LINE
   8
LEVEL001
   6
CONTINUOUS
  62
7
  10
 372.809
  20
 399.716
  30
0.0
  11
 371.810
  21
 399.681
  31
0.0
   0
LINE
   8
LEVEL001
   6
CONTINUOUS
  62
7
  10
 371.810
  20
 399.681
  30
0.0
  11
 370.820
  21
 399.600
  31
0.0
   0
LINE
   8
LEVEL001
   6
CONTINUOUS
  62
7
  10
 370.820
  20
 399.600
  30
0.0
  11
 369.854
  21
 399.473
  31
0.0
   0
LINE
   8
LEVEL001
   6
CONTINUOUS
  62
7
  10
 369.854
  20
 399.473
  30
0.0
  11
 368.926
  21
 399.304
  31
0.0
   0
LINE
   8
LEVEL001
   6
CONTINUOUS
  62
7
  10
 368.926
  20
 399.304
  30
0.0
  11
 368.053
  21
 399.094
  31
0.0
   0
LINE
   8
LEVEL001
   6
CONTINUOUS
  62
7
  10
 368.053
  20
 399.094
  30
0.0
  11
 367.246
  21
 398.847
  31
0.0
   0
LINE
   8
LEVEL001
   6
CONTINUOUS
  62
7
  10
 367.246
  20
 398.847
  30
0.0
  11
 366.520
  21
 398.566
  31
0.0
   0
LINE
   8
LEVEL001
   6
CONTINUOUS
  62
7
  10
 366.520
  20
 398.566
  30
0.0
  11
 365.884
  21
 398.256
  31
0.0
   0
LINE
   8
LEVEL001
   6
CONTINUOUS
  62
7
  10
 365.884
  20
 398.256
  30
0.0
  11
 365.349
  21
 397.923
  31
0.0
   0
LINE
   8
LEVEL001
   6
CONTINUOUS
  62
7
  10
 365.349
  20
 397.923
  30
0.0
  11
 364.924
  21
 397.570
  31
0.0
   0
LINE
   8
LEVEL001
   6
CONTINUOUS
  62
7
  10
 364.924
  20
 397.570
  30
0.0
  11
 364.615
  21
 397.203
  31
0.0
   0
LINE
   8
LEVEL001
   6
CONTINUOUS
  62
7
  10
 364.615
  20
 397.203
  30
0.0
  11
 364.426
  21
 396.829
  31
0.0
   0
LINE
   8
LEVEL001
   6
CONTINUOUS
  62
7
  10
 364.426
  20
 396.829
  30
0.0
  11
 364.362
  21
 396.454
  31
0.0
   0
LINE
   8
LEVEL001
   6
CONTINUOUS
  62
7
  10
 364.362
  20
 396.454
  30
0.0
  11
 364.422
  21
 396.082
  31
0.0
   0
LINE
   8
LEVEL001
   6
CONTINUOUS
  62
7
  10
 364.422
  20
 396.082
  30
0.0
  11
 364.605
  21
 395.719
  31
0.0
   0
LINE
   8
LEVEL001
   6
CONTINUOUS
  62
7
  10
 364.605
  20
 395.719
  30
0.0
  11
 364.910
  21
 395.373
  31
0.0
   0
LINE
   8
LEVEL001
   6
CONTINUOUS
  62
7
  10
 364.910
  20
 395.373
  30
0.0
  11
 365.331
  21
 395.047
  31
0.0
   0
LINE
   8
LEVEL001
   6
CONTINUOUS
  62
7
  10
 365.331
  20
 395.047
  30
0.0
  11
 365.862
  21
 394.747
  31
0.0
   0
LINE
   8
LEVEL001
   6
CONTINUOUS
  62
7
  10
 365.862
  20
 394.747
  30
0.0
  11
 366.494
  21
 394.477
  31
0.0
   0
LINE
   8
LEVEL001
   6
CONTINUOUS
  62
7
  10
 366.494
  20
 394.477
  30
0.0
  11
 367.217
  21
 394.242
  31
0.0
   0
LINE
   8
LEVEL001
   6
CONTINUOUS
  62
7
  10
 367.217
  20
 394.242
  30
0.0
  11
 368.021
  21
 394.046
  31
0.0
   0
LINE
   8
LEVEL001
   6
CONTINUOUS
  62
7
  10
 368.021
  20
 394.046
  30
0.0
  11
 368.892
  21
 393.892
  31
0.0
   0
LINE
   8
LEVEL001
   6
CONTINUOUS
  62
7
  10
 368.892
  20
 393.892
  30
0.0
  11
 369.818
  21
 393.781
  31
0.0
   0
LINE
   8
LEVEL001
   6
CONTINUOUS
  62
7
  10
 369.818
  20
 393.781
  30
0.0
  11
 370.782
  21
 393.716
  31
0.0
   0
LINE
   8
LEVEL001
   6
CONTINUOUS
  62
7
  10
 370.782
  20
 393.716
  30
0.0
  11
 371.772
  21
 393.697
  31
0.0
   0
LINE
   8
LEVEL001
   6
CONTINUOUS
  62
7
  10
 371.772
  20
 393.697
  30
0.0
  11
 372.771
  21
 393.726
  31
0.0
   0
LINE
   8
LEVEL001
   6
CONTINUOUS
  62
7
  10
 372.771
  20
 393.726
  30
0.0
  11
 373.763
  21
 393.801
  31
0.0
   0
LINE
   8
LEVEL001
   6
CONTINUOUS
  62
7
  10
 373.763
  20
 393.801
  30
0.0
  11
 374.733
  21
 393.921
  31
0.0
   0
LINE
   8
LEVEL001
   6
CONTINUOUS
  62
7
  10
 374.733
  20
 393.921
  30
0.0
  11
 375.666
  21
 394.085
  31
0.0
   0
LINE
   8
LEVEL001
   6
CONTINUOUS
  62
7
  10
 375.666
  20
 394.085
  30
0.0
  11
 376.548
  21
 394.290
  31
0.0
   0
LINE
   8
LEVEL001
   6
CONTINUOUS
  62
7
  10
 376.548
  20
 394.290
  30
0.0
  11
 377.364
  21
 394.533
  31
0.0
   0
LINE
   8
LEVEL001
   6
CONTINUOUS
  62
7
  10
 377.364
  20
 394.533
  30
0.0
  11
 378.102
  21
 394.809
  31
0.0
   0
LINE
   8
LEVEL001
   6
CONTINUOUS
  62
7
  10
 378.102
  20
 394.809
  30
0.0
  11
 378.750
  21
 395.115
  31
0.0
   0
LINE
   8
LEVEL001
   6
CONTINUOUS
  62
7
  10
 378.750
  20
 395.115
  30
0.0
  11
 379.299
  21
 395.446
  31
0.0
   0
LINE
   8
LEVEL001
   6
CONTINUOUS
  62
7
  10
 379.299
  20
 395.446
  30
0.0
  11
 379.739
  21
 395.797
  31
0.0
   0
LINE
   8
LEVEL001
   6
CONTINUOUS
  62
7
  10
 379.739
  20
 395.797
  30
0.0
  11
 380.064
  21
 396.162
  31
0.0
   0
LINE
   8
LEVEL001
   6
CONTINUOUS
  62
7
  10
 380.064
  20
 396.162
  30
0.0
  11
 380.269
  21
 396.535
  31
0.0
   0
LINE
   8
LEVEL001
   6
CONTINUOUS
  62
7
  10
 380.269
  20
 396.535
  30
0.0
  11
 380.350
  21
 396.911
  31
0.0
   0
LINE
   8
LEVEL001
   6
CONTINUOUS
  62
7
  10
 380.350
  20
 396.911
  30
0.0
  11
 380.351
  21
 397.010
  31
0.0
   0
LINE
   8
LEVEL001
   6
CONTINUOUS
  62
7
  10
 364.221
  20
 386.942
  30
0.0
  11
 363.884
  21
 395.827
  31
0.0
   0
LINE
   8
LEVEL001
   6
CONTINUOUS
  62
7
  10
 380.872
  20
 396.472
  30
0.0
  11
 381.209
  21
 387.587
  31
0.0
   0
LINE
   8
LEVEL001
   6
CONTINUOUS
  62
7
  10
 369.414
  20
 398.429
  30
0.0
  11
 375.160
  21
 398.647
  31
0.0
   0
LINE
   8
LEVEL001
   6
CONTINUOUS
  62
7
  10
 375.160
  20
 398.647
  30
0.0
  11
 378.102
  21
 396.925
  31
0.0
   0
LINE
   8
LEVEL001
   6
CONTINUOUS
  62
7
  10
 378.102
  20
 396.925
  30
0.0
  11
 375.299
  21
 394.985
  31
0.0
   0
LINE
   8
LEVEL001
   6
CONTINUOUS
  62
7
  10
 375.299
  20
 394.985
  30
0.0
  11
 369.553
  21
 394.767
  31
0.0
   0
LINE
   8
LEVEL001
   6
CONTINUOUS
  62
7
  10
 369.553
  20
 394.767
  30
0.0
  11
 366.611
  21
 396.489
  31
0.0
   0
LINE
   8
LEVEL001
   6
CONTINUOUS
  62
7
  10
 366.611
  20
 396.489
  30
0.0
  11
 369.414
  21
 398.429
  31
0.0
   0
LINE
   8
LEVEL001
   6
CONTINUOUS
  62
7
  10
 364.221
  20
 386.942
  30
0.0
  11
 364.302
  21
 386.548
  31
0.0
   0
LINE
   8
LEVEL001
   6
CONTINUOUS
  62
7
  10
 364.302
  20
 386.548
  30
0.0
  11
 364.515
  21
 386.165
  31
0.0
   0
LINE
   8
LEVEL001
   6
CONTINUOUS
  62
7
  10
 364.515
  20
 386.165
  30
0.0
  11
 364.855
  21
 385.799
  31
0.0
   0
LINE
   8
LEVEL001
   6
CONTINUOUS
  62
7
  10
 364.855
  20
 385.799
  30
0.0
  11
 365.319
  21
 385.456
  31
0.0
   0
LINE
   8
LEVEL001
   6
CONTINUOUS
  62
7
  10
 365.319
  20
 385.456
  30
0.0
  11
 365.897
  21
 385.142
  31
0.0
   0
LINE
   8
LEVEL001
   6
CONTINUOUS
  62
7
  10
 365.897
  20
 385.142
  30
0.0
  11
 366.582
  21
 384.860
  31
0.0
   0
LINE
   8
LEVEL001
   6
CONTINUOUS
  62
7
  10
 366.582
  20
 384.860
  30
0.0
  11
 367.363
  21
 384.616
  31
0.0
   0
LINE
   8
LEVEL001
   6
CONTINUOUS
  62
7
  10
 367.363
  20
 384.616
  30
0.0
  11
 368.227
  21
 384.413
  31
0.0
   0
LINE
   8
LEVEL001
   6
CONTINUOUS
  62
7
  10
 368.227
  20
 384.413
  30
0.0
  11
 369.161
  21
 384.255
  31
0.0
   0
LINE
   8
LEVEL001
   6
CONTINUOUS
  62
7
  10
 369.161
  20
 384.255
  30
0.0
  11
 370.151
  21
 384.143
  31
0.0
   0
LINE
   8
LEVEL001
   6
CONTINUOUS
  62
7
  10
 370.151
  20
 384.143
  30
0.0
  11
 371.181
  21
 384.081
  31
0.0
   0
LINE
   8
LEVEL001
   6
CONTINUOUS
  62
7
  10
 371.181
  20
 384.081
  30
0.0
  11
 372.234
  21
 384.068
  31
0.0
   0
LINE
   8
LEVEL001
   6
CONTINUOUS
  62
7
  10
 372.234
  20
 384.068
  30
0.0
  11
 373.296
  21
 384.105
  31
0.0
   0
LINE
   8
LEVEL001
   6
CONTINUOUS
  62
7
  10
 373.296
  20
 384.105
  30
0.0
  11
 374.348
  21
 384.191
  31
0.0
   0
LINE
   8
LEVEL001
   6
CONTINUOUS
  62
7
  10
 374.348
  20
 384.191
  30
0.0
  11
 375.374
  21
 384.325
  31
0.0
   0
LINE
   8
LEVEL001
   6
CONTINUOUS
  62
7
  10
 375.374
  20
 384.325
  30
0.0
  11
 376.359
  21
 384.505
  31
0.0
   0
LINE
   8
LEVEL001
   6
CONTINUOUS
  62
7
  10
 376.359
  20
 384.505
  30
0.0
  11
 377.288
  21
 384.729
  31
0.0
   0
LINE
   8
LEVEL001
   6
CONTINUOUS
  62
7
  10
 377.288
  20
 384.729
  30
0.0
  11
 378.144
  21
 384.991
  31
0.0
   0
LINE
   8
LEVEL001
   6
CONTINUOUS
  62
7
  10
 378.144
  20
 384.991
  30
0.0
  11
 378.917
  21
 385.290
  31
0.0
   0
LINE
   8
LEVEL001
   6
CONTINUOUS
  62
7
  10
 378.917
  20
 385.290
  30
0.0
  11
 379.592
  21
 385.619
  31
0.0
   0
LINE
   8
LEVEL001
   6
CONTINUOUS
  62
7
  10
 379.592
  20
 385.619
  30
0.0
  11
 380.160
  21
 385.973
  31
0.0
   0
LINE
   8
LEVEL001
   6
CONTINUOUS
  62
7
  10
 380.160
  20
 385.973
  30
0.0
  11
 380.612
  21
 386.348
  31
0.0
   0
LINE
   8
LEVEL001
   6
CONTINUOUS
  62
7
  10
 380.612
  20
 386.348
  30
0.0
  11
 380.940
  21
 386.737
  31
0.0
   0
LINE
   8
LEVEL001
   6
CONTINUOUS
  62
7
  10
 380.940
  20
 386.737
  30
0.0
  11
 381.141
  21
 387.135
  31
0.0
   0
LINE
   8
LEVEL001
   6
CONTINUOUS
  62
7
  10
 381.141
  20
 387.135
  30
0.0
  11
 381.210
  21
 387.534
  31
0.0
   0
LINE
   8
LEVEL001
   6
CONTINUOUS
  62
7
  10
 381.210
  20
 387.534
  30
0.0
  11
 381.209
  21
 387.587
  31
0.0
   0
LINE
   8
LEVEL001
   6
CONTINUOUS
  62
7
  10
 364.336
  20
 396.913
  30
0.0
  11
 364.788
  21
 397.426
  31
0.0
   0
LINE
   8
LEVEL001
   6
CONTINUOUS
  62
7
  10
 379.849
  20
 397.998
  30
0.0
  11
 380.339
  21
 397.521
  31
0.0
   0
LINE
   8
LEVEL001
   6
CONTINUOUS
  62
7
  10
 364.336
  20
 396.913
  30
0.0
  11
 364.057
  21
 396.520
  31
0.0
   0
LINE
   8
LEVEL001
   6
CONTINUOUS
  62
7
  10
 364.057
  20
 396.520
  30
0.0
  11
 363.909
  21
 396.121
  31
0.0
   0
LINE
   8
LEVEL001
   6
CONTINUOUS
  62
7
  10
 363.909
  20
 396.121
  30
0.0
  11
 363.892
  21
 395.723
  31
0.0
   0
LINE
   8
LEVEL001
   6
CONTINUOUS
  62
7
  10
 363.892
  20
 395.723
  30
0.0
  11
 364.008
  21
 395.331
  31
0.0
   0
LINE
   8
LEVEL001
   6
CONTINUOUS
  62
7
  10
 364.008
  20
 395.331
  30
0.0
  11
 364.255
  21
 394.952
  31
0.0
   0
LINE
   8
LEVEL001
   6
CONTINUOUS
  62
7
  10
 364.255
  20
 394.952
  30
0.0
  11
 364.628
  21
 394.591
  31
0.0
   0
LINE
   8
LEVEL001
   6
CONTINUOUS
  62
7
  10
 364.628
  20
 394.591
  30
0.0
  11
 365.123
  21
 394.255
  31
0.0
   0
LINE
   8
LEVEL001
   6
CONTINUOUS
  62
7
  10
 365.123
  20
 394.255
  30
0.0
  11
 365.730
  21
 393.949
  31
0.0
   0
LINE
   8
LEVEL001
   6
CONTINUOUS
  62
7
  10
 365.730
  20
 393.949
  30
0.0
  11
 366.441
  21
 393.677
  31
0.0
   0
LINE
   8
LEVEL001
   6
CONTINUOUS
  62
7
  10
 366.441
  20
 393.677
  30
0.0
  11
 367.245
  21
 393.443
  31
0.0
   0
LINE
   8
LEVEL001
   6
CONTINUOUS
  62
7
  10
 367.245
  20
 393.443
  30
0.0
  11
 368.129
  21
 393.252
  31
0.0
   0
LINE
   8
LEVEL001
   6
CONTINUOUS
  62
7
  10
 368.129
  20
 393.252
  30
0.0
  11
 369.079
  21
 393.106
  31
0.0
   0
LINE
   8
LEVEL001
   6
CONTINUOUS
  62
7
  10
 369.079
  20
 393.106
  30
0.0
  11
 370.081
  21
 393.007
  31
0.0
   0
LINE
   8
LEVEL001
   6
CONTINUOUS
  62
7
  10
 370.081
  20
 393.007
  30
0.0
  11
 371.119
  21
 392.957
  31
0.0
   0
LINE
   8
LEVEL001
   6
CONTINUOUS
  62
7
  10
 371.119
  20
 392.957
  30
0.0
  11
 372.176
  21
 392.957
  31
0.0
   0
LINE
   8
LEVEL001
   6
CONTINUOUS
  62
7
  10
 372.176
  20
 392.957
  30
0.0
  11
 373.236
  21
 393.007
  31
0.0
   0
LINE
   8
LEVEL001
   6
CONTINUOUS
  62
7
  10
 373.236
  20
 393.007
  30
0.0
  11
 374.283
  21
 393.107
  31
0.0
   0
LINE
   8
LEVEL001
   6
CONTINUOUS
  62
7
  10
 374.283
  20
 393.107
  30
0.0
  11
 375.301
  21
 393.253
  31
0.0
   0
LINE
   8
LEVEL001
   6
CONTINUOUS
  62
7
  10
 375.301
  20
 393.253
  30
0.0
  11
 376.272
  21
 393.445
  31
0.0
   0
LINE
   8
LEVEL001
   6
CONTINUOUS
  62
7
  10
 376.272
  20
 393.445
  30
0.0
  11
 377.183
  21
 393.679
  31
0.0
   0
LINE
   8
LEVEL001
   6
CONTINUOUS
  62
7
  10
 377.183
  20
 393.679
  30
0.0
  11
 378.019
  21
 393.951
  31
0.0
   0
LINE
   8
LEVEL001
   6
CONTINUOUS
  62
7
  10
 378.019
  20
 393.951
  30
0.0
  11
 378.767
  21
 394.258
  31
0.0
   0
LINE
   8
LEVEL001
   6
CONTINUOUS
  62
7
  10
 378.767
  20
 394.258
  30
0.0
  11
 379.415
  21
 394.594
  31
0.0
   0
LINE
   8
LEVEL001
   6
CONTINUOUS
  62
7
  10
 379.415
  20
 394.594
  30
0.0
  11
 379.953
  21
 394.955
  31
0.0
   0
LINE
   8
LEVEL001
   6
CONTINUOUS
  62
7
  10
 379.953
  20
 394.955
  30
0.0
  11
 380.373
  21
 395.334
  31
0.0
   0
LINE
   8
LEVEL001
   6
CONTINUOUS
  62
7
  10
 380.373
  20
 395.334
  30
0.0
  11
 380.669
  21
 395.726
  31
0.0
   0
LINE
   8
LEVEL001
   6
CONTINUOUS
  62
7
  10
 380.669
  20
 395.726
  30
0.0
  11
 380.835
  21
 396.124
  31
0.0
   0
LINE
   8
LEVEL001
   6
CONTINUOUS
  62
7
  10
 380.835
  20
 396.124
  30
0.0
  11
 380.869
  21
 396.523
  31
0.0
   0
LINE
   8
LEVEL001
   6
CONTINUOUS
  62
7
  10
 380.869
  20
 396.523
  30
0.0
  11
 380.770
  21
 396.916
  31
0.0
   0
LINE
   8
LEVEL001
   6
CONTINUOUS
  62
7
  10
 380.770
  20
 396.916
  30
0.0
  11
 380.541
  21
 397.297
  31
0.0
   0
LINE
   8
LEVEL001
   6
CONTINUOUS
  62
7
  10
 380.541
  20
 397.297
  30
0.0
  11
 380.339
  21
 397.521
  31
0.0
   0
LINE
   8
LEVEL001
   6
CONTINUOUS
  62
7
  10
 377.824
  20
 399.073
  30
0.0
  11
 378.800
  21
 400.169
  31
0.0
   0
LINE
   8
LEVEL001
   6
CONTINUOUS
  62
7
  10
 378.800
  20
 400.169
  30
0.0
  11
 379.408
  21
 401.289
  31
0.0
   0
LINE
   8
LEVEL001
   6
CONTINUOUS
  62
7
  10
 379.408
  20
 401.289
  30
0.0
  11
 379.637
  21
 402.416
  31
0.0
   0
LINE
   8
LEVEL001
   6
CONTINUOUS
  62
7
  10
 379.637
  20
 402.416
  30
0.0
  11
 379.636
  21
 402.652
  31
0.0
   0
LINE
   8
LEVEL001
   6
CONTINUOUS
  62
7
  10
 339.007
  20
 394.439
  30
0.0
  11
 339.929
  21
 394.187
  31
0.0
   0
LINE
   8
LEVEL001
   6
CONTINUOUS
  62
7
  10
 356.993
  20
 392.824
  30
0.0
  11
 360.022
  21
 393.078
  31
0.0
   0
LINE
   8
LEVEL001
   6
CONTINUOUS
  62
7
  10
 360.022
  20
 393.078
  30
0.0
  11
 362.976
  21
 393.466
  31
0.0
   0
LINE
   8
LEVEL001
   6
CONTINUOUS
  62
7
  10
 362.976
  20
 393.466
  30
0.0
  11
 363.967
  21
 393.630
  31
0.0
   0
LINE
   8
LEVEL001
   6
CONTINUOUS
  62
7
  10
 354.898
  20
 398.636
  30
0.0
  11
 359.571
  21
 398.813
  31
0.0
   0
LINE
   8
LEVEL001
   6
CONTINUOUS
  62
7
  10
 359.571
  20
 398.813
  30
0.0
  11
 366.579
  21
 412.088
  31
0.0
   0
LINE
   8
LEVEL001
   6
CONTINUOUS
  62
7
  10
 366.579
  20
 412.088
  30
0.0
  11
 359.584
  21
 411.823
  31
0.0
   0
LINE
   8
LEVEL001
   6
CONTINUOUS
  62
7
  10
 359.584
  20
 411.823
  30
0.0
  11
 353.924
  21
 401.101
  31
0.0
   0
LINE
   8
LEVEL001
   6
CONTINUOUS
  62
7
  10
 353.924
  20
 401.101
  30
0.0
  11
 343.432
  21
 400.703
  31
0.0
   0
LINE
   8
LEVEL001
   6
CONTINUOUS
  62
7
  10
 343.432
  20
 400.703
  30
0.0
  11
 342.241
  21
 398.448
  31
0.0
   0
LINE
   8
LEVEL001
   6
CONTINUOUS
  62
7
  10
 933.427
  20
 300.000
  30
0.0
  11
 931.302
  21
 355.992
  31
0.0
   0
ARC
   8
LEVEL001
   6
CONTINUOUS
  62
7
  10
 926.306
  20
 355.802
  30
0.0
  40
 5.00000
  50
 2.17291
  51
 89.4891
   0
LINE
   8
LEVEL001
   6
CONTINUOUS
  62
7
  10
 977.035
  20
 311.161
  30
0.0
  11
 933.161
  21
 306.995
  31
0.0
   0
TEXT
   8
LEVEL003
  62
3
  10
 180.000
  20
 920.000
  30
0.0
  40
 16.0000
   1
レリースバルブ
   7
STANDARD
   0
TEXT
   8
LEVEL003
  62
3
  10
 420.000
  20
 920.000
  30
0.0
  40
 16.0000
   1
高圧安全弁
   7
STANDARD
   0
TEXT
   8
LEVEL003
  62
3
  10
 440.000
  20
 720.000
  30
0.0
  40
 16.0000
   1
サクション＆デリベリ（低圧）
   7
STANDARD
   0
TEXT
   8
LEVEL003
  62
3
  10
 440.000
  20
 680.000
  30
0.0
  40
 16.0000
   1
サクション＆デリベリ（高圧）
   7
STANDARD
   0
LINE
   8
LEVEL003
   6
CONTINUOUS
  62
3
  10
 313.180
  20
 889.030
  30
0.0
  11
 299.946
  21
 918.806
  31
0.0
   0
LINE
   8
LEVEL003
   6
CONTINUOUS
  62
3
  10
 299.946
  20
 918.806
  30
0.0
  11
 178.860
  21
 918.806
  31
0.0
   0
LINE
   8
LEVEL003
   6
CONTINUOUS
  62
3
  10
 313.180
  20
 889.030
  30
0.0
  11
 310.240
  21
 900.856
  31
0.0
   0
LINE
   8
LEVEL003
   6
CONTINUOUS
  62
3
  10
 313.180
  20
 889.030
  30
0.0
  11
 306.373
  21
 899.137
  31
0.0
   0
TEXT
   8
LEVEL003
  62
3
  10
 420.000
  20
 880.000
  30
0.0
  40
 16.0000
   1
アンロ－ドバルブ
   7
STANDARD
   0
LINE
   8
LEVEL003
   6
CONTINUOUS
  62
3
  10
 354.204
  20
 848.007
  30
0.0
  11
 413.754
  21
 920.129
  31
0.0
   0
LINE
   8
LEVEL003
   6
CONTINUOUS
  62
3
  10
 413.754
  20
 920.129
  30
0.0
  11
 506.388
  21
 920.129
  31
0.0
   0
LINE
   8
LEVEL003
   6
CONTINUOUS
  62
3
  10
 354.204
  20
 848.007
  30
0.0
  11
 363.476
  21
 855.913
  31
0.0
   0
LINE
   8
LEVEL003
   6
CONTINUOUS
  62
3
  10
 354.204
  20
 848.007
  30
0.0
  11
 360.212
  21
 858.607
  31
0.0
   0
LINE
   8
LEVEL003
   6
CONTINUOUS
  62
3
  10
 383.317
  20
 847.345
  30
0.0
  11
 418.386
  21
 878.444
  31
0.0
   0
LINE
   8
LEVEL003
   6
CONTINUOUS
  62
3
  10
 418.386
  20
 878.444
  30
0.0
  11
 554.029
  21
 878.444
  31
0.0
   0
LINE
   8
LEVEL003
   6
CONTINUOUS
  62
3
  10
 383.317
  20
 847.345
  30
0.0
  11
 393.699
  21
 853.724
  31
0.0
   0
LINE
   8
LEVEL003
   6
CONTINUOUS
  62
3
  10
 383.317
  20
 847.345
  30
0.0
  11
 390.892
  21
 856.890
  31
0.0
   0
LINE
   8
LEVEL003
   6
CONTINUOUS
  62
3
  10
 380.009
  20
 754.711
  30
0.0
  11
 434.928
  21
 718.980
  31
0.0
   0
LINE
   8
LEVEL003
   6
CONTINUOUS
  62
3
  10
 434.928
  20
 718.980
  30
0.0
  11
 658.573
  21
 718.980
  31
0.0
   0
LINE
   8
LEVEL003
   6
CONTINUOUS
  62
3
  10
 380.009
  20
 754.711
  30
0.0
  11
 388.913
  21
 746.393
  31
0.0
   0
LINE
   8
LEVEL003
   6
CONTINUOUS
  62
3
  10
 380.009
  20
 754.711
  30
0.0
  11
 391.221
  21
 749.940
  31
0.0
   0
LINE
   8
LEVEL003
   6
CONTINUOUS
  62
3
  10
 355.527
  20
 754.711
  30
0.0
  11
 438.236
  21
 677.957
  31
0.0
   0
LINE
   8
LEVEL003
   6
CONTINUOUS
  62
3
  10
 438.236
  20
 677.957
  30
0.0
  11
 657.912
  21
 677.957
  31
0.0
   0
LINE
   8
LEVEL003
   6
CONTINUOUS
  62
3
  10
 355.527
  20
 754.711
  30
0.0
  11
 362.884
  21
 744.997
  31
0.0
   0
LINE
   8
LEVEL003
   6
CONTINUOUS
  62
3
  10
 355.527
  20
 754.711
  30
0.0
  11
 365.762
  21
 748.099
  31
0.0
   0
TEXT
   8
LEVEL003
  62
3
  10
 960.000
  20
 700.000
  30
0.0
  40
 16.0000
   1
エア抜きプラグ
   7
STANDARD
   0
TEXT
   8
LEVEL003
  62
3
  10
 960.000
  20
 678.667
  30
0.0
  40
 16.0000
   1
検油棒及び給油口兼用
   7
STANDARD
   0
LINE
   8
LEVEL003
   6
CONTINUOUS
  62
3
  10
 943.898
  20
 761.761
  30
0.0
  11
 954.453
  21
 697.903
  31
0.0
   0
LINE
   8
LEVEL003
   6
CONTINUOUS
  62
3
  10
 954.453
  20
 697.903
  30
0.0
  11
 1109.61
  21
 697.903
  31
0.0
   0
LINE
   8
LEVEL003
   6
CONTINUOUS
  62
3
  10
 943.898
  20
 761.761
  30
0.0
  11
 943.767
  21
 749.577
  31
0.0
   0
LINE
   8
LEVEL003
   6
CONTINUOUS
  62
3
  10
 943.898
  20
 761.761
  30
0.0
  11
 947.943
  21
 750.267
  31
0.0
   0
TEXT
   8
LEVEL003
  62
3
  10
 600.000
  20
 560.000
  30
0.0
  40
 16.0000
   1
ハンドル棒
   7
STANDARD
   0
TEXT
   8
LEVEL003
  62
3
  10
 640.000
  20
 520.000
  30
0.0
  40
 16.0000
   1
オイルタンク
   7
STANDARD
   0
LINE
   8
LEVEL003
   6
CONTINUOUS
  62
3
  10
 585.898
  20
 415.500
  30
0.0
  11
 636.011
  21
 519.307
  31
0.0
   0
LINE
   8
LEVEL003
   6
CONTINUOUS
  62
3
  10
 636.011
  20
 519.307
  30
0.0
  11
 741.250
  21
 519.307
  31
0.0
   0
LINE
   8
LEVEL003
   6
CONTINUOUS
  62
3
  10
 585.898
  20
 415.500
  30
0.0
  11
 593.020
  21
 425.387
  31
0.0
   0
LINE
   8
LEVEL003
   6
CONTINUOUS
  62
3
  10
 585.898
  20
 415.500
  30
0.0
  11
 589.209
  21
 427.227
  31
0.0
   0
LINE
   8
LEVEL003
   6
CONTINUOUS
  62
3
  10
 553.682
  20
 478.500
  30
0.0
  11
 597.352
  21
 560.830
  31
0.0
   0
LINE
   8
LEVEL003
   6
CONTINUOUS
  62
3
  10
 597.352
  20
 560.830
  30
0.0
  11
 691.852
  21
 560.830
  31
0.0
   0
LINE
   8
LEVEL003
   6
CONTINUOUS
  62
3
  10
 553.682
  20
 478.500
  30
0.0
  11
 561.174
  21
 488.109
  31
0.0
   0
LINE
   8
LEVEL003
   6
CONTINUOUS
  62
3
  10
 553.682
  20
 478.500
  30
0.0
  11
 557.436
  21
 490.092
  31
0.0
   0
LINE
   8
LEVEL003
   6
CONTINUOUS
  62
3
  10
 982.000
  20
 865.000
  30
0.0
  11
 1108.00
  21
 865.000
  31
0.0
   0
LINE
   8
LEVEL003
   6
CONTINUOUS
  62
3
  10
 982.000
  20
 735.000
  30
0.0
  11
 1108.00
  21
 735.000
  31
0.0
   0
LINE
   8
LEVEL003
   6
CONTINUOUS
  62
3
  10
 1100.00
  20
 865.000
  30
0.0
  11
 1100.00
  21
 735.000
  31
0.0
   0
LINE
   8
LEVEL003
   6
CONTINUOUS
  62
3
  10
 1100.00
  20
 865.000
  30
0.0
  11
 1097.88
  21
 853.000
  31
0.0
   0
LINE
   8
LEVEL003
   6
CONTINUOUS
  62
3
  10
 1100.00
  20
 865.000
  30
0.0
  11
 1102.12
  21
 853.000
  31
0.0
   0
LINE
   8
LEVEL003
   6
CONTINUOUS
  62
3
  10
 1100.00
  20
 735.000
  30
0.0
  11
 1102.12
  21
 747.000
  31
0.0
   0
LINE
   8
LEVEL003
   6
CONTINUOUS
  62
3
  10
 1100.00
  20
 735.000
  30
0.0
  11
 1097.88
  21
 747.000
  31
0.0
   0
TEXT
   8
LEVEL003
  62
3
  10
 1096.80
  20
 788.000
  30
0.0
  40
 16.0000
   1
130
  50
 90.0000
  41
 0.500000
   7
STANDARD
  72
1
  11
 1096.80
  21
 800.000
  31
0.0
   0
POINT
   8
LEVEL001
  62
7
  10
 340.000
  20
 300.000
  30
0.0
   0
POINT
   8
LEVEL001
  62
7
  10
 340.000
  20
 800.000
  30
0.0
   0
LINE
   8
LEVEL003
   6
CONTINUOUS
  62
3
  10
 660.047
  20
 335.860
  30
0.0
  11
 656.915
  21
 418.401
  31
0.0
   0
LINE
   8
LEVEL003
   6
CONTINUOUS
  62
3
  10
 661.706
  20
 347.932
  30
0.0
  11
 660.047
  21
 335.860
  31
0.0
   0
LINE
   8
LEVEL003
   6
CONTINUOUS
  62
3
  10
 660.047
  20
 335.860
  30
0.0
  11
 657.478
  21
 347.772
  31
0.0
   0
TEXT
   8
LEVEL003
  62
3
  10
 656.648
  20
 341.035
  30
0.0
  40
 16.0000
   1
%%c８２.６
  50
 92.1729
   7
STANDARD
  72
1
  11
 655.283
  21
 377.009
  31
0.0
   0
LINE
   8
LEVEL003
   6
CONTINUOUS
  62
3
  10
 655.256
  20
 406.329
  30
0.0
  11
 656.915
  21
 418.401
  31
0.0
   0
LINE
   8
LEVEL003
   6
CONTINUOUS
  62
3
  10
 656.915
  20
 418.401
  30
0.0
  11
 659.485
  21
 406.490
  31
0.0
   0
LINE
   8
LEVEL001
   6
DASHDOT
  62
1
  10
 371.705
  20
 366.250
  30
0.0
  11
 634.571
  21
 376.224
  31
0.0
   0
LINE
   8
LEVEL001
   6
DASHDOT
  62
1
  10
 664.875
  20
 377.373
  30
0.0
  11
 981.854
  21
 389.400
  31
0.0
   0
LINE
   8
LEVEL003
   6
CONTINUOUS
  62
3
  10
 340.000
  20
 296.000
  30
0.0
  11
 340.000
  21
 252.000
  31
0.0
   0
LINE
   8
LEVEL003
   6
CONTINUOUS
  62
3
  10
 389.964
  20
 297.896
  30
0.0
  11
 389.964
  21
 252.000
  31
0.0
   0
LINE
   8
LEVEL003
   6
CONTINUOUS
  62
3
  10
 340.000
  20
 260.000
  30
0.0
  11
 389.964
  21
 260.000
  31
0.0
   0
LINE
   8
LEVEL003
   6
CONTINUOUS
  62
3
  10
 340.000
  20
 260.000
  30
0.0
  11
 352.000
  21
 257.884
  31
0.0
   0
LINE
   8
LEVEL003
   6
CONTINUOUS
  62
3
  10
 340.000
  20
 260.000
  30
0.0
  11
 352.000
  21
 262.116
  31
0.0
   0
LINE
   8
LEVEL003
   6
CONTINUOUS
  62
3
  10
 389.964
  20
 260.000
  30
0.0
  11
 377.964
  21
 262.116
  31
0.0
   0
LINE
   8
LEVEL003
   6
CONTINUOUS
  62
3
  10
 389.964
  20
 260.000
  30
0.0
  11
 377.964
  21
 257.884
  31
0.0
   0
TEXT
   8
LEVEL003
  62
3
  10
 356.982
  20
 263.200
  30
0.0
  40
 16.0000
   1
50
  41
 0.500000
   7
STANDARD
  72
1
  11
 364.982
  21
 263.200
  31
0.0
   0
LINE
   8
LEVEL003
   6
CONTINUOUS
  62
3
  10
 933.427
  20
 296.000
  30
0.0
  11
 933.427
  21
 252.000
  31
0.0
   0
LINE
   8
LEVEL003
   6
CONTINUOUS
  62
3
  10
 977.452
  20
 296.169
  30
0.0
  11
 977.452
  21
 252.000
  31
0.0
   0
LINE
   8
LEVEL003
   6
CONTINUOUS
  62
3
  10
 933.427
  20
 260.000
  30
0.0
  11
 977.452
  21
 260.000
  31
0.0
   0
LINE
   8
LEVEL003
   6
CONTINUOUS
  62
3
  10
 933.427
  20
 260.000
  30
0.0
  11
 945.427
  21
 257.884
  31
0.0
   0
LINE
   8
LEVEL003
   6
CONTINUOUS
  62
3
  10
 933.427
  20
 260.000
  30
0.0
  11
 945.427
  21
 262.116
  31
0.0
   0
LINE
   8
LEVEL003
   6
CONTINUOUS
  62
3
  10
 977.452
  20
 260.000
  30
0.0
  11
 965.452
  21
 262.116
  31
0.0
   0
LINE
   8
LEVEL003
   6
CONTINUOUS
  62
3
  10
 977.452
  20
 260.000
  30
0.0
  11
 965.452
  21
 257.884
  31
0.0
   0
TEXT
   8
LEVEL003
  62
3
  10
 947.439
  20
 263.200
  30
0.0
  40
 16.0000
   1
44
  41
 0.500000
   7
STANDARD
  72
1
  11
 955.439
  21
 263.200
  31
0.0
   0
LINE
   8
LEVEL003
   6
CONTINUOUS
  62
3
  10
 977.452
  20
 296.169
  30
0.0
  11
 977.452
  21
 212.000
  31
0.0
   0
LINE
   8
LEVEL003
   6
CONTINUOUS
  62
3
  10
 340.000
  20
 296.000
  30
0.0
  11
 340.000
  21
 212.000
  31
0.0
   0
LINE
   8
LEVEL003
   6
CONTINUOUS
  62
3
  10
 977.452
  20
 220.000
  30
0.0
  11
 340.000
  21
 220.000
  31
0.0
   0
LINE
   8
LEVEL003
   6
CONTINUOUS
  62
3
  10
 977.452
  20
 220.000
  30
0.0
  11
 965.452
  21
 222.116
  31
0.0
   0
LINE
   8
LEVEL003
   6
CONTINUOUS
  62
3
  10
 977.452
  20
 220.000
  30
0.0
  11
 965.452
  21
 217.884
  31
0.0
   0
LINE
   8
LEVEL003
   6
CONTINUOUS
  62
3
  10
 340.000
  20
 220.000
  30
0.0
  11
 352.000
  21
 217.884
  31
0.0
   0
LINE
   8
LEVEL003
   6
CONTINUOUS
  62
3
  10
 340.000
  20
 220.000
  30
0.0
  11
 352.000
  21
 222.116
  31
0.0
   0
TEXT
   8
LEVEL003
  62
3
  10
 638.726
  20
 223.200
  30
0.0
  40
 16.0000
   1
約640
   7
STANDARD
  72
1
  11
 658.726
  21
 223.200
  31
0.0
   0
LINE
   8
LEVEL003
   6
CONTINUOUS
  62
7
  10
 967.819
  20
 395.801
  30
0.0
  11
 977.740
  21
 396.178
  31
0.0
   0
ARC
   8
LEVEL003
   6
CONTINUOUS
  62
7
  10
 956.162
  20
 388.426
  30
0.0
  40
 22.9282
  50
 344.585
  51
 19.7609
   0
ARC
   8
LEVEL003
   6
CONTINUOUS
  62
7
  10
 966.092
  20
 400.811
  30
0.0
  40
 12.5359
  50
 338.308
  51
 2.17289
   0
LINE
   8
LEVEL003
   6
CONTINUOUS
  62
7
  10
 968.344
  20
 381.955
  30
0.0
  11
 978.266
  21
 382.331
  31
0.0
   0
ARC
   8
LEVEL003
   6
CONTINUOUS
  62
7
  10
 967.002
  20
 376.828
  30
0.0
  40
 12.5359
  50
 2.17293
  51
 26.0378
   0
LINE
   8
LEVEL003
   6
CONTINUOUS
  62
7
  10
 390.000
  20
 841.483
  30
0.0
  11
 390.000
  21
 860.000
  31
0.0
   0
LINE
   8
LEVEL003
   6
CONTINUOUS
  62
7
  10
 390.000
  20
 860.000
  30
0.0
  11
 340.349
  21
 860.000
  31
0.0
   0
LINE
   8
LEVEL003
   6
CONTINUOUS
  62
3
  10
 336.349
  20
 860.000
  30
0.0
  11
 252.000
  21
 860.000
  31
0.0
   0
LINE
   8
LEVEL003
   6
CONTINUOUS
  62
3
  10
 292.535
  20
 800.000
  30
0.0
  11
 252.000
  21
 800.000
  31
0.0
   0
LINE
   8
LEVEL003
   6
CONTINUOUS
  62
3
  10
 260.000
  20
 860.000
  30
0.0
  11
 260.000
  21
 800.000
  31
0.0
   0
LINE
   8
LEVEL003
   6
CONTINUOUS
  62
3
  10
 260.000
  20
 860.000
  30
0.0
  11
 257.884
  21
 848.000
  31
0.0
   0
LINE
   8
LEVEL003
   6
CONTINUOUS
  62
3
  10
 260.000
  20
 860.000
  30
0.0
  11
 262.116
  21
 848.000
  31
0.0
   0
LINE
   8
LEVEL003
   6
CONTINUOUS
  62
3
  10
 260.000
  20
 800.000
  30
0.0
  11
 262.116
  21
 812.000
  31
0.0
   0
LINE
   8
LEVEL003
   6
CONTINUOUS
  62
3
  10
 260.000
  20
 800.000
  30
0.0
  11
 257.884
  21
 812.000
  31
0.0
   0
TEXT
   8
LEVEL003
  62
3
  10
 256.800
  20
 822.000
  30
0.0
  40
 16.0000
   1
60
  50
 90.0000
  41
 0.500000
   7
STANDARD
  72
1
  11
 256.800
  21
 830.000
  31
0.0
   0
LINE
   8
LEVEL003
   6
CONTINUOUS
  62
7
  10
 340.000
  20
 751.000
  30
0.0
  11
 340.000
  21
 715.000
  31
0.0
   0
LINE
   8
LEVEL003
   6
CONTINUOUS
  62
7
  10
 340.000
  20
 715.000
  30
0.0
  11
 390.000
  21
 715.000
  31
0.0
   0
LINE
   8
LEVEL003
   6
CONTINUOUS
  62
7
  10
 390.000
  20
 715.000
  30
0.0
  11
 390.000
  21
 748.437
  31
0.0
   0
LINE
   8
LEVEL003
   6
CONTINUOUS
  62
3
  10
 292.535
  20
 800.000
  30
0.0
  11
 252.000
  21
 800.000
  31
0.0
   0
LINE
   8
LEVEL003
   6
CONTINUOUS
  62
3
  10
 336.000
  20
 715.000
  30
0.0
  11
 252.000
  21
 715.000
  31
0.0
   0
LINE
   8
LEVEL003
   6
CONTINUOUS
  62
3
  10
 260.000
  20
 800.000
  30
0.0
  11
 260.000
  21
 715.000
  31
0.0
   0
LINE
   8
LEVEL003
   6
CONTINUOUS
  62
3
  10
 260.000
  20
 800.000
  30
0.0
  11
 257.884
  21
 788.000
  31
0.0
   0
LINE
   8
LEVEL003
   6
CONTINUOUS
  62
3
  10
 260.000
  20
 800.000
  30
0.0
  11
 262.116
  21
 788.000
  31
0.0
   0
LINE
   8
LEVEL003
   6
CONTINUOUS
  62
3
  10
 260.000
  20
 715.000
  30
0.0
  11
 262.116
  21
 727.000
  31
0.0
   0
LINE
   8
LEVEL003
   6
CONTINUOUS
  62
3
  10
 260.000
  20
 715.000
  30
0.0
  11
 257.884
  21
 727.000
  31
0.0
   0
TEXT
   8
LEVEL003
  62
3
  10
 256.800
  20
 749.500
  30
0.0
  40
 16.0000
   1
85
  50
 90.0000
  41
 0.500000
   7
STANDARD
  72
1
  11
 256.800
  21
 757.500
  31
0.0
   0
LINE
   8
LEVEL003
   6
CONTINUOUS
  62
3
  10
 336.349
  20
 860.000
  30
0.0
  11
 212.000
  21
 860.000
  31
0.0
   0
LINE
   8
LEVEL003
   6
CONTINUOUS
  62
3
  10
 336.000
  20
 715.000
  30
0.0
  11
 212.000
  21
 715.000
  31
0.0
   0
LINE
   8
LEVEL003
   6
CONTINUOUS
  62
3
  10
 220.000
  20
 860.000
  30
0.0
  11
 220.000
  21
 715.000
  31
0.0
   0
LINE
   8
LEVEL003
   6
CONTINUOUS
  62
3
  10
 220.000
  20
 860.000
  30
0.0
  11
 217.884
  21
 848.000
  31
0.0
   0
LINE
   8
LEVEL003
   6
CONTINUOUS
  62
3
  10
 220.000
  20
 860.000
  30
0.0
  11
 222.116
  21
 848.000
  31
0.0
   0
LINE
   8
LEVEL003
   6
CONTINUOUS
  62
3
  10
 220.000
  20
 715.000
  30
0.0
  11
 222.116
  21
 727.000
  31
0.0
   0
LINE
   8
LEVEL003
   6
CONTINUOUS
  62
3
  10
 220.000
  20
 715.000
  30
0.0
  11
 217.884
  21
 727.000
  31
0.0
   0
TEXT
   8
LEVEL003
  62
3
  10
 216.800
  20
 775.500
  30
0.0
  40
 16.0000
   1
145
  50
 90.0000
  41
 0.500000
   7
STANDARD
  72
1
  11
 216.800
  21
 787.500
  31
0.0
   0
LINE
   8
LEVEL001
   6
CONTINUOUS
  62
7
  10
 55.0000
  20
 310.000
  30
0.0
  11
 55.0000
  21
 300.000
  31
0.0
   0
LINE
   8
LEVEL003
   6
CONTINUOUS
  62
7
  10
 60.0000
  20
 300.000
  30
0.0
  11
 55.0000
  21
 300.000
  31
0.0
   0
LINE
   8
LEVEL003
   6
CONTINUOUS
  62
3
  10
 164.705
  20
 364.500
  30
0.0
  11
 268.000
  21
 364.500
  31
0.0
   0
LINE
   8
LEVEL003
   6
CONTINUOUS
  62
3
  10
 209.000
  20
 300.000
  30
0.0
  11
 268.000
  21
 300.000
  31
0.0
   0
LINE
   8
LEVEL003
   6
CONTINUOUS
  62
3
  10
 260.000
  20
 364.500
  30
0.0
  11
 260.000
  21
 300.000
  31
0.0
   0
LINE
   8
LEVEL003
   6
CONTINUOUS
  62
3
  10
 260.000
  20
 364.500
  30
0.0
  11
 257.884
  21
 352.500
  31
0.0
   0
LINE
   8
LEVEL003
   6
CONTINUOUS
  62
3
  10
 260.000
  20
 364.500
  30
0.0
  11
 262.116
  21
 352.500
  31
0.0
   0
LINE
   8
LEVEL003
   6
CONTINUOUS
  62
3
  10
 260.000
  20
 300.000
  30
0.0
  11
 262.116
  21
 312.000
  31
0.0
   0
LINE
   8
LEVEL003
   6
CONTINUOUS
  62
3
  10
 260.000
  20
 300.000
  30
0.0
  11
 257.884
  21
 312.000
  31
0.0
   0
TEXT
   8
LEVEL003
  62
3
  10
 256.800
  20
 316.250
  30
0.0
  40
 16.0000
   1
約65
  50
 90.0000
   7
STANDARD
  72
1
  11
 256.800
  21
 332.250
  31
0.0
   0
LINE
   8
LEVEL001
   6
CONTINUOUS
  62
7
  10
 60.0000
  20
 300.000
  30
0.0
  11
 60.0000
  21
 309.000
  31
0.0
   0
LINE
   8
LEVEL001
   6
CONTINUOUS
  62
7
  10
 60.0000
  20
 309.000
  30
0.0
  11
 205.000
  21
 309.000
  31
0.0
   0
LINE
   8
LEVEL001
   6
CONTINUOUS
  62
7
  10
 205.000
  20
 309.000
  30
0.0
  11
 205.000
  21
 300.000
  31
0.0
   0
LINE
   8
LEVEL001
   6
CONTINUOUS
  62
7
  10
 205.000
  20
 300.000
  30
0.0
  11
 60.0000
  21
 300.000
  31
0.0
   0
LINE
   8
LEVEL003
   6
CONTINUOUS
  62
3
  10
 29.4075
  20
 360.500
  30
0.0
  11
 29.4075
  21
 252.000
  31
0.0
   0
LINE
   8
LEVEL003
   6
CONTINUOUS
  62
3
  10
 205.000
  20
 296.000
  30
0.0
  11
 205.000
  21
 252.000
  31
0.0
   0
LINE
   8
LEVEL003
   6
CONTINUOUS
  62
3
  10
 29.4075
  20
 260.000
  30
0.0
  11
 205.000
  21
 260.000
  31
0.0
   0
LINE
   8
LEVEL003
   6
CONTINUOUS
  62
3
  10
 29.4075
  20
 260.000
  30
0.0
  11
 41.4075
  21
 257.884
  31
0.0
   0
LINE
   8
LEVEL003
   6
CONTINUOUS
  62
3
  10
 29.4075
  20
 260.000
  30
0.0
  11
 41.4075
  21
 262.116
  31
0.0
   0
LINE
   8
LEVEL003
   6
CONTINUOUS
  62
3
  10
 205.000
  20
 260.000
  30
0.0
  11
 193.000
  21
 262.116
  31
0.0
   0
LINE
   8
LEVEL003
   6
CONTINUOUS
  62
3
  10
 205.000
  20
 260.000
  30
0.0
  11
 193.000
  21
 257.884
  31
0.0
   0
TEXT
   8
LEVEL003
  62
3
  10
 97.2040
  20
 263.200
  30
0.0
  40
 16.0000
   1
約175
   7
STANDARD
  72
1
  11
 117.204
  21
 263.200
  31
0.0
   0
LINE
   8
LEVEL014
   6
CONTINUOUS
  62
3
  10
 1016.69
  20
 800.000
  30
0.0
  11
 1016.69
  21
 814.808
  31
0.0
   0
LINE
   8
LEVEL014
   6
CONTINUOUS
  62
3
  10
 1016.69
  20
 814.808
  30
0.0
  11
 1018.69
  21
 814.962
  31
0.0
   0
LINE
   8
LEVEL014
   6
CONTINUOUS
  62
3
  10
 1018.69
  20
 814.962
  30
0.0
  11
 1018.69
  21
 800.000
  31
0.0
   0
LINE
   8
LEVEL014
   6
CONTINUOUS
  62
3
  10
 1020.69
  20
 800.000
  30
0.0
  11
 1020.69
  21
 814.873
  31
0.0
   0
LINE
   8
LEVEL014
   6
CONTINUOUS
  62
3
  10
 1020.69
  20
 814.873
  30
0.0
  11
 1022.69
  21
 814.703
  31
0.0
   0
LINE
   8
LEVEL014
   6
CONTINUOUS
  62
3
  10
 1022.69
  20
 814.703
  30
0.0
  11
 1022.69
  21
 800.000
  31
0.0
   0
LINE
   8
LEVEL014
   6
CONTINUOUS
  62
3
  10
 1016.69
  20
 800.000
  30
0.0
  11
 1016.69
  21
 785.192
  31
0.0
   0
LINE
   8
LEVEL014
   6
CONTINUOUS
  62
3
  10
 1016.69
  20
 785.192
  30
0.0
  11
 1018.69
  21
 785.038
  31
0.0
   0
LINE
   8
LEVEL014
   6
CONTINUOUS
  62
3
  10
 1018.69
  20
 785.038
  30
0.0
  11
 1018.69
  21
 800.000
  31
0.0
   0
LINE
   8
LEVEL014
   6
CONTINUOUS
  62
3
  10
 1020.69
  20
 800.000
  30
0.0
  11
 1020.69
  21
 785.127
  31
0.0
   0
LINE
   8
LEVEL014
   6
CONTINUOUS
  62
3
  10
 1020.69
  20
 785.127
  30
0.0
  11
 1022.69
  21
 785.297
  31
0.0
   0
LINE
   8
LEVEL014
   6
CONTINUOUS
  62
3
  10
 1022.69
  20
 785.297
  30
0.0
  11
 1022.69
  21
 800.000
  31
0.0
   0
LINE
   8
LEVEL003
   6
CONTINUOUS
  62
7
  10
 953.000
  20
 774.194
  30
0.0
  11
 952.922
  21
 775.398
  31
0.0
   0
LINE
   8
LEVEL003
   6
CONTINUOUS
  62
7
  10
 952.922
  20
 775.398
  30
0.0
  11
 952.689
  21
 776.583
  31
0.0
   0
LINE
   8
LEVEL003
   6
CONTINUOUS
  62
7
  10
 952.689
  20
 776.583
  30
0.0
  11
 952.305
  21
 777.732
  31
0.0
   0
LINE
   8
LEVEL003
   6
CONTINUOUS
  62
7
  10
 952.305
  20
 777.732
  30
0.0
  11
 951.776
  21
 778.825
  31
0.0
   0
LINE
   8
LEVEL003
   6
CONTINUOUS
  62
7
  10
 951.776
  20
 778.825
  30
0.0
  11
 951.110
  21
 779.845
  31
0.0
   0
LINE
   8
LEVEL003
   6
CONTINUOUS
  62
7
  10
 951.110
  20
 779.845
  30
0.0
  11
 950.317
  21
 780.778
  31
0.0
   0
LINE
   8
LEVEL003
   6
CONTINUOUS
  62
7
  10
 950.317
  20
 780.778
  30
0.0
  11
 949.410
  21
 781.608
  31
0.0
   0
LINE
   8
LEVEL003
   6
CONTINUOUS
  62
7
  10
 949.410
  20
 781.608
  30
0.0
  11
 948.403
  21
 782.322
  31
0.0
   0
LINE
   8
LEVEL003
   6
CONTINUOUS
  62
7
  10
 948.403
  20
 782.322
  30
0.0
  11
 947.312
  21
 782.909
  31
0.0
   0
LINE
   8
LEVEL003
   6
CONTINUOUS
  62
7
  10
 947.312
  20
 782.909
  30
0.0
  11
 946.153
  21
 783.360
  31
0.0
   0
LINE
   8
LEVEL003
   6
CONTINUOUS
  62
7
  10
 946.153
  20
 783.360
  30
0.0
  11
 944.945
  21
 783.668
  31
0.0
   0
LINE
   8
LEVEL003
   6
CONTINUOUS
  62
7
  10
 944.945
  20
 783.668
  30
0.0
  11
 943.707
  21
 783.829
  31
0.0
   0
LINE
   8
LEVEL003
   6
CONTINUOUS
  62
7
  10
 943.707
  20
 783.829
  30
0.0
  11
 942.458
  21
 783.839
  31
0.0
   0
LINE
   8
LEVEL003
   6
CONTINUOUS
  62
7
  10
 942.458
  20
 783.839
  30
0.0
  11
 941.218
  21
 783.698
  31
0.0
   0
LINE
   8
LEVEL003
   6
CONTINUOUS
  62
7
  10
 941.218
  20
 783.698
  30
0.0
  11
 940.005
  21
 783.409
  31
0.0
   0
LINE
   8
LEVEL003
   6
CONTINUOUS
  62
7
  10
 940.005
  20
 783.409
  30
0.0
  11
 938.839
  21
 782.977
  31
0.0
   0
LINE
   8
LEVEL003
   6
CONTINUOUS
  62
7
  10
 938.839
  20
 782.977
  30
0.0
  11
 937.737
  21
 782.407
  31
0.0
   0
LINE
   8
LEVEL003
   6
CONTINUOUS
  62
7
  10
 937.737
  20
 782.407
  30
0.0
  11
 936.718
  21
 781.709
  31
0.0
   0
LINE
   8
LEVEL003
   6
CONTINUOUS
  62
7
  10
 936.718
  20
 781.709
  30
0.0
  11
 935.797
  21
 780.894
  31
0.0
   0
LINE
   8
LEVEL003
   6
CONTINUOUS
  62
7
  10
 935.797
  20
 780.894
  30
0.0
  11
 934.989
  21
 779.974
  31
0.0
   0
LINE
   8
LEVEL003
   6
CONTINUOUS
  62
7
  10
 934.989
  20
 779.974
  30
0.0
  11
 934.305
  21
 778.965
  31
0.0
   0
LINE
   8
LEVEL003
   6
CONTINUOUS
  62
7
  10
 934.305
  20
 778.965
  30
0.0
  11
 933.757
  21
 777.880
  31
0.0
   0
LINE
   8
LEVEL003
   6
CONTINUOUS
  62
7
  10
 933.757
  20
 777.880
  30
0.0
  11
 933.353
  21
 776.738
  31
0.0
   0
LINE
   8
LEVEL003
   6
CONTINUOUS
  62
7
  10
 933.353
  20
 776.738
  30
0.0
  11
 933.100
  21
 775.557
  31
0.0
   0
LINE
   8
LEVEL003
   6
CONTINUOUS
  62
7
  10
 933.100
  20
 775.557
  30
0.0
  11
 933.001
  21
 774.354
  31
0.0
   0
LINE
   8
LEVEL003
   6
CONTINUOUS
  62
7
  10
 933.001
  20
 774.354
  30
0.0
  11
 933.000
  21
 774.194
  31
0.0
   0
LINE
   8
LEVEL003
   6
CONTINUOUS
  62
7
  10
 951.667
  20
 776.353
  30
0.0
  11
 950.977
  21
 777.359
  31
0.0
   0
LINE
   8
LEVEL003
   6
CONTINUOUS
  62
7
  10
 950.977
  20
 777.359
  30
0.0
  11
 950.163
  21
 778.274
  31
0.0
   0
LINE
   8
LEVEL003
   6
CONTINUOUS
  62
7
  10
 950.163
  20
 778.274
  30
0.0
  11
 949.237
  21
 779.084
  31
0.0
   0
LINE
   8
LEVEL003
   6
CONTINUOUS
  62
7
  10
 949.237
  20
 779.084
  30
0.0
  11
 948.214
  21
 779.776
  31
0.0
   0
LINE
   8
LEVEL003
   6
CONTINUOUS
  62
7
  10
 948.214
  20
 779.776
  30
0.0
  11
 947.109
  21
 780.340
  31
0.0
   0
LINE
   8
LEVEL003
   6
CONTINUOUS
  62
7
  10
 947.109
  20
 780.340
  30
0.0
  11
 945.941
  21
 780.766
  31
0.0
   0
LINE
   8
LEVEL003
   6
CONTINUOUS
  62
7
  10
 945.941
  20
 780.766
  30
0.0
  11
 944.726
  21
 781.048
  31
0.0
   0
LINE
   8
LEVEL003
   6
CONTINUOUS
  62
7
  10
 944.726
  20
 781.048
  30
0.0
  11
 943.485
  21
 781.182
  31
0.0
   0
LINE
   8
LEVEL003
   6
CONTINUOUS
  62
7
  10
 943.485
  20
 781.182
  30
0.0
  11
 942.236
  21
 781.165
  31
0.0
   0
LINE
   8
LEVEL003
   6
CONTINUOUS
  62
7
  10
 942.236
  20
 781.165
  30
0.0
  11
 940.998
  21
 780.997
  31
0.0
   0
LINE
   8
LEVEL003
   6
CONTINUOUS
  62
7
  10
 940.998
  20
 780.997
  30
0.0
  11
 939.792
  21
 780.683
  31
0.0
   0
LINE
   8
LEVEL003
   6
CONTINUOUS
  62
7
  10
 939.792
  20
 780.683
  30
0.0
  11
 938.637
  21
 780.225
  31
0.0
   0
LINE
   8
LEVEL003
   6
CONTINUOUS
  62
7
  10
 938.637
  20
 780.225
  30
0.0
  11
 937.549
  21
 779.632
  31
0.0
   0
LINE
   8
LEVEL003
   6
CONTINUOUS
  62
7
  10
 937.549
  20
 779.632
  30
0.0
  11
 936.546
  21
 778.912
  31
0.0
   0
LINE
   8
LEVEL003
   6
CONTINUOUS
  62
7
  10
 936.546
  20
 778.912
  30
0.0
  11
 935.644
  21
 778.077
  31
0.0
   0
LINE
   8
LEVEL003
   6
CONTINUOUS
  62
7
  10
 935.644
  20
 778.077
  30
0.0
  11
 934.857
  21
 777.140
  31
0.0
   0
LINE
   8
LEVEL003
   6
CONTINUOUS
  62
7
  10
 934.857
  20
 777.140
  30
0.0
  11
 934.333
  21
 776.353
  31
0.0
   0
LINE
   8
LEVEL050
   6
DASHDOT
  62
1
  10
 943.000
  20
 786.534
  30
0.0
  11
 943.000
  21
 756.534
  31
0.0
   0
LINE
   8
LEVEL003
   6
DASHDOT
  62
1
  10
 952.000
  20
 771.534
  30
0.0
  11
 951.930
  21
 772.617
  31
0.0
   0
LINE
   8
LEVEL003
   6
DASHDOT
  62
1
  10
 951.930
  20
 772.617
  30
0.0
  11
 951.720
  21
 773.684
  31
0.0
   0
LINE
   8
LEVEL003
   6
DASHDOT
  62
1
  10
 951.720
  20
 773.684
  30
0.0
  11
 951.375
  21
 774.718
  31
0.0
   0
LINE
   8
LEVEL003
   6
DASHDOT
  62
1
  10
 951.375
  20
 774.718
  30
0.0
  11
 950.898
  21
 775.701
  31
0.0
   0
LINE
   8
LEVEL003
   6
DASHDOT
  62
1
  10
 950.898
  20
 775.701
  30
0.0
  11
 950.299
  21
 776.620
  31
0.0
   0
LINE
   8
LEVEL003
   6
DASHDOT
  62
1
  10
 950.299
  20
 776.620
  30
0.0
  11
 949.585
  21
 777.459
  31
0.0
   0
LINE
   8
LEVEL003
   6
DASHDOT
  62
1
  10
 949.585
  20
 777.459
  30
0.0
  11
 948.769
  21
 778.206
  31
0.0
   0
LINE
   8
LEVEL003
   6
DASHDOT
  62
1
  10
 948.769
  20
 778.206
  30
0.0
  11
 947.863
  21
 778.849
  31
0.0
   0
LINE
   8
LEVEL003
   6
DASHDOT
  62
1
  10
 947.863
  20
 778.849
  30
0.0
  11
 946.881
  21
 779.377
  31
0.0
   0
LINE
   8
LEVEL003
   6
DASHDOT
  62
1
  10
 946.881
  20
 779.377
  30
0.0
  11
 945.838
  21
 779.783
  31
0.0
   0
LINE
   8
LEVEL003
   6
DASHDOT
  62
1
  10
 945.838
  20
 779.783
  30
0.0
  11
 944.751
  21
 780.061
  31
0.0
   0
LINE
   8
LEVEL003
   6
DASHDOT
  62
1
  10
 944.751
  20
 780.061
  30
0.0
  11
 943.637
  21
 780.205
  31
0.0
   0
LINE
   8
LEVEL003
   6
DASHDOT
  62
1
  10
 943.637
  20
 780.205
  30
0.0
  11
 942.512
  21
 780.214
  31
0.0
   0
LINE
   8
LEVEL003
   6
DASHDOT
  62
1
  10
 942.512
  20
 780.214
  30
0.0
  11
 941.396
  21
 780.088
  31
0.0
   0
LINE
   8
LEVEL003
   6
DASHDOT
  62
1
  10
 941.396
  20
 780.088
  30
0.0
  11
 940.304
  21
 779.828
  31
0.0
   0
LINE
   8
LEVEL003
   6
DASHDOT
  62
1
  10
 940.304
  20
 779.828
  30
0.0
  11
 939.255
  21
 779.438
  31
0.0
   0
LINE
   8
LEVEL003
   6
DASHDOT
  62
1
  10
 939.255
  20
 779.438
  30
0.0
  11
 938.264
  21
 778.926
  31
0.0
   0
LINE
   8
LEVEL003
   6
DASHDOT
  62
1
  10
 938.264
  20
 778.926
  30
0.0
  11
 937.346
  21
 778.298
  31
0.0
   0
LINE
   8
LEVEL003
   6
DASHDOT
  62
1
  10
 937.346
  20
 778.298
  30
0.0
  11
 936.517
  21
 777.564
  31
0.0
   0
LINE
   8
LEVEL003
   6
DASHDOT
  62
1
  10
 936.517
  20
 777.564
  30
0.0
  11
 935.790
  21
 776.736
  31
0.0
   0
LINE
   8
LEVEL003
   6
DASHDOT
  62
1
  10
 935.790
  20
 776.736
  30
0.0
  11
 935.174
  21
 775.827
  31
0.0
   0
LINE
   8
LEVEL003
   6
DASHDOT
  62
1
  10
 935.174
  20
 775.827
  30
0.0
  11
 934.681
  21
 774.852
  31
0.0
   0
LINE
   8
LEVEL003
   6
DASHDOT
  62
1
  10
 934.681
  20
 774.852
  30
0.0
  11
 934.318
  21
 773.824
  31
0.0
   0
LINE
   8
LEVEL003
   6
DASHDOT
  62
1
  10
 934.318
  20
 773.824
  30
0.0
  11
 934.090
  21
 772.760
  31
0.0
   0
LINE
   8
LEVEL003
   6
DASHDOT
  62
1
  10
 934.090
  20
 772.760
  30
0.0
  11
 934.001
  21
 771.678
  31
0.0
   0
LINE
   8
LEVEL003
   6
DASHDOT
  62
1
  10
 934.001
  20
 771.678
  30
0.0
  11
 934.053
  21
 770.593
  31
0.0
   0
LINE
   8
LEVEL003
   6
DASHDOT
  62
1
  10
 934.053
  20
 770.593
  30
0.0
  11
 934.244
  21
 769.523
  31
0.0
   0
LINE
   8
LEVEL003
   6
DASHDOT
  62
1
  10
 934.244
  20
 769.523
  30
0.0
  11
 934.572
  21
 768.484
  31
0.0
   0
LINE
   8
LEVEL003
   6
DASHDOT
  62
1
  10
 934.572
  20
 768.484
  30
0.0
  11
 935.031
  21
 767.493
  31
0.0
   0
LINE
   8
LEVEL003
   6
DASHDOT
  62
1
  10
 935.031
  20
 767.493
  30
0.0
  11
 935.615
  21
 766.565
  31
0.0
   0
LINE
   8
LEVEL003
   6
DASHDOT
  62
1
  10
 935.615
  20
 766.565
  30
0.0
  11
 936.314
  21
 765.714
  31
0.0
   0
LINE
   8
LEVEL003
   6
DASHDOT
  62
1
  10
 936.314
  20
 765.714
  30
0.0
  11
 937.117
  21
 764.954
  31
0.0
   0
LINE
   8
LEVEL003
   6
DASHDOT
  62
1
  10
 937.117
  20
 764.954
  30
0.0
  11
 938.012
  21
 764.297
  31
0.0
   0
LINE
   8
LEVEL003
   6
DASHDOT
  62
1
  10
 938.012
  20
 764.297
  30
0.0
  11
 938.985
  21
 763.753
  31
0.0
   0
LINE
   8
LEVEL003
   6
DASHDOT
  62
1
  10
 938.985
  20
 763.753
  30
0.0
  11
 940.021
  21
 763.330
  31
0.0
   0
LINE
   8
LEVEL003
   6
DASHDOT
  62
1
  10
 940.021
  20
 763.330
  30
0.0
  11
 941.103
  21
 763.036
  31
0.0
   0
LINE
   8
LEVEL003
   6
DASHDOT
  62
1
  10
 941.103
  20
 763.036
  30
0.0
  11
 942.214
  21
 762.873
  31
0.0
   0
LINE
   8
LEVEL003
   6
DASHDOT
  62
1
  10
 942.214
  20
 762.873
  30
0.0
  11
 943.338
  21
 762.846
  31
0.0
   0
LINE
   8
LEVEL003
   6
DASHDOT
  62
1
  10
 943.338
  20
 762.846
  30
0.0
  11
 944.457
  21
 762.955
  31
0.0
   0
LINE
   8
LEVEL003
   6
DASHDOT
  62
1
  10
 944.457
  20
 762.955
  30
0.0
  11
 945.553
  21
 763.197
  31
0.0
   0
LINE
   8
LEVEL003
   6
DASHDOT
  62
1
  10
 945.553
  20
 763.197
  30
0.0
  11
 946.609
  21
 763.570
  31
0.0
   0
LINE
   8
LEVEL003
   6
DASHDOT
  62
1
  10
 946.609
  20
 763.570
  30
0.0
  11
 947.609
  21
 764.067
  31
0.0
   0
LINE
   8
LEVEL003
   6
DASHDOT
  62
1
  10
 947.609
  20
 764.067
  30
0.0
  11
 948.537
  21
 764.680
  31
0.0
   0
LINE
   8
LEVEL003
   6
DASHDOT
  62
1
  10
 948.537
  20
 764.680
  30
0.0
  11
 949.378
  21
 765.400
  31
0.0
   0
LINE
   8
LEVEL003
   6
DASHDOT
  62
1
  10
 949.378
  20
 765.400
  30
0.0
  11
 950.120
  21
 766.216
  31
0.0
   0
LINE
   8
LEVEL003
   6
DASHDOT
  62
1
  10
 950.120
  20
 766.216
  30
0.0
  11
 950.751
  21
 767.115
  31
0.0
   0
LINE
   8
LEVEL003
   6
DASHDOT
  62
1
  10
 950.751
  20
 767.115
  30
0.0
  11
 951.261
  21
 768.083
  31
0.0
   0
LINE
   8
LEVEL003
   6
DASHDOT
  62
1
  10
 951.261
  20
 768.083
  30
0.0
  11
 951.642
  21
 769.105
  31
0.0
   0
LINE
   8
LEVEL003
   6
DASHDOT
  62
1
  10
 951.642
  20
 769.105
  30
0.0
  11
 951.888
  21
 770.164
  31
0.0
   0
LINE
   8
LEVEL003
   6
DASHDOT
  62
1
  10
 951.888
  20
 770.164
  30
0.0
  11
 951.995
  21
 771.245
  31
0.0
   0
LINE
   8
LEVEL003
   6
DASHDOT
  62
1
  10
 951.995
  20
 771.245
  30
0.0
  11
 952.000
  21
 771.534
  31
0.0
   0
LINE
   8
LEVEL050
   6
DASHDOT
  62
1
  10
 958.000
  20
 771.534
  30
0.0
  11
 928.000
  21
 771.534
  31
0.0
   0
LINE
   8
LEVEL001
   6
CONTINUOUS
  62
7
  10
 930.500
  20
 775.000
  30
0.0
  11
 930.500
  21
 784.836
  31
0.0
   0
ARC
   8
LEVEL001
   6
CONTINUOUS
  62
7
  10
 943.000
  20
 775.000
  30
0.0
  40
 12.5000
  50
 180.000
  51
0.0
   0
LINE
   8
LEVEL001
   6
CONTINUOUS
  62
7
  10
 955.500
  20
 775.000
  30
0.0
  11
 955.500
  21
 784.836
  31
0.0
   0
LINE
   8
LEVEL003
   6
CONTINUOUS
  62
7
  10
 933.000
  20
 774.194
  30
0.0
  11
 933.000
  21
 771.534
  31
0.0
   0
LINE
   8
LEVEL003
   6
CONTINUOUS
  62
7
  10
 933.000
  20
 771.534
  30
0.0
  11
 933.078
  21
 770.329
  31
0.0
   0
LINE
   8
LEVEL003
   6
CONTINUOUS
  62
7
  10
 933.078
  20
 770.329
  30
0.0
  11
 933.311
  21
 769.144
  31
0.0
   0
LINE
   8
LEVEL003
   6
CONTINUOUS
  62
7
  10
 933.311
  20
 769.144
  30
0.0
  11
 933.695
  21
 767.996
  31
0.0
   0
LINE
   8
LEVEL003
   6
CONTINUOUS
  62
7
  10
 933.695
  20
 767.996
  30
0.0
  11
 934.224
  21
 766.903
  31
0.0
   0
LINE
   8
LEVEL003
   6
CONTINUOUS
  62
7
  10
 934.224
  20
 766.903
  30
0.0
  11
 934.890
  21
 765.882
  31
0.0
   0
LINE
   8
LEVEL003
   6
CONTINUOUS
  62
7
  10
 934.890
  20
 765.882
  30
0.0
  11
 935.683
  21
 764.949
  31
0.0
   0
LINE
   8
LEVEL003
   6
CONTINUOUS
  62
7
  10
 935.683
  20
 764.949
  30
0.0
  11
 936.590
  21
 764.120
  31
0.0
   0
LINE
   8
LEVEL003
   6
CONTINUOUS
  62
7
  10
 936.590
  20
 764.120
  30
0.0
  11
 937.597
  21
 763.406
  31
0.0
   0
LINE
   8
LEVEL003
   6
CONTINUOUS
  62
7
  10
 937.597
  20
 763.406
  30
0.0
  11
 938.688
  21
 762.818
  31
0.0
   0
LINE
   8
LEVEL003
   6
CONTINUOUS
  62
7
  10
 938.688
  20
 762.818
  30
0.0
  11
 939.847
  21
 762.367
  31
0.0
   0
LINE
   8
LEVEL003
   6
CONTINUOUS
  62
7
  10
 939.847
  20
 762.367
  30
0.0
  11
 941.055
  21
 762.059
  31
0.0
   0
LINE
   8
LEVEL003
   6
CONTINUOUS
  62
7
  10
 941.055
  20
 762.059
  30
0.0
  11
 942.293
  21
 761.899
  31
0.0
   0
LINE
   8
LEVEL003
   6
CONTINUOUS
  62
7
  10
 942.293
  20
 761.899
  30
0.0
  11
 943.542
  21
 761.889
  31
0.0
   0
LINE
   8
LEVEL003
   6
CONTINUOUS
  62
7
  10
 943.542
  20
 761.889
  30
0.0
  11
 944.782
  21
 762.029
  31
0.0
   0
LINE
   8
LEVEL003
   6
CONTINUOUS
  62
7
  10
 944.782
  20
 762.029
  30
0.0
  11
 945.995
  21
 762.318
  31
0.0
   0
LINE
   8
LEVEL003
   6
CONTINUOUS
  62
7
  10
 945.995
  20
 762.318
  30
0.0
  11
 947.161
  21
 762.750
  31
0.0
   0
LINE
   8
LEVEL003
   6
CONTINUOUS
  62
7
  10
 947.161
  20
 762.750
  30
0.0
  11
 948.263
  21
 763.320
  31
0.0
   0
LINE
   8
LEVEL003
   6
CONTINUOUS
  62
7
  10
 948.263
  20
 763.320
  30
0.0
  11
 949.282
  21
 764.018
  31
0.0
   0
LINE
   8
LEVEL003
   6
CONTINUOUS
  62
7
  10
 949.282
  20
 764.018
  30
0.0
  11
 950.203
  21
 764.833
  31
0.0
   0
LINE
   8
LEVEL003
   6
CONTINUOUS
  62
7
  10
 950.203
  20
 764.833
  30
0.0
  11
 951.011
  21
 765.753
  31
0.0
   0
LINE
   8
LEVEL003
   6
CONTINUOUS
  62
7
  10
 951.011
  20
 765.753
  30
0.0
  11
 951.695
  21
 766.763
  31
0.0
   0
LINE
   8
LEVEL003
   6
CONTINUOUS
  62
7
  10
 951.695
  20
 766.763
  30
0.0
  11
 952.243
  21
 767.847
  31
0.0
   0
LINE
   8
LEVEL003
   6
CONTINUOUS
  62
7
  10
 952.243
  20
 767.847
  30
0.0
  11
 952.647
  21
 768.989
  31
0.0
   0
LINE
   8
LEVEL003
   6
CONTINUOUS
  62
7
  10
 952.647
  20
 768.989
  30
0.0
  11
 952.900
  21
 770.171
  31
0.0
   0
LINE
   8
LEVEL003
   6
CONTINUOUS
  62
7
  10
 952.900
  20
 770.171
  30
0.0
  11
 952.999
  21
 771.373
  31
0.0
   0
LINE
   8
LEVEL003
   6
CONTINUOUS
  62
7
  10
 952.999
  20
 771.373
  30
0.0
  11
 953.000
  21
 771.534
  31
0.0
   0
LINE
   8
LEVEL003
   6
CONTINUOUS
  62
7
  10
 953.000
  20
 774.194
  30
0.0
  11
 953.000
  21
 771.534
  31
0.0
   0
ARC
   8
LEVEL001
   6
CONTINUOUS
  62
7
  10
 958.500
  20
 784.836
  30
0.0
  40
 3.00000
  50
 90.0000
  51
 180.000
   0
ARC
   8
LEVEL001
   6
CONTINUOUS
  62
7
  10
 927.500
  20
 784.836
  30
0.0
  40
 3.00000
  50
 0.868503E-11
  51
 90.0000
   0
LINE
   8
LEVEL003
   6
CONTINUOUS
  62
7
  10
 968.500
  20
 818.429
  30
0.0
  11
 970.700
  21
 818.429
  31
0.0
   0
LINE
   8
LEVEL003
   6
CONTINUOUS
  62
7
  10
 970.700
  20
 818.429
  30
0.0
  11
 970.700
  21
 783.000
  31
0.0
   0
LINE
   8
LEVEL003
   6
CONTINUOUS
  62
7
  10
 970.700
  20
 789.186
  30
0.0
  11
 968.500
  21
 789.186
  31
0.0
   0
LINE
   8
LEVEL003
   6
CONTINUOUS
  62
7
  10
 970.700
  20
 783.000
  30
0.0
  11
 968.500
  21
 783.000
  31
0.0
   0
LINE
   8
LEVEL003
   6
CONTINUOUS
  62
7
  10
 970.700
  20
 811.000
  30
0.0
  11
 972.000
  21
 811.000
  31
0.0
   0
LINE
   8
LEVEL003
   6
CONTINUOUS
  62
7
  10
 970.700
  20
 789.000
  30
0.0
  11
 972.000
  21
 789.000
  31
0.0
   0
LINE
   8
LEVEL001
   6
CONTINUOUS
  62
7
  10
 968.500
  20
 800.000
  30
0.0
  11
 968.500
  21
 783.000
  31
0.0
   0
LINE
   8
LEVEL003
   6
CONTINUOUS
  62
7
  10
 953.898
  20
 789.250
  30
0.0
  11
 956.648
  21
 792.000
  31
0.0
   0
LINE
   8
LEVEL003
   6
CONTINUOUS
  62
7
  10
 956.648
  20
 792.000
  30
0.0
  11
 968.500
  21
 792.000
  31
0.0
   0
LINE
   8
LEVEL003
   6
CONTINUOUS
  62
7
  10
 953.898
  20
 810.750
  30
0.0
  11
 956.648
  21
 808.000
  31
0.0
   0
LINE
   8
LEVEL003
   6
CONTINUOUS
  62
7
  10
 956.648
  20
 808.000
  30
0.0
  11
 968.500
  21
 808.000
  31
0.0
   0
LINE
   8
LEVEL050
   6
DASHDOT
  62
1
  10
 936.891
  20
 446.054
  30
0.0
  11
 939.021
  21
 389.923
  31
0.0
   0
LINE
   8
LEVEL003
   6
DASHDOT
  62
1
  10
 922.008
  20
 429.119
  30
0.0
  11
 951.789
  21
 430.249
  31
0.0
   0
ARC
   8
LEVEL003
   6
CONTINUOUS
  62
7
  10
 942.126
  20
 440.024
  30
0.0
  40
 5.00000
  50
 1.15469
  51
 82.0973
   0
LINE
   8
LEVEL001
   6
CONTINUOUS
  62
7
  10
 942.754
  20
 444.952
  30
0.0
  11
 941.689
  21
 445.083
  31
0.0
   0
LINE
   8
LEVEL001
   6
CONTINUOUS
  62
7
  10
 941.689
  20
 445.083
  30
0.0
  11
 940.551
  21
 445.176
  31
0.0
   0
LINE
   8
LEVEL001
   6
CONTINUOUS
  62
7
  10
 940.551
  20
 445.176
  30
0.0
  11
 939.358
  21
 445.229
  31
0.0
   0
LINE
   8
LEVEL001
   6
CONTINUOUS
  62
7
  10
 939.358
  20
 445.229
  30
0.0
  11
 938.128
  21
 445.241
  31
0.0
   0
LINE
   8
LEVEL001
   6
CONTINUOUS
  62
7
  10
 938.128
  20
 445.241
  30
0.0
  11
 936.882
  21
 445.213
  31
0.0
   0
LINE
   8
LEVEL001
   6
CONTINUOUS
  62
7
  10
 936.882
  20
 445.213
  30
0.0
  11
 935.637
  21
 445.144
  31
0.0
   0
LINE
   8
LEVEL001
   6
CONTINUOUS
  62
7
  10
 935.637
  20
 445.144
  30
0.0
  11
 934.414
  21
 445.036
  31
0.0
   0
LINE
   8
LEVEL001
   6
CONTINUOUS
  62
7
  10
 934.414
  20
 445.036
  30
0.0
  11
 933.231
  21
 444.890
  31
0.0
   0
LINE
   8
LEVEL001
   6
CONTINUOUS
  62
7
  10
 933.231
  20
 444.890
  30
0.0
  11
 932.108
  21
 444.709
  31
0.0
   0
LINE
   8
LEVEL001
   6
CONTINUOUS
  62
7
  10
 932.108
  20
 444.709
  30
0.0
  11
 931.129
  21
 444.511
  31
0.0
   0
LINE
   8
LEVEL001
   6
CONTINUOUS
  62
7
  10
 929.372
  20
 440.691
  30
0.0
  11
 930.234
  21
 440.487
  31
0.0
   0
LINE
   8
LEVEL001
   6
CONTINUOUS
  62
7
  10
 930.234
  20
 440.487
  30
0.0
  11
 931.201
  21
 440.317
  31
0.0
   0
LINE
   8
LEVEL001
   6
CONTINUOUS
  62
7
  10
 931.201
  20
 440.317
  30
0.0
  11
 932.259
  21
 440.183
  31
0.0
   0
LINE
   8
LEVEL001
   6
CONTINUOUS
  62
7
  10
 932.259
  20
 440.183
  30
0.0
  11
 933.392
  21
 440.087
  31
0.0
   0
LINE
   8
LEVEL001
   6
CONTINUOUS
  62
7
  10
 933.392
  20
 440.087
  30
0.0
  11
 934.581
  21
 440.030
  31
0.0
   0
LINE
   8
LEVEL001
   6
CONTINUOUS
  62
7
  10
 934.581
  20
 440.030
  30
0.0
  11
 935.808
  21
 440.014
  31
0.0
   0
LINE
   8
LEVEL001
   6
CONTINUOUS
  62
7
  10
 935.808
  20
 440.014
  30
0.0
  11
 937.054
  21
 440.039
  31
0.0
   0
LINE
   8
LEVEL001
   6
CONTINUOUS
  62
7
  10
 937.054
  20
 440.039
  30
0.0
  11
 938.300
  21
 440.105
  31
0.0
   0
LINE
   8
LEVEL001
   6
CONTINUOUS
  62
7
  10
 938.300
  20
 440.105
  30
0.0
  11
 939.526
  21
 440.209
  31
0.0
   0
LINE
   8
LEVEL001
   6
CONTINUOUS
  62
7
  10
 939.526
  20
 440.209
  30
0.0
  11
 940.712
  21
 440.352
  31
0.0
   0
LINE
   8
LEVEL001
   6
CONTINUOUS
  62
7
  10
 940.712
  20
 440.352
  30
0.0
  11
 941.841
  21
 440.530
  31
0.0
   0
LINE
   8
LEVEL001
   6
CONTINUOUS
  62
7
  10
 941.841
  20
 440.530
  30
0.0
  11
 942.895
  21
 440.741
  31
0.0
   0
LINE
   8
LEVEL001
   6
CONTINUOUS
  62
7
  10
 942.895
  20
 440.741
  30
0.0
  11
 943.857
  21
 440.981
  31
0.0
   0
LINE
   8
LEVEL001
   6
CONTINUOUS
  62
7
  10
 943.857
  20
 440.981
  30
0.0
  11
 944.713
  21
 441.247
  31
0.0
   0
LINE
   8
LEVEL001
   6
CONTINUOUS
  62
7
  10
 944.713
  20
 441.247
  30
0.0
  11
 944.930
  21
 441.325
  31
0.0
   0
ARC
   8
LEVEL003
   6
CONTINUOUS
  62
7
  10
 932.129
  20
 439.645
  30
0.0
  40
 5.00000
  50
 102.248
  51
 183.191
   0
LINE
   8
LEVEL050
   6
CONTINUOUS
  62
7
  10
 927.404
  20
 432.356
  30
0.0
  11
 927.138
  21
 439.366
  31
0.0
   0
LINE
   8
LEVEL001
   6
CONTINUOUS
  62
7
  10
 928.162
  20
 438.749
  30
0.0
  11
 928.446
  21
 431.267
  31
0.0
   0
LINE
   8
LEVEL001
   6
CONTINUOUS
  62
7
  10
 931.196
  20
 437.921
  30
0.0
  11
 931.480
  21
 430.439
  31
0.0
   0
LINE
   8
LEVEL001
   6
CONTINUOUS
  62
7
  10
 932.704
  20
 437.737
  30
0.0
  11
 932.988
  21
 430.255
  31
0.0
   0
LINE
   8
LEVEL001
   6
CONTINUOUS
  62
7
  10
 934.209
  20
 437.637
  30
0.0
  11
 934.493
  21
 430.154
  31
0.0
   0
LINE
   8
LEVEL001
   6
CONTINUOUS
  62
7
  10
 935.711
  20
 437.604
  30
0.0
  11
 935.995
  21
 430.121
  31
0.0
   0
LINE
   8
LEVEL001
   6
CONTINUOUS
  62
7
  10
 938.709
  20
 437.717
  30
0.0
  11
 938.993
  21
 430.235
  31
0.0
   0
LINE
   8
LEVEL001
   6
CONTINUOUS
  62
7
  10
 940.204
  20
 437.864
  30
0.0
  11
 940.488
  21
 430.382
  31
0.0
   0
LINE
   8
LEVEL001
   6
CONTINUOUS
  62
7
  10
 941.697
  20
 438.079
  30
0.0
  11
 941.981
  21
 430.596
  31
0.0
   0
LINE
   8
LEVEL001
   6
CONTINUOUS
  62
7
  10
 943.187
  20
 438.376
  30
0.0
  11
 943.471
  21
 430.894
  31
0.0
   0
LINE
   8
LEVEL001
   6
CONTINUOUS
  62
7
  10
 944.672
  20
 438.791
  30
0.0
  11
 944.956
  21
 431.309
  31
0.0
   0
LINE
   8
LEVEL001
   6
CONTINUOUS
  62
7
  10
 930.090
  20
 429.174
  30
0.0
  11
 930.278
  21
 428.943
  31
0.0
   0
LINE
   8
LEVEL001
   6
CONTINUOUS
  62
7
  10
 930.278
  20
 428.943
  30
0.0
  11
 930.579
  21
 428.724
  31
0.0
   0
LINE
   8
LEVEL001
   6
CONTINUOUS
  62
7
  10
 930.579
  20
 428.724
  30
0.0
  11
 930.988
  21
 428.520
  31
0.0
   0
LINE
   8
LEVEL001
   6
CONTINUOUS
  62
7
  10
 930.988
  20
 428.520
  30
0.0
  11
 931.499
  21
 428.335
  31
0.0
   0
LINE
   8
LEVEL001
   6
CONTINUOUS
  62
7
  10
 931.499
  20
 428.335
  30
0.0
  11
 932.104
  21
 428.171
  31
0.0
   0
LINE
   8
LEVEL001
   6
CONTINUOUS
  62
7
  10
 932.104
  20
 428.171
  30
0.0
  11
 932.793
  21
 428.031
  31
0.0
   0
LINE
   8
LEVEL001
   6
CONTINUOUS
  62
7
  10
 932.793
  20
 428.031
  30
0.0
  11
 933.556
  21
 427.917
  31
0.0
   0
LINE
   8
LEVEL001
   6
CONTINUOUS
  62
7
  10
 933.556
  20
 427.917
  30
0.0
  11
 934.381
  21
 427.832
  31
0.0
   0
LINE
   8
LEVEL001
   6
CONTINUOUS
  62
7
  10
 934.381
  20
 427.832
  30
0.0
  11
 935.254
  21
 427.775
  31
0.0
   0
LINE
   8
LEVEL001
   6
CONTINUOUS
  62
7
  10
 935.254
  20
 427.775
  30
0.0
  11
 936.163
  21
 427.749
  31
0.0
   0
LINE
   8
LEVEL001
   6
CONTINUOUS
  62
7
  10
 936.163
  20
 427.749
  30
0.0
  11
 937.092
  21
 427.753
  31
0.0
   0
LINE
   8
LEVEL001
   6
CONTINUOUS
  62
7
  10
 937.092
  20
 427.753
  30
0.0
  11
 938.029
  21
 427.788
  31
0.0
   0
LINE
   8
LEVEL001
   6
CONTINUOUS
  62
7
  10
 938.029
  20
 427.788
  30
0.0
  11
 938.957
  21
 427.853
  31
0.0
   0
LINE
   8
LEVEL001
   6
CONTINUOUS
  62
7
  10
 938.957
  20
 427.853
  30
0.0
  11
 939.862
  21
 427.946
  31
0.0
   0
LINE
   8
LEVEL001
   6
CONTINUOUS
  62
7
  10
 939.862
  20
 427.946
  30
0.0
  11
 940.731
  21
 428.067
  31
0.0
   0
LINE
   8
LEVEL001
   6
CONTINUOUS
  62
7
  10
 940.731
  20
 428.067
  30
0.0
  11
 941.550
  21
 428.214
  31
0.0
   0
LINE
   8
LEVEL001
   6
CONTINUOUS
  62
7
  10
 941.550
  20
 428.214
  30
0.0
  11
 942.306
  21
 428.384
  31
0.0
   0
LINE
   8
LEVEL001
   6
CONTINUOUS
  62
7
  10
 942.306
  20
 428.384
  30
0.0
  11
 942.987
  21
 428.575
  31
0.0
   0
LINE
   8
LEVEL001
   6
CONTINUOUS
  62
7
  10
 942.987
  20
 428.575
  30
0.0
  11
 943.582
  21
 428.783
  31
0.0
   0
LINE
   8
LEVEL001
   6
CONTINUOUS
  62
7
  10
 943.582
  20
 428.783
  30
0.0
  11
 944.083
  21
 429.006
  31
0.0
   0
LINE
   8
LEVEL001
   6
CONTINUOUS
  62
7
  10
 944.083
  20
 429.006
  30
0.0
  11
 944.481
  21
 429.239
  31
0.0
   0
LINE
   8
LEVEL001
   6
CONTINUOUS
  62
7
  10
 944.481
  20
 429.239
  30
0.0
  11
 944.770
  21
 429.480
  31
0.0
   0
LINE
   8
LEVEL001
   6
CONTINUOUS
  62
7
  10
 944.770
  20
 429.480
  30
0.0
  11
 944.947
  21
 429.725
  31
0.0
   0
LINE
   8
LEVEL001
   6
CONTINUOUS
  62
7
  10
 944.947
  20
 429.725
  30
0.0
  11
 944.953
  21
 429.738
  31
0.0
   0
LINE
   8
LEVEL001
   6
CONTINUOUS
  62
7
  10
 947.052
  20
 432.409
  30
0.0
  11
 945.427
  21
 430.773
  31
0.0
   0
LINE
   8
LEVEL050
   6
CONTINUOUS
  62
7
  10
 947.390
  20
 433.114
  30
0.0
  11
 947.124
  21
 440.125
  31
0.0
   0
LINE
   8
LEVEL001
   6
CONTINUOUS
  62
7
  10
 946.149
  20
 439.432
  30
0.0
  11
 946.433
  21
 431.949
  31
0.0
   0
LINE
   8
LEVEL001
   6
CONTINUOUS
  62
7
  10
 945.427
  20
 430.773
  30
0.0
  11
 944.953
  21
 429.738
  31
0.0
   0
LINE
   8
LEVEL001
   6
CONTINUOUS
  62
7
  10
 927.404
  20
 432.356
  30
0.0
  11
 927.494
  21
 432.037
  31
0.0
   0
LINE
   8
LEVEL001
   6
CONTINUOUS
  62
7
  10
 927.494
  20
 432.037
  30
0.0
  11
 927.739
  21
 431.728
  31
0.0
   0
LINE
   8
LEVEL001
   6
CONTINUOUS
  62
7
  10
 927.739
  20
 431.728
  30
0.0
  11
 928.134
  21
 431.435
  31
0.0
   0
LINE
   8
LEVEL001
   6
CONTINUOUS
  62
7
  10
 928.134
  20
 431.435
  30
0.0
  11
 928.674
  21
 431.163
  31
0.0
   0
LINE
   8
LEVEL001
   6
CONTINUOUS
  62
7
  10
 928.674
  20
 431.163
  30
0.0
  11
 929.350
  21
 430.914
  31
0.0
   0
LINE
   8
LEVEL001
   6
CONTINUOUS
  62
7
  10
 929.350
  20
 430.914
  30
0.0
  11
 930.152
  21
 430.695
  31
0.0
   0
LINE
   8
LEVEL001
   6
CONTINUOUS
  62
7
  10
 930.152
  20
 430.695
  30
0.0
  11
 931.067
  21
 430.507
  31
0.0
   0
LINE
   8
LEVEL001
   6
CONTINUOUS
  62
7
  10
 931.067
  20
 430.507
  30
0.0
  11
 932.080
  21
 430.354
  31
0.0
   0
LINE
   8
LEVEL001
   6
CONTINUOUS
  62
7
  10
 932.080
  20
 430.354
  30
0.0
  11
 933.177
  21
 430.238
  31
0.0
   0
LINE
   8
LEVEL001
   6
CONTINUOUS
  62
7
  10
 933.177
  20
 430.238
  30
0.0
  11
 934.339
  21
 430.161
  31
0.0
   0
LINE
   8
LEVEL001
   6
CONTINUOUS
  62
7
  10
 934.339
  20
 430.161
  30
0.0
  11
 935.549
  21
 430.125
  31
0.0
   0
LINE
   8
LEVEL001
   6
CONTINUOUS
  62
7
  10
 935.549
  20
 430.125
  30
0.0
  11
 936.788
  21
 430.129
  31
0.0
   0
LINE
   8
LEVEL001
   6
CONTINUOUS
  62
7
  10
 936.788
  20
 430.129
  30
0.0
  11
 938.036
  21
 430.173
  31
0.0
   0
LINE
   8
LEVEL001
   6
CONTINUOUS
  62
7
  10
 938.036
  20
 430.173
  30
0.0
  11
 939.275
  21
 430.258
  31
0.0
   0
LINE
   8
LEVEL001
   6
CONTINUOUS
  62
7
  10
 939.275
  20
 430.258
  30
0.0
  11
 940.484
  21
 430.381
  31
0.0
   0
LINE
   8
LEVEL001
   6
CONTINUOUS
  62
7
  10
 940.484
  20
 430.381
  30
0.0
  11
 941.645
  21
 430.541
  31
0.0
   0
LINE
   8
LEVEL001
   6
CONTINUOUS
  62
7
  10
 941.645
  20
 430.541
  30
0.0
  11
 942.739
  21
 430.736
  31
0.0
   0
LINE
   8
LEVEL001
   6
CONTINUOUS
  62
7
  10
 942.739
  20
 430.736
  30
0.0
  11
 943.750
  21
 430.961
  31
0.0
   0
LINE
   8
LEVEL001
   6
CONTINUOUS
  62
7
  10
 943.750
  20
 430.961
  30
0.0
  11
 944.663
  21
 431.214
  31
0.0
   0
LINE
   8
LEVEL001
   6
CONTINUOUS
  62
7
  10
 944.663
  20
 431.214
  30
0.0
  11
 945.461
  21
 431.491
  31
0.0
   0
LINE
   8
LEVEL001
   6
CONTINUOUS
  62
7
  10
 945.461
  20
 431.491
  30
0.0
  11
 946.134
  21
 431.787
  31
0.0
   0
LINE
   8
LEVEL001
   6
CONTINUOUS
  62
7
  10
 946.134
  20
 431.787
  30
0.0
  11
 946.671
  21
 432.099
  31
0.0
   0
LINE
   8
LEVEL001
   6
CONTINUOUS
  62
7
  10
 946.671
  20
 432.099
  30
0.0
  11
 947.063
  21
 432.420
  31
0.0
   0
LINE
   8
LEVEL001
   6
CONTINUOUS
  62
7
  10
 947.063
  20
 432.420
  30
0.0
  11
 947.304
  21
 432.746
  31
0.0
   0
LINE
   8
LEVEL001
   6
CONTINUOUS
  62
7
  10
 947.304
  20
 432.746
  30
0.0
  11
 947.390
  21
 433.071
  31
0.0
   0
LINE
   8
LEVEL001
   6
CONTINUOUS
  62
7
  10
 947.390
  20
 433.071
  30
0.0
  11
 947.390
  21
 433.114
  31
0.0
   0
LINE
   8
LEVEL001
   6
CONTINUOUS
  62
7
  10
 929.538
  20
 430.170
  30
0.0
  11
 929.885
  21
 429.931
  31
0.0
   0
LINE
   8
LEVEL001
   6
CONTINUOUS
  62
7
  10
 929.885
  20
 429.931
  30
0.0
  11
 930.349
  21
 429.709
  31
0.0
   0
LINE
   8
LEVEL001
   6
CONTINUOUS
  62
7
  10
 930.349
  20
 429.709
  30
0.0
  11
 930.925
  21
 429.508
  31
0.0
   0
LINE
   8
LEVEL001
   6
CONTINUOUS
  62
7
  10
 930.925
  20
 429.508
  30
0.0
  11
 931.602
  21
 429.331
  31
0.0
   0
LINE
   8
LEVEL001
   6
CONTINUOUS
  62
7
  10
 931.602
  20
 429.331
  30
0.0
  11
 932.371
  21
 429.181
  31
0.0
   0
LINE
   8
LEVEL001
   6
CONTINUOUS
  62
7
  10
 932.371
  20
 429.181
  30
0.0
  11
 933.219
  21
 429.059
  31
0.0
   0
LINE
   8
LEVEL001
   6
CONTINUOUS
  62
7
  10
 933.219
  20
 429.059
  30
0.0
  11
 934.134
  21
 428.969
  31
0.0
   0
LINE
   8
LEVEL001
   6
CONTINUOUS
  62
7
  10
 934.134
  20
 428.969
  30
0.0
  11
 935.100
  21
 428.911
  31
0.0
   0
LINE
   8
LEVEL001
   6
CONTINUOUS
  62
7
  10
 935.100
  20
 428.911
  30
0.0
  11
 936.103
  21
 428.886
  31
0.0
   0
LINE
   8
LEVEL001
   6
CONTINUOUS
  62
7
  10
 936.103
  20
 428.886
  30
0.0
  11
 937.128
  21
 428.895
  31
0.0
   0
LINE
   8
LEVEL001
   6
CONTINUOUS
  62
7
  10
 937.128
  20
 428.895
  30
0.0
  11
 938.157
  21
 428.937
  31
0.0
   0
LINE
   8
LEVEL001
   6
CONTINUOUS
  62
7
  10
 938.157
  20
 428.937
  30
0.0
  11
 939.176
  21
 429.012
  31
0.0
   0
LINE
   8
LEVEL001
   6
CONTINUOUS
  62
7
  10
 939.176
  20
 429.012
  30
0.0
  11
 940.168
  21
 429.119
  31
0.0
   0
LINE
   8
LEVEL001
   6
CONTINUOUS
  62
7
  10
 940.168
  20
 429.119
  30
0.0
  11
 941.118
  21
 429.256
  31
0.0
   0
LINE
   8
LEVEL001
   6
CONTINUOUS
  62
7
  10
 941.118
  20
 429.256
  30
0.0
  11
 942.011
  21
 429.421
  31
0.0
   0
LINE
   8
LEVEL001
   6
CONTINUOUS
  62
7
  10
 942.011
  20
 429.421
  30
0.0
  11
 942.832
  21
 429.611
  31
0.0
   0
LINE
   8
LEVEL001
   6
CONTINUOUS
  62
7
  10
 942.832
  20
 429.611
  30
0.0
  11
 943.570
  21
 429.823
  31
0.0
   0
LINE
   8
LEVEL001
   6
CONTINUOUS
  62
7
  10
 943.570
  20
 429.823
  30
0.0
  11
 944.213
  21
 430.054
  31
0.0
   0
LINE
   8
LEVEL001
   6
CONTINUOUS
  62
7
  10
 944.213
  20
 430.054
  30
0.0
  11
 944.750
  21
 430.301
  31
0.0
   0
LINE
   8
LEVEL001
   6
CONTINUOUS
  62
7
  10
 944.750
  20
 430.301
  30
0.0
  11
 945.173
  21
 430.559
  31
0.0
   0
LINE
   8
LEVEL001
   6
CONTINUOUS
  62
7
  10
 945.173
  20
 430.559
  30
0.0
  11
 945.427
  21
 430.773
  31
0.0
   0
LINE
   8
LEVEL001
   6
CONTINUOUS
  62
7
  10
 929.538
  20
 430.170
  30
0.0
  11
 930.090
  21
 429.174
  31
0.0
   0
LINE
   8
LEVEL001
   6
CONTINUOUS
  62
7
  10
 927.794
  20
 431.679
  30
0.0
  11
 929.538
  21
 430.170
  31
0.0
   0
LINE
   8
LEVEL001
   6
CONTINUOUS
  62
7
  10
 929.683
  20
 438.223
  30
0.0
  11
 929.967
  21
 430.740
  31
0.0
   0
LINE
   8
LEVEL003
   6
CONTINUOUS
  62
7
  10
 964.167
  20
 399.737
  30
0.0
  11
 967.665
  21
 399.870
  31
0.0
   0
LINE
   8
LEVEL003
   6
CONTINUOUS
  62
7
  10
 965.001
  20
 377.753
  30
0.0
  11
 968.499
  21
 377.886
  31
0.0
   0
LINE
   8
LEVEL003
   6
CONTINUOUS
  62
7
  10
 967.556
  20
 402.724
  30
0.0
  11
 968.607
  21
 375.031
  31
0.0
   0
LINE
   8
LEVEL001
   6
CONTINUOUS
  62
7
  10
 386.929
  20
 477.114
  30
0.0
  11
 385.987
  21
 476.059
  31
0.0
   0
ARC
   8
LEVEL001
   6
CONTINUOUS
  62
7
  10
 937.365
  20
 433.508
  30
0.0
  40
 13.0684
  50
 217.333
  51
 327.192
   0
ARC
   8
LEVEL001
   6
CONTINUOUS
  62
7
  10
 935.082
  20
 414.618
  30
0.0
  40
 20.0000
  50
 2.17291
  51
 39.1223
   0
ARC
   8
LEVEL001
   6
CONTINUOUS
  62
7
  10
 952.870
  20
 429.085
  30
0.0
  40
 3.00000
  50
 166.293
  51
 219.122
   0
LINE
   8
LEVEL001
   6
CONTINUOUS
  62
7
  10
 950.003
  20
 430.181
  30
0.0
  11
 949.890
  21
 430.581
  31
0.0
   0
LINE
   8
LEVEL001
   6
CONTINUOUS
  62
7
  10
 949.890
  20
 430.581
  30
0.0
  11
 949.584
  21
 430.966
  31
0.0
   0
LINE
   8
LEVEL001
   6
CONTINUOUS
  62
7
  10
 949.584
  20
 430.966
  30
0.0
  11
 949.090
  21
 431.333
  31
0.0
   0
LINE
   8
LEVEL001
   6
CONTINUOUS
  62
7
  10
 949.090
  20
 431.333
  30
0.0
  11
 948.415
  21
 431.673
  31
0.0
   0
LINE
   8
LEVEL001
   6
CONTINUOUS
  62
7
  10
 948.415
  20
 431.673
  30
0.0
  11
 947.570
  21
 431.983
  31
0.0
   0
LINE
   8
LEVEL001
   6
CONTINUOUS
  62
7
  10
 947.570
  20
 431.983
  30
0.0
  11
 946.768
  21
 432.209
  31
0.0
   0
LINE
   8
LEVEL001
   6
CONTINUOUS
  62
7
  10
 925.022
  20
 429.216
  30
0.0
  11
 925.143
  21
 428.817
  31
0.0
   0
LINE
   8
LEVEL001
   6
CONTINUOUS
  62
7
  10
 925.143
  20
 428.817
  30
0.0
  11
 925.457
  21
 428.432
  31
0.0
   0
LINE
   8
LEVEL001
   6
CONTINUOUS
  62
7
  10
 925.457
  20
 428.432
  30
0.0
  11
 925.960
  21
 428.067
  31
0.0
   0
LINE
   8
LEVEL001
   6
CONTINUOUS
  62
7
  10
 925.960
  20
 428.067
  30
0.0
  11
 926.643
  21
 427.727
  31
0.0
   0
LINE
   8
LEVEL001
   6
CONTINUOUS
  62
7
  10
 926.643
  20
 427.727
  30
0.0
  11
 927.495
  21
 427.419
  31
0.0
   0
LINE
   8
LEVEL001
   6
CONTINUOUS
  62
7
  10
 927.495
  20
 427.419
  30
0.0
  11
 928.504
  21
 427.146
  31
0.0
   0
LINE
   8
LEVEL001
   6
CONTINUOUS
  62
7
  10
 928.504
  20
 427.146
  30
0.0
  11
 929.653
  21
 426.913
  31
0.0
   0
LINE
   8
LEVEL001
   6
CONTINUOUS
  62
7
  10
 929.653
  20
 426.913
  30
0.0
  11
 930.925
  21
 426.724
  31
0.0
   0
LINE
   8
LEVEL001
   6
CONTINUOUS
  62
7
  10
 930.925
  20
 426.724
  30
0.0
  11
 932.299
  21
 426.581
  31
0.0
   0
LINE
   8
LEVEL001
   6
CONTINUOUS
  62
7
  10
 932.299
  20
 426.581
  30
0.0
  11
 933.755
  21
 426.487
  31
0.0
   0
LINE
   8
LEVEL001
   6
CONTINUOUS
  62
7
  10
 933.755
  20
 426.487
  30
0.0
  11
 935.270
  21
 426.443
  31
0.0
   0
LINE
   8
LEVEL001
   6
CONTINUOUS
  62
7
  10
 935.270
  20
 426.443
  30
0.0
  11
 936.820
  21
 426.450
  31
0.0
   0
LINE
   8
LEVEL001
   6
CONTINUOUS
  62
7
  10
 936.820
  20
 426.450
  30
0.0
  11
 938.380
  21
 426.509
  31
0.0
   0
LINE
   8
LEVEL001
   6
CONTINUOUS
  62
7
  10
 938.380
  20
 426.509
  30
0.0
  11
 939.927
  21
 426.617
  31
0.0
   0
LINE
   8
LEVEL001
   6
CONTINUOUS
  62
7
  10
 939.927
  20
 426.617
  30
0.0
  11
 941.436
  21
 426.773
  31
0.0
   0
LINE
   8
LEVEL001
   6
CONTINUOUS
  62
7
  10
 941.436
  20
 426.773
  30
0.0
  11
 942.884
  21
 426.975
  31
0.0
   0
LINE
   8
LEVEL001
   6
CONTINUOUS
  62
7
  10
 942.884
  20
 426.975
  30
0.0
  11
 944.248
  21
 427.220
  31
0.0
   0
LINE
   8
LEVEL001
   6
CONTINUOUS
  62
7
  10
 944.248
  20
 427.220
  30
0.0
  11
 945.507
  21
 427.503
  31
0.0
   0
LINE
   8
LEVEL001
   6
CONTINUOUS
  62
7
  10
 945.507
  20
 427.503
  30
0.0
  11
 946.641
  21
 427.821
  31
0.0
   0
LINE
   8
LEVEL001
   6
CONTINUOUS
  62
7
  10
 946.641
  20
 427.821
  30
0.0
  11
 947.633
  21
 428.168
  31
0.0
   0
LINE
   8
LEVEL001
   6
CONTINUOUS
  62
7
  10
 947.633
  20
 428.168
  30
0.0
  11
 948.300
  21
 428.457
  31
0.0
   0
LINE
   8
LEVEL003
   6
CONTINUOUS
  62
7
  10
 960.302
  20
 501.602
  30
0.0
  11
 960.693
  21
 491.304
  31
0.0
   0
LINE
   8
LEVEL003
   6
CONTINUOUS
  62
7
  10
 960.693
  20
 491.304
  30
0.0
  11
 963.891
  21
 491.425
  31
0.0
   0
LINE
   8
LEVEL003
   6
CONTINUOUS
  62
7
  10
 963.891
  20
 491.425
  30
0.0
  11
 963.500
  21
 501.723
  31
0.0
   0
LINE
   8
LEVEL003
   6
CONTINUOUS
  62
7
  10
 963.500
  20
 501.723
  30
0.0
  11
 960.302
  21
 501.602
  31
0.0
   0
LINE
   8
LEVEL003
   6
CONTINUOUS
  62
7
  10
 964.365
  20
 478.925
  30
0.0
  11
 966.360
  21
 426.340
  31
0.0
   0
LINE
   8
LEVEL003
   6
CONTINUOUS
  62
7
  10
 963.162
  20
 426.218
  30
0.0
  11
 966.360
  21
 426.340
  31
0.0
   0
LINE
   8
LEVEL003
   6
DASHDOT
  62
1
  10
 975.921
  20
 436.209
  30
0.0
  11
 944.534
  21
 435.018
  31
0.0
   0
LINE
   8
LEVEL003
   6
CONTINUOUS
  62
7
  10
 965.801
  20
 441.079
  30
0.0
  11
 966.600
  21
 441.109
  31
0.0
   0
LINE
   8
LEVEL003
   6
CONTINUOUS
  62
7
  10
 966.199
  20
 430.586
  30
0.0
  11
 966.998
  21
 430.617
  31
0.0
   0
LINE
   8
LEVEL001
   6
DASHDOT
  62
1
  10
 359.024
  20
 510.791
  30
0.0
  11
 358.933
  21
 509.379
  31
0.0
   0
LINE
   8
LEVEL001
   6
CONTINUOUS
  62
7
  10
 353.942
  20
 430.709
  30
0.0
  11
 334.952
  21
 430.078
  31
0.0
   0
LINE
   8
LEVEL001
   6
CONTINUOUS
  62
7
  10
 334.952
  20
 430.078
  30
0.0
  11
 334.737
  21
 429.848
  31
0.0
   0
LINE
   8
LEVEL001
   6
CONTINUOUS
  62
7
  10
 353.942
  20
 430.709
  30
0.0
  11
 372.931
  21
 431.340
  31
0.0
   0
LINE
   8
LEVEL001
   6
CONTINUOUS
  62
7
  10
 372.931
  20
 431.340
  30
0.0
  11
 373.162
  21
 431.125
  31
0.0
   0
ARC
   8
LEVEL001
   6
CONTINUOUS
  62
7
  10
 364.303
  20
 432.054
  30
0.0
  40
 1.00000
  50
 181.903
  51
 271.903
   0
LINE
   8
LEVEL001
   6
CONTINUOUS
  62
7
  10
 363.246
  20
 433.743
  30
0.0
  11
 363.304
  21
 432.021
  31
0.0
   0
ARC
   8
LEVEL001
   6
CONTINUOUS
  62
7
  10
 343.514
  20
 431.363
  30
0.0
  40
 1.00000
  50
 271.903
  51
 1.90330
   0
LINE
   8
LEVEL001
   6
CONTINUOUS
  62
7
  10
 344.273
  20
 438.638
  30
0.0
  11
 344.514
  21
 431.397
  31
0.0
   0
CIRCLE
   8
LEVEL001
   6
CONTINUOUS
  62
7
  10
 324.168
  20
 453.510
  30
0.0
  40
 5.00000
   0
ARC
   8
LEVEL001
   6
CONTINUOUS
  62
7
  10
 324.168
  20
 453.510
  30
0.0
  40
 10.0000
  50
 72.2153
  51
 152.987
   0
ARC
   8
LEVEL001
   6
CONTINUOUS
  62
7
  10
 340.242
  20
 433.320
  30
0.0
  40
 40.0000
  50
 92.9875
  51
 154.602
   0
CIRCLE
   8
LEVEL001
   6
CONTINUOUS
  62
7
  10
 324.168
  20
 453.510
  30
0.0
  40
 4.00000
   0
LINE
   8
LEVEL001
   6
CONTINUOUS
  62
7
  10
 346.147
  20
 473.683
  30
0.0
  11
 346.095
  21
 474.682
  31
0.0
   0
LINE
   8
LEVEL001
   6
CONTINUOUS
  62
7
  10
 346.095
  20
 474.682
  30
0.0
  11
 489.899
  21
 482.187
  31
0.0
   0
ARC
   8
LEVEL001
   6
CONTINUOUS
  62
7
  10
 384.361
  20
 429.615
  30
0.0
  40
 5.00000
  50
 22.3748
  51
 92.9874
   0
ARC
   8
LEVEL001
   6
CONTINUOUS
  62
7
  10
 491.749
  20
 446.735
  30
0.0
  40
 2.00000
  50
 272.987
  51
 2.98749
   0
ARC
   8
LEVEL001
   6
CONTINUOUS
  62
7
  10
 425.987
  20
 437.295
  30
0.0
  40
 5.00000
  50
 92.9875
  51
 167.999
   0
LINE
   8
LEVEL001
   6
CONTINUOUS
  62
7
  10
 425.727
  20
 442.288
  30
0.0
  11
 483.812
  21
 445.319
  31
0.0
   0
LINE
   8
LEVEL001
   6
CONTINUOUS
  62
7
  10
 483.812
  20
 445.319
  30
0.0
  11
 483.864
  21
 444.321
  31
0.0
   0
LINE
   8
LEVEL001
   6
CONTINUOUS
  62
7
  10
 483.864
  20
 444.321
  30
0.0
  11
 491.853
  21
 444.738
  31
0.0
   0
ARC
   8
LEVEL001
   6
CONTINUOUS
  62
7
  10
 490.003
  20
 480.189
  30
0.0
  40
 2.00000
  50
 2.98749
  51
 92.9875
   0
LINE
   8
LEVEL001
   6
DASHDOT
  62
1
  10
 401.732
  20
 483.093
  30
0.0
  11
 405.615
  21
 408.694
  31
0.0
   0
LINE
   8
LEVEL001
   6
DASHDOT
  62
1
  10
 308.215
  20
 452.678
  30
0.0
  11
 492.939
  21
 462.318
  31
0.0
   0
ARC
   8
LEVEL011
   6
CONTINUOUS
  62
7
  10
 318.722
  20
 450.422
  30
0.0
  40
 2.00000
  50
 92.9875
  51
 146.118
   0
ARC
   8
LEVEL011
   6
CONTINUOUS
  62
7
  10
 317.257
  20
 458.628
  30
0.0
  40
 2.00000
  50
 234.118
  51
 323.476
   0
ARC
   8
LEVEL011
   6
CONTINUOUS
  62
7
  10
 318.722
  20
 450.422
  30
0.0
  40
 3.60000
  50
 92.9875
  51
 146.118
   0
ARC
   8
LEVEL011
   6
CONTINUOUS
  62
7
  10
 317.257
  20
 458.628
  30
0.0
  40
 3.60000
  50
 234.119
  51
 323.475
   0
LINE
   8
LEVEL011
   6
CONTINUOUS
  62
7
  10
 318.534
  20
 454.017
  30
0.0
  11
 319.198
  21
 454.052
  31
0.0
   0
LINE
   8
LEVEL011
   6
CONTINUOUS
  62
7
  10
 318.618
  20
 452.419
  30
0.0
  11
 319.281
  21
 452.454
  31
0.0
   0
ARC
   8
LEVEL011
   6
CONTINUOUS
  62
7
  10
 324.168
  20
 453.510
  30
0.0
  40
 6.59982
  50
 42.4990
  51
 143.476
   0
ARC
   8
LEVEL011
   6
CONTINUOUS
  62
7
  10
 330.509
  20
 459.320
  30
0.0
  40
 2.00000
  50
 222.499
  51
 316.750
   0
LINE
   8
LEVEL003
   6
CONTINUOUS
  62
7
  10
 956.617
  20
 494.528
  30
0.0
  11
 957.451
  21
 478.549
  31
0.0
   0
LINE
   8
LEVEL003
   6
CONTINUOUS
  62
7
  10
 953.727
  20
 497.131
  30
0.0
  11
 954.848
  21
 475.660
  31
0.0
   0
LINE
   8
LEVEL001
   6
CONTINUOUS
  62
7
  10
 492.378
  20
 473.053
  30
0.0
  11
 953.727
  21
 497.131
  31
0.0
   0
LINE
   8
LEVEL001
   6
CONTINUOUS
  62
7
  10
 493.499
  20
 451.583
  30
0.0
  11
 954.848
  21
 475.660
  31
0.0
   0
LINE
   8
LEVEL012
   6
CONTINUOUS
  62
7
  10
 977.960
  20
 474.112
  30
0.0
  11
 976.552
  21
 501.076
  31
0.0
   0
LINE
   8
LEVEL012
   6
CONTINUOUS
  62
7
  10
 976.552
  20
 501.076
  30
0.0
  11
 986.591
  21
 500.598
  31
0.0
   0
LINE
   8
LEVEL012
   6
CONTINUOUS
  62
7
  10
 986.591
  20
 500.598
  30
0.0
  11
 987.894
  21
 475.632
  31
0.0
   0
LINE
   8
LEVEL012
   6
CONTINUOUS
  62
7
  10
 987.894
  20
 475.632
  30
0.0
  11
 977.960
  21
 474.112
  31
0.0
   0
LINE
   8
LEVEL012
   6
CONTINUOUS
  62
3
  10
 989.899
  20
 475.583
  30
0.0
  11
 988.580
  21
 500.856
  31
0.0
   0
LINE
   8
LEVEL012
   6
CONTINUOUS
  62
3
  10
 988.580
  20
 500.856
  30
0.0
  11
 990.570
  21
 501.114
  31
0.0
   0
LINE
   8
LEVEL012
   6
CONTINUOUS
  62
3
  10
 990.570
  20
 501.114
  30
0.0
  11
 991.905
  21
 475.533
  31
0.0
   0
LINE
   8
LEVEL012
   6
CONTINUOUS
  62
3
  10
 991.905
  20
 475.533
  30
0.0
  11
 989.899
  21
 475.583
  31
0.0
   0
LINE
   8
LEVEL012
   6
CONTINUOUS
  62
3
  10
 986.669
  20
 499.096
  30
0.0
  11
 988.659
  21
 499.354
  31
0.0
   0
LINE
   8
LEVEL012
   6
CONTINUOUS
  62
3
  10
 993.910
  20
 475.484
  30
0.0
  11
 992.559
  21
 501.372
  31
0.0
   0
LINE
   8
LEVEL012
   6
CONTINUOUS
  62
3
  10
 992.559
  20
 501.372
  30
0.0
  11
 994.548
  21
 501.630
  31
0.0
   0
LINE
   8
LEVEL012
   6
CONTINUOUS
  62
3
  10
 994.548
  20
 501.630
  30
0.0
  11
 995.915
  21
 475.435
  31
0.0
   0
LINE
   8
LEVEL012
   6
CONTINUOUS
  62
3
  10
 995.915
  20
 475.435
  30
0.0
  11
 993.910
  21
 475.484
  31
0.0
   0
LINE
   8
LEVEL012
   6
CONTINUOUS
  62
3
  10
 997.920
  20
 475.385
  30
0.0
  11
 996.537
  21
 501.888
  31
0.0
   0
LINE
   8
LEVEL012
   6
CONTINUOUS
  62
3
  10
 996.537
  20
 501.888
  30
0.0
  11
 998.527
  21
 502.145
  31
0.0
   0
LINE
   8
LEVEL012
   6
CONTINUOUS
  62
3
  10
 998.527
  20
 502.145
  30
0.0
  11
 999.926
  21
 475.336
  31
0.0
   0
LINE
   8
LEVEL012
   6
CONTINUOUS
  62
3
  10
 999.926
  20
 475.336
  30
0.0
  11
 997.920
  21
 475.385
  31
0.0
   0
LINE
   8
LEVEL012
   6
CONTINUOUS
  62
3
  10
 1001.93
  20
 475.286
  30
0.0
  11
 1000.52
  21
 502.403
  31
0.0
   0
LINE
   8
LEVEL012
   6
CONTINUOUS
  62
3
  10
 1000.52
  20
 502.403
  30
0.0
  11
 1002.51
  21
 502.661
  31
0.0
   0
LINE
   8
LEVEL012
   6
CONTINUOUS
  62
3
  10
 1002.51
  20
 502.661
  30
0.0
  11
 1003.94
  21
 475.237
  31
0.0
   0
LINE
   8
LEVEL012
   6
CONTINUOUS
  62
3
  10
 1003.94
  20
 475.237
  30
0.0
  11
 1001.93
  21
 475.286
  31
0.0
   0
LINE
   8
LEVEL012
   6
CONTINUOUS
  62
3
  10
 1005.94
  20
 475.188
  30
0.0
  11
 1004.49
  21
 502.919
  31
0.0
   0
LINE
   8
LEVEL012
   6
CONTINUOUS
  62
3
  10
 1004.49
  20
 502.919
  30
0.0
  11
 1006.48
  21
 503.177
  31
0.0
   0
LINE
   8
LEVEL012
   6
CONTINUOUS
  62
3
  10
 1006.48
  20
 503.177
  30
0.0
  11
 1007.95
  21
 475.138
  31
0.0
   0
LINE
   8
LEVEL012
   6
CONTINUOUS
  62
3
  10
 1007.95
  20
 475.138
  30
0.0
  11
 1005.94
  21
 475.188
  31
0.0
   0
LINE
   8
LEVEL012
   6
CONTINUOUS
  62
3
  10
 1009.95
  20
 475.089
  30
0.0
  11
 1008.47
  21
 503.435
  31
0.0
   0
LINE
   8
LEVEL012
   6
CONTINUOUS
  62
3
  10
 1008.47
  20
 503.435
  30
0.0
  11
 1010.46
  21
 503.693
  31
0.0
   0
LINE
   8
LEVEL012
   6
CONTINUOUS
  62
3
  10
 1010.46
  20
 503.693
  30
0.0
  11
 1011.96
  21
 475.039
  31
0.0
   0
LINE
   8
LEVEL012
   6
CONTINUOUS
  62
3
  10
 1011.96
  20
 475.039
  30
0.0
  11
 1009.95
  21
 475.089
  31
0.0
   0
LINE
   8
LEVEL012
   6
CONTINUOUS
  62
3
  10
 1013.96
  20
 474.990
  30
0.0
  11
 1012.45
  21
 503.951
  31
0.0
   0
LINE
   8
LEVEL012
   6
CONTINUOUS
  62
3
  10
 1012.45
  20
 503.951
  30
0.0
  11
 1014.44
  21
 504.208
  31
0.0
   0
LINE
   8
LEVEL012
   6
CONTINUOUS
  62
3
  10
 1014.44
  20
 504.208
  30
0.0
  11
 1015.97
  21
 474.941
  31
0.0
   0
LINE
   8
LEVEL012
   6
CONTINUOUS
  62
3
  10
 1015.97
  20
 474.941
  30
0.0
  11
 1013.96
  21
 474.990
  31
0.0
   0
LINE
   8
LEVEL012
   6
CONTINUOUS
  62
3
  10
 990.648
  20
 499.612
  30
0.0
  11
 992.637
  21
 499.869
  31
0.0
   0
LINE
   8
LEVEL012
   6
CONTINUOUS
  62
3
  10
 994.626
  20
 500.127
  30
0.0
  11
 996.616
  21
 500.385
  31
0.0
   0
LINE
   8
LEVEL012
   6
CONTINUOUS
  62
3
  10
 998.605
  20
 500.643
  30
0.0
  11
 1000.59
  21
 500.901
  31
0.0
   0
LINE
   8
LEVEL012
   6
CONTINUOUS
  62
3
  10
 1025.95
  20
 475.581
  30
0.0
  11
 1024.43
  21
 504.610
  31
0.0
   0
LINE
   8
LEVEL012
   6
CONTINUOUS
  62
3
  10
 1024.43
  20
 504.610
  30
0.0
  11
 1026.44
  21
 504.545
  31
0.0
   0
LINE
   8
LEVEL012
   6
CONTINUOUS
  62
3
  10
 1026.44
  20
 504.545
  30
0.0
  11
 1027.94
  21
 475.855
  31
0.0
   0
LINE
   8
LEVEL012
   6
CONTINUOUS
  62
3
  10
 1027.94
  20
 475.855
  30
0.0
  11
 1025.95
  21
 475.581
  31
0.0
   0
LINE
   8
LEVEL012
   6
CONTINUOUS
  62
3
  10
 1029.93
  20
 476.128
  30
0.0
  11
 1028.45
  21
 504.480
  31
0.0
   0
LINE
   8
LEVEL012
   6
CONTINUOUS
  62
3
  10
 1028.45
  20
 504.480
  30
0.0
  11
 1030.45
  21
 504.415
  31
0.0
   0
LINE
   8
LEVEL012
   6
CONTINUOUS
  62
3
  10
 1030.45
  20
 504.415
  30
0.0
  11
 1031.91
  21
 476.402
  31
0.0
   0
LINE
   8
LEVEL012
   6
CONTINUOUS
  62
3
  10
 1031.91
  20
 476.402
  30
0.0
  11
 1029.93
  21
 476.128
  31
0.0
   0
LINE
   8
LEVEL012
   6
CONTINUOUS
  62
3
  10
 1033.90
  20
 476.675
  30
0.0
  11
 1032.46
  21
 504.350
  31
0.0
   0
LINE
   8
LEVEL012
   6
CONTINUOUS
  62
3
  10
 1032.46
  20
 504.350
  30
0.0
  11
 1034.46
  21
 504.285
  31
0.0
   0
LINE
   8
LEVEL012
   6
CONTINUOUS
  62
3
  10
 1034.46
  20
 504.285
  30
0.0
  11
 1035.89
  21
 476.949
  31
0.0
   0
LINE
   8
LEVEL012
   6
CONTINUOUS
  62
3
  10
 1035.89
  20
 476.949
  30
0.0
  11
 1033.90
  21
 476.675
  31
0.0
   0
LINE
   8
LEVEL012
   6
CONTINUOUS
  62
3
  10
 1037.88
  20
 477.222
  30
0.0
  11
 1036.47
  21
 504.220
  31
0.0
   0
LINE
   8
LEVEL012
   6
CONTINUOUS
  62
3
  10
 1036.47
  20
 504.220
  30
0.0
  11
 1038.48
  21
 504.155
  31
0.0
   0
LINE
   8
LEVEL012
   6
CONTINUOUS
  62
3
  10
 1038.48
  20
 504.155
  30
0.0
  11
 1039.87
  21
 477.496
  31
0.0
   0
LINE
   8
LEVEL012
   6
CONTINUOUS
  62
3
  10
 1039.87
  20
 477.496
  30
0.0
  11
 1037.88
  21
 477.222
  31
0.0
   0
LINE
   8
LEVEL012
   6
CONTINUOUS
  62
3
  10
 1041.86
  20
 477.769
  30
0.0
  11
 1040.48
  21
 504.090
  31
0.0
   0
LINE
   8
LEVEL012
   6
CONTINUOUS
  62
3
  10
 1040.48
  20
 504.090
  30
0.0
  11
 1042.49
  21
 504.025
  31
0.0
   0
LINE
   8
LEVEL012
   6
CONTINUOUS
  62
3
  10
 1042.49
  20
 504.025
  30
0.0
  11
 1043.84
  21
 478.043
  31
0.0
   0
LINE
   8
LEVEL012
   6
CONTINUOUS
  62
3
  10
 1043.84
  20
 478.043
  30
0.0
  11
 1041.86
  21
 477.769
  31
0.0
   0
LINE
   8
LEVEL012
   6
CONTINUOUS
  62
3
  10
 1017.20
  20
 489.679
  30
0.0
  11
 1016.43
  21
 504.466
  31
0.0
   0
LINE
   8
LEVEL012
   6
CONTINUOUS
  62
3
  10
 1016.43
  20
 504.466
  30
0.0
  11
 1018.42
  21
 504.724
  31
0.0
   0
LINE
   8
LEVEL012
   6
CONTINUOUS
  62
3
  10
 1018.42
  20
 504.724
  30
0.0
  11
 1019.20
  21
 489.783
  31
0.0
   0
LINE
   8
LEVEL012
   6
CONTINUOUS
  62
3
  10
 1021.20
  20
 489.887
  30
0.0
  11
 1020.42
  21
 504.740
  31
0.0
   0
LINE
   8
LEVEL012
   6
CONTINUOUS
  62
3
  10
 1020.42
  20
 504.740
  30
0.0
  11
 1022.43
  21
 504.675
  31
0.0
   0
LINE
   8
LEVEL012
   6
CONTINUOUS
  62
3
  10
 1022.43
  20
 504.675
  30
0.0
  11
 1023.19
  21
 489.991
  31
0.0
   0
LINE
   8
LEVEL012
   6
CONTINUOUS
  62
3
  10
 1002.58
  20
 501.159
  30
0.0
  11
 1004.57
  21
 501.417
  31
0.0
   0
LINE
   8
LEVEL012
   6
CONTINUOUS
  62
3
  10
 1006.56
  20
 501.675
  30
0.0
  11
 1008.55
  21
 501.932
  31
0.0
   0
LINE
   8
LEVEL012
   6
CONTINUOUS
  62
3
  10
 1010.54
  20
 502.190
  30
0.0
  11
 1012.53
  21
 502.448
  31
0.0
   0
LINE
   8
LEVEL012
   6
CONTINUOUS
  62
3
  10
 1014.52
  20
 502.706
  30
0.0
  11
 1016.51
  21
 502.964
  31
0.0
   0
LINE
   8
LEVEL012
   6
CONTINUOUS
  62
3
  10
 1018.49
  20
 503.302
  30
0.0
  11
 1020.50
  21
 503.237
  31
0.0
   0
LINE
   8
LEVEL012
   6
CONTINUOUS
  62
3
  10
 1022.51
  20
 503.171
  30
0.0
  11
 1024.51
  21
 503.106
  31
0.0
   0
LINE
   8
LEVEL012
   6
CONTINUOUS
  62
3
  10
 1026.52
  20
 503.041
  30
0.0
  11
 1028.52
  21
 502.976
  31
0.0
   0
LINE
   8
LEVEL012
   6
CONTINUOUS
  62
3
  10
 1030.53
  20
 502.911
  30
0.0
  11
 1032.54
  21
 502.846
  31
0.0
   0
LINE
   8
LEVEL012
   6
CONTINUOUS
  62
3
  10
 1034.54
  20
 502.781
  30
0.0
  11
 1036.55
  21
 502.716
  31
0.0
   0
LINE
   8
LEVEL012
   6
CONTINUOUS
  62
3
  10
 1038.55
  20
 502.651
  30
0.0
  11
 1040.56
  21
 502.586
  31
0.0
   0
LINE
   8
LEVEL012
   6
CONTINUOUS
  62
3
  10
 1042.57
  20
 502.521
  30
0.0
  11
 1044.57
  21
 502.456
  31
0.0
   0
LINE
   8
LEVEL012
   6
CONTINUOUS
  62
3
  10
 987.816
  20
 477.135
  30
0.0
  11
 989.821
  21
 477.085
  31
0.0
   0
LINE
   8
LEVEL012
   6
CONTINUOUS
  62
3
  10
 991.826
  20
 477.036
  30
0.0
  11
 993.831
  21
 476.986
  31
0.0
   0
LINE
   8
LEVEL012
   6
CONTINUOUS
  62
3
  10
 995.837
  20
 476.937
  30
0.0
  11
 997.842
  21
 476.888
  31
0.0
   0
LINE
   8
LEVEL012
   6
CONTINUOUS
  62
3
  10
 999.847
  20
 476.838
  30
0.0
  11
 1001.85
  21
 476.789
  31
0.0
   0
LINE
   8
LEVEL012
   6
CONTINUOUS
  62
3
  10
 1003.86
  20
 476.739
  30
0.0
  11
 1005.86
  21
 476.690
  31
0.0
   0
LINE
   8
LEVEL012
   6
CONTINUOUS
  62
3
  10
 1007.87
  20
 476.641
  30
0.0
  11
 1009.87
  21
 476.591
  31
0.0
   0
LINE
   8
LEVEL012
   6
CONTINUOUS
  62
3
  10
 1011.88
  20
 476.542
  30
0.0
  11
 1013.88
  21
 476.492
  31
0.0
   0
LINE
   8
LEVEL012
   6
CONTINUOUS
  62
3
  10
 1035.81
  20
 478.452
  30
0.0
  11
 1037.80
  21
 478.726
  31
0.0
   0
LINE
   8
LEVEL012
   6
CONTINUOUS
  62
3
  10
 1039.79
  20
 478.999
  30
0.0
  11
 1041.78
  21
 479.273
  31
0.0
   0
LINE
   8
LEVEL012
   6
CONTINUOUS
  62
3
  10
 1043.77
  20
 479.546
  30
0.0
  11
 1045.75
  21
 479.820
  31
0.0
   0
LINE
   8
LEVEL012
   6
CONTINUOUS
  62
3
  10
 1015.89
  20
 476.443
  30
0.0
  11
 1017.90
  21
 476.394
  31
0.0
   0
LINE
   8
LEVEL012
   6
CONTINUOUS
  62
3
  10
 1019.90
  20
 476.264
  30
0.0
  11
 1021.89
  21
 476.538
  31
0.0
   0
LINE
   8
LEVEL012
   6
CONTINUOUS
  62
3
  10
 1023.88
  20
 476.811
  30
0.0
  11
 1025.87
  21
 477.085
  31
0.0
   0
LINE
   8
LEVEL012
   6
CONTINUOUS
  62
3
  10
 1027.86
  20
 477.358
  30
0.0
  11
 1029.85
  21
 477.632
  31
0.0
   0
LINE
   8
LEVEL012
   6
CONTINUOUS
  62
3
  10
 1031.84
  20
 477.905
  30
0.0
  11
 1033.82
  21
 478.179
  31
0.0
   0
LINE
   8
LEVEL012
   6
CONTINUOUS
  62
3
  10
 1017.20
  20
 489.679
  30
0.0
  11
 1017.97
  21
 474.891
  31
0.0
   0
LINE
   8
LEVEL012
   6
CONTINUOUS
  62
3
  10
 1017.97
  20
 474.891
  30
0.0
  11
 1019.98
  21
 474.842
  31
0.0
   0
LINE
   8
LEVEL012
   6
CONTINUOUS
  62
3
  10
 1019.98
  20
 474.842
  30
0.0
  11
 1019.20
  21
 489.783
  31
0.0
   0
LINE
   8
LEVEL012
   6
CONTINUOUS
  62
3
  10
 1021.20
  20
 489.887
  30
0.0
  11
 1021.97
  21
 475.035
  31
0.0
   0
LINE
   8
LEVEL012
   6
CONTINUOUS
  62
3
  10
 1021.97
  20
 475.035
  30
0.0
  11
 1023.96
  21
 475.308
  31
0.0
   0
LINE
   8
LEVEL012
   6
CONTINUOUS
  62
3
  10
 1023.96
  20
 475.308
  30
0.0
  11
 1023.19
  21
 489.991
  31
0.0
   0
LINE
   8
LEVEL003
   6
DASHDOT
  62
1
  10
 492.939
  20
 462.318
  30
0.0
  11
 1071.23
  21
 492.498
  31
0.0
   0
LINE
   8
LEVEL003
   6
CONTINUOUS
  62
7
  10
 954.848
  20
 475.660
  30
0.0
  11
 957.451
  21
 478.549
  31
0.0
   0
LINE
   8
LEVEL003
   6
CONTINUOUS
  62
7
  10
 957.451
  20
 478.549
  30
0.0
  11
 977.673
  21
 479.605
  31
0.0
   0
LINE
   8
LEVEL012
   6
CONTINUOUS
  62
7
  10
 1049.81
  20
 478.863
  30
0.0
  11
 1048.51
  21
 503.830
  31
0.0
   0
LINE
   8
LEVEL012
   6
CONTINUOUS
  62
7
  10
 1048.51
  20
 503.830
  30
0.0
  11
 1058.44
  21
 505.349
  31
0.0
   0
LINE
   8
LEVEL012
   6
CONTINUOUS
  62
7
  10
 1058.44
  20
 505.349
  30
0.0
  11
 1059.85
  21
 478.386
  31
0.0
   0
LINE
   8
LEVEL012
   6
CONTINUOUS
  62
7
  10
 1059.85
  20
 478.386
  30
0.0
  11
 1049.81
  21
 478.863
  31
0.0
   0
ARC
   8
LEVEL012
   6
CONTINUOUS
  62
7
  10
 1030.31
  20
 490.363
  30
0.0
  40
 31.8750
  50
 337.930
  51
 28.0451
   0
LINE
   8
LEVEL012
   6
CONTINUOUS
  62
3
  10
 1045.83
  20
 478.316
  30
0.0
  11
 1044.49
  21
 503.960
  31
0.0
   0
LINE
   8
LEVEL012
   6
CONTINUOUS
  62
3
  10
 1044.49
  20
 503.960
  30
0.0
  11
 1046.50
  21
 503.895
  31
0.0
   0
LINE
   8
LEVEL012
   6
CONTINUOUS
  62
3
  10
 1046.50
  20
 503.895
  30
0.0
  11
 1047.82
  21
 478.590
  31
0.0
   0
LINE
   8
LEVEL012
   6
CONTINUOUS
  62
3
  10
 1047.82
  20
 478.590
  30
0.0
  11
 1045.83
  21
 478.316
  31
0.0
   0
LINE
   8
LEVEL012
   6
CONTINUOUS
  62
3
  10
 1046.58
  20
 502.391
  30
0.0
  11
 1048.59
  21
 502.326
  31
0.0
   0
LINE
   8
LEVEL012
   6
CONTINUOUS
  62
3
  10
 1047.74
  20
 480.093
  30
0.0
  11
 1049.73
  21
 480.367
  31
0.0
   0
ARC
   8
LEVEL011
   6
CONTINUOUS
  62
7
  10
 313.741
  20
 453.767
  30
0.0
  40
 4.00000
  50
 54.1183
  51
 326.118
   0
ARC
   8
LEVEL011
   6
CONTINUOUS
  62
7
  10
 313.741
  20
 453.767
  30
0.0
  40
 2.40000
  50
 54.1190
  51
 326.118
   0
LINE
   8
LEVEL001
   6
CONTINUOUS
  62
7
  10
 315.259
  20
 458.052
  30
0.0
  11
 315.009
  21
 457.561
  31
0.0
   0
LINE
   8
LEVEL001
   6
CONTINUOUS
  62
7
  10
 314.268
  20
 456.108
  30
0.0
  11
 312.156
  21
 451.965
  31
0.0
   0
LINE
   8
LEVEL001
   6
CONTINUOUS
  62
7
  10
 311.415
  20
 450.512
  30
0.0
  11
 309.294
  21
 446.350
  31
0.0
   0
LINE
   8
LEVEL001
   6
DASHDOT
  62
1
  10
 323.490
  20
 466.502
  30
0.0
  11
 325.033
  21
 436.947
  31
0.0
   0
ARC
   8
LEVEL001
   6
CONTINUOUS
  62
7
  10
 399.497
  20
 410.789
  30
0.0
  40
 2.00000
  50
 2.98749
  51
 41.1474
   0
ARC
   8
LEVEL001
   6
CONTINUOUS
  62
7
  10
 411.481
  20
 411.414
  30
0.0
  40
 2.00000
  50
 144.828
  51
 182.987
   0
LINE
   8
LEVEL001
   6
CONTINUOUS
  62
7
  10
 492.000
  20
 480.294
  30
0.0
  11
 493.746
  21
 446.839
  31
0.0
   0
CIRCLE
   8
LEVEL001
   6
CONTINUOUS
  62
7
  10
 353.702
  20
 444.036
  30
0.0
  40
 5.00000
   0
LINE
   8
LEVEL011
   6
CONTINUOUS
  62
7
  10
 335.893
  20
 459.789
  30
0.0
  11
 333.131
  21
 456.853
  31
0.0
   0
LINE
   8
LEVEL011
   6
CONTINUOUS
  62
7
  10
 334.727
  20
 460.885
  30
0.0
  11
 335.893
  21
 459.789
  31
0.0
   0
LINE
   8
LEVEL011
   6
CONTINUOUS
  62
7
  10
 334.727
  20
 460.885
  30
0.0
  11
 331.966
  21
 457.950
  31
0.0
   0
LINE
   8
LEVEL011
   6
CONTINUOUS
  62
7
  10
 337.408
  20
 455.002
  30
0.0
  11
 337.492
  21
 453.404
  31
0.0
   0
ARC
   8
LEVEL011
   6
CONTINUOUS
  62
7
  10
 330.509
  20
 459.320
  30
0.0
  40
 3.60000
  50
 222.500
  51
 316.748
   0
LINE
   8
LEVEL011
   6
CONTINUOUS
  62
7
  10
 329.055
  20
 454.566
  30
0.0
  11
 337.408
  21
 455.002
  31
0.0
   0
LINE
   8
LEVEL011
   6
CONTINUOUS
  62
7
  10
 329.139
  20
 452.968
  30
0.0
  11
 337.492
  21
 453.404
  31
0.0
   0
LINE
   8
LEVEL001
   6
CONTINUOUS
  62
7
  10
 409.447
  20
 412.006
  30
0.0
  11
 401.458
  21
 411.589
  31
0.0
   0
ARC
   8
LEVEL001
   6
CONTINUOUS
  62
7
  10
 453.715
  20
 458.164
  30
0.0
  40
 70.0000
  50
 202.375
  51
 221.147
   0
ARC
   8
LEVEL001
   6
CONTINUOUS
  62
7
  10
 352.626
  20
 452.889
  30
0.0
  40
 70.0000
  50
 324.828
  51
 347.999
   0
LINE
   8
LEVEL001
   6
DASHDOT
  62
1
  10
 343.335
  20
 443.495
  30
0.0
  11
 364.987
  21
 444.625
  31
0.0
   0
LINE
   8
LEVEL001
   6
CONTINUOUS
  62
7
  10
 354.275
  20
 433.051
  30
0.0
  11
 384.100
  21
 434.608
  31
0.0
   0
LINE
   8
LEVEL001
   6
CONTINUOUS
  62
7
  10
 304.108
  20
 450.477
  30
0.0
  11
 314.755
  21
 442.004
  31
0.0
   0
LINE
   8
LEVEL001
   6
CONTINUOUS
  62
7
  10
 314.755
  20
 442.004
  30
0.0
  11
 340.046
  21
 443.324
  31
0.0
   0
ARC
   8
LEVEL001
   6
CONTINUOUS
  62
7
  10
 340.202
  20
 440.328
  30
0.0
  40
 3.00000
  50
 15.3611
  51
 92.9875
   0
ARC
   8
LEVEL001
   6
CONTINUOUS
  62
7
  10
 353.702
  20
 444.036
  30
0.0
  40
 11.0000
  50
 195.361
  51
 272.987
   0
LINE
   8
LEVEL001
   6
CONTINUOUS
  62
7
  10
 363.689
  20
 444.558
  30
0.0
  11
 364.262
  21
 433.573
  31
0.0
   0
ARC
   8
LEVEL001
   6
CONTINUOUS
  62
7
  10
 353.702
  20
 444.036
  30
0.0
  40
 10.0000
  50
 2.98749
  51
 72.2152
   0
LINE
   8
LEVEL001
   6
CONTINUOUS
  62
7
  10
 327.223
  20
 463.032
  30
0.0
  11
 334.539
  21
 460.685
  31
0.0
   0
LINE
   8
LEVEL001
   6
CONTINUOUS
  62
7
  10
 335.147
  20
 460.490
  30
0.0
  11
 356.757
  21
 453.559
  31
0.0
   0
LINE
   8
LEVEL001
   6
CONTINUOUS
  62
7
  10
 411.390
  20
 450.240
  30
0.0
  11
 419.320
  21
 443.208
  31
0.0
   0
LINE
   8
LEVEL001
   6
CONTINUOUS
  62
7
  10
 410.576
  20
 465.841
  30
0.0
  11
 417.731
  21
 473.661
  31
0.0
   0
LINE
   8
LEVEL001
   6
CONTINUOUS
  62
7
  10
 338.158
  20
 473.266
  30
0.0
  11
 386.092
  21
 475.768
  31
0.0
   0
CIRCLE
   8
LEVEL001
   6
CONTINUOUS
  62
7
  10
 353.702
  20
 444.036
  30
0.0
  40
 4.00000
   0
LINE
   8
LEVEL001
   6
CONTINUOUS
  62
7
  10
 416.998
  20
 478.382
  30
0.0
  11
 418.049
  21
 477.435
  31
0.0
   0
LINE
   8
LEVEL001
   6
CONTINUOUS
  62
7
  10
 478.966
  20
 480.615
  30
0.0
  11
 418.049
  21
 477.435
  31
0.0
   0
ARC
   8
LEVEL001
   6
CONTINUOUS
  62
7
  10
 479.122
  20
 477.619
  30
0.0
  40
 3.00000
  50
 2.98749
  51
 92.9875
   0
POINT
   8
LEVEL001
  62
7
  10
 481.962
  20
 480.771
  30
0.0
   0
LINE
   8
LEVEL001
   6
CONTINUOUS
  62
7
  10
 483.812
  20
 445.319
  30
0.0
  11
 482.118
  21
 477.775
  31
0.0
   0
POINT
   8
LEVEL001
  62
7
  10
 431.728
  20
 572.139
  30
0.0
   0
ARC
   8
LEVEL001
   6
DASHDOT
  62
1
  10
 460.395
  20
 551.344
  30
0.0
  40
 2.00000
  50
 310.987
  51
 40.9875
   0
ARC
   8
LEVEL001
   6
DASHDOT
  62
1
  10
 414.386
  20
 503.418
  30
0.0
  40
 5.00000
  50
 130.988
  51
 205.999
   0
ARC
   8
LEVEL001
   6
DASHDOT
  62
1
  10
 438.423
  20
 576.632
  30
0.0
  40
 2.00000
  50
 40.9875
  51
 130.987
   0
ARC
   8
LEVEL001
   6
DASHDOT
  62
1
  10
 431.431
  20
 567.907
  30
0.0
  40
 3.00000
  50
 40.9875
  51
 130.987
   0
ARC
   8
LEVEL001
   6
DASHDOT
  62
1
  10
 346.976
  20
 470.541
  30
0.0
  40
 70.0000
  50
 17.3993
  51
 25.9994
   0
LINE
   8
LEVEL001
   6
DASHDOT
  62
1
  10
 329.068
  20
 482.938
  30
0.0
  11
 328.412
  21
 483.693
  31
0.0
   0
LINE
   8
LEVEL001
   6
DASHDOT
  62
1
  10
 328.412
  20
 483.693
  30
0.0
  11
 437.111
  21
 578.141
  31
0.0
   0
LINE
   8
LEVEL001
   6
DASHDOT
  62
1
  10
 411.107
  20
 507.193
  30
0.0
  11
 455.012
  21
 545.342
  31
0.0
   0
LINE
   8
LEVEL001
   6
DASHDOT
  62
1
  10
 455.012
  20
 545.342
  30
0.0
  11
 455.668
  21
 544.587
  31
0.0
   0
LINE
   8
LEVEL001
   6
DASHDOT
  62
1
  10
 455.668
  20
 544.587
  30
0.0
  11
 461.707
  21
 549.835
  31
0.0
   0
LINE
   8
LEVEL001
   6
DASHDOT
  62
1
  10
 312.110
  20
 443.032
  30
0.0
  11
 451.738
  21
 564.356
  31
0.0
   0
LINE
   8
LEVEL001
   6
DASHDOT
  62
1
  10
 439.932
  20
 577.944
  30
0.0
  11
 461.905
  21
 552.656
  31
0.0
   0
LINE
   8
LEVEL001
   6
DASHDOT
  62
1
  10
 429.463
  20
 570.172
  30
0.0
  11
 383.417
  21
 530.162
  31
0.0
   0
LINE
   8
LEVEL001
   6
DASHDOT
  62
1
  10
 455.012
  20
 545.342
  30
0.0
  11
 433.696
  21
 569.875
  31
0.0
   0
LINE
   8
LEVEL001
   6
DASHDOT
  62
1
  10
 394.913
  20
 504.633
  30
0.0
  11
 405.492
  21
 503.973
  31
0.0
   0
LINE
   8
LEVEL001
   6
DASHDOT
  62
1
  10
 384.667
  20
 516.425
  30
0.0
  11
 385.490
  21
 526.992
  31
0.0
   0
LINE
   8
LEVEL001
   6
DASHDOT
  62
1
  10
 382.007
  20
 530.261
  30
0.0
  11
 383.417
  21
 530.162
  31
0.0
   0
LINE
   8
LEVEL001
   6
DASHDOT
  62
1
  10
 323.029
  20
 477.691
  30
0.0
  11
 359.262
  21
 509.174
  31
0.0
   0
LINE
   8
LEVEL001
   6
DASHDOT
  62
1
  10
 444.687
  20
 572.471
  30
0.0
  11
 467.206
  21
 592.037
  31
0.0
   0
LINE
   8
LEVEL003
   6
DASHDOT
  62
1
  10
 451.738
  20
 564.356
  30
0.0
  11
 474.257
  21
 583.923
  31
0.0
   0
LINE
   8
LEVEL001
   6
DASHDOT
  62
1
  10
 458.789
  20
 556.242
  30
0.0
  11
 481.308
  21
 575.808
  31
0.0
   0
LINE
   8
LEVEL001
   6
DASHDOT
  62
1
  10
 367.076
  20
 524.574
  30
0.0
  11
 394.016
  21
 493.570
  31
0.0
   0
ARC
   8
LEVEL003
   6
CONTINUOUS
  62
3
  10
 324.168
  20
 453.510
  30
0.0
  40
 186.457
  50
 2.98749
  51
 40.9875
   0
LINE
   8
LEVEL003
   6
CONTINUOUS
  62
3
  10
 510.372
  20
 463.228
  30
0.0
  11
 511.600
  21
 475.351
  31
0.0
   0
LINE
   8
LEVEL003
   6
CONTINUOUS
  62
3
  10
 510.372
  20
 463.228
  30
0.0
  11
 507.379
  21
 475.040
  31
0.0
   0
LINE
   8
LEVEL003
   6
CONTINUOUS
  62
3
  10
 464.916
  20
 575.806
  30
0.0
  11
 470.964
  21
 565.228
  31
0.0
   0
LINE
   8
LEVEL003
   6
CONTINUOUS
  62
3
  10
 464.916
  20
 575.806
  30
0.0
  11
 474.217
  21
 567.935
  31
0.0
   0
TEXT
   8
LEVEL003
  62
3
  10
 447.253
  20
 502.138
  30
0.0
  40
 16.0000
   1
約38%%d
   7
STANDARD
  72
2
  11
 495.253
  21
 512.805
  31
0.0
  73
2
   0
LINE
   8
LEVEL003
   6
CONTINUOUS
  62
7
  10
 963.780
  20
 494.902
  30
0.0
  11
 976.839
  21
 495.583
  31
0.0
   0
LINE
   8
LEVEL003
   6
CONTINUOUS
  62
7
  10
 953.727
  20
 497.131
  30
0.0
  11
 956.617
  21
 494.528
  31
0.0
   0
LINE
   8
LEVEL003
   6
CONTINUOUS
  62
7
  10
 956.617
  20
 494.528
  30
0.0
  11
 960.585
  21
 494.735
  31
0.0
   0
ARC
   8
LEVEL001
   6
CONTINUOUS
  62
7
  10
 402.582
  20
 409.390
  30
0.0
  40
 1.00000
  50
 182.987
  51
 272.987
   0
ARC
   8
LEVEL001
   6
CONTINUOUS
  62
7
  10
 408.574
  20
 409.703
  30
0.0
  40
 1.00000
  50
 272.987
  51
 2.98749
   0
LINE
   8
LEVEL001
   6
CONTINUOUS
  62
7
  10
 401.584
  20
 409.338
  30
0.0
  11
 401.494
  21
 410.893
  31
0.0
   0
LINE
   8
LEVEL001
   6
CONTINUOUS
  62
7
  10
 409.484
  20
 411.310
  30
0.0
  11
 409.573
  21
 409.755
  31
0.0
   0
LINE
   8
LEVEL003
   6
CONTINUOUS
  62
7
  10
 408.626
  20
 408.704
  30
0.0
  11
 402.634
  21
 408.391
  31
0.0
   0
LINE
   8
LEVEL003
   6
CONTINUOUS
  62
3
  10
 959.729
  20
 501.793
  30
0.0
  11
 937.756
  21
 548.994
  31
0.0
   0
LINE
   8
LEVEL003
   6
CONTINUOUS
  62
3
  10
 937.756
  20
 548.994
  30
0.0
  11
 858.816
  21
 548.994
  31
0.0
   0
LINE
   8
LEVEL003
   6
CONTINUOUS
  62
3
  10
 959.729
  20
 501.793
  30
0.0
  11
 956.583
  21
 513.565
  31
0.0
   0
LINE
   8
LEVEL003
   6
CONTINUOUS
  62
3
  10
 959.729
  20
 501.793
  30
0.0
  11
 952.746
  21
 511.779
  31
0.0
   0
TEXT
   8
LEVEL003
  62
3
  10
 875.365
  20
 551.716
  30
0.0
  40
 16.0000
   1
フック
   7
STANDARD
   0
LINE
   8
LEVEL003
   6
CONTINUOUS
  62
3
  10
 1062.44
  20
 505.349
  30
0.0
  11
 1128.00
  21
 505.349
  31
0.0
   0
LINE
   8
LEVEL003
   6
CONTINUOUS
  62
3
  10
 981.452
  20
 300.169
  30
0.0
  11
 1128.00
  21
 300.169
  31
0.0
   0
LINE
   8
LEVEL003
   6
CONTINUOUS
  62
3
  10
 1120.00
  20
 505.349
  30
0.0
  11
 1120.00
  21
 300.169
  31
0.0
   0
LINE
   8
LEVEL003
   6
CONTINUOUS
  62
3
  10
 1120.00
  20
 505.349
  30
0.0
  11
 1117.88
  21
 493.349
  31
0.0
   0
LINE
   8
LEVEL003
   6
CONTINUOUS
  62
3
  10
 1120.00
  20
 505.349
  30
0.0
  11
 1122.12
  21
 493.349
  31
0.0
   0
LINE
   8
LEVEL003
   6
CONTINUOUS
  62
3
  10
 1120.00
  20
 300.169
  30
0.0
  11
 1122.12
  21
 312.169
  31
0.0
   0
LINE
   8
LEVEL003
   6
CONTINUOUS
  62
3
  10
 1120.00
  20
 300.169
  30
0.0
  11
 1117.88
  21
 312.169
  31
0.0
   0
TEXT
   8
LEVEL003
  62
3
  10
 1116.80
  20
 382.759
  30
0.0
  40
 16.0000
   1
約210
  50
 90.0000
   7
STANDARD
  72
1
  11
 1116.80
  21
 402.759
  31
0.0
   0
ARC
   8
LEVEL001
   6
CONTINUOUS
  62
7
  10
 117.503
  20
 485.723
  30
0.0
  40
 16.0000
  50
 28.2393
  51
 188.602
   0
ARC
   8
LEVEL001
   6
CONTINUOUS
  62
7
  10
 129.837
  20
 492.347
  30
0.0
  40
 2.00000
  50
 272.862
  51
 28.2393
   0
ARC
   8
LEVEL001
   6
CONTINUOUS
  62
7
  10
 120.000
  20
 486.145
  30
0.0
  40
 10.7500
  50
0.0
  51
 180.000
   0
LINE
   8
LEVEL001
   6
CONTINUOUS
  62
7
  10
 101.683
  20
 483.330
  30
0.0
  11
 103.500
  21
 471.318
  31
0.0
   0
ARC
   8
LEVEL001
   6
CONTINUOUS
  62
7
  10
 120.000
  20
 487.576
  30
0.0
  40
 13.5000
  50
 322.778
  51
 76.8153
   0
ARC
   8
LEVEL001
   6
CONTINUOUS
  62
7
  10
 120.000
  20
 491.849
  30
0.0
  40
 13.5000
  50
 349.023
  51
 148.163
   0
LINE
   8
LEVEL001
   6
CONTINUOUS
  62
7
  10
 109.250
  20
 486.145
  30
0.0
  11
 109.250
  21
 478.854
  31
0.0
   0
LINE
   8
LEVEL001
   6
CONTINUOUS
  62
7
  10
 130.750
  20
 486.145
  30
0.0
  11
 130.750
  21
 478.854
  31
0.0
   0
ARC
   8
LEVEL003
   6
CONTINUOUS
  62
7
  10
 966.500
  20
 808.069
  30
0.0
  40
 2.00000
  50
 0.237753E-9
  51
 88.0000
   0
POINT
   8
LEVEL003
  62
7
  10
 968.500
  20
 810.000
  30
0.0
   0
LINE
   8
LEVEL001
   6
CONTINUOUS
  62
7
  10
 961.895
  20
 814.901
  30
0.0
  11
 966.605
  21
 814.654
  31
0.0
   0
ARC
   8
LEVEL001
   6
CONTINUOUS
  62
7
  10
 966.500
  20
 812.657
  30
0.0
  40
 2.00000
  50
 0.566699E-9
  51
 87.0000
   0
POINT
   8
LEVEL001
  62
7
  10
 968.500
  20
 814.555
  30
0.0
   0
LINE
   8
LEVEL001
   6
CONTINUOUS
  62
7
  10
 968.500
  20
 818.429
  30
0.0
  11
 968.500
  21
 800.000
  31
0.0
   0
LINE
   8
LEVEL001
   6
CONTINUOUS
  62
7
  10
 960.000
  20
 813.194
  30
0.0
  11
 960.000
  21
 826.973
  31
0.0
   0
ARC
   8
LEVEL001
   6
CONTINUOUS
  62
7
  10
 963.000
  20
 813.194
  30
0.0
  40
 3.00000
  50
 180.000
  51
 268.000
   0
POINT
   8
LEVEL001
  62
7
  10
 960.000
  20
 810.297
  30
0.0
   0
LINE
   8
LEVEL003
   6
CONTINUOUS
  62
7
  10
 966.570
  20
 810.067
  30
0.0
  11
 953.890
  21
 810.510
  31
0.0
   0
ARC
   8
LEVEL001
   6
CONTINUOUS
  62
7
  10
 962.000
  20
 783.102
  30
0.0
  40
 2.00000
  50
 93.0000
  51
 180.000
   0
ARC
   8
LEVEL003
   6
CONTINUOUS
  62
7
  10
 966.500
  20
 791.931
  30
0.0
  40
 2.00000
  50
 272.000
  51
 0.524359E-9
   0
POINT
   8
LEVEL003
  62
7
  10
 968.500
  20
 790.000
  30
0.0
   0
LINE
   8
LEVEL001
   6
CONTINUOUS
  62
7
  10
 961.895
  20
 785.099
  30
0.0
  11
 966.605
  21
 785.346
  31
0.0
   0
ARC
   8
LEVEL001
   6
CONTINUOUS
  62
7
  10
 966.500
  20
 787.343
  30
0.0
  40
 2.00000
  50
 273.000
  51
 0.944498E-9
   0
POINT
   8
LEVEL001
  62
7
  10
 968.500
  20
 785.445
  30
0.0
   0
LINE
   8
LEVEL001
   6
CONTINUOUS
  62
7
  10
 960.000
  20
 786.806
  30
0.0
  11
 960.000
  21
 773.027
  31
0.0
   0
ARC
   8
LEVEL001
   6
CONTINUOUS
  62
7
  10
 963.000
  20
 786.806
  30
0.0
  40
 3.00000
  50
 92.0000
  51
 180.000
   0
POINT
   8
LEVEL001
  62
7
  10
 960.000
  20
 789.703
  30
0.0
   0
LINE
   8
LEVEL003
   6
CONTINUOUS
  62
7
  10
 966.570
  20
 789.933
  30
0.0
  11
 953.890
  21
 789.490
  31
0.0
   0
LINE
   8
LEVEL001
   6
CONTINUOUS
  62
7
  10
 927.340
  20
 434.037
  30
0.0
  11
 906.066
  21
 432.230
  31
0.0
   0
ARC
   8
LEVEL001
   6
CONTINUOUS
  62
7
  10
 947.801
  20
 435.473
  30
0.0
  40
 10.0000
  50
 89.6456
  51
 112.823
   0
LINE
   8
LEVEL001
   6
CONTINUOUS
  62
7
  10
 947.421
  20
 445.466
  30
0.0
  11
 960.467
  21
 445.673
  31
0.0
   0
ARC
   8
LEVEL001
   6
CONTINUOUS
  62
7
  10
 960.499
  20
 443.673
  30
0.0
  40
 2.00000
  50
 2.17291
  51
 90.9092
   0
POINT
   8
LEVEL001
  62
7
  10
 962.423
  20
 445.704
  30
0.0
   0
LINE
   8
LEVEL001
   6
CONTINUOUS
  62
7
  10
 961.170
  20
 478.744
  30
0.0
  11
 965.100
  21
 375.149
  31
0.0
   0
LINE
   8
LEVEL003
   6
CONTINUOUS
  62
3
  10
 299.582
  20
 359.013
  30
0.0
  11
 299.582
  21
 172.000
  31
0.0
   0
LINE
   8
LEVEL003
   6
CONTINUOUS
  62
3
  10
 1062.14
  20
 488.024
  30
0.0
  11
 1062.14
  21
 172.000
  31
0.0
   0
LINE
   8
LEVEL003
   6
CONTINUOUS
  62
3
  10
 299.582
  20
 180.000
  30
0.0
  11
 1062.14
  21
 180.000
  31
0.0
   0
LINE
   8
LEVEL003
   6
CONTINUOUS
  62
3
  10
 299.582
  20
 180.000
  30
0.0
  11
 311.582
  21
 177.884
  31
0.0
   0
LINE
   8
LEVEL003
   6
CONTINUOUS
  62
3
  10
 299.582
  20
 180.000
  30
0.0
  11
 311.582
  21
 182.116
  31
0.0
   0
LINE
   8
LEVEL003
   6
CONTINUOUS
  62
3
  10
 1062.14
  20
 180.000
  30
0.0
  11
 1050.14
  21
 182.116
  31
0.0
   0
LINE
   8
LEVEL003
   6
CONTINUOUS
  62
3
  10
 1062.14
  20
 180.000
  30
0.0
  11
 1050.14
  21
 177.884
  31
0.0
   0
TEXT
   8
LEVEL003
  62
3
  10
 660.861
  20
 183.200
  30
0.0
  40
 16.0000
   1
約770
   7
STANDARD
  72
1
  11
 680.861
  21
 183.200
  31
0.0
   0
LINE
   8
LEVEL001
   6
CONTINUOUS
  62
7
  10
 966.534
  20
 442.858
  30
0.0
  11
 968.779
  21
 442.747
  31
0.0
   0
ARC
   8
LEVEL001
   6
CONTINUOUS
  62
7
  10
 968.650
  20
 440.150
  30
0.0
  40
 2.60000
  50
 18.0538
  51
 87.1729
   0
LINE
   8
LEVEL001
   6
CONTINUOUS
  62
7
  10
 966.534
  20
 442.858
  30
0.0
  11
 967.065
  21
 428.868
  31
0.0
   0
LINE
   8
LEVEL001
   6
CONTINUOUS
  62
7
  10
 967.065
  20
 428.868
  30
0.0
  11
 969.295
  21
 429.149
  31
0.0
   0
ARC
   8
LEVEL001
   6
CONTINUOUS
  62
7
  10
 968.970
  20
 431.728
  30
0.0
  40
 2.60000
  50
 277.173
  51
 346.292
   0
ARC
   8
LEVEL001
   6
CONTINUOUS
  62
7
  10
 954.009
  20
 435.378
  30
0.0
  40
 18.0000
  50
 346.292
  51
 18.0538
   0
LINE
   8
LEVEL001
   6
DASHDOT
  62
1
  10
 110.252
  20
 310.113
  30
0.0
  11
 70.0280
  21
 420.627
  31
0.0
   0
ARC
   8
LEVEL001
   6
CONTINUOUS
  62
7
  10
 120.000
  20
 389.000
  30
0.0
  40
 47.0000
  50
 124.321
  51
 147.568
   0
ARC
   8
LEVEL001
   6
CONTINUOUS
  62
7
  10
 120.000
  20
 389.000
  30
0.0
  40
 44.0000
  50
 127.033
  51
 146.750
   0
LINE
   8
LEVEL001
   6
CONTINUOUS
  62
7
  10
 82.6519
  20
 400.292
  30
0.0
  11
 79.7510
  21
 408.262
  31
0.0
   0
LINE
   8
LEVEL001
   6
CONTINUOUS
  62
7
  10
 73.4288
  20
 396.935
  30
0.0
  11
 70.5279
  21
 404.905
  31
0.0
   0
ARC
   8
LEVEL001
   6
CONTINUOUS
  62
7
  10
 80.4345
  20
 392.036
  30
0.0
  40
 16.2408
  50
 92.4120
  51
 127.588
   0
ARC
   8
LEVEL001
   6
CONTINUOUS
  62
7
  10
 72.7453
  20
 413.161
  30
0.0
  40
 16.2408
  50
 272.412
  51
 307.588
   0
ARC
   8
LEVEL001
   6
CONTINUOUS
  62
7
  10
 83.2504
  20
 409.151
  30
0.0
  40
 8.87961
  50
 266.135
  51
 290.000
   0
ARC
   8
LEVEL001
   6
CONTINUOUS
  62
7
  10
 85.9042
  20
 401.860
  30
0.0
  40
 8.87961
  50
 110.000
  51
 133.865
   0
ARC
   8
LEVEL001
   6
CONTINUOUS
  62
7
  10
 69.9294
  20
 396.046
  30
0.0
  40
 8.87961
  50
 86.1351
  51
 110.000
   0
ARC
   8
LEVEL001
   6
CONTINUOUS
  62
7
  10
 67.2756
  20
 403.337
  30
0.0
  40
 8.87961
  50
 290.000
  51
 313.865
   0
LINE
   8
LEVEL001
   6
CONTINUOUS
  62
7
  10
 70.3126
  20
 394.993
  30
0.0
  11
 68.8173
  21
 395.256
  31
0.0
   0
LINE
   8
LEVEL001
   6
CONTINUOUS
  62
7
  10
 68.8173
  20
 395.256
  30
0.0
  11
 65.9164
  21
 403.227
  31
0.0
   0
LINE
   8
LEVEL001
   6
CONTINUOUS
  62
7
  10
 65.9164
  20
 403.227
  30
0.0
  11
 66.8924
  21
 404.390
  31
0.0
   0
LINE
   8
LEVEL001
   6
CONTINUOUS
  62
7
  10
 66.8924
  20
 404.390
  30
0.0
  11
 82.8672
  21
 410.204
  31
0.0
   0
LINE
   8
LEVEL001
   6
CONTINUOUS
  62
7
  10
 82.8672
  20
 410.204
  30
0.0
  11
 84.3625
  21
 409.940
  31
0.0
   0
LINE
   8
LEVEL001
   6
CONTINUOUS
  62
7
  10
 84.3625
  20
 409.940
  30
0.0
  11
 87.2634
  21
 401.970
  31
0.0
   0
LINE
   8
LEVEL001
   6
CONTINUOUS
  62
7
  10
 87.2634
  20
 401.970
  30
0.0
  11
 86.2874
  21
 400.807
  31
0.0
   0
ARC
   8
LEVEL001
   6
CONTINUOUS
  62
7
  10
 74.8798
  20
 407.297
  30
0.0
  40
 7.50000
  50
 20.0000
  51
 200.000
   0
LINE
   8
LEVEL003
   6
CONTINUOUS
  62
7
  10
 67.8885
  20
 397.808
  30
0.0
  11
 67.0315
  21
 396.787
  31
0.0
   0
LINE
   8
LEVEL003
   6
CONTINUOUS
  62
7
  10
 67.0315
  20
 396.787
  30
0.0
  11
 68.5000
  21
 392.752
  31
0.0
   0
LINE
   8
LEVEL003
   6
CONTINUOUS
  62
7
  10
 88.6081
  20
 401.652
  30
0.0
  11
 87.6477
  21
 404.291
  31
0.0
   0
LINE
   8
LEVEL003
   6
CONTINUOUS
  62
7
  10
 87.6477
  20
 404.291
  30
0.0
  11
 86.3346
  21
 404.522
  31
0.0
   0
ARC
   8
LEVEL001
   6
CONTINUOUS
  62
7
  10
 73.4582
  20
 411.203
  30
0.0
  40
 7.50000
  50
 20.0000
  51
 200.000
   0
LINE
   8
LEVEL001
   6
CONTINUOUS
  62
7
  10
 67.5918
  20
 409.068
  30
0.0
  11
 65.4708
  21
 408.296
  31
0.0
   0
LINE
   8
LEVEL001
   6
CONTINUOUS
  62
7
  10
 65.4708
  20
 408.296
  30
0.0
  11
 64.4948
  21
 407.133
  31
0.0
   0
LINE
   8
LEVEL001
   6
CONTINUOUS
  62
7
  10
 64.4948
  20
 407.133
  30
0.0
  11
 65.9164
  21
 403.227
  31
0.0
   0
LINE
   8
LEVEL001
   6
CONTINUOUS
  62
7
  10
 84.3625
  20
 409.940
  30
0.0
  11
 82.9409
  21
 413.846
  31
0.0
   0
LINE
   8
LEVEL001
   6
CONTINUOUS
  62
7
  10
 82.9409
  20
 413.846
  30
0.0
  11
 81.4455
  21
 414.110
  31
0.0
   0
LINE
   8
LEVEL001
   6
CONTINUOUS
  62
7
  10
 81.4455
  20
 414.110
  30
0.0
  11
 79.3245
  21
 413.338
  31
0.0
   0
ARC
   8
LEVEL001
   6
CONTINUOUS
  62
7
  10
 84.4826
  20
 405.766
  30
0.0
  40
 8.87961
  50
 116.425
  51
 123.660
   0
ARC
   8
LEVEL001
   6
CONTINUOUS
  62
7
  10
 68.5078
  20
 399.952
  30
0.0
  40
 8.87961
  50
 96.3397
  51
 103.575
   0
LINE
   8
LEVEL001
   6
DASHDOT
  62
1
  10
 388.500
  20
 842.951
  30
0.0
  11
 363.500
  21
 842.951
  31
0.0
   0
LINE
   8
LEVEL001
   6
CONTINUOUS
  62
7
  10
 385.500
  20
 837.466
  30
0.0
  11
 385.500
  21
 832.335
  31
0.0
   0
LINE
   8
LEVEL001
   6
CONTINUOUS
  62
7
  10
 385.500
  20
 832.335
  30
0.0
  11
 376.000
  21
 827.802
  31
0.0
   0
LINE
   8
LEVEL001
   6
CONTINUOUS
  62
7
  10
 376.000
  20
 827.802
  30
0.0
  11
 366.500
  21
 832.335
  31
0.0
   0
LINE
   8
LEVEL001
   6
CONTINUOUS
  62
7
  10
 366.500
  20
 832.335
  30
0.0
  11
 366.500
  21
 837.466
  31
0.0
   0
CIRCLE
   8
LEVEL001
   6
CONTINUOUS
  62
7
  10
 376.050
  20
 846.809
  30
0.0
  40
 7.50000
   0
LINE
   8
LEVEL001
   6
CONTINUOUS
  62
7
  10
 376.050
  20
 837.348
  30
0.0
  11
 367.550
  21
 841.901
  31
0.0
   0
LINE
   8
LEVEL001
   6
CONTINUOUS
  62
7
  10
 367.550
  20
 841.901
  30
0.0
  11
 367.550
  21
 851.182
  31
0.0
   0
LINE
   8
LEVEL001
   6
CONTINUOUS
  62
7
  10
 367.550
  20
 851.182
  30
0.0
  11
 376.050
  21
 855.794
  31
0.0
   0
LINE
   8
LEVEL001
   6
CONTINUOUS
  62
7
  10
 376.050
  20
 855.794
  30
0.0
  11
 384.550
  21
 851.182
  31
0.0
   0
LINE
   8
LEVEL001
   6
CONTINUOUS
  62
7
  10
 384.550
  20
 851.182
  30
0.0
  11
 384.550
  21
 841.901
  31
0.0
   0
LINE
   8
LEVEL001
   6
CONTINUOUS
  62
7
  10
 384.550
  20
 841.901
  30
0.0
  11
 376.050
  21
 837.348
  31
0.0
   0
LINE
   8
LEVEL001
   6
CONTINUOUS
  62
7
  10
 367.550
  20
 846.544
  30
0.0
  11
 367.616
  21
 845.548
  31
0.0
   0
LINE
   8
LEVEL001
   6
CONTINUOUS
  62
7
  10
 367.616
  20
 845.548
  30
0.0
  11
 367.814
  21
 844.568
  31
0.0
   0
LINE
   8
LEVEL001
   6
CONTINUOUS
  62
7
  10
 367.814
  20
 844.568
  30
0.0
  11
 368.141
  21
 843.619
  31
0.0
   0
LINE
   8
LEVEL001
   6
CONTINUOUS
  62
7
  10
 368.141
  20
 843.619
  30
0.0
  11
 368.590
  21
 842.715
  31
0.0
   0
LINE
   8
LEVEL001
   6
CONTINUOUS
  62
7
  10
 368.590
  20
 842.715
  30
0.0
  11
 369.157
  21
 841.871
  31
0.0
   0
LINE
   8
LEVEL001
   6
CONTINUOUS
  62
7
  10
 369.157
  20
 841.871
  30
0.0
  11
 369.831
  21
 841.100
  31
0.0
   0
LINE
   8
LEVEL001
   6
CONTINUOUS
  62
7
  10
 369.831
  20
 841.100
  30
0.0
  11
 370.601
  21
 840.414
  31
0.0
   0
LINE
   8
LEVEL001
   6
CONTINUOUS
  62
7
  10
 370.601
  20
 840.414
  30
0.0
  11
 371.457
  21
 839.823
  31
0.0
   0
LINE
   8
LEVEL001
   6
CONTINUOUS
  62
7
  10
 371.457
  20
 839.823
  30
0.0
  11
 372.385
  21
 839.338
  31
0.0
   0
LINE
   8
LEVEL001
   6
CONTINUOUS
  62
7
  10
 372.385
  20
 839.338
  30
0.0
  11
 373.370
  21
 838.964
  31
0.0
   0
LINE
   8
LEVEL001
   6
CONTINUOUS
  62
7
  10
 373.370
  20
 838.964
  30
0.0
  11
 374.396
  21
 838.710
  31
0.0
   0
LINE
   8
LEVEL001
   6
CONTINUOUS
  62
7
  10
 374.396
  20
 838.710
  30
0.0
  11
 375.449
  21
 838.577
  31
0.0
   0
LINE
   8
LEVEL001
   6
CONTINUOUS
  62
7
  10
 375.449
  20
 838.577
  30
0.0
  11
 376.510
  21
 838.569
  31
0.0
   0
LINE
   8
LEVEL001
   6
CONTINUOUS
  62
7
  10
 376.510
  20
 838.569
  30
0.0
  11
 377.565
  21
 838.685
  31
0.0
   0
LINE
   8
LEVEL001
   6
CONTINUOUS
  62
7
  10
 377.565
  20
 838.685
  30
0.0
  11
 378.596
  21
 838.924
  31
0.0
   0
LINE
   8
LEVEL001
   6
CONTINUOUS
  62
7
  10
 378.596
  20
 838.924
  30
0.0
  11
 379.587
  21
 839.281
  31
0.0
   0
LINE
   8
LEVEL001
   6
CONTINUOUS
  62
7
  10
 379.587
  20
 839.281
  30
0.0
  11
 380.523
  21
 839.752
  31
0.0
   0
LINE
   8
LEVEL001
   6
CONTINUOUS
  62
7
  10
 380.523
  20
 839.752
  30
0.0
  11
 381.389
  21
 840.330
  31
0.0
   0
LINE
   8
LEVEL001
   6
CONTINUOUS
  62
7
  10
 381.389
  20
 840.330
  30
0.0
  11
 382.172
  21
 841.004
  31
0.0
   0
LINE
   8
LEVEL001
   6
CONTINUOUS
  62
7
  10
 382.172
  20
 841.004
  30
0.0
  11
 382.860
  21
 841.764
  31
0.0
   0
LINE
   8
LEVEL001
   6
CONTINUOUS
  62
7
  10
 382.860
  20
 841.764
  30
0.0
  11
 383.441
  21
 842.599
  31
0.0
   0
LINE
   8
LEVEL001
   6
CONTINUOUS
  62
7
  10
 383.441
  20
 842.599
  30
0.0
  11
 383.906
  21
 843.496
  31
0.0
   0
LINE
   8
LEVEL001
   6
CONTINUOUS
  62
7
  10
 383.906
  20
 843.496
  30
0.0
  11
 384.250
  21
 844.440
  31
0.0
   0
LINE
   8
LEVEL001
   6
CONTINUOUS
  62
7
  10
 384.250
  20
 844.440
  30
0.0
  11
 384.465
  21
 845.417
  31
0.0
   0
LINE
   8
LEVEL001
   6
CONTINUOUS
  62
7
  10
 384.465
  20
 845.417
  30
0.0
  11
 384.549
  21
 846.412
  31
0.0
   0
LINE
   8
LEVEL001
   6
CONTINUOUS
  62
7
  10
 384.549
  20
 846.412
  30
0.0
  11
 384.500
  21
 847.409
  31
0.0
   0
LINE
   8
LEVEL001
   6
CONTINUOUS
  62
7
  10
 384.500
  20
 847.409
  30
0.0
  11
 384.319
  21
 848.392
  31
0.0
   0
LINE
   8
LEVEL001
   6
CONTINUOUS
  62
7
  10
 384.319
  20
 848.392
  30
0.0
  11
 384.010
  21
 849.346
  31
0.0
   0
LINE
   8
LEVEL001
   6
CONTINUOUS
  62
7
  10
 384.010
  20
 849.346
  30
0.0
  11
 383.576
  21
 850.257
  31
0.0
   0
LINE
   8
LEVEL001
   6
CONTINUOUS
  62
7
  10
 383.576
  20
 850.257
  30
0.0
  11
 383.025
  21
 851.110
  31
0.0
   0
LINE
   8
LEVEL001
   6
CONTINUOUS
  62
7
  10
 383.025
  20
 851.110
  30
0.0
  11
 382.364
  21
 851.891
  31
0.0
   0
LINE
   8
LEVEL001
   6
CONTINUOUS
  62
7
  10
 382.364
  20
 851.891
  30
0.0
  11
 381.606
  21
 852.589
  31
0.0
   0
LINE
   8
LEVEL001
   6
CONTINUOUS
  62
7
  10
 381.606
  20
 852.589
  30
0.0
  11
 380.760
  21
 853.193
  31
0.0
   0
LINE
   8
LEVEL001
   6
CONTINUOUS
  62
7
  10
 380.760
  20
 853.193
  30
0.0
  11
 379.842
  21
 853.693
  31
0.0
   0
LINE
   8
LEVEL001
   6
CONTINUOUS
  62
7
  10
 379.842
  20
 853.693
  30
0.0
  11
 378.864
  21
 854.081
  31
0.0
   0
LINE
   8
LEVEL001
   6
CONTINUOUS
  62
7
  10
 378.864
  20
 854.081
  30
0.0
  11
 377.842
  21
 854.352
  31
0.0
   0
LINE
   8
LEVEL001
   6
CONTINUOUS
  62
7
  10
 377.842
  20
 854.352
  30
0.0
  11
 376.792
  21
 854.501
  31
0.0
   0
LINE
   8
LEVEL001
   6
CONTINUOUS
  62
7
  10
 376.792
  20
 854.501
  30
0.0
  11
 375.730
  21
 854.526
  31
0.0
   0
LINE
   8
LEVEL001
   6
CONTINUOUS
  62
7
  10
 375.730
  20
 854.526
  30
0.0
  11
 374.674
  21
 854.426
  31
0.0
   0
LINE
   8
LEVEL001
   6
CONTINUOUS
  62
7
  10
 374.674
  20
 854.426
  30
0.0
  11
 373.639
  21
 854.204
  31
0.0
   0
LINE
   8
LEVEL001
   6
CONTINUOUS
  62
7
  10
 373.639
  20
 854.204
  30
0.0
  11
 372.641
  21
 853.861
  31
0.0
   0
LINE
   8
LEVEL001
   6
CONTINUOUS
  62
7
  10
 372.641
  20
 853.861
  30
0.0
  11
 371.697
  21
 853.405
  31
0.0
   0
LINE
   8
LEVEL001
   6
CONTINUOUS
  62
7
  10
 371.697
  20
 853.405
  30
0.0
  11
 370.821
  21
 852.841
  31
0.0
   0
LINE
   8
LEVEL001
   6
CONTINUOUS
  62
7
  10
 370.821
  20
 852.841
  30
0.0
  11
 370.026
  21
 852.180
  31
0.0
   0
LINE
   8
LEVEL001
   6
CONTINUOUS
  62
7
  10
 370.026
  20
 852.180
  30
0.0
  11
 369.325
  21
 851.430
  31
0.0
   0
LINE
   8
LEVEL001
   6
CONTINUOUS
  62
7
  10
 369.325
  20
 851.430
  30
0.0
  11
 368.730
  21
 850.604
  31
0.0
   0
LINE
   8
LEVEL001
   6
CONTINUOUS
  62
7
  10
 368.730
  20
 850.604
  30
0.0
  11
 368.248
  21
 849.715
  31
0.0
   0
LINE
   8
LEVEL001
   6
CONTINUOUS
  62
7
  10
 368.248
  20
 849.715
  30
0.0
  11
 367.888
  21
 848.776
  31
0.0
   0
LINE
   8
LEVEL001
   6
CONTINUOUS
  62
7
  10
 367.888
  20
 848.776
  30
0.0
  11
 367.656
  21
 847.803
  31
0.0
   0
LINE
   8
LEVEL001
   6
CONTINUOUS
  62
7
  10
 367.656
  20
 847.803
  30
0.0
  11
 367.555
  21
 846.809
  31
0.0
   0
LINE
   8
LEVEL001
   6
CONTINUOUS
  62
7
  10
 367.555
  20
 846.809
  30
0.0
  11
 367.550
  21
 846.544
  31
0.0
   0
LINE
   8
LEVEL001
   6
DASHDOT
  62
1
  10
 385.783
  20
 846.809
  30
0.0
  11
 366.541
  21
 846.809
  31
0.0
   0
LINE
   8
LEVEL001
   6
CONTINUOUS
  62
7
  10
 384.550
  20
 841.901
  30
0.0
  11
 384.550
  21
 839.058
  31
0.0
   0
LINE
   8
LEVEL001
   6
CONTINUOUS
  62
7
  10
 384.550
  20
 839.058
  30
0.0
  11
 376.050
  21
 834.447
  31
0.0
   0
LINE
   8
LEVEL001
   6
CONTINUOUS
  62
7
  10
 376.050
  20
 834.447
  30
0.0
  11
 367.550
  21
 839.058
  31
0.0
   0
LINE
   8
LEVEL001
   6
CONTINUOUS
  62
7
  10
 367.550
  20
 839.058
  30
0.0
  11
 367.550
  21
 841.901
  31
0.0
   0
LINE
   8
LEVEL001
   6
CONTINUOUS
  62
7
  10
 384.550
  20
 848.889
  30
0.0
  11
 385.500
  21
 848.435
  31
0.0
   0
LINE
   8
LEVEL001
   6
CONTINUOUS
  62
7
  10
 385.500
  20
 848.435
  30
0.0
  11
 385.500
  21
 837.466
  31
0.0
   0
LINE
   8
LEVEL001
   6
CONTINUOUS
  62
7
  10
 385.500
  20
 837.466
  30
0.0
  11
 376.000
  21
 832.933
  31
0.0
   0
LINE
   8
LEVEL001
   6
CONTINUOUS
  62
7
  10
 376.000
  20
 832.933
  30
0.0
  11
 366.500
  21
 837.466
  31
0.0
   0
LINE
   8
LEVEL001
   6
CONTINUOUS
  62
7
  10
 366.500
  20
 837.466
  30
0.0
  11
 366.500
  21
 848.435
  31
0.0
   0
LINE
   8
LEVEL001
   6
CONTINUOUS
  62
7
  10
 366.500
  20
 848.435
  30
0.0
  11
 367.550
  21
 848.936
  31
0.0
   0
LINE
   8
LEVEL001
   6
CONTINUOUS
  62
7
  10
 367.568
  20
 847.063
  30
0.0
  11
 367.088
  21
 846.043
  31
0.0
   0
LINE
   8
LEVEL001
   6
CONTINUOUS
  62
7
  10
 367.088
  20
 846.043
  30
0.0
  11
 366.747
  21
 844.974
  31
0.0
   0
LINE
   8
LEVEL001
   6
CONTINUOUS
  62
7
  10
 366.747
  20
 844.974
  30
0.0
  11
 366.551
  21
 843.875
  31
0.0
   0
LINE
   8
LEVEL001
   6
CONTINUOUS
  62
7
  10
 366.551
  20
 843.875
  30
0.0
  11
 366.502
  21
 842.760
  31
0.0
   0
LINE
   8
LEVEL001
   6
CONTINUOUS
  62
7
  10
 366.502
  20
 842.760
  30
0.0
  11
 366.602
  21
 841.649
  31
0.0
   0
LINE
   8
LEVEL001
   6
CONTINUOUS
  62
7
  10
 366.602
  20
 841.649
  30
0.0
  11
 366.848
  21
 840.558
  31
0.0
   0
LINE
   8
LEVEL001
   6
CONTINUOUS
  62
7
  10
 366.848
  20
 840.558
  30
0.0
  11
 367.236
  21
 839.505
  31
0.0
   0
LINE
   8
LEVEL001
   6
CONTINUOUS
  62
7
  10
 367.236
  20
 839.505
  30
0.0
  11
 367.762
  21
 838.505
  31
0.0
   0
LINE
   8
LEVEL001
   6
CONTINUOUS
  62
7
  10
 367.762
  20
 838.505
  30
0.0
  11
 368.416
  21
 837.574
  31
0.0
   0
LINE
   8
LEVEL001
   6
CONTINUOUS
  62
7
  10
 368.416
  20
 837.574
  30
0.0
  11
 369.189
  21
 836.728
  31
0.0
   0
LINE
   8
LEVEL001
   6
CONTINUOUS
  62
7
  10
 369.189
  20
 836.728
  30
0.0
  11
 370.067
  21
 835.978
  31
0.0
   0
LINE
   8
LEVEL001
   6
CONTINUOUS
  62
7
  10
 370.067
  20
 835.978
  30
0.0
  11
 371.039
  21
 835.338
  31
0.0
   0
LINE
   8
LEVEL001
   6
CONTINUOUS
  62
7
  10
 371.039
  20
 835.338
  30
0.0
  11
 372.087
  21
 834.816
  31
0.0
   0
LINE
   8
LEVEL001
   6
CONTINUOUS
  62
7
  10
 372.087
  20
 834.816
  30
0.0
  11
 373.197
  21
 834.421
  31
0.0
   0
LINE
   8
LEVEL001
   6
CONTINUOUS
  62
7
  10
 373.197
  20
 834.421
  30
0.0
  11
 374.351
  21
 834.159
  31
0.0
   0
LINE
   8
LEVEL001
   6
CONTINUOUS
  62
7
  10
 374.351
  20
 834.159
  30
0.0
  11
 375.530
  21
 834.034
  31
0.0
   0
LINE
   8
LEVEL001
   6
CONTINUOUS
  62
7
  10
 375.530
  20
 834.034
  30
0.0
  11
 376.717
  21
 834.049
  31
0.0
   0
LINE
   8
LEVEL001
   6
CONTINUOUS
  62
7
  10
 376.717
  20
 834.049
  30
0.0
  11
 377.892
  21
 834.202
  31
0.0
   0
LINE
   8
LEVEL001
   6
CONTINUOUS
  62
7
  10
 377.892
  20
 834.202
  30
0.0
  11
 379.038
  21
 834.492
  31
0.0
   0
LINE
   8
LEVEL001
   6
CONTINUOUS
  62
7
  10
 379.038
  20
 834.492
  30
0.0
  11
 380.137
  21
 834.914
  31
0.0
   0
LINE
   8
LEVEL001
   6
CONTINUOUS
  62
7
  10
 380.137
  20
 834.914
  30
0.0
  11
 381.171
  21
 835.462
  31
0.0
   0
LINE
   8
LEVEL001
   6
CONTINUOUS
  62
7
  10
 381.171
  20
 835.462
  30
0.0
  11
 382.124
  21
 836.126
  31
0.0
   0
LINE
   8
LEVEL001
   6
CONTINUOUS
  62
7
  10
 382.124
  20
 836.126
  30
0.0
  11
 382.982
  21
 836.897
  31
0.0
   0
LINE
   8
LEVEL001
   6
CONTINUOUS
  62
7
  10
 382.982
  20
 836.897
  30
0.0
  11
 383.730
  21
 837.762
  31
0.0
   0
LINE
   8
LEVEL001
   6
CONTINUOUS
  62
7
  10
 383.730
  20
 837.762
  30
0.0
  11
 384.358
  21
 838.708
  31
0.0
   0
LINE
   8
LEVEL001
   6
CONTINUOUS
  62
7
  10
 384.358
  20
 838.708
  30
0.0
  11
 384.856
  21
 839.720
  31
0.0
   0
LINE
   8
LEVEL001
   6
CONTINUOUS
  62
7
  10
 384.856
  20
 839.720
  30
0.0
  11
 385.216
  21
 840.783
  31
0.0
   0
LINE
   8
LEVEL001
   6
CONTINUOUS
  62
7
  10
 385.216
  20
 840.783
  30
0.0
  11
 385.431
  21
 841.880
  31
0.0
   0
LINE
   8
LEVEL001
   6
CONTINUOUS
  62
7
  10
 385.431
  20
 841.880
  30
0.0
  11
 385.500
  21
 842.993
  31
0.0
   0
LINE
   8
LEVEL001
   6
CONTINUOUS
  62
7
  10
 385.500
  20
 842.993
  30
0.0
  11
 385.420
  21
 844.105
  31
0.0
   0
LINE
   8
LEVEL001
   6
CONTINUOUS
  62
7
  10
 385.420
  20
 844.105
  30
0.0
  11
 385.193
  21
 845.200
  31
0.0
   0
LINE
   8
LEVEL001
   6
CONTINUOUS
  62
7
  10
 385.193
  20
 845.200
  30
0.0
  11
 384.823
  21
 846.260
  31
0.0
   0
LINE
   8
LEVEL001
   6
CONTINUOUS
  62
7
  10
 384.823
  20
 846.260
  30
0.0
  11
 384.563
  21
 846.817
  31
0.0
   0
CIRCLE
   8
LEVEL001
   6
CONTINUOUS
  62
7
  10
 352.050
  20
 845.387
  30
0.0
  40
 7.50000
   0
LINE
   8
LEVEL001
   6
CONTINUOUS
  62
7
  10
 352.050
  20
 835.926
  30
0.0
  11
 343.550
  21
 840.480
  31
0.0
   0
LINE
   8
LEVEL001
   6
CONTINUOUS
  62
7
  10
 343.550
  20
 840.480
  30
0.0
  11
 343.550
  21
 849.761
  31
0.0
   0
LINE
   8
LEVEL001
   6
CONTINUOUS
  62
7
  10
 343.550
  20
 849.761
  30
0.0
  11
 352.050
  21
 854.372
  31
0.0
   0
LINE
   8
LEVEL001
   6
CONTINUOUS
  62
7
  10
 352.050
  20
 854.372
  30
0.0
  11
 360.550
  21
 849.761
  31
0.0
   0
LINE
   8
LEVEL001
   6
CONTINUOUS
  62
7
  10
 360.550
  20
 849.761
  30
0.0
  11
 360.550
  21
 840.480
  31
0.0
   0
LINE
   8
LEVEL001
   6
CONTINUOUS
  62
7
  10
 360.550
  20
 840.480
  30
0.0
  11
 352.050
  21
 835.926
  31
0.0
   0
LINE
   8
LEVEL001
   6
CONTINUOUS
  62
7
  10
 343.550
  20
 845.123
  30
0.0
  11
 343.616
  21
 844.127
  31
0.0
   0
LINE
   8
LEVEL001
   6
CONTINUOUS
  62
7
  10
 343.616
  20
 844.127
  30
0.0
  11
 343.814
  21
 843.147
  31
0.0
   0
LINE
   8
LEVEL001
   6
CONTINUOUS
  62
7
  10
 343.814
  20
 843.147
  30
0.0
  11
 344.141
  21
 842.197
  31
0.0
   0
LINE
   8
LEVEL001
   6
CONTINUOUS
  62
7
  10
 344.141
  20
 842.197
  30
0.0
  11
 344.590
  21
 841.293
  31
0.0
   0
LINE
   8
LEVEL001
   6
CONTINUOUS
  62
7
  10
 344.590
  20
 841.293
  30
0.0
  11
 345.157
  21
 840.449
  31
0.0
   0
LINE
   8
LEVEL001
   6
CONTINUOUS
  62
7
  10
 345.157
  20
 840.449
  30
0.0
  11
 345.831
  21
 839.678
  31
0.0
   0
LINE
   8
LEVEL001
   6
CONTINUOUS
  62
7
  10
 345.831
  20
 839.678
  30
0.0
  11
 346.601
  21
 838.992
  31
0.0
   0
LINE
   8
LEVEL001
   6
CONTINUOUS
  62
7
  10
 346.601
  20
 838.992
  30
0.0
  11
 347.457
  21
 838.402
  31
0.0
   0
LINE
   8
LEVEL001
   6
CONTINUOUS
  62
7
  10
 347.457
  20
 838.402
  30
0.0
  11
 348.385
  21
 837.916
  31
0.0
   0
LINE
   8
LEVEL001
   6
CONTINUOUS
  62
7
  10
 348.385
  20
 837.916
  30
0.0
  11
 349.370
  21
 837.543
  31
0.0
   0
LINE
   8
LEVEL001
   6
CONTINUOUS
  62
7
  10
 349.370
  20
 837.543
  30
0.0
  11
 350.396
  21
 837.288
  31
0.0
   0
LINE
   8
LEVEL001
   6
CONTINUOUS
  62
7
  10
 350.396
  20
 837.288
  30
0.0
  11
 351.449
  21
 837.155
  31
0.0
   0
LINE
   8
LEVEL001
   6
CONTINUOUS
  62
7
  10
 351.449
  20
 837.155
  30
0.0
  11
 352.510
  21
 837.147
  31
0.0
   0
LINE
   8
LEVEL001
   6
CONTINUOUS
  62
7
  10
 352.510
  20
 837.147
  30
0.0
  11
 353.565
  21
 837.263
  31
0.0
   0
LINE
   8
LEVEL001
   6
CONTINUOUS
  62
7
  10
 353.565
  20
 837.263
  30
0.0
  11
 354.596
  21
 837.502
  31
0.0
   0
LINE
   8
LEVEL001
   6
CONTINUOUS
  62
7
  10
 354.596
  20
 837.502
  30
0.0
  11
 355.587
  21
 837.860
  31
0.0
   0
LINE
   8
LEVEL001
   6
CONTINUOUS
  62
7
  10
 355.587
  20
 837.860
  30
0.0
  11
 356.523
  21
 838.331
  31
0.0
   0
LINE
   8
LEVEL001
   6
CONTINUOUS
  62
7
  10
 356.523
  20
 838.331
  30
0.0
  11
 357.389
  21
 838.908
  31
0.0
   0
LINE
   8
LEVEL001
   6
CONTINUOUS
  62
7
  10
 357.389
  20
 838.908
  30
0.0
  11
 358.172
  21
 839.582
  31
0.0
   0
LINE
   8
LEVEL001
   6
CONTINUOUS
  62
7
  10
 358.172
  20
 839.582
  30
0.0
  11
 358.860
  21
 840.342
  31
0.0
   0
LINE
   8
LEVEL001
   6
CONTINUOUS
  62
7
  10
 358.860
  20
 840.342
  30
0.0
  11
 359.441
  21
 841.178
  31
0.0
   0
LINE
   8
LEVEL001
   6
CONTINUOUS
  62
7
  10
 359.441
  20
 841.178
  30
0.0
  11
 359.906
  21
 842.074
  31
0.0
   0
LINE
   8
LEVEL001
   6
CONTINUOUS
  62
7
  10
 359.906
  20
 842.074
  30
0.0
  11
 360.250
  21
 843.018
  31
0.0
   0
LINE
   8
LEVEL001
   6
CONTINUOUS
  62
7
  10
 360.250
  20
 843.018
  30
0.0
  11
 360.465
  21
 843.996
  31
0.0
   0
LINE
   8
LEVEL001
   6
CONTINUOUS
  62
7
  10
 360.465
  20
 843.996
  30
0.0
  11
 360.549
  21
 844.990
  31
0.0
   0
LINE
   8
LEVEL001
   6
CONTINUOUS
  62
7
  10
 360.549
  20
 844.990
  30
0.0
  11
 360.500
  21
 845.987
  31
0.0
   0
LINE
   8
LEVEL001
   6
CONTINUOUS
  62
7
  10
 360.500
  20
 845.987
  30
0.0
  11
 360.319
  21
 846.970
  31
0.0
   0
LINE
   8
LEVEL001
   6
CONTINUOUS
  62
7
  10
 360.319
  20
 846.970
  30
0.0
  11
 360.010
  21
 847.925
  31
0.0
   0
LINE
   8
LEVEL001
   6
CONTINUOUS
  62
7
  10
 360.010
  20
 847.925
  30
0.0
  11
 359.576
  21
 848.835
  31
0.0
   0
LINE
   8
LEVEL001
   6
CONTINUOUS
  62
7
  10
 359.576
  20
 848.835
  30
0.0
  11
 359.025
  21
 849.688
  31
0.0
   0
LINE
   8
LEVEL001
   6
CONTINUOUS
  62
7
  10
 359.025
  20
 849.688
  30
0.0
  11
 358.364
  21
 850.469
  31
0.0
   0
LINE
   8
LEVEL001
   6
CONTINUOUS
  62
7
  10
 358.364
  20
 850.469
  30
0.0
  11
 357.606
  21
 851.168
  31
0.0
   0
LINE
   8
LEVEL001
   6
CONTINUOUS
  62
7
  10
 357.606
  20
 851.168
  30
0.0
  11
 356.760
  21
 851.771
  31
0.0
   0
LINE
   8
LEVEL001
   6
CONTINUOUS
  62
7
  10
 356.760
  20
 851.771
  30
0.0
  11
 355.842
  21
 852.271
  31
0.0
   0
LINE
   8
LEVEL001
   6
CONTINUOUS
  62
7
  10
 355.842
  20
 852.271
  30
0.0
  11
 354.864
  21
 852.660
  31
0.0
   0
LINE
   8
LEVEL001
   6
CONTINUOUS
  62
7
  10
 354.864
  20
 852.660
  30
0.0
  11
 353.842
  21
 852.931
  31
0.0
   0
LINE
   8
LEVEL001
   6
CONTINUOUS
  62
7
  10
 353.842
  20
 852.931
  30
0.0
  11
 352.792
  21
 853.080
  31
0.0
   0
LINE
   8
LEVEL001
   6
CONTINUOUS
  62
7
  10
 352.792
  20
 853.080
  30
0.0
  11
 351.730
  21
 853.104
  31
0.0
   0
LINE
   8
LEVEL001
   6
CONTINUOUS
  62
7
  10
 351.730
  20
 853.104
  30
0.0
  11
 350.674
  21
 853.005
  31
0.0
   0
LINE
   8
LEVEL001
   6
CONTINUOUS
  62
7
  10
 350.674
  20
 853.005
  30
0.0
  11
 349.639
  21
 852.782
  31
0.0
   0
LINE
   8
LEVEL001
   6
CONTINUOUS
  62
7
  10
 349.639
  20
 852.782
  30
0.0
  11
 348.641
  21
 852.440
  31
0.0
   0
LINE
   8
LEVEL001
   6
CONTINUOUS
  62
7
  10
 348.641
  20
 852.440
  30
0.0
  11
 347.697
  21
 851.983
  31
0.0
   0
LINE
   8
LEVEL001
   6
CONTINUOUS
  62
7
  10
 347.697
  20
 851.983
  30
0.0
  11
 346.821
  21
 851.420
  31
0.0
   0
LINE
   8
LEVEL001
   6
CONTINUOUS
  62
7
  10
 346.821
  20
 851.420
  30
0.0
  11
 346.026
  21
 850.758
  31
0.0
   0
LINE
   8
LEVEL001
   6
CONTINUOUS
  62
7
  10
 346.026
  20
 850.758
  30
0.0
  11
 345.325
  21
 850.008
  31
0.0
   0
LINE
   8
LEVEL001
   6
CONTINUOUS
  62
7
  10
 345.325
  20
 850.008
  30
0.0
  11
 344.730
  21
 849.183
  31
0.0
   0
LINE
   8
LEVEL001
   6
CONTINUOUS
  62
7
  10
 344.730
  20
 849.183
  30
0.0
  11
 344.248
  21
 848.293
  31
0.0
   0
LINE
   8
LEVEL001
   6
CONTINUOUS
  62
7
  10
 344.248
  20
 848.293
  30
0.0
  11
 343.888
  21
 847.354
  31
0.0
   0
LINE
   8
LEVEL001
   6
CONTINUOUS
  62
7
  10
 343.888
  20
 847.354
  30
0.0
  11
 343.656
  21
 846.381
  31
0.0
   0
LINE
   8
LEVEL001
   6
CONTINUOUS
  62
7
  10
 343.656
  20
 846.381
  30
0.0
  11
 343.555
  21
 845.388
  31
0.0
   0
LINE
   8
LEVEL001
   6
CONTINUOUS
  62
7
  10
 343.555
  20
 845.388
  30
0.0
  11
 343.550
  21
 845.123
  31
0.0
   0
LINE
   8
LEVEL001
   6
DASHDOT
  62
1
  10
 361.783
  20
 845.387
  30
0.0
  11
 342.541
  21
 845.387
  31
0.0
   0
LINE
   8
LEVEL001
   6
CONTINUOUS
  62
7
  10
 360.550
  20
 840.480
  30
0.0
  11
 360.550
  21
 837.637
  31
0.0
   0
LINE
   8
LEVEL001
   6
CONTINUOUS
  62
7
  10
 360.550
  20
 837.637
  30
0.0
  11
 352.050
  21
 833.025
  31
0.0
   0
LINE
   8
LEVEL001
   6
CONTINUOUS
  62
7
  10
 352.050
  20
 833.025
  30
0.0
  11
 343.550
  21
 837.637
  31
0.0
   0
LINE
   8
LEVEL001
   6
CONTINUOUS
  62
7
  10
 343.550
  20
 837.637
  30
0.0
  11
 343.550
  21
 840.480
  31
0.0
   0
LINE
   8
LEVEL001
   6
CONTINUOUS
  62
7
  10
 341.768
  20
 839.485
  30
0.0
  11
 342.142
  21
 838.304
  31
0.0
   0
LINE
   8
LEVEL001
   6
CONTINUOUS
  62
7
  10
 342.142
  20
 838.304
  30
0.0
  11
 342.669
  21
 837.175
  31
0.0
   0
LINE
   8
LEVEL001
   6
CONTINUOUS
  62
7
  10
 342.669
  20
 837.175
  30
0.0
  11
 343.342
  21
 836.117
  31
0.0
   0
LINE
   8
LEVEL001
   6
CONTINUOUS
  62
7
  10
 343.342
  20
 836.117
  30
0.0
  11
 344.151
  21
 835.146
  31
0.0
   0
LINE
   8
LEVEL001
   6
CONTINUOUS
  62
7
  10
 344.151
  20
 835.146
  30
0.0
  11
 345.081
  21
 834.278
  31
0.0
   0
LINE
   8
LEVEL001
   6
CONTINUOUS
  62
7
  10
 345.081
  20
 834.278
  30
0.0
  11
 346.120
  21
 833.525
  31
0.0
   0
LINE
   8
LEVEL001
   6
CONTINUOUS
  62
7
  10
 346.120
  20
 833.525
  30
0.0
  11
 347.251
  21
 832.900
  31
0.0
   0
LINE
   8
LEVEL001
   6
CONTINUOUS
  62
7
  10
 347.251
  20
 832.900
  30
0.0
  11
 348.455
  21
 832.413
  31
0.0
   0
LINE
   8
LEVEL001
   6
CONTINUOUS
  62
7
  10
 348.455
  20
 832.413
  30
0.0
  11
 349.715
  21
 832.070
  31
0.0
   0
LINE
   8
LEVEL001
   6
CONTINUOUS
  62
7
  10
 349.715
  20
 832.070
  30
0.0
  11
 351.011
  21
 831.877
  31
0.0
   0
LINE
   8
LEVEL001
   6
CONTINUOUS
  62
7
  10
 351.011
  20
 831.877
  30
0.0
  11
 352.322
  21
 831.838
  31
0.0
   0
LINE
   8
LEVEL001
   6
CONTINUOUS
  62
7
  10
 352.322
  20
 831.838
  30
0.0
  11
 353.628
  21
 831.952
  31
0.0
   0
LINE
   8
LEVEL001
   6
CONTINUOUS
  62
7
  10
 353.628
  20
 831.952
  30
0.0
  11
 354.908
  21
 832.219
  31
0.0
   0
LINE
   8
LEVEL001
   6
CONTINUOUS
  62
7
  10
 354.908
  20
 832.219
  30
0.0
  11
 356.143
  21
 832.634
  31
0.0
   0
LINE
   8
LEVEL001
   6
CONTINUOUS
  62
7
  10
 356.143
  20
 832.634
  30
0.0
  11
 357.314
  21
 833.190
  31
0.0
   0
LINE
   8
LEVEL001
   6
CONTINUOUS
  62
7
  10
 357.314
  20
 833.190
  30
0.0
  11
 358.401
  21
 833.879
  31
0.0
   0
LINE
   8
LEVEL001
   6
CONTINUOUS
  62
7
  10
 358.401
  20
 833.879
  30
0.0
  11
 359.389
  21
 834.690
  31
0.0
   0
LINE
   8
LEVEL001
   6
CONTINUOUS
  62
7
  10
 359.389
  20
 834.690
  30
0.0
  11
 360.262
  21
 835.610
  31
0.0
   0
LINE
   8
LEVEL001
   6
CONTINUOUS
  62
7
  10
 360.262
  20
 835.610
  30
0.0
  11
 361.005
  21
 836.626
  31
0.0
   0
LINE
   8
LEVEL001
   6
CONTINUOUS
  62
7
  10
 361.005
  20
 836.626
  30
0.0
  11
 361.608
  21
 837.720
  31
0.0
   0
LINE
   8
LEVEL001
   6
CONTINUOUS
  62
7
  10
 361.608
  20
 837.720
  30
0.0
  11
 362.061
  21
 838.877
  31
0.0
   0
LINE
   8
LEVEL001
   6
CONTINUOUS
  62
7
  10
 362.061
  20
 838.877
  30
0.0
  11
 362.232
  21
 839.485
  31
0.0
   0
LINE
   8
LEVEL001
   6
CONTINUOUS
  62
7
  10
 361.957
  20
 842.571
  30
0.0
  11
 361.764
  21
 843.731
  31
0.0
   0
LINE
   8
LEVEL001
   6
CONTINUOUS
  62
7
  10
 361.764
  20
 843.731
  30
0.0
  11
 361.418
  21
 844.859
  31
0.0
   0
LINE
   8
LEVEL001
   6
CONTINUOUS
  62
7
  10
 361.418
  20
 844.859
  30
0.0
  11
 360.925
  21
 845.938
  31
0.0
   0
LINE
   8
LEVEL001
   6
CONTINUOUS
  62
7
  10
 360.925
  20
 845.938
  30
0.0
  11
 360.550
  21
 846.574
  31
0.0
   0
LINE
   8
LEVEL001
   6
CONTINUOUS
  62
7
  10
 343.550
  20
 846.725
  30
0.0
  11
 342.949
  21
 845.696
  31
0.0
   0
LINE
   8
LEVEL001
   6
CONTINUOUS
  62
7
  10
 342.949
  20
 845.696
  30
0.0
  11
 342.490
  21
 844.604
  31
0.0
   0
LINE
   8
LEVEL001
   6
CONTINUOUS
  62
7
  10
 342.490
  20
 844.604
  30
0.0
  11
 342.178
  21
 843.467
  31
0.0
   0
LINE
   8
LEVEL001
   6
CONTINUOUS
  62
7
  10
 342.178
  20
 843.467
  30
0.0
  11
 342.043
  21
 842.571
  31
0.0
   0
LINE
   8
LEVEL001
   6
CONTINUOUS
  62
7
  10
 305.090
  20
 851.500
  30
0.0
  11
 346.932
  21
 851.500
  31
0.0
   0
LINE
   8
LEVEL001
   6
CONTINUOUS
  62
7
  10
 357.168
  20
 851.500
  30
0.0
  11
 362.910
  21
 851.500
  31
0.0
   0
LINE
   8
LEVEL001
   6
CONTINUOUS
  62
7
  10
 366.500
  20
 845.339
  30
0.0
  11
 365.468
  21
 844.161
  31
0.0
   0
LINE
   8
LEVEL001
   6
CONTINUOUS
  62
7
  10
 365.468
  20
 844.161
  30
0.0
  11
 364.600
  21
 842.871
  31
0.0
   0
LINE
   8
LEVEL001
   6
CONTINUOUS
  62
7
  10
 364.600
  20
 842.871
  30
0.0
  11
 363.910
  21
 841.490
  31
0.0
   0
LINE
   8
LEVEL001
   6
CONTINUOUS
  62
7
  10
 363.910
  20
 841.490
  30
0.0
  11
 363.408
  21
 840.038
  31
0.0
   0
LINE
   8
LEVEL001
   6
CONTINUOUS
  62
7
  10
 363.408
  20
 840.038
  30
0.0
  11
 363.104
  21
 838.539
  31
0.0
   0
LINE
   8
LEVEL001
   6
CONTINUOUS
  62
7
  10
 363.104
  20
 838.539
  30
0.0
  11
 363.000
  21
 837.016
  31
0.0
   0
LINE
   8
LEVEL001
   6
CONTINUOUS
  62
7
  10
 363.000
  20
 837.016
  30
0.0
  11
 363.099
  21
 835.493
  31
0.0
   0
LINE
   8
LEVEL001
   6
CONTINUOUS
  62
7
  10
 363.099
  20
 835.493
  30
0.0
  11
 363.400
  21
 833.994
  31
0.0
   0
LINE
   8
LEVEL001
   6
CONTINUOUS
  62
7
  10
 363.400
  20
 833.994
  30
0.0
  11
 363.897
  21
 832.541
  31
0.0
   0
LINE
   8
LEVEL001
   6
CONTINUOUS
  62
7
  10
 363.897
  20
 832.541
  30
0.0
  11
 364.583
  21
 831.158
  31
0.0
   0
LINE
   8
LEVEL001
   6
CONTINUOUS
  62
7
  10
 364.583
  20
 831.158
  30
0.0
  11
 365.447
  21
 829.866
  31
0.0
   0
LINE
   8
LEVEL001
   6
CONTINUOUS
  62
7
  10
 365.447
  20
 829.866
  30
0.0
  11
 366.476
  21
 828.685
  31
0.0
   0
LINE
   8
LEVEL001
   6
CONTINUOUS
  62
7
  10
 366.476
  20
 828.685
  30
0.0
  11
 367.654
  21
 827.634
  31
0.0
   0
LINE
   8
LEVEL001
   6
CONTINUOUS
  62
7
  10
 367.654
  20
 827.634
  30
0.0
  11
 368.961
  21
 826.729
  31
0.0
   0
LINE
   8
LEVEL001
   6
CONTINUOUS
  62
7
  10
 368.961
  20
 826.729
  30
0.0
  11
 370.379
  21
 825.985
  31
0.0
   0
LINE
   8
LEVEL001
   6
CONTINUOUS
  62
7
  10
 370.379
  20
 825.985
  30
0.0
  11
 371.884
  21
 825.412
  31
0.0
   0
LINE
   8
LEVEL001
   6
CONTINUOUS
  62
7
  10
 371.884
  20
 825.412
  30
0.0
  11
 373.454
  21
 825.021
  31
0.0
   0
LINE
   8
LEVEL001
   6
CONTINUOUS
  62
7
  10
 373.454
  20
 825.021
  30
0.0
  11
 375.063
  21
 824.816
  31
0.0
   0
LINE
   8
LEVEL001
   6
CONTINUOUS
  62
7
  10
 375.063
  20
 824.816
  30
0.0
  11
 376.687
  21
 824.801
  31
0.0
   0
LINE
   8
LEVEL001
   6
CONTINUOUS
  62
7
  10
 376.687
  20
 824.801
  30
0.0
  11
 378.300
  21
 824.977
  31
0.0
   0
LINE
   8
LEVEL001
   6
CONTINUOUS
  62
7
  10
 378.300
  20
 824.977
  30
0.0
  11
 379.877
  21
 825.340
  31
0.0
   0
LINE
   8
LEVEL001
   6
CONTINUOUS
  62
7
  10
 379.877
  20
 825.340
  30
0.0
  11
 381.394
  21
 825.885
  31
0.0
   0
LINE
   8
LEVEL001
   6
CONTINUOUS
  62
7
  10
 381.394
  20
 825.885
  30
0.0
  11
 382.827
  21
 826.604
  31
0.0
   0
LINE
   8
LEVEL001
   6
CONTINUOUS
  62
7
  10
 382.827
  20
 826.604
  30
0.0
  11
 384.153
  21
 827.485
  31
0.0
   0
LINE
   8
LEVEL001
   6
CONTINUOUS
  62
7
  10
 384.153
  20
 827.485
  30
0.0
  11
 385.351
  21
 828.514
  31
0.0
   0
LINE
   8
LEVEL001
   6
CONTINUOUS
  62
7
  10
 385.351
  20
 828.514
  30
0.0
  11
 386.404
  21
 829.676
  31
0.0
   0
LINE
   8
LEVEL001
   6
CONTINUOUS
  62
7
  10
 386.404
  20
 829.676
  30
0.0
  11
 387.295
  21
 830.952
  31
0.0
   0
LINE
   8
LEVEL001
   6
CONTINUOUS
  62
7
  10
 387.295
  20
 830.952
  30
0.0
  11
 388.009
  21
 832.322
  31
0.0
   0
LINE
   8
LEVEL001
   6
CONTINUOUS
  62
7
  10
 388.009
  20
 832.322
  30
0.0
  11
 388.536
  21
 833.766
  31
0.0
   0
LINE
   8
LEVEL001
   6
CONTINUOUS
  62
7
  10
 388.536
  20
 833.766
  30
0.0
  11
 388.867
  21
 835.260
  31
0.0
   0
LINE
   8
LEVEL001
   6
CONTINUOUS
  62
7
  10
 388.867
  20
 835.260
  30
0.0
  11
 388.998
  21
 836.781
  31
0.0
   0
LINE
   8
LEVEL001
   6
CONTINUOUS
  62
7
  10
 388.998
  20
 836.781
  30
0.0
  11
 388.926
  21
 838.305
  31
0.0
   0
LINE
   8
LEVEL001
   6
CONTINUOUS
  62
7
  10
 388.926
  20
 838.305
  30
0.0
  11
 388.652
  21
 839.809
  31
0.0
   0
LINE
   8
LEVEL001
   6
CONTINUOUS
  62
7
  10
 388.652
  20
 839.809
  30
0.0
  11
 388.180
  21
 841.270
  31
0.0
   0
LINE
   8
LEVEL001
   6
CONTINUOUS
  62
7
  10
 388.180
  20
 841.270
  30
0.0
  11
 387.519
  21
 842.663
  31
0.0
   0
LINE
   8
LEVEL001
   6
CONTINUOUS
  62
7
  10
 387.519
  20
 842.663
  30
0.0
  11
 386.677
  21
 843.969
  31
0.0
   0
LINE
   8
LEVEL001
   6
CONTINUOUS
  62
7
  10
 386.677
  20
 843.969
  30
0.0
  11
 385.669
  21
 845.165
  31
0.0
   0
LINE
   8
LEVEL001
   6
CONTINUOUS
  62
7
  10
 385.669
  20
 845.165
  30
0.0
  11
 385.500
  21
 845.339
  31
0.0
   0
CIRCLE
   8
LEVEL003
   6
CONTINUOUS
  62
7
  10
 1332.42
  20
 79.6176
  30
0.0
  40
 9.00000
   0
LINE
   8
LEVEL003
   6
CONTINUOUS
  62
7
  10
 1350.08
  20
 88.6176
  30
0.0
  11
 1338.65
  21
 68.8176
  31
0.0
   0
LINE
   8
LEVEL003
   6
CONTINUOUS
  62
7
  10
 1338.65
  20
 68.8176
  30
0.0
  11
 1315.79
  21
 68.8176
  31
0.0
   0
LINE
   8
LEVEL003
   6
CONTINUOUS
  62
7
  10
 1313.19
  20
 64.3176
  30
0.0
  11
 1354.05
  21
 64.3176
  31
0.0
   0
LINE
   8
LEVEL003
   6
CONTINUOUS
  62
7
  10
 1354.05
  20
 64.3176
  30
0.0
  11
 1368.08
  21
 88.6176
  31
0.0
   0
LINE
   8
LEVEL003
   6
CONTINUOUS
  62
7
  10
 1368.08
  20
 88.6176
  30
0.0
  11
 1350.08
  21
 88.6176
  31
0.0
   0
LINE
   8
LEVEL003
   6
CONTINUOUS
  62
7
  10
 1315.79
  20
 68.8176
  30
0.0
  11
 1313.19
  21
 64.3176
  31
0.0
   0
TEXT
   8
LEVEL003
  62
7
  10
 1375.23
  20
 58.2976
  30
0.0
  40
 22.5000
   1
ＯＳＡＫＡ ＪＡＣＫ
   7
STANDARD
   0
TEXT
   8
LEVEL003
  62
7
  10
 1379.97
  20
 103.847
  30
0.0
  40
 15.0000
   1
Model : ＴＷＡ－２．３
   7
STANDARD
   0
ENDSEC
   0
EOF
