   0
SECTION
   2
HEADER
   9
$LIMMIN
  10
-66.0000
  20
0.0
   9
$LIMMAX
  10
 1680.00
  20
 1188.00
   9
$EXTMIN
  10
-66.0000
  20
0.0
   9
$EXTMAX
  10
 1680.00
  20
 1188.00
   9
$LTSCALE
  40
 34.9200
   0
ENDSEC
   0
SECTION
   2
TABLES
  0
TABLE
  2
LTYPE
 70
    25
  0
LTYPE
  2
CONTINUOUS
 70
    64
  3
Solid line
 72
    65
 73
     0
 40
0.0
  0
LTYPE
  2
BORDER
 70
    64
  3
__ __ . __ __ . __ __ . __ __ . __ __ . __ __ .
 72
    65
 73
     6
 40
1.75
 49
0.5
 49
-0.25
 49
0.5
 49
-0.25
 49
0.0
 49
-0.25
  0
LTYPE
  2
BORDER2
 70
    64
  3
__.__.__.__.__.__.__.__.__.__.__.__.__.__.__.__
 72
    65
 73
     6
 40
0.875
 49
0.25
 49
-0.125
 49
0.25
 49
-0.125
 49
0.0
 49
-0.125
  0
LTYPE
  2
BORDERX2
 70
    64
  3
____  ____  .  ____  ____  .  ____  ____  .  __
 72
    65
 73
     6
 40
3.5
 49
1.0
 49
-0.5
 49
1.0
 49
-0.5
 49
0.0
 49
-0.5
  0
LTYPE
  2
CENTER
 70
    64
  3
____ _ ____ _ ____ _ ____ _ ____ _ ____ _ ____ 
 72
    65
 73
     4
 40
2.0
 49
1.25
 49
-0.25
 49
0.25
 49
-0.25
  0
LTYPE
  2
CENTER2
 70
    64
  3
___ _ ___ _ ___ _ ___ _ ___ _ ___ _ ___ _ ___ _
 72
    65
 73
     4
 40
1.125
 49
0.75
 49
-0.125
 49
0.125
 49
-0.125
  0
LTYPE
  2
CENTERX2
 70
    64
  3
________  __  ________  __  ________  __  _____
 72
    65
 73
     4
 40
4.0
 49
2.5
 49
-0.5
 49
0.5
 49
-0.5
  0
LTYPE
  2
DASHDOT
 70
    64
  3
__ . __ . __ . __ . __ . __ . __ . __ . __ . __
 72
    65
 73
     4
 40
1.0
 49
0.5
 49
-0.25
 49
0.0
 49
-0.25
  0
LTYPE
  2
DASHDOT2
 70
    64
  3
_._._._._._._._._._._._._._._._._._._._._._._._
 72
    65
 73
     4
 40
0.5
 49
0.25
 49
-0.125
 49
0.0
 49
-0.125
  0
LTYPE
  2
DASHDOTX2
 70
    64
  3
____  .  ____  .  ____  .  ____  .  ____  .  __
 72
    65
 73
     4
 40
2.0
 49
1.0
 49
-0.5
 49
0.0
 49
-0.5
  0
LTYPE
  2
DASHED
 70
    64
  3
__ __ __ __ __ __ __ __ __ __ __ __ __ __ __ __
 72
    65
 73
     2
 40
0.75
 49
0.5
 49
-0.25
  0
LTYPE
  2
DASHED2
 70
    64
  3
_ _ _ _ _ _ _ _ _ _ _ _ _ _ _ _ _ _ _ _ _ _ _ _
 72
    65
 73
     2
 40
0.375
 49
0.25
 49
-0.125
  0
LTYPE
  2
DASHEDX2
 70
    64
  3
____  ____  ____  ____  ____  ____  ____  ____ 
 72
    65
 73
     2
 40
1.5
 49
1.0
 49
-0.5
  0
LTYPE
  2
DIVIDE
 70
    64
  3
____ . . ____ . . ____ . . ____ . . ____ . . __
 72
    65
 73
     6
 40
1.25
 49
0.5
 49
-0.25
 49
0.0
 49
-0.25
 49
0.0
 49
-0.25
  0
LTYPE
  2
DIVIDE2
 70
    64
  3
__..__..__..__..__..__..__..__..__..__..__..__.
 72
    65
 73
     6
 40
0.625
 49
0.25
 49
-0.125
 49
0.0
 49
-0.125
 49
0.0
 49
-0.125
  0
LTYPE
  2
DIVIDEX2
 70
    64
  3
________  .  .  ________  .  .  ________  .  . 
 72
    65
 73
     6
 40
2.5
 49
1.0
 49
-0.5
 49
0.0
 49
-0.5
 49
0.0
 49
-0.5
  0
LTYPE
  2
DOT
 70
    64
  3
. . . . . . . . . . . . . . . . . . . . . . . .
 72
    65
 73
     2
 40
0.25
 49
0.0
 49
-0.25
  0
LTYPE
  2
DOT2
 70
    64
  3
...............................................
 72
    65
 73
     2
 40
0.125
 49
0.0
 49
-0.125
  0
LTYPE
  2
DOTX2
 70
    64
  3
.  .  .  .  .  .  .  .  .  .  .  .  .  .  .  . 
 72
    65
 73
     2
 40
0.5
 49
0.0
 49
-0.5
  0
LTYPE
  2
HIDDEN
 70
    64
  3
__ __ __ __ __ __ __ __ __ __ __ __ __ __ __ __
 72
    65
 73
     2
 40
0.375
 49
0.25
 49
-0.125
  0
LTYPE
  2
HIDDEN2
 70
    64
  3
_ _ _ _ _ _ _ _ _ _ _ _ _ _ _ _ _ _ _ _ _ _ _ _
 72
    65
 73
     2
 40
0.1875
 49
0.125
 49
-0.0625
  0
LTYPE
  2
HIDDENX2
 70
    64
  3
____ ____ ____ ____ ____ ____ ____ ____ ____ __
 72
    65
 73
     2
 40
0.75
 49
0.5
 49
-0.25
  0
LTYPE
  2
PHANTOM
 70
    64
  3
______  __  __  ______  __  __  ______  __  __ 
 72
    65
 73
     6
 40
2.5
 49
1.25
 49
-0.25
 49
0.25
 49
-0.25
 49
0.25
 49
-0.25
  0
LTYPE
  2
PHANTOM2
 70
    64
  3
___ _ _ ___ _ _ ___ _ _ ___ _ _ ___ _ _ ___ _ _
 72
    65
 73
     6
 40
1.25
 49
0.625
 49
-0.125
 49
0.125
 49
-0.125
 49
0.125
 49
-0.125
  0
LTYPE
  2
PHANTOMX2
 70
    64
  3
____________    ____    ____    ____________   
 72
    65
 73
     6
 40
5.0
 49
2.5
 49
-0.5
 49
0.5
 49
-0.5
 49
0.5
 49
-0.5
  0
ENDTAB
  0
TABLE
  2
STYLE
 70
     2
  0
STYLE
  2
STANDARD
 70
0
 40
0.0
 41
1.0
 50
0.0
 71
0
 42
0.2
  3
TXT
  4
BIGFONT
  0
STYLE
  2
STANDARD1
 70
     4
 40
0.0
 41
1.0
 50
0.0
 71
     0
 42
0.2
  3
TXT
  4
BIGFONT
  0
ENDTAB
   0
TABLE
   2
LAYER
  70
11
   0
LAYER
   2
0
  70
0
  62
7
   6
CONTINUOUS
   0
LAYER
   2
LEVEL001
  70
0
  62
7
   6
CONTINUOUS
   0
LAYER
   2
LEVEL003
  70
0
  62
7
   6
CONTINUOUS
   0
LAYER
   2
LEVEL010
  70
0
  62
7
   6
CONTINUOUS
   0
LAYER
   2
LEVEL011
  70
0
  62
7
   6
CONTINUOUS
   0
LAYER
   2
LEVEL012
  70
0
  62
7
   6
CONTINUOUS
   0
LAYER
   2
LEVEL014
  70
0
  62
7
   6
CONTINUOUS
   0
LAYER
   2
LEVEL020
  70
0
  62
7
   6
CONTINUOUS
   0
LAYER
   2
LEVEL030
  70
0
  62
7
   6
CONTINUOUS
   0
LAYER
   2
LEVEL050
  70
0
  62
7
   6
CONTINUOUS
   0
LAYER
   2
LEVEL100
  70
0
  62
-7
   6
CONTINUOUS
   0
ENDTAB
   0
ENDSEC
   0
SECTION
   2
ENTITIES
   0
LINE
   8
LEVEL100
   6
CONTINUOUS
  62
7
  10
 1145.00
  20
 216.000
  30
0.0
  11
 1145.00
  21
 188.000
  31
0.0
   0
LINE
   8
LEVEL100
   6
CONTINUOUS
  62
7
  10
 1265.00
  20
 216.000
  30
0.0
  11
 1265.00
  21
 124.000
  31
0.0
   0
LINE
   8
LEVEL100
   6
CONTINUOUS
  62
7
  10
 1345.00
  20
 216.000
  30
0.0
  11
 1345.00
  21
 188.000
  31
0.0
   0
LINE
   8
LEVEL100
   6
CONTINUOUS
  62
7
  10
 1377.00
  20
 216.000
  30
0.0
  11
 1377.00
  21
 188.000
  31
0.0
   0
LINE
   8
LEVEL100
   6
CONTINUOUS
  62
7
  10
 1423.00
  20
 216.000
  30
0.0
  11
 1423.00
  21
 188.000
  31
0.0
   0
LINE
   8
LEVEL100
   6
CONTINUOUS
  62
7
  10
 1227.00
  20
 188.000
  30
0.0
  11
 1227.00
  21
 124.000
  31
0.0
   0
LINE
   8
LEVEL100
   6
CONTINUOUS
  62
7
  10
 1161.00
  20
 66.0000
  30
0.0
  11
 1181.00
  21
 86.0000
  31
0.0
   0
CIRCLE
   8
LEVEL100
   6
CONTINUOUS
  62
7
  10
 1133.00
  20
 6.00000
  30
0.0
  40
 1.60000
   0
CIRCLE
   8
LEVEL100
   6
CONTINUOUS
  62
7
  10
 1161.00
  20
 6.00000
  30
0.0
  40
 1.60000
   0
CIRCLE
   8
LEVEL100
   6
CONTINUOUS
  62
7
  10
 1133.00
  20
 6.00000
  30
0.0
  40
 1.00000
   0
CIRCLE
   8
LEVEL100
   6
CONTINUOUS
  62
7
  10
 1161.00
  20
 6.00000
  30
0.0
  40
 1.00000
   0
LINE
   8
LEVEL100
   6
CONTINUOUS
  62
7
  10
 1284.00
  20
 22.0000
  30
0.0
  11
 1284.00
  21
 26.0000
  31
0.0
   0
LINE
   8
LEVEL100
   6
CONTINUOUS
  62
7
  10
 1284.00
  20
 26.0000
  30
0.0
  11
 1296.00
  21
 26.0000
  31
0.0
   0
LINE
   8
LEVEL100
   6
CONTINUOUS
  62
7
  10
 1296.00
  20
 26.0000
  30
0.0
  11
 1296.00
  21
 22.0000
  31
0.0
   0
LINE
   8
LEVEL100
   6
CONTINUOUS
  62
7
  10
 1296.00
  20
 22.0000
  30
0.0
  11
 1284.00
  21
 22.0000
  31
0.0
   0
LINE
   8
LEVEL100
   6
CONTINUOUS
  62
7
  10
 1105.00
  20
0.0
  30
0.0
  11
 1105.00
  21
 216.000
  31
0.0
   0
LINE
   8
LEVEL100
   6
CONTINUOUS
  62
7
  10
 1189.00
  20
 188.000
  30
0.0
  11
 1189.00
  21
0.0
  31
0.0
   0
LINE
   8
LEVEL100
   6
CONTINUOUS
  62
7
  10
 1105.00
  20
 92.0000
  30
0.0
  11
 1189.00
  21
 92.0000
  31
0.0
   0
TEXT
   8
LEVEL100
  62
7
  10
 1203.00
  20
 14.0000
  30
0.0
  40
 20.0000
   1
ＯＪ
  41
 0.700000
   7
STANDARD
   0
LINE
   8
LEVEL100
   6
CONTINUOUS
  62
7
  10
 1105.00
  20
 188.000
  30
0.0
  11
 1532.60
  21
 188.000
  31
0.0
   0
LINE
   8
LEVEL100
   6
CONTINUOUS
  62
7
  10
 1105.00
  20
 172.000
  30
0.0
  11
 1532.60
  21
 172.000
  31
0.0
   0
LINE
   8
LEVEL100
   6
CONTINUOUS
  62
7
  10
 1105.00
  20
 216.000
  30
0.0
  11
 1532.60
  21
 216.000
  31
0.0
   0
LINE
   8
LEVEL100
   6
CONTINUOUS
  62
7
  10
 1208.60
  20
 1012.00
  30
0.0
  11
 1208.60
  21
 1112.00
  31
0.0
   0
LINE
   8
LEVEL100
   6
CONTINUOUS
  62
7
  10
 1208.60
  20
 1092.00
  30
0.0
  11
 1532.60
  21
 1092.00
  31
0.0
   0
LINE
   8
LEVEL100
   6
CONTINUOUS
  62
7
  10
 1208.60
  20
 1072.00
  30
0.0
  11
 1532.60
  21
 1072.00
  31
0.0
   0
LINE
   8
LEVEL100
   6
CONTINUOUS
  62
7
  10
 1244.60
  20
 1092.00
  30
0.0
  11
 1244.60
  21
 1072.00
  31
0.0
   0
LINE
   8
LEVEL100
   6
CONTINUOUS
  62
7
  10
 1452.60
  20
 1092.00
  30
0.0
  11
 1452.60
  21
 1072.00
  31
0.0
   0
LINE
   8
LEVEL100
   6
CONTINUOUS
  62
7
  10
 1500.60
  20
 1092.00
  30
0.0
  11
 1500.60
  21
 1072.00
  31
0.0
   0
LINE
   8
LEVEL100
   6
CONTINUOUS
  62
7
  10
 1105.00
  20
 124.000
  30
0.0
  11
 1532.60
  21
 124.000
  31
0.0
   0
LINE
   8
LEVEL100
   6
CONTINUOUS
  62
7
  10
 1105.00
  20
 60.0000
  30
0.0
  11
 1532.60
  21
 60.0000
  31
0.0
   0
LINE
   8
LEVEL100
   6
CONTINUOUS
  62
7
  10
 1420.60
  20
 60.0000
  30
0.0
  11
 1420.60
  21
0.0
  31
0.0
   0
LINE
   8
LEVEL100
   6
CONTINUOUS
  62
7
  10
 1436.60
  20
0.0
  30
0.0
  11
 1504.60
  21
 40.0000
  31
0.0
   0
LINE
   8
LEVEL100
   6
CONTINUOUS
  62
7
  10
0.0
  20
 1112.00
  30
0.0
  11
 1532.60
  21
 1112.00
  31
0.0
   0
LINE
   8
LEVEL100
   6
CONTINUOUS
  62
7
  10
 1532.60
  20
 1112.00
  30
0.0
  11
 1532.60
  21
0.0
  31
0.0
   0
LINE
   8
LEVEL100
   6
CONTINUOUS
  62
7
  10
 1532.60
  20
0.0
  30
0.0
  11
0.0
  21
0.0
  31
0.0
   0
LINE
   8
LEVEL100
   6
CONTINUOUS
  62
7
  10
0.0
  20
 1076.80
  30
0.0
  11
 200.600
  21
 1076.80
  31
0.0
   0
LINE
   8
LEVEL100
   6
CONTINUOUS
  62
7
  10
 200.600
  20
 1076.80
  30
0.0
  11
 200.600
  21
 1112.00
  31
0.0
   0
TEXT
   8
LEVEL100
  62
7
  10
 196.600
  20
 1104.40
  30
0.0
  40
 20.0000
   1
ＯＪ．
  50
 180.000
  41
 0.900000
   7
STANDARD
   0
LINE
   8
LEVEL100
   6
CONTINUOUS
  62
7
  10
 128.600
  20
 1096.40
  30
0.0
  11
 116.600
  21
 1096.40
  31
0.0
   0
LINE
   8
LEVEL100
   6
CONTINUOUS
  62
7
  10
 116.600
  20
 1096.40
  30
0.0
  11
 116.600
  21
 1092.40
  31
0.0
   0
LINE
   8
LEVEL100
   6
CONTINUOUS
  62
7
  10
 116.600
  20
 1092.40
  30
0.0
  11
 128.600
  21
 1092.40
  31
0.0
   0
LINE
   8
LEVEL100
   6
CONTINUOUS
  62
7
  10
 128.600
  20
 1092.40
  30
0.0
  11
 128.600
  21
 1096.40
  31
0.0
   0
TEXT
   8
LEVEL100
  62
7
  10
 1149.00
  20
 192.000
  30
0.0
  40
 16.0000
   1
Ｓ．ＩＭＡＮＩＳＨＩ
  41
 0.625000
   7
STANDARD
   0
TEXT
   8
LEVEL100
  62
3
  10
 1265.00
  20
 124.000
  30
0.0
  40
 20.0000
   1
＊＊＊＊＊＊＊＊＊＊＊＊＊＊
  41
 0.700000
   7
STANDARD
   0
TEXT
   8
LEVEL100
  62
3
  10
 1437.79
  20
 21.2000
  30
0.0
  40
 20.0000
   1
＊＊
  41
 0.630000
   7
STANDARD
  72
1
  11
 1450.39
  21
 21.2000
  31
0.0
   0
TEXT
   8
LEVEL003
  62
3
  10
 600.000
  20
 500.000
  30
0.0
  40
 16.0000
   1
ハンドル棒
   7
STANDARD
   0
TEXT
   8
LEVEL003
  62
3
  10
 660.000
  20
 460.000
  30
0.0
  40
 16.0000
   1
オイルタンク
   7
STANDARD
   0
TEXT
   8
LEVEL003
  62
3
  10
 192.883
  20
 454.161
  30
0.0
  40
 16.0000
   1
Ｒｃ３／８
   7
STANDARD
   0
LINE
   8
LEVEL001
   6
DASHDOT
  62
1
  10
 154.947
  20
 365.331
  30
0.0
  11
 154.947
  21
 342.669
  31
0.0
   0
LINE
   8
LEVEL001
   6
DASHDOT
  62
1
  10
 132.947
  20
 363.578
  30
0.0
  11
 132.947
  21
 344.421
  31
0.0
   0
CIRCLE
   8
LEVEL001
   6
CONTINUOUS
  62
7
  10
 132.947
  20
 354.000
  30
0.0
  40
 7.00000
   0
LINE
   8
LEVEL001
   6
CONTINUOUS
  62
7
  10
 132.947
  20
 357.464
  30
0.0
  11
 135.947
  21
 355.732
  31
0.0
   0
LINE
   8
LEVEL001
   6
CONTINUOUS
  62
7
  10
 135.947
  20
 355.732
  30
0.0
  11
 135.947
  21
 352.268
  31
0.0
   0
LINE
   8
LEVEL001
   6
CONTINUOUS
  62
7
  10
 135.947
  20
 352.268
  30
0.0
  11
 132.947
  21
 350.536
  31
0.0
   0
LINE
   8
LEVEL001
   6
CONTINUOUS
  62
7
  10
 132.947
  20
 350.536
  30
0.0
  11
 129.947
  21
 352.268
  31
0.0
   0
LINE
   8
LEVEL001
   6
CONTINUOUS
  62
7
  10
 129.947
  20
 352.268
  30
0.0
  11
 129.947
  21
 355.732
  31
0.0
   0
LINE
   8
LEVEL001
   6
CONTINUOUS
  62
7
  10
 129.947
  20
 355.732
  30
0.0
  11
 132.947
  21
 357.464
  31
0.0
   0
CIRCLE
   8
LEVEL001
   6
CONTINUOUS
  62
7
  10
 132.947
  20
 354.000
  30
0.0
  40
 6.57850
   0
CIRCLE
   8
LEVEL001
   6
CONTINUOUS
  62
3
  10
 132.947
  20
 354.000
  30
0.0
  40
 5.72250
   0
LINE
   8
LEVEL001
   6
CONTINUOUS
  62
7
  10
 147.497
  20
 338.161
  30
0.0
  11
 126.915
  21
 345.526
  31
0.0
   0
ARC
   8
LEVEL001
   6
CONTINUOUS
  62
7
  10
 148.171
  20
 340.044
  30
0.0
  40
 2.00000
  50
 250.311
  51
 277.178
   0
LINE
   8
LEVEL001
   6
CONTINUOUS
  62
7
  10
 148.421
  20
 338.060
  30
0.0
  11
 156.821
  21
 339.118
  31
0.0
   0
LINE
   8
LEVEL001
   6
CONTINUOUS
  62
7
  10
 120.947
  20
 354.000
  30
0.0
  11
 120.947
  21
 362.391
  31
0.0
   0
ARC
   8
LEVEL001
   6
CONTINUOUS
  62
7
  10
 129.947
  20
 362.391
  30
0.0
  40
 9.00000
  50
 95.0000
  51
 180.000
   0
ARC
   8
LEVEL001
   6
CONTINUOUS
  62
7
  10
 147.644
  20
 370.966
  30
0.0
  40
 2.00000
  50
 68.0242
  51
 95.0000
   0
ARC
   8
LEVEL001
   6
CONTINUOUS
  62
7
  10
 129.947
  20
 354.000
  30
0.0
  40
 9.00003
  50
 180.000
  51
 250.311
   0
LINE
   8
LEVEL001
   6
CONTINUOUS
  62
7
  10
 147.469
  20
 372.958
  30
0.0
  11
 129.163
  21
 371.357
  31
0.0
   0
ARC
   8
LEVEL001
   6
CONTINUOUS
  62
7
  10
 106.947
  20
 309.167
  30
0.0
  40
 2.00000
  50
 95.0000
  51
 180.000
   0
LINE
   8
LEVEL001
   6
CONTINUOUS
  62
7
  10
 104.947
  20
 305.000
  30
0.0
  11
 104.947
  21
 309.167
  31
0.0
   0
LINE
   8
LEVEL001
   6
CONTINUOUS
  62
7
  10
 104.947
  20
 305.000
  30
0.0
  11
 199.947
  21
 305.000
  31
0.0
   0
ARC
   8
LEVEL001
   6
CONTINUOUS
  62
7
  10
 197.947
  20
 309.167
  30
0.0
  40
 2.00000
  50
 0.423395E-10
  51
 85.0000
   0
LINE
   8
LEVEL001
   6
CONTINUOUS
  62
7
  10
 199.947
  20
 305.000
  30
0.0
  11
 199.947
  21
 309.167
  31
0.0
   0
ARC
   8
LEVEL001
   6
CONTINUOUS
  62
7
  10
 130.884
  20
 384.580
  30
0.0
  40
 2.00000
  50
 95.0000
  51
 110.000
   0
ARC
   8
LEVEL001
   6
CONTINUOUS
  62
7
  10
 127.447
  20
 388.650
  30
0.0
  40
 3.00000
  50
 290.000
  51
0.0
   0
LINE
   8
LEVEL001
   6
CONTINUOUS
  62
7
  10
 109.960
  20
 379.093
  30
0.0
  11
 130.686
  21
 386.637
  31
0.0
   0
LINE
   8
LEVEL001
   6
CONTINUOUS
  62
7
  10
 130.709
  20
 386.573
  30
0.0
  11
 141.209
  21
 387.491
  31
0.0
   0
ARC
   8
LEVEL001
   6
CONTINUOUS
  62
7
  10
 140.947
  20
 390.480
  30
0.0
  40
 3.00000
  50
 275.000
  51
0.0
   0
LINE
   8
LEVEL001
   6
CONTINUOUS
  62
7
  10
 127.947
  20
 403.000
  30
0.0
  11
 128.947
  21
 404.000
  31
0.0
   0
LINE
   8
LEVEL001
   6
CONTINUOUS
  62
7
  10
 128.947
  20
 404.000
  30
0.0
  11
 132.947
  21
 404.000
  31
0.0
   0
LINE
   8
LEVEL001
   6
CONTINUOUS
  62
7
  10
 162.947
  20
 404.000
  30
0.0
  11
 166.947
  21
 404.000
  31
0.0
   0
LINE
   8
LEVEL001
   6
CONTINUOUS
  62
7
  10
 166.947
  20
 404.000
  30
0.0
  11
 167.947
  21
 403.000
  31
0.0
   0
LINE
   8
LEVEL001
   6
CONTINUOUS
  62
7
  10
 127.947
  20
 403.000
  30
0.0
  11
 132.975
  21
 403.000
  31
0.0
   0
LINE
   8
LEVEL001
   6
CONTINUOUS
  62
7
  10
 167.947
  20
 403.000
  30
0.0
  11
 162.947
  21
 403.000
  31
0.0
   0
ARC
   8
LEVEL001
   6
CONTINUOUS
  62
7
  10
 154.947
  20
 425.000
  30
0.0
  40
 3.00000
  50
 90.0000
  51
 180.000
   0
LINE
   8
LEVEL001
   6
CONTINUOUS
  62
7
  10
 147.947
  20
 438.000
  30
0.0
  11
 138.947
  21
 437.213
  31
0.0
   0
ARC
   8
LEVEL001
   6
CONTINUOUS
  62
7
  10
 140.947
  20
 425.000
  30
0.0
  40
 3.00000
  50
0.0
  51
 90.0000
   0
LINE
   8
LEVEL001
   6
CONTINUOUS
  62
7
  10
 130.447
  20
 392.500
  30
0.0
  11
 140.947
  21
 392.500
  31
0.0
   0
ARC
   8
LEVEL001
   6
CONTINUOUS
  62
7
  10
 129.947
  20
 394.500
  30
0.0
  40
 2.00000
  50
 179.999
  51
 240.000
   0
ARC
   8
LEVEL001
   6
CONTINUOUS
  62
7
  10
 127.447
  20
 390.170
  30
0.0
  40
 3.00000
  50
0.0
  51
 60.0000
   0
ARC
   8
LEVEL001
   6
CONTINUOUS
  62
7
  10
 168.447
  20
 390.170
  30
0.0
  40
 3.00000
  50
 120.000
  51
 180.000
   0
ARC
   8
LEVEL001
   6
CONTINUOUS
  62
7
  10
 165.947
  20
 394.500
  30
0.0
  40
 2.00000
  50
 300.000
  51
 0.928922E-3
   0
LINE
   8
LEVEL001
   6
CONTINUOUS
  62
7
  10
 127.947
  20
 394.500
  30
0.0
  11
 127.947
  21
 403.000
  31
0.0
   0
LINE
   8
LEVEL001
   6
CONTINUOUS
  62
7
  10
 167.947
  20
 403.000
  30
0.0
  11
 167.947
  21
 394.500
  31
0.0
   0
LINE
   8
LEVEL001
   6
CONTINUOUS
  62
7
  10
 130.447
  20
 390.170
  30
0.0
  11
 130.447
  21
 388.650
  31
0.0
   0
LINE
   8
LEVEL003
   6
CONTINUOUS
  62
7
  10
 165.447
  20
 377.500
  30
0.0
  11
 166.447
  21
 377.500
  31
0.0
   0
LINE
   8
LEVEL003
   6
CONTINUOUS
  62
7
  10
 166.447
  20
 377.500
  30
0.0
  11
 166.447
  21
 387.500
  31
0.0
   0
LINE
   8
LEVEL003
   6
CONTINUOUS
  62
7
  10
 166.447
  20
 387.500
  30
0.0
  11
 165.447
  21
 387.500
  31
0.0
   0
ARC
   8
LEVEL001
   6
CONTINUOUS
  62
7
  10
 160.947
  20
 397.833
  30
0.0
  40
 2.00000
  50
 275.000
  51
 0.182386E-9
   0
ARC
   8
LEVEL001
   6
CONTINUOUS
  62
7
  10
 154.947
  20
 392.289
  30
0.0
  40
 3.00000
  50
 95.0000
  51
 180.000
   0
LINE
   8
LEVEL001
   6
CONTINUOUS
  62
7
  10
 161.122
  20
 395.840
  30
0.0
  11
 154.686
  21
 395.277
  31
0.0
   0
ARC
   8
LEVEL001
   6
CONTINUOUS
  62
7
  10
 134.947
  20
 397.833
  30
0.0
  40
 2.00000
  50
 180.000
  51
 265.000
   0
ARC
   8
LEVEL001
   6
CONTINUOUS
  62
7
  10
 140.947
  20
 392.289
  30
0.0
  40
 3.00000
  50
0.0
  51
 85.0000
   0
LINE
   8
LEVEL001
   6
CONTINUOUS
  62
7
  10
 141.209
  20
 395.277
  30
0.0
  11
 134.773
  21
 395.840
  31
0.0
   0
ARC
   8
LEVEL003
   6
CONTINUOUS
  62
7
  10
 130.447
  20
 408.966
  30
0.0
  40
 1.00000
  50
 180.000
  51
 268.000
   0
LINE
   8
LEVEL003
   6
CONTINUOUS
  62
7
  10
 129.447
  20
 438.000
  30
0.0
  11
 129.447
  21
 408.966
  31
0.0
   0
ARC
   8
LEVEL003
   6
CONTINUOUS
  62
7
  10
 129.447
  20
 440.000
  30
0.0
  40
 2.00000
  50
 270.000
  51
 0.123762E-9
   0
ARC
   8
LEVEL003
   6
CONTINUOUS
  62
7
  10
 133.447
  20
 443.493
  30
0.0
  40
 2.00000
  50
 92.0000
  51
 180.000
   0
LINE
   8
LEVEL003
   6
CONTINUOUS
  62
7
  10
 133.377
  20
 445.491
  30
0.0
  11
 147.947
  21
 446.000
  31
0.0
   0
ARC
   8
LEVEL003
   6
CONTINUOUS
  62
7
  10
 166.447
  20
 440.000
  30
0.0
  40
 2.00000
  50
 180.000
  51
 270.000
   0
LINE
   8
LEVEL003
   6
CONTINUOUS
  62
7
  10
 147.947
  20
 446.000
  30
0.0
  11
 162.517
  21
 445.491
  31
0.0
   0
ARC
   8
LEVEL003
   6
CONTINUOUS
  62
7
  10
 162.447
  20
 443.493
  30
0.0
  40
 2.00000
  50
0.0
  51
 88.0000
   0
LINE
   8
LEVEL003
   6
CONTINUOUS
  62
7
  10
 166.447
  20
 438.000
  30
0.0
  11
 166.447
  21
 408.966
  31
0.0
   0
ARC
   8
LEVEL003
   6
CONTINUOUS
  62
7
  10
 165.447
  20
 408.966
  30
0.0
  40
 1.00000
  50
 272.000
  51
 0.807708E-9
   0
LINE
   8
LEVEL003
   6
CONTINUOUS
  62
7
  10
 131.447
  20
 443.493
  30
0.0
  11
 131.447
  21
 404.000
  31
0.0
   0
LINE
   8
LEVEL003
   6
CONTINUOUS
  62
7
  10
 164.447
  20
 443.493
  30
0.0
  11
 164.447
  21
 404.000
  31
0.0
   0
LINE
   8
LEVEL003
   6
CONTINUOUS
  62
7
  10
 132.947
  20
 407.878
  30
0.0
  11
 130.412
  21
 407.967
  31
0.0
   0
LINE
   8
LEVEL003
   6
CONTINUOUS
  62
7
  10
 162.947
  20
 407.878
  30
0.0
  11
 165.482
  21
 407.967
  31
0.0
   0
LINE
   8
LEVEL001
   6
DASHDOT
  62
1
  10
 120.000
  20
 428.000
  30
0.0
  11
 175.000
  21
 428.000
  31
0.0
   0
LINE
   8
LEVEL001
   6
CONTINUOUS
  62
7
  10
 166.697
  20
 423.000
  30
0.0
  11
 166.697
  21
 413.000
  31
0.0
   0
LINE
   8
LEVEL001
   6
CONTINUOUS
  62
7
  10
 166.697
  20
 423.000
  30
0.0
  11
 166.447
  21
 423.000
  31
0.0
   0
LINE
   8
LEVEL001
   6
CONTINUOUS
  62
7
  10
 166.697
  20
 423.000
  30
0.0
  11
 167.697
  21
 422.000
  31
0.0
   0
LINE
   8
LEVEL001
   6
CONTINUOUS
  62
7
  10
 166.697
  20
 413.000
  30
0.0
  11
 166.447
  21
 413.000
  31
0.0
   0
LINE
   8
LEVEL001
   6
CONTINUOUS
  62
7
  10
 166.697
  20
 413.000
  30
0.0
  11
 167.697
  21
 414.000
  31
0.0
   0
LINE
   8
LEVEL001
   6
CONTINUOUS
  62
7
  10
 167.697
  20
 422.000
  30
0.0
  11
 167.697
  21
 414.000
  31
0.0
   0
LINE
   8
LEVEL001
   6
CONTINUOUS
  62
7
  10
 129.197
  20
 423.000
  30
0.0
  11
 129.197
  21
 413.000
  31
0.0
   0
LINE
   8
LEVEL001
   6
CONTINUOUS
  62
7
  10
 129.197
  20
 423.000
  30
0.0
  11
 129.447
  21
 423.000
  31
0.0
   0
LINE
   8
LEVEL001
   6
CONTINUOUS
  62
7
  10
 129.197
  20
 423.000
  30
0.0
  11
 128.197
  21
 422.000
  31
0.0
   0
LINE
   8
LEVEL001
   6
CONTINUOUS
  62
7
  10
 129.197
  20
 413.000
  30
0.0
  11
 129.447
  21
 413.000
  31
0.0
   0
LINE
   8
LEVEL001
   6
CONTINUOUS
  62
7
  10
 129.197
  20
 413.000
  30
0.0
  11
 128.197
  21
 414.000
  31
0.0
   0
LINE
   8
LEVEL001
   6
CONTINUOUS
  62
7
  10
 128.197
  20
 422.000
  30
0.0
  11
 128.197
  21
 414.000
  31
0.0
   0
LINE
   8
LEVEL003
   6
DASHDOT
  62
1
  10
 125.000
  20
 418.000
  30
0.0
  11
 170.000
  21
 418.000
  31
0.0
   0
LINE
   8
LEVEL001
   6
CONTINUOUS
  62
7
  10
 171.447
  20
 433.000
  30
0.0
  11
 166.447
  21
 433.000
  31
0.0
   0
LINE
   8
LEVEL001
   6
CONTINUOUS
  62
7
  10
 171.447
  20
 433.000
  30
0.0
  11
 172.447
  21
 432.000
  31
0.0
   0
LINE
   8
LEVEL001
   6
CONTINUOUS
  62
7
  10
 172.447
  20
 432.000
  30
0.0
  11
 172.447
  21
 424.000
  31
0.0
   0
LINE
   8
LEVEL001
   6
CONTINUOUS
  62
7
  10
 172.447
  20
 424.000
  30
0.0
  11
 171.447
  21
 423.000
  31
0.0
   0
LINE
   8
LEVEL001
   6
CONTINUOUS
  62
7
  10
 166.697
  20
 423.000
  30
0.0
  11
 171.447
  21
 423.000
  31
0.0
   0
LINE
   8
LEVEL001
   6
CONTINUOUS
  62
7
  10
 171.447
  20
 433.000
  30
0.0
  11
 171.447
  21
 423.000
  31
0.0
   0
LINE
   8
LEVEL001
   6
CONTINUOUS
  62
7
  10
 124.447
  20
 433.000
  30
0.0
  11
 129.447
  21
 433.000
  31
0.0
   0
LINE
   8
LEVEL001
   6
CONTINUOUS
  62
7
  10
 124.447
  20
 433.000
  30
0.0
  11
 123.447
  21
 432.000
  31
0.0
   0
LINE
   8
LEVEL001
   6
CONTINUOUS
  62
7
  10
 123.447
  20
 432.000
  30
0.0
  11
 123.447
  21
 424.000
  31
0.0
   0
LINE
   8
LEVEL001
   6
CONTINUOUS
  62
7
  10
 123.447
  20
 424.000
  30
0.0
  11
 124.447
  21
 423.000
  31
0.0
   0
LINE
   8
LEVEL001
   6
CONTINUOUS
  62
7
  10
 129.197
  20
 423.000
  30
0.0
  11
 124.447
  21
 423.000
  31
0.0
   0
LINE
   8
LEVEL001
   6
CONTINUOUS
  62
7
  10
 124.447
  20
 433.000
  30
0.0
  11
 124.447
  21
 423.000
  31
0.0
   0
LINE
   8
LEVEL001
   6
DASHDOT
  62
1
  10
 168.947
  20
 435.952
  30
0.0
  11
 168.947
  21
 422.374
  31
0.0
   0
LINE
   8
LEVEL001
   6
CONTINUOUS
  62
7
  10
 168.147
  20
 425.375
  30
0.0
  11
 168.147
  21
 431.775
  31
0.0
   0
LINE
   8
LEVEL001
   6
CONTINUOUS
  62
7
  10
 169.747
  20
 431.775
  30
0.0
  11
 169.747
  21
 425.375
  31
0.0
   0
ARC
   8
LEVEL001
   6
CONTINUOUS
  62
7
  10
 168.947
  20
 431.775
  30
0.0
  40
 0.800000
  50
0.0
  51
 180.000
   0
ARC
   8
LEVEL001
   6
CONTINUOUS
  62
7
  10
 168.947
  20
 425.375
  30
0.0
  40
 0.800000
  50
 180.000
  51
0.0
   0
LINE
   8
LEVEL001
   6
CONTINUOUS
  62
7
  10
 168.147
  20
 434.250
  30
0.0
  11
 168.147
  21
 433.000
  31
0.0
   0
LINE
   8
LEVEL001
   6
CONTINUOUS
  62
7
  10
 169.747
  20
 434.250
  30
0.0
  11
 169.747
  21
 433.000
  31
0.0
   0
ARC
   8
LEVEL001
   6
CONTINUOUS
  62
7
  10
 168.947
  20
 434.250
  30
0.0
  40
 0.800000
  50
0.0
  51
 180.000
   0
LINE
   8
LEVEL001
   6
DASHDOT
  62
1
  10
 126.947
  20
 435.952
  30
0.0
  11
 126.947
  21
 422.374
  31
0.0
   0
LINE
   8
LEVEL001
   6
CONTINUOUS
  62
7
  10
 127.747
  20
 434.250
  30
0.0
  11
 127.747
  21
 433.000
  31
0.0
   0
LINE
   8
LEVEL001
   6
CONTINUOUS
  62
7
  10
 126.147
  20
 434.250
  30
0.0
  11
 126.147
  21
 433.000
  31
0.0
   0
ARC
   8
LEVEL001
   6
CONTINUOUS
  62
7
  10
 126.947
  20
 434.250
  30
0.0
  40
 0.800000
  50
0.0
  51
 180.000
   0
LINE
   8
LEVEL001
   6
CONTINUOUS
  62
7
  10
 127.747
  20
 425.375
  30
0.0
  11
 127.747
  21
 431.775
  31
0.0
   0
LINE
   8
LEVEL001
   6
CONTINUOUS
  62
7
  10
 126.147
  20
 431.775
  30
0.0
  11
 126.147
  21
 425.375
  31
0.0
   0
ARC
   8
LEVEL001
   6
CONTINUOUS
  62
7
  10
 126.947
  20
 431.775
  30
0.0
  40
 0.800000
  50
0.0
  51
 180.000
   0
ARC
   8
LEVEL001
   6
CONTINUOUS
  62
7
  10
 126.947
  20
 425.375
  30
0.0
  40
 0.800000
  50
 180.000
  51
0.0
   0
LINE
   8
LEVEL003
   6
CONTINUOUS
  62
7
  10
 134.450
  20
 416.878
  30
0.0
  11
 138.447
  21
 420.877
  31
0.0
   0
LINE
   8
LEVEL003
   6
CONTINUOUS
  62
7
  10
 157.447
  20
 420.877
  30
0.0
  11
 161.444
  21
 416.878
  31
0.0
   0
LINE
   8
LEVEL003
   6
CONTINUOUS
  62
7
  10
 161.444
  20
 416.895
  30
0.0
  11
 166.446
  21
 417.070
  31
0.0
   0
LINE
   8
LEVEL003
   6
CONTINUOUS
  62
7
  10
 129.448
  20
 417.070
  30
0.0
  11
 134.451
  21
 416.895
  31
0.0
   0
LINE
   8
LEVEL003
   6
CONTINUOUS
  62
7
  10
 157.447
  20
 431.000
  30
0.0
  11
 164.447
  21
 431.000
  31
0.0
   0
LINE
   8
LEVEL001
   6
CONTINUOUS
  62
7
  10
 147.947
  20
 438.000
  30
0.0
  11
 157.447
  21
 437.169
  31
0.0
   0
LINE
   8
LEVEL001
   6
CONTINUOUS
  62
7
  10
 157.447
  20
 440.676
  30
0.0
  11
 164.447
  21
 440.676
  31
0.0
   0
LINE
   8
LEVEL001
   6
CONTINUOUS
  62
7
  10
 131.447
  20
 440.676
  30
0.0
  11
 138.447
  21
 440.676
  31
0.0
   0
LINE
   8
LEVEL001
   6
CONTINUOUS
  62
7
  10
 138.447
  20
 441.000
  30
0.0
  11
 157.447
  21
 441.000
  31
0.0
   0
LINE
   8
LEVEL003
   6
CONTINUOUS
  62
7
  10
 131.447
  20
 431.000
  30
0.0
  11
 138.447
  21
 431.000
  31
0.0
   0
ARC
   8
LEVEL001
   6
CONTINUOUS
  62
7
  10
 134.947
  20
 409.667
  30
0.0
  40
 2.00000
  50
 170.420
  51
 180.000
   0
ARC
   8
LEVEL001
   6
CONTINUOUS
  62
7
  10
 134.947
  20
 409.479
  30
0.0
  40
 2.00000
  50
 170.420
  51
 180.000
   0
ARC
   8
LEVEL001
   6
CONTINUOUS
  62
7
  10
 160.947
  20
 409.479
  30
0.0
  40
 2.00000
  50
 0.255666E-9
  51
 9.57962
   0
LINE
   8
LEVEL001
   6
CONTINUOUS
  62
7
  10
 162.947
  20
 409.668
  30
0.0
  11
 162.947
  21
 397.833
  31
0.0
   0
ARC
   8
LEVEL001
   6
CONTINUOUS
  62
7
  10
 160.947
  20
 409.668
  30
0.0
  40
 2.00000
  50
 0.210232E-8
  51
 4.17184
   0
LINE
   8
LEVEL001
   6
CONTINUOUS
  62
7
  10
 132.947
  20
 409.479
  30
0.0
  11
 132.947
  21
 397.833
  31
0.0
   0
LINE
   8
LEVEL001
   6
CONTINUOUS
  62
7
  10
 188.168
  20
 378.349
  30
0.0
  11
 171.149
  21
 384.209
  31
0.0
   0
LINE
   8
LEVEL001
   6
CONTINUOUS
  62
7
  10
 167.438
  20
 373.430
  30
0.0
  11
 171.149
  21
 384.209
  31
0.0
   0
LINE
   8
LEVEL001
   6
CONTINUOUS
  62
7
  10
 171.149
  20
 384.209
  30
0.0
  11
 172.327
  21
 384.438
  31
0.0
   0
LINE
   8
LEVEL001
   6
CONTINUOUS
  62
7
  10
 172.327
  20
 384.438
  30
0.0
  11
 187.381
  21
 379.254
  31
0.0
   0
LINE
   8
LEVEL001
   6
CONTINUOUS
  62
7
  10
 187.381
  20
 379.254
  30
0.0
  11
 188.168
  21
 378.349
  31
0.0
   0
LINE
   8
LEVEL001
   6
CONTINUOUS
  62
7
  10
 188.168
  20
 378.349
  30
0.0
  11
 184.457
  21
 367.570
  31
0.0
   0
LINE
   8
LEVEL001
   6
DASHDOT
  62
1
  10
 180.835
  20
 384.694
  30
0.0
  11
 156.155
  21
 313.020
  31
0.0
   0
LINE
   8
LEVEL001
   6
CONTINUOUS
  62
7
  10
 165.447
  20
 390.170
  30
0.0
  11
 165.447
  21
 376.255
  31
0.0
   0
ARC
   8
LEVEL001
   6
CONTINUOUS
  62
7
  10
 184.751
  20
 365.353
  30
0.0
  40
 2.00000
  50
 341.000
  51
 71.0000
   0
LINE
   8
LEVEL001
   6
CONTINUOUS
  62
7
  10
 186.642
  20
 364.702
  30
0.0
  11
 182.947
  21
 353.971
  31
0.0
   0
ARC
   8
LEVEL003
   6
CONTINUOUS
  62
7
  10
 165.028
  20
 372.144
  30
0.0
  40
 2.00000
  50
 71.0000
  51
 85.0000
   0
ARC
   8
LEVEL001
   6
CONTINUOUS
  62
7
  10
 168.447
  20
 376.255
  30
0.0
  40
 3.00000
  50
 180.000
  51
 251.000
   0
LINE
   8
LEVEL001
   6
CONTINUOUS
  62
7
  10
 167.255
  20
 373.664
  30
0.0
  11
 165.960
  21
 374.135
  31
0.0
   0
LINE
   8
LEVEL001
   6
CONTINUOUS
  62
7
  10
 185.402
  20
 367.244
  30
0.0
  11
 165.679
  21
 374.035
  31
0.0
   0
ARC
   8
LEVEL001
   6
CONTINUOUS
  62
7
  10
 154.947
  20
 373.410
  30
0.0
  40
 3.00000
  50
 180.000
  51
 248.024
   0
ARC
   8
LEVEL001
   6
CONTINUOUS
  62
7
  10
 154.947
  20
 378.046
  30
0.0
  40
 3.00000
  50
 180.000
  51
 265.000
   0
LINE
   8
LEVEL001
   6
CONTINUOUS
  62
7
  10
 151.947
  20
 425.000
  30
0.0
  11
 151.947
  21
 373.410
  31
0.0
   0
LINE
   8
LEVEL003
   6
CONTINUOUS
  62
7
  10
 154.686
  20
 375.057
  30
0.0
  11
 165.203
  21
 374.137
  31
0.0
   0
ARC
   8
LEVEL001
   6
CONTINUOUS
  62
7
  10
 138.947
  20
 377.232
  30
0.0
  40
 5.00000
  50
 275.000
  51
 0.130276E-11
   0
LINE
   8
LEVEL001
   6
CONTINUOUS
  62
7
  10
 143.947
  20
 425.000
  30
0.0
  11
 143.947
  21
 377.232
  31
0.0
   0
ARC
   8
LEVEL001
   6
CONTINUOUS
  62
7
  10
 129.059
  20
 369.013
  30
0.0
  40
 3.00000
  50
 55.8214
  51
 85.0000
   0
ARC
   8
LEVEL001
   6
CONTINUOUS
  62
7
  10
 154.947
  20
 354.000
  30
0.0
  40
 15.0000
  50
 277.178
  51
 292.393
   0
LINE
   8
LEVEL003
   6
CONTINUOUS
  62
7
  10
 160.661
  20
 340.131
  30
0.0
  11
 178.614
  21
 347.528
  31
0.0
   0
ARC
   8
LEVEL001
   6
CONTINUOUS
  62
7
  10
 154.947
  20
 354.000
  30
0.0
  40
 15.0000
  50
 67.6073
  51
 68.0242
   0
LINE
   8
LEVEL001
   6
CONTINUOUS
  62
7
  10
 148.392
  20
 372.820
  30
0.0
  11
 160.560
  21
 367.910
  31
0.0
   0
LINE
   8
LEVEL003
   6
CONTINUOUS
  62
7
  10
 160.661
  20
 367.869
  30
0.0
  11
 178.614
  21
 360.472
  31
0.0
   0
ARC
   8
LEVEL001
   6
CONTINUOUS
  62
7
  10
 190.852
  20
 346.212
  30
0.0
  40
 10.0000
  50
 161.000
  51
 222.095
   0
ARC
   8
LEVEL001
   6
CONTINUOUS
  62
7
  10
 147.947
  20
 341.000
  30
0.0
  40
 33.5000
  50
 3.38600
  51
 11.4809
   0
ARC
   8
LEVEL001
   6
CONTINUOUS
  62
7
  10
 175.947
  20
 354.000
  30
0.0
  40
 7.00000
  50
 294.901
  51
 71.9238
   0
ARC
   8
LEVEL001
   6
CONTINUOUS
  62
7
  10
 181.947
  20
 338.167
  30
0.0
  40
 2.00000
  50
 0.863075E-10
  51
 42.0945
   0
LINE
   8
LEVEL001
   6
CONTINUOUS
  62
7
  10
 183.947
  20
 333.000
  30
0.0
  11
 183.947
  21
 338.167
  31
0.0
   0
LINE
   8
LEVEL001
   6
CONTINUOUS
  62
7
  10
 175.947
  20
 356.309
  30
0.0
  11
 177.947
  21
 355.155
  31
0.0
   0
LINE
   8
LEVEL001
   6
CONTINUOUS
  62
7
  10
 177.947
  20
 355.155
  30
0.0
  11
 177.947
  21
 352.845
  31
0.0
   0
LINE
   8
LEVEL001
   6
CONTINUOUS
  62
7
  10
 177.947
  20
 352.845
  30
0.0
  11
 175.947
  21
 351.691
  31
0.0
   0
LINE
   8
LEVEL001
   6
CONTINUOUS
  62
7
  10
 175.947
  20
 351.691
  30
0.0
  11
 173.947
  21
 352.845
  31
0.0
   0
LINE
   8
LEVEL001
   6
CONTINUOUS
  62
7
  10
 173.947
  20
 352.845
  30
0.0
  11
 173.947
  21
 355.155
  31
0.0
   0
LINE
   8
LEVEL001
   6
CONTINUOUS
  62
7
  10
 173.947
  20
 355.155
  30
0.0
  11
 175.947
  21
 356.309
  31
0.0
   0
CIRCLE
   8
LEVEL001
   6
CONTINUOUS
  62
7
  10
 175.947
  20
 354.000
  30
0.0
  40
 4.00000
   0
CIRCLE
   8
LEVEL001
   6
CONTINUOUS
  62
3
  10
 175.947
  20
 354.000
  30
0.0
  40
 3.37500
   0
LINE
   8
LEVEL001
   6
DASHDOT
  62
1
  10
 175.947
  20
 361.000
  30
0.0
  11
 175.947
  21
 347.000
  31
0.0
   0
LINE
   8
LEVEL001
   6
DASHDOT
  62
1
  10
 184.365
  20
 341.000
  30
0.0
  11
 112.947
  21
 341.000
  31
0.0
   0
LINE
   8
LEVEL001
   6
DASHDOT
  62
1
  10
 184.365
  20
 341.000
  30
0.0
  11
 112.947
  21
 341.000
  31
0.0
   0
LINE
   8
LEVEL003
   6
CONTINUOUS
  62
7
  10
 162.144
  20
 326.970
  30
0.0
  11
 147.122
  21
 328.284
  31
0.0
   0
ARC
   8
LEVEL001
   6
CONTINUOUS
  62
7
  10
 181.947
  20
 327.833
  30
0.0
  40
 2.00000
  50
 275.000
  51
 0.244267E-10
   0
ARC
   8
LEVEL001
   6
CONTINUOUS
  62
7
  10
 178.153
  20
 320.474
  30
0.0
  40
 5.00000
  50
 95.0000
  51
 204.492
   0
ARC
   8
LEVEL001
   6
CONTINUOUS
  62
7
  10
 182.703
  20
 322.547
  30
0.0
  40
 10.0000
  50
 161.000
  51
 265.000
   0
ARC
   8
LEVEL001
   6
CONTINUOUS
  62
7
  10
 147.947
  20
 341.000
  30
0.0
  40
 33.5000
  50
 319.210
  51
 332.428
   0
ARC
   8
LEVEL003
   6
CONTINUOUS
  62
7
  10
 161.447
  20
 319.000
  30
0.0
  40
 8.00000
  50
 12.4107
  51
 85.0000
   0
ARC
   8
LEVEL003
   6
CONTINUOUS
  62
7
  10
 179.027
  20
 322.869
  30
0.0
  40
 10.0000
  50
 192.411
  51
 265.000
   0
LINE
   8
LEVEL001
   6
CONTINUOUS
  62
7
  10
 183.947
  20
 327.833
  30
0.0
  11
 183.947
  21
 333.000
  31
0.0
   0
LINE
   8
LEVEL001
   6
CONTINUOUS
  62
7
  10
 182.122
  20
 325.840
  30
0.0
  11
 177.717
  21
 325.455
  31
0.0
   0
LINE
   8
LEVEL001
   6
CONTINUOUS
  62
7
  10
 198.122
  20
 311.160
  30
0.0
  11
 178.155
  21
 312.907
  31
0.0
   0
LINE
   8
LEVEL001
   6
CONTINUOUS
  62
7
  10
 181.481
  20
 349.714
  30
0.0
  11
 173.248
  21
 325.803
  31
0.0
   0
LINE
   8
LEVEL001
   6
CONTINUOUS
  62
7
  10
 155.947
  20
 320.387
  30
0.0
  11
 158.447
  21
 318.943
  31
0.0
   0
LINE
   8
LEVEL001
   6
CONTINUOUS
  62
7
  10
 158.447
  20
 318.943
  30
0.0
  11
 158.447
  21
 316.057
  31
0.0
   0
LINE
   8
LEVEL001
   6
CONTINUOUS
  62
7
  10
 158.447
  20
 316.057
  30
0.0
  11
 155.947
  21
 314.613
  31
0.0
   0
LINE
   8
LEVEL001
   6
CONTINUOUS
  62
7
  10
 155.947
  20
 314.613
  30
0.0
  11
 153.447
  21
 316.057
  31
0.0
   0
LINE
   8
LEVEL001
   6
CONTINUOUS
  62
7
  10
 153.447
  20
 316.057
  30
0.0
  11
 153.447
  21
 318.943
  31
0.0
   0
LINE
   8
LEVEL001
   6
CONTINUOUS
  62
7
  10
 153.447
  20
 318.943
  30
0.0
  11
 155.947
  21
 320.387
  31
0.0
   0
CIRCLE
   8
LEVEL001
   6
CONTINUOUS
  62
7
  10
 155.947
  20
 317.500
  30
0.0
  40
 4.86400
   0
CIRCLE
   8
LEVEL001
   6
CONTINUOUS
  62
3
  10
 155.947
  20
 317.500
  30
0.0
  40
 4.28300
   0
LINE
   8
LEVEL001
   6
DASHDOT
  62
1
  10
 163.811
  20
 317.500
  30
0.0
  11
 148.083
  21
 317.500
  31
0.0
   0
LINE
   8
LEVEL001
   6
DASHDOT
  62
1
  10
 155.947
  20
 325.364
  30
0.0
  11
 155.947
  21
 309.636
  31
0.0
   0
ARC
   8
LEVEL001
   6
CONTINUOUS
  62
7
  10
 139.947
  20
 319.081
  30
0.0
  40
 5.00000
  50
 275.000
  51
 0.325689E-11
   0
ARC
   8
LEVEL001
   6
CONTINUOUS
  62
7
  10
 119.970
  20
 322.353
  30
0.0
  40
 10.0000
  50
 275.000
  51
 20.0000
   0
ARC
   8
LEVEL001
   6
CONTINUOUS
  62
7
  10
 146.947
  20
 326.292
  30
0.0
  40
 2.00000
  50
 85.0000
  51
 180.000
   0
LINE
   8
LEVEL001
   6
CONTINUOUS
  62
7
  10
 106.773
  20
 311.160
  30
0.0
  11
 140.383
  21
 314.100
  31
0.0
   0
LINE
   8
LEVEL001
   6
DASHDOT
  62
1
  10
 186.947
  20
 333.000
  30
0.0
  11
 128.960
  21
 333.000
  31
0.0
   0
ARC
   8
LEVEL001
   6
CONTINUOUS
  62
7
  10
 110.644
  20
 377.213
  30
0.0
  40
 2.00000
  50
 110.000
  51
 200.000
   0
ARC
   8
LEVEL001
   6
CONTINUOUS
  62
7
  10
 109.783
  20
 370.807
  30
0.0
  40
 3.00000
  50
 20.0000
  51
 73.1301
   0
ARC
   8
LEVEL001
   6
CONTINUOUS
  62
7
  10
 111.234
  20
 375.592
  30
0.0
  40
 2.00000
  50
 200.000
  51
 253.130
   0
LINE
   8
LEVEL001
   6
CONTINUOUS
  62
7
  10
 108.764
  20
 376.529
  30
0.0
  11
 109.355
  21
 374.908
  31
0.0
   0
LINE
   8
LEVEL001
   6
CONTINUOUS
  62
7
  10
 129.321
  20
 372.002
  30
0.0
  11
 111.060
  21
 373.599
  31
0.0
   0
LINE
   8
LEVEL001
   6
CONTINUOUS
  62
7
  10
 165.447
  20
 392.500
  30
0.0
  11
 154.947
  21
 392.500
  31
0.0
   0
ARC
   8
LEVEL001
   6
CONTINUOUS
  62
7
  10
 160.947
  20
 409.667
  30
0.0
  40
 2.00000
  50
 0.143303E-9
  51
 41.7903
   0
LINE
   8
LEVEL001
   6
CONTINUOUS
  62
7
  10
 157.447
  20
 411.000
  30
0.0
  11
 162.438
  21
 411.000
  31
0.0
   0
ARC
   8
LEVEL001
   6
CONTINUOUS
  62
7
  10
 134.947
  20
 409.668
  30
0.0
  40
 2.00000
  50
 138.216
  51
 180.000
   0
LINE
   8
LEVEL001
   6
CONTINUOUS
  62
7
  10
 133.456
  20
 411.000
  30
0.0
  11
 138.447
  21
 411.000
  31
0.0
   0
LINE
   8
LEVEL001
   6
CONTINUOUS
  62
7
  10
 138.447
  20
 441.000
  30
0.0
  11
 138.447
  21
 411.000
  31
0.0
   0
LINE
   8
LEVEL001
   6
CONTINUOUS
  62
7
  10
 157.447
  20
 441.000
  30
0.0
  11
 157.447
  21
 411.000
  31
0.0
   0
LINE
   8
LEVEL001
   6
CONTINUOUS
  62
7
  10
 106.947
  20
 367.087
  30
0.0
  11
 107.943
  21
 368.175
  31
0.0
   0
LINE
   8
LEVEL001
   6
CONTINUOUS
  62
7
  10
 106.947
  20
 340.913
  30
0.0
  11
 107.943
  21
 339.825
  31
0.0
   0
LINE
   8
LEVEL001
   6
CONTINUOUS
  62
7
  10
 112.602
  20
 371.833
  30
0.0
  11
 113.749
  21
 368.683
  31
0.0
   0
LINE
   8
LEVEL001
   6
CONTINUOUS
  62
7
  10
 107.943
  20
 368.175
  30
0.0
  11
 124.603
  21
 369.632
  31
0.0
   0
ARC
   8
LEVEL001
   6
CONTINUOUS
  62
7
  10
 147.947
  20
 341.000
  30
0.0
  40
 33.5000
  50
 182.990
  51
 230.819
   0
ARC
   8
LEVEL001
   6
CONTINUOUS
  62
7
  10
 121.179
  20
 333.648
  30
0.0
  40
 5.00000
  50
 20.0000
  51
 85.0000
   0
POINT
   8
LEVEL001
  62
7
  10
 124.788
  20
 338.352
  30
0.0
   0
LINE
   8
LEVEL001
   6
CONTINUOUS
  62
7
  10
 125.878
  20
 335.358
  30
0.0
  11
 129.367
  21
 325.773
  31
0.0
   0
LINE
   8
LEVEL001
   6
CONTINUOUS
  62
7
  10
 107.943
  20
 339.825
  30
0.0
  11
 140.383
  21
 336.987
  31
0.0
   0
ARC
   8
LEVEL001
   6
CONTINUOUS
  62
7
  10
 139.947
  20
 332.006
  30
0.0
  40
 5.00000
  50
 0.110734E-10
  51
 85.0000
   0
POINT
   8
LEVEL001
  62
7
  10
 144.947
  20
 336.588
  30
0.0
   0
LINE
   8
LEVEL001
   6
CONTINUOUS
  62
7
  10
 144.947
  20
 332.006
  30
0.0
  11
 144.947
  21
 319.081
  31
0.0
   0
LINE
   8
LEVEL001
   6
CONTINUOUS
  62
7
  10
 107.943
  20
 368.175
  30
0.0
  11
 107.943
  21
 339.825
  31
0.0
   0
LINE
   8
LEVEL003
   6
CONTINUOUS
  62
7
  10
 225.447
  20
 360.000
  30
0.0
  11
 222.947
  21
 360.000
  31
0.0
   0
ARC
   8
LEVEL003
   6
CONTINUOUS
  62
7
  10
 220.947
  20
 396.500
  30
0.0
  40
 2.00000
  50
0.0
  51
 90.0000
   0
LINE
   8
LEVEL003
   6
CONTINUOUS
  62
7
  10
 222.947
  20
 360.000
  30
0.0
  11
 222.947
  21
 396.500
  31
0.0
   0
ARC
   8
LEVEL003
   6
CONTINUOUS
  62
7
  10
 74.9472
  20
 396.500
  30
0.0
  40
 2.00000
  50
 90.0000
  51
 180.000
   0
LINE
   8
LEVEL003
   6
CONTINUOUS
  62
7
  10
 225.447
  20
 305.000
  30
0.0
  11
 225.447
  21
 360.000
  31
0.0
   0
LINE
   8
LEVEL003
   6
CONTINUOUS
  62
7
  10
 104.947
  20
 305.000
  30
0.0
  11
 70.4472
  21
 305.000
  31
0.0
   0
LINE
   8
LEVEL003
   6
CONTINUOUS
  62
7
  10
 225.447
  20
 305.000
  30
0.0
  11
 199.947
  21
 305.000
  31
0.0
   0
LINE
   8
LEVEL003
   6
CONTINUOUS
  62
7
  10
 72.9472
  20
 378.855
  30
0.0
  11
 72.9472
  21
 396.500
  31
0.0
   0
LINE
   8
LEVEL003
   6
CONTINUOUS
  62
7
  10
 220.947
  20
 398.500
  30
0.0
  11
 167.947
  21
 398.500
  31
0.0
   0
CIRCLE
   8
LEVEL001
   6
CONTINUOUS
  62
7
  10
 154.947
  20
 354.000
  30
0.0
  40
 7.47500
   0
CIRCLE
   8
LEVEL001
   6
CONTINUOUS
  62
3
  10
 154.947
  20
 354.000
  30
0.0
  40
 8.33100
   0
LINE
   8
LEVEL003
   6
CONTINUOUS
  62
7
  10
 91.4472
  20
 400.346
  30
0.0
  11
 114.447
  21
 400.346
  31
0.0
   0
LINE
   8
LEVEL003
   6
CONTINUOUS
  62
7
  10
 91.4472
  20
 400.346
  30
0.0
  11
 90.4472
  21
 399.346
  31
0.0
   0
LINE
   8
LEVEL003
   6
CONTINUOUS
  62
7
  10
 114.447
  20
 400.346
  30
0.0
  11
 115.447
  21
 399.346
  31
0.0
   0
LINE
   8
LEVEL003
   6
CONTINUOUS
  62
7
  10
 90.4472
  20
 399.346
  30
0.0
  11
 115.447
  21
 399.346
  31
0.0
   0
LINE
   8
LEVEL003
   6
CONTINUOUS
  62
7
  10
 90.4472
  20
 397.346
  30
0.0
  11
 90.4472
  21
 399.346
  31
0.0
   0
LINE
   8
LEVEL003
   6
DASHDOT
  62
1
  10
 102.947
  20
 416.443
  30
0.0
  11
 102.947
  21
 385.346
  31
0.0
   0
LINE
   8
LEVEL001
   6
CONTINUOUS
  62
7
  10
 94.6972
  20
 401.739
  30
0.0
  11
 111.197
  21
 401.739
  31
0.0
   0
ARC
   8
LEVEL001
   6
CONTINUOUS
  62
7
  10
 110.734
  20
 401.239
  30
0.0
  40
 0.500000
  50
 310.000
  51
 90.0000
   0
LINE
   8
LEVEL050
   6
CONTINUOUS
  62
7
  10
 92.9472
  20
 403.489
  30
0.0
  11
 112.947
  21
 403.489
  31
0.0
   0
LINE
   8
LEVEL050
   6
CONTINUOUS
  62
7
  10
 112.947
  20
 403.489
  30
0.0
  11
 111.197
  21
 401.739
  31
0.0
   0
LINE
   8
LEVEL001
   6
CONTINUOUS
  62
3
  10
 104.447
  20
 411.239
  30
0.0
  11
 104.447
  21
 403.489
  31
0.0
   0
LINE
   8
LEVEL001
   6
CONTINUOUS
  62
3
  10
 105.947
  20
 411.239
  30
0.0
  11
 105.947
  21
 403.489
  31
0.0
   0
LINE
   8
LEVEL001
   6
CONTINUOUS
  62
3
  10
 107.447
  20
 411.239
  30
0.0
  11
 107.447
  21
 403.489
  31
0.0
   0
LINE
   8
LEVEL001
   6
CONTINUOUS
  62
3
  10
 108.947
  20
 411.239
  30
0.0
  11
 108.947
  21
 403.489
  31
0.0
   0
LINE
   8
LEVEL001
   6
CONTINUOUS
  62
3
  10
 110.447
  20
 411.239
  30
0.0
  11
 110.447
  21
 403.489
  31
0.0
   0
LINE
   8
LEVEL001
   6
CONTINUOUS
  62
3
  10
 111.947
  20
 410.739
  30
0.0
  11
 111.947
  21
 403.489
  31
0.0
   0
LINE
   8
LEVEL050
   6
CONTINUOUS
  62
7
  10
 97.9472
  20
 413.739
  30
0.0
  11
 107.947
  21
 413.739
  31
0.0
   0
ARC
   8
LEVEL050
   6
CONTINUOUS
  62
7
  10
 107.947
  20
 408.739
  30
0.0
  40
 5.00000
  50
0.0
  51
 90.0000
   0
LINE
   8
LEVEL050
   6
CONTINUOUS
  62
7
  10
 112.947
  20
 403.489
  30
0.0
  11
 112.947
  21
 408.739
  31
0.0
   0
LINE
   8
LEVEL001
   6
CONTINUOUS
  62
7
  10
 111.055
  20
 400.856
  30
0.0
  11
 110.447
  21
 400.346
  31
0.0
   0
ARC
   8
LEVEL001
   6
CONTINUOUS
  62
7
  10
 95.1607
  20
 401.239
  30
0.0
  40
 0.500000
  50
 90.0000
  51
 230.000
   0
LINE
   8
LEVEL050
   6
CONTINUOUS
  62
7
  10
 92.9472
  20
 403.489
  30
0.0
  11
 94.6972
  21
 401.739
  31
0.0
   0
LINE
   8
LEVEL001
   6
CONTINUOUS
  62
3
  10
 93.9472
  20
 410.739
  30
0.0
  11
 93.9472
  21
 403.489
  31
0.0
   0
LINE
   8
LEVEL001
   6
CONTINUOUS
  62
3
  10
 95.4472
  20
 411.239
  30
0.0
  11
 95.4472
  21
 403.489
  31
0.0
   0
LINE
   8
LEVEL001
   6
CONTINUOUS
  62
3
  10
 96.9472
  20
 411.239
  30
0.0
  11
 96.9472
  21
 403.489
  31
0.0
   0
ARC
   8
LEVEL050
   6
CONTINUOUS
  62
7
  10
 97.9472
  20
 408.739
  30
0.0
  40
 5.00000
  50
 90.0000
  51
 180.000
   0
LINE
   8
LEVEL050
   6
CONTINUOUS
  62
7
  10
 92.9472
  20
 403.489
  30
0.0
  11
 92.9472
  21
 408.739
  31
0.0
   0
LINE
   8
LEVEL001
   6
CONTINUOUS
  62
7
  10
 94.8394
  20
 400.856
  30
0.0
  11
 95.4472
  21
 400.346
  31
0.0
   0
LINE
   8
LEVEL001
   6
CONTINUOUS
  62
3
  10
 98.4472
  20
 411.239
  30
0.0
  11
 98.4472
  21
 403.489
  31
0.0
   0
LINE
   8
LEVEL001
   6
CONTINUOUS
  62
3
  10
 99.9472
  20
 411.239
  30
0.0
  11
 99.9472
  21
 403.489
  31
0.0
   0
LINE
   8
LEVEL001
   6
CONTINUOUS
  62
3
  10
 101.447
  20
 411.239
  30
0.0
  11
 101.447
  21
 403.489
  31
0.0
   0
ARC
   8
LEVEL003
   6
CONTINUOUS
  62
7
  10
 220.947
  20
 384.594
  30
0.0
  40
 2.00000
  50
0.0
  51
 90.0000
   0
ARC
   8
LEVEL003
   6
CONTINUOUS
  62
7
  10
 74.9472
  20
 384.594
  30
0.0
  40
 2.00000
  50
 90.0000
  51
 180.000
   0
LINE
   8
LEVEL001
   6
CONTINUOUS
  62
3
  10
 157.966
  20
 361.765
  30
0.0
  11
 193.604
  21
 453.425
  31
0.0
   0
LINE
   8
LEVEL001
   6
CONTINUOUS
  62
3
  10
 193.604
  20
 453.425
  30
0.0
  11
 273.019
  21
 453.425
  31
0.0
   0
LINE
   8
LEVEL001
   6
CONTINUOUS
  62
3
  10
 157.966
  20
 361.765
  30
0.0
  11
 164.287
  21
 372.182
  31
0.0
   0
LINE
   8
LEVEL001
   6
CONTINUOUS
  62
3
  10
 157.966
  20
 361.765
  30
0.0
  11
 160.343
  21
 373.716
  31
0.0
   0
LINE
   8
LEVEL003
   6
CONTINUOUS
  62
7
  10
 90.4472
  20
 398.500
  30
0.0
  11
 74.9472
  21
 398.500
  31
0.0
   0
LINE
   8
LEVEL003
   6
CONTINUOUS
  62
7
  10
 220.947
  20
 386.594
  30
0.0
  11
 166.447
  21
 386.594
  31
0.0
   0
LINE
   8
LEVEL003
   6
CONTINUOUS
  62
7
  10
 223.147
  20
 360.000
  30
0.0
  11
 223.147
  21
 308.614
  31
0.0
   0
LINE
   8
LEVEL003
   6
CONTINUOUS
  62
7
  10
 72.7472
  20
 329.143
  30
0.0
  11
 72.7472
  21
 308.614
  31
0.0
   0
LINE
   8
LEVEL003
   6
CONTINUOUS
  62
7
  10
 104.947
  20
 308.614
  30
0.0
  11
 72.7472
  21
 308.614
  31
0.0
   0
LINE
   8
LEVEL003
   6
CONTINUOUS
  62
7
  10
 223.147
  20
 308.614
  30
0.0
  11
 199.947
  21
 308.614
  31
0.0
   0
LINE
   8
LEVEL001
   6
CONTINUOUS
  62
7
  10
 106.947
  20
 367.087
  30
0.0
  11
 106.947
  21
 340.913
  31
0.0
   0
ARC
   8
LEVEL003
   6
CONTINUOUS
  62
7
  10
 117.920
  20
 354.000
  30
0.0
  40
 21.9729
  50
 162.412
  51
 197.588
   0
ARC
   8
LEVEL003
   6
CONTINUOUS
  62
7
  10
 107.961
  20
 365.500
  30
0.0
  40
 12.0136
  50
 180.000
  51
 203.865
   0
LINE
   8
LEVEL003
   6
CONTINUOUS
  62
7
  10
 106.947
  20
 367.279
  30
0.0
  11
 106.947
  21
 340.721
  31
0.0
   0
LINE
   8
LEVEL003
   6
CONTINUOUS
  62
7
  10
 106.947
  20
 340.721
  30
0.0
  11
 96.9743
  21
 340.721
  31
0.0
   0
LINE
   8
LEVEL003
   6
CONTINUOUS
  62
7
  10
 96.9743
  20
 340.721
  30
0.0
  11
 95.9472
  21
 342.500
  31
0.0
   0
LINE
   8
LEVEL003
   6
CONTINUOUS
  62
7
  10
 95.9472
  20
 342.500
  30
0.0
  11
 95.9472
  21
 365.500
  31
0.0
   0
LINE
   8
LEVEL003
   6
CONTINUOUS
  62
7
  10
 95.9472
  20
 365.500
  30
0.0
  11
 96.9743
  21
 367.279
  31
0.0
   0
LINE
   8
LEVEL003
   6
CONTINUOUS
  62
7
  10
 96.9743
  20
 367.279
  30
0.0
  11
 106.947
  21
 367.279
  31
0.0
   0
LINE
   8
LEVEL003
   6
CONTINUOUS
  62
7
  10
 106.947
  20
 360.640
  30
0.0
  11
 96.9743
  21
 360.640
  31
0.0
   0
ARC
   8
LEVEL003
   6
CONTINUOUS
  62
7
  10
 107.961
  20
 342.500
  30
0.0
  40
 12.0136
  50
 156.135
  51
 180.000
   0
LINE
   8
LEVEL003
   6
CONTINUOUS
  62
7
  10
 106.947
  20
 347.360
  30
0.0
  11
 96.9743
  21
 347.360
  31
0.0
   0
LINE
   8
LEVEL001
   6
CONTINUOUS
  62
7
  10
 87.3547
  20
 341.792
  30
0.0
  11
 87.3547
  21
 349.000
  31
0.0
   0
LINE
   8
LEVEL001
   6
CONTINUOUS
  62
7
  10
 87.3547
  20
 359.000
  30
0.0
  11
 87.3547
  21
 366.208
  31
0.0
   0
ARC
   8
LEVEL001
   6
CONTINUOUS
  62
7
  10
 80.3547
  20
 336.415
  30
0.0
  40
 3.00000
  50
 98.5311
  51
 179.999
   0
ARC
   8
LEVEL001
   6
CONTINUOUS
  62
7
  10
 68.1302
  20
 331.143
  30
0.0
  40
 2.00000
  50
 188.884
  51
 270.000
   0
LINE
   8
LEVEL001
   6
CONTINUOUS
  62
7
  10
 65.3547
  20
 336.707
  30
0.0
  11
 65.3547
  21
 371.290
  31
0.0
   0
ARC
   8
LEVEL001
   6
CONTINUOUS
  62
7
  10
 214.355
  20
 353.999
  30
0.0
  40
 150.000
  50
 186.620
  51
 188.884
   0
LINE
   8
LEVEL001
   6
CONTINUOUS
  62
7
  10
 76.3547
  20
 329.143
  30
0.0
  11
 68.1302
  21
 329.143
  31
0.0
   0
ARC
   8
LEVEL001
   6
CONTINUOUS
  62
7
  10
 76.3547
  20
 330.143
  30
0.0
  40
 1.00000
  50
 270.000
  51
 0.651378E-11
   0
LINE
   8
LEVEL001
   6
CONTINUOUS
  62
7
  10
 77.3547
  20
 330.143
  30
0.0
  11
 77.3547
  21
 354.000
  31
0.0
   0
ARC
   8
LEVEL010
   6
CONTINUOUS
  62
7
  10
 76.3547
  20
 341.526
  30
0.0
  40
 1.00000
  50
 270.000
  51
 0.325689E-9
   0
ARC
   8
LEVEL010
   6
CONTINUOUS
  62
7
  10
 68.1542
  20
 342.526
  30
0.0
  40
 2.00000
  50
 180.000
  51
 270.000
   0
LINE
   8
LEVEL010
   6
CONTINUOUS
  62
7
  10
 65.3547
  20
 350.500
  30
0.0
  11
 66.1639
  21
 342.329
  31
0.0
   0
ARC
   8
LEVEL010
   6
CONTINUOUS
  62
7
  10
 76.3547
  20
 339.526
  30
0.0
  40
 1.00000
  50
0.0
  51
 90.0000
   0
ARC
   8
LEVEL010
   6
CONTINUOUS
  62
7
  10
 68.1542
  20
 338.526
  30
0.0
  40
 2.00000
  50
 90.0000
  51
 180.000
   0
LINE
   8
LEVEL010
   6
CONTINUOUS
  62
7
  10
 76.3547
  20
 340.526
  30
0.0
  11
 68.1542
  21
 340.526
  31
0.0
   0
LINE
   8
LEVEL010
   6
CONTINUOUS
  62
7
  10
 66.1542
  20
 338.526
  30
0.0
  11
 66.1542
  21
 333.025
  31
0.0
   0
LINE
   8
LEVEL010
   6
CONTINUOUS
  62
7
  10
 76.3547
  20
 350.500
  30
0.0
  11
 68.1542
  21
 350.500
  31
0.0
   0
ARC
   8
LEVEL001
   6
CONTINUOUS
  62
7
  10
 80.3547
  20
 371.582
  30
0.0
  40
 3.00000
  50
 179.999
  51
 261.469
   0
ARC
   8
LEVEL001
   6
CONTINUOUS
  62
7
  10
 76.3547
  20
 377.855
  30
0.0
  40
 1.00000
  50
0.0
  51
 90.0000
   0
ARC
   8
LEVEL001
   6
CONTINUOUS
  62
7
  10
 68.1302
  20
 376.855
  30
0.0
  40
 2.00000
  50
 89.9999
  51
 171.117
   0
LINE
   8
LEVEL001
   6
CONTINUOUS
  62
7
  10
 76.3547
  20
 378.855
  30
0.0
  11
 68.1302
  21
 378.855
  31
0.0
   0
ARC
   8
LEVEL001
   6
CONTINUOUS
  62
7
  10
 214.355
  20
 353.999
  30
0.0
  40
 150.000
  50
 171.116
  51
 173.380
   0
LINE
   8
LEVEL001
   6
CONTINUOUS
  62
7
  10
 77.3547
  20
 354.000
  30
0.0
  11
 77.3547
  21
 377.855
  31
0.0
   0
ARC
   8
LEVEL010
   6
CONTINUOUS
  62
7
  10
 76.3547
  20
 366.474
  30
0.0
  40
 1.00000
  50
0.0
  51
 90.0000
   0
ARC
   8
LEVEL010
   6
CONTINUOUS
  62
7
  10
 68.1542
  20
 365.474
  30
0.0
  40
 2.00000
  50
 90.0000
  51
 180.000
   0
LINE
   8
LEVEL010
   6
CONTINUOUS
  62
7
  10
 65.3547
  20
 357.500
  30
0.0
  11
 66.1639
  21
 365.671
  31
0.0
   0
ARC
   8
LEVEL010
   6
CONTINUOUS
  62
7
  10
 76.3547
  20
 368.474
  30
0.0
  40
 1.00000
  50
 270.000
  51
 0.104220E-9
   0
ARC
   8
LEVEL010
   6
CONTINUOUS
  62
7
  10
 68.1542
  20
 369.474
  30
0.0
  40
 2.00000
  50
 180.000
  51
 270.000
   0
LINE
   8
LEVEL010
   6
CONTINUOUS
  62
7
  10
 76.3547
  20
 367.474
  30
0.0
  11
 68.1542
  21
 367.474
  31
0.0
   0
LINE
   8
LEVEL010
   6
CONTINUOUS
  62
7
  10
 66.1542
  20
 369.474
  30
0.0
  11
 66.1542
  21
 374.975
  31
0.0
   0
LINE
   8
LEVEL010
   6
CONTINUOUS
  62
7
  10
 76.3547
  20
 357.500
  30
0.0
  11
 68.1542
  21
 357.500
  31
0.0
   0
ARC
   8
LEVEL001
   6
CONTINUOUS
  62
7
  10
 85.3547
  20
 365.776
  30
0.0
  40
 2.00000
  50
 0.768312E-3
  51
 81.4689
   0
LINE
   8
LEVEL001
   6
CONTINUOUS
  62
7
  10
 85.6514
  20
 367.754
  30
0.0
  11
 79.9097
  21
 368.615
  31
0.0
   0
LINE
   8
LEVEL001
   6
CONTINUOUS
  62
7
  10
 87.3547
  20
 354.000
  30
0.0
  11
 87.3547
  21
 365.776
  31
0.0
   0
ARC
   8
LEVEL001
   6
CONTINUOUS
  62
7
  10
 85.3547
  20
 342.221
  30
0.0
  40
 2.00000
  50
 278.531
  51
 0.980216E-3
   0
LINE
   8
LEVEL001
   6
CONTINUOUS
  62
7
  10
 85.6514
  20
 340.243
  30
0.0
  11
 79.9097
  21
 339.382
  31
0.0
   0
LINE
   8
LEVEL001
   6
CONTINUOUS
  62
7
  10
 87.3547
  20
 342.221
  30
0.0
  11
 87.3547
  21
 354.000
  31
0.0
   0
ARC
   8
LEVEL001
   6
CONTINUOUS
  62
7
  10
 214.355
  20
 354.000
  30
0.0
  40
 150.000
  50
 170.951
  51
 189.049
   0
LINE
   8
LEVEL001
   6
CONTINUOUS
  62
7
  10
 87.3547
  20
 347.649
  30
0.0
  11
 95.9472
  21
 347.649
  31
0.0
   0
LINE
   8
LEVEL001
   6
CONTINUOUS
  62
7
  10
 87.3547
  20
 360.349
  30
0.0
  11
 95.9472
  21
 360.349
  31
0.0
   0
LINE
   8
LEVEL001
   6
DASHDOT
  62
1
  10
 59.7196
  20
 354.000
  30
0.0
  11
 184.365
  21
 354.000
  31
0.0
   0
LINE
   8
LEVEL003
   6
CONTINUOUS
  62
3
  10
 55.7196
  20
 354.000
  30
0.0
  11
 29.9391
  21
 354.000
  31
0.0
   0
LINE
   8
LEVEL003
   6
CONTINUOUS
  62
3
  10
 66.4472
  20
 305.000
  30
0.0
  11
 29.9391
  21
 305.000
  31
0.0
   0
LINE
   8
LEVEL003
   6
CONTINUOUS
  62
3
  10
 37.9391
  20
 354.000
  30
0.0
  11
 37.9391
  21
 305.000
  31
0.0
   0
LINE
   8
LEVEL003
   6
CONTINUOUS
  62
3
  10
 37.9391
  20
 354.000
  30
0.0
  11
 35.8232
  21
 342.000
  31
0.0
   0
LINE
   8
LEVEL003
   6
CONTINUOUS
  62
3
  10
 37.9391
  20
 354.000
  30
0.0
  11
 40.0551
  21
 342.000
  31
0.0
   0
LINE
   8
LEVEL003
   6
CONTINUOUS
  62
3
  10
 37.9391
  20
 305.000
  30
0.0
  11
 40.0551
  21
 317.000
  31
0.0
   0
LINE
   8
LEVEL003
   6
CONTINUOUS
  62
3
  10
 37.9391
  20
 305.000
  30
0.0
  11
 35.8232
  21
 317.000
  31
0.0
   0
TEXT
   8
LEVEL003
  62
3
  10
 34.7391
  20
 321.500
  30
0.0
  40
 16.0000
   1
49
  50
 90.0000
  41
 0.500000
   7
STANDARD
  72
1
  11
 34.7391
  21
 329.500
  31
0.0
   0
LINE
   8
LEVEL003
   6
CONTINUOUS
  62
3
  10
 64.3547
  20
 350.000
  30
0.0
  11
 64.3547
  21
 251.939
  31
0.0
   0
LINE
   8
LEVEL003
   6
CONTINUOUS
  62
3
  10
 225.447
  20
 301.000
  30
0.0
  11
 225.447
  21
 251.939
  31
0.0
   0
LINE
   8
LEVEL003
   6
CONTINUOUS
  62
3
  10
 64.3547
  20
 259.939
  30
0.0
  11
 225.447
  21
 259.939
  31
0.0
   0
LINE
   8
LEVEL003
   6
CONTINUOUS
  62
3
  10
 64.3547
  20
 259.939
  30
0.0
  11
 76.3547
  21
 257.823
  31
0.0
   0
LINE
   8
LEVEL003
   6
CONTINUOUS
  62
3
  10
 64.3547
  20
 259.939
  30
0.0
  11
 76.3547
  21
 262.054
  31
0.0
   0
LINE
   8
LEVEL003
   6
CONTINUOUS
  62
3
  10
 225.447
  20
 259.939
  30
0.0
  11
 213.447
  21
 262.054
  31
0.0
   0
LINE
   8
LEVEL003
   6
CONTINUOUS
  62
3
  10
 225.447
  20
 259.939
  30
0.0
  11
 213.447
  21
 257.823
  31
0.0
   0
TEXT
   8
LEVEL003
  62
3
  10
 124.901
  20
 263.139
  30
0.0
  40
 16.0000
   1
約160
   7
STANDARD
  72
1
  11
 144.901
  21
 263.139
  31
0.0
   0
LINE
   8
LEVEL003
   6
CONTINUOUS
  62
7
  10
 70.4472
  20
 329.143
  30
0.0
  11
 70.4472
  21
 305.000
  31
0.0
   0
POINT
   8
LEVEL001
  62
7
  10
 147.947
  20
 305.000
  30
0.0
   0
LINE
   8
LEVEL001
   6
CONTINUOUS
  62
3
  10
 377.785
  20
 769.026
  30
0.0
  11
 377.785
  21
 769.263
  31
0.0
   0
TEXT
   8
LEVEL003
  62
3
  10
 175.000
  20
 920.000
  30
0.0
  40
 16.0000
   1
レリースバルブ
   7
STANDARD
   0
LINE
   8
LEVEL003
   6
CONTINUOUS
  62
3
  10
 347.910
  20
 848.263
  30
0.0
  11
 269.990
  21
 848.263
  31
0.0
   0
LINE
   8
LEVEL003
   6
CONTINUOUS
  62
3
  10
 309.410
  20
 805.263
  30
0.0
  11
 269.990
  21
 805.263
  31
0.0
   0
LINE
   8
LEVEL003
   6
CONTINUOUS
  62
3
  10
 277.990
  20
 848.263
  30
0.0
  11
 277.990
  21
 805.263
  31
0.0
   0
LINE
   8
LEVEL003
   6
CONTINUOUS
  62
3
  10
 277.990
  20
 848.263
  30
0.0
  11
 275.874
  21
 836.263
  31
0.0
   0
LINE
   8
LEVEL003
   6
CONTINUOUS
  62
3
  10
 277.990
  20
 848.263
  30
0.0
  11
 280.106
  21
 836.263
  31
0.0
   0
LINE
   8
LEVEL003
   6
CONTINUOUS
  62
3
  10
 277.990
  20
 805.263
  30
0.0
  11
 280.106
  21
 817.263
  31
0.0
   0
LINE
   8
LEVEL003
   6
CONTINUOUS
  62
3
  10
 277.990
  20
 805.263
  30
0.0
  11
 275.874
  21
 817.263
  31
0.0
   0
TEXT
   8
LEVEL003
  62
3
  10
 274.790
  20
 818.763
  30
0.0
  40
 16.0000
   1
43
  50
 90.0000
  41
 0.500000
   7
STANDARD
  72
1
  11
 274.790
  21
 826.763
  31
0.0
   0
LINE
   8
LEVEL003
   6
CONTINUOUS
  62
3
  10
 309.410
  20
 805.263
  30
0.0
  11
 269.990
  21
 805.263
  31
0.0
   0
LINE
   8
LEVEL003
   6
CONTINUOUS
  62
3
  10
 347.537
  20
 753.263
  30
0.0
  11
 269.990
  21
 753.263
  31
0.0
   0
LINE
   8
LEVEL003
   6
CONTINUOUS
  62
3
  10
 277.990
  20
 805.263
  30
0.0
  11
 277.990
  21
 753.263
  31
0.0
   0
LINE
   8
LEVEL003
   6
CONTINUOUS
  62
3
  10
 277.990
  20
 805.263
  30
0.0
  11
 275.874
  21
 793.263
  31
0.0
   0
LINE
   8
LEVEL003
   6
CONTINUOUS
  62
3
  10
 277.990
  20
 805.263
  30
0.0
  11
 280.106
  21
 793.263
  31
0.0
   0
LINE
   8
LEVEL003
   6
CONTINUOUS
  62
3
  10
 277.990
  20
 753.263
  30
0.0
  11
 280.106
  21
 765.263
  31
0.0
   0
LINE
   8
LEVEL003
   6
CONTINUOUS
  62
3
  10
 277.990
  20
 753.263
  30
0.0
  11
 275.874
  21
 765.263
  31
0.0
   0
TEXT
   8
LEVEL003
  62
3
  10
 274.790
  20
 771.263
  30
0.0
  40
 16.0000
   1
52
  50
 90.0000
  41
 0.500000
   7
STANDARD
  72
1
  11
 274.790
  21
 779.263
  31
0.0
   0
LINE
   8
LEVEL003
   6
CONTINUOUS
  62
3
  10
 347.910
  20
 848.263
  30
0.0
  11
 232.747
  21
 848.263
  31
0.0
   0
LINE
   8
LEVEL003
   6
CONTINUOUS
  62
3
  10
 347.537
  20
 753.263
  30
0.0
  11
 232.747
  21
 753.263
  31
0.0
   0
LINE
   8
LEVEL003
   6
CONTINUOUS
  62
3
  10
 240.747
  20
 848.263
  30
0.0
  11
 240.747
  21
 753.263
  31
0.0
   0
LINE
   8
LEVEL003
   6
CONTINUOUS
  62
3
  10
 240.747
  20
 848.263
  30
0.0
  11
 238.631
  21
 836.263
  31
0.0
   0
LINE
   8
LEVEL003
   6
CONTINUOUS
  62
3
  10
 240.747
  20
 848.263
  30
0.0
  11
 242.863
  21
 836.263
  31
0.0
   0
LINE
   8
LEVEL003
   6
CONTINUOUS
  62
3
  10
 240.747
  20
 753.263
  30
0.0
  11
 242.863
  21
 765.263
  31
0.0
   0
LINE
   8
LEVEL003
   6
CONTINUOUS
  62
3
  10
 240.747
  20
 753.263
  30
0.0
  11
 238.631
  21
 765.263
  31
0.0
   0
TEXT
   8
LEVEL003
  62
3
  10
 237.547
  20
 792.763
  30
0.0
  40
 16.0000
   1
95
  50
 90.0000
  41
 0.500000
   7
STANDARD
  72
1
  11
 237.547
  21
 800.763
  31
0.0
   0
LINE
   8
LEVEL003
   6
CONTINUOUS
  62
3
  10
 317.161
  20
 885.963
  30
0.0
  11
 288.078
  21
 919.636
  31
0.0
   0
LINE
   8
LEVEL003
   6
CONTINUOUS
  62
3
  10
 288.078
  20
 919.636
  30
0.0
  11
 171.392
  21
 919.636
  31
0.0
   0
LINE
   8
LEVEL003
   6
CONTINUOUS
  62
3
  10
 317.161
  20
 885.963
  30
0.0
  11
 310.918
  21
 896.428
  31
0.0
   0
LINE
   8
LEVEL003
   6
CONTINUOUS
  62
3
  10
 317.161
  20
 885.963
  30
0.0
  11
 307.716
  21
 893.662
  31
0.0
   0
TEXT
   8
LEVEL003
  62
3
  10
 416.985
  20
 938.587
  30
0.0
  40
 16.0000
   1
高圧安全弁
   7
STANDARD
   0
TEXT
   8
LEVEL003
  62
3
  10
 416.985
  20
 898.587
  30
0.0
  40
 16.0000
   1
低圧安全弁
   7
STANDARD
   0
LINE
   8
LEVEL003
   6
CONTINUOUS
  62
3
  10
 358.175
  20
 842.486
  30
0.0
  11
 413.098
  21
 937.160
  31
0.0
   0
LINE
   8
LEVEL003
   6
CONTINUOUS
  62
3
  10
 413.098
  20
 937.160
  30
0.0
  11
 503.712
  21
 937.160
  31
0.0
   0
LINE
   8
LEVEL003
   6
CONTINUOUS
  62
3
  10
 358.175
  20
 842.486
  30
0.0
  11
 366.027
  21
 851.804
  31
0.0
   0
LINE
   8
LEVEL003
   6
CONTINUOUS
  62
3
  10
 358.175
  20
 842.486
  30
0.0
  11
 362.366
  21
 853.928
  31
0.0
   0
LINE
   8
LEVEL003
   6
CONTINUOUS
  62
3
  10
 379.973
  20
 838.853
  30
0.0
  11
 416.090
  21
 896.982
  31
0.0
   0
LINE
   8
LEVEL003
   6
CONTINUOUS
  62
3
  10
 416.090
  20
 896.982
  30
0.0
  11
 501.147
  21
 896.982
  31
0.0
   0
LINE
   8
LEVEL003
   6
CONTINUOUS
  62
3
  10
 379.973
  20
 838.853
  30
0.0
  11
 388.104
  21
 847.929
  31
0.0
   0
LINE
   8
LEVEL003
   6
CONTINUOUS
  62
3
  10
 379.973
  20
 838.853
  30
0.0
  11
 384.509
  21
 850.163
  31
0.0
   0
TEXT
   8
LEVEL003
  62
3
  10
 405.766
  20
 696.812
  30
0.0
  40
 16.0000
   1
サクション＆デリベリ（低圧）
   7
STANDARD
   0
TEXT
   8
LEVEL003
  62
3
  10
 405.766
  20
 656.812
  30
0.0
  40
 16.0000
   1
サクション＆デリベリ（高圧）
   7
STANDARD
   0
LINE
   8
LEVEL003
   6
CONTINUOUS
  62
3
  10
 378.264
  20
 766.155
  30
0.0
  11
 405.832
  21
 695.845
  31
0.0
   0
LINE
   8
LEVEL003
   6
CONTINUOUS
  62
3
  10
 405.832
  20
 695.845
  30
0.0
  11
 623.520
  21
 695.845
  31
0.0
   0
LINE
   8
LEVEL003
   6
CONTINUOUS
  62
3
  10
 378.264
  20
 766.155
  30
0.0
  11
 380.674
  21
 754.211
  31
0.0
   0
LINE
   8
LEVEL003
   6
CONTINUOUS
  62
3
  10
 378.264
  20
 766.155
  30
0.0
  11
 384.614
  21
 755.756
  31
0.0
   0
LINE
   8
LEVEL003
   6
CONTINUOUS
  62
3
  10
 358.091
  20
 766.155
  30
0.0
  11
 405.749
  21
 655.240
  31
0.0
   0
LINE
   8
LEVEL003
   6
CONTINUOUS
  62
3
  10
 405.749
  20
 655.240
  30
0.0
  11
 622.451
  21
 655.240
  31
0.0
   0
LINE
   8
LEVEL003
   6
CONTINUOUS
  62
3
  10
 358.091
  20
 766.155
  30
0.0
  11
 360.884
  21
 754.295
  31
0.0
   0
LINE
   8
LEVEL003
   6
CONTINUOUS
  62
3
  10
 358.091
  20
 766.155
  30
0.0
  11
 364.773
  21
 755.965
  31
0.0
   0
LINE
   8
LEVEL003
   6
CONTINUOUS
  62
3
  10
 823.665
  20
 860.005
  30
0.0
  11
 839.345
  21
 927.757
  31
0.0
   0
LINE
   8
LEVEL003
   6
CONTINUOUS
  62
3
  10
 839.345
  20
 927.757
  30
0.0
  11
 1007.96
  21
 927.757
  31
0.0
   0
LINE
   8
LEVEL003
   6
CONTINUOUS
  62
3
  10
 823.665
  20
 860.005
  30
0.0
  11
 828.432
  21
 871.219
  31
0.0
   0
LINE
   8
LEVEL003
   6
CONTINUOUS
  62
3
  10
 823.665
  20
 860.005
  30
0.0
  11
 824.309
  21
 872.173
  31
0.0
   0
TEXT
   8
LEVEL003
  62
3
  10
 843.826
  20
 929.223
  30
0.0
  40
 16.0000
   1
エア抜きプラグ
   7
STANDARD
   0
TEXT
   8
LEVEL003
  62
3
  10
 843.826
  20
 907.890
  30
0.0
  40
 16.0000
   1
検油棒及び給油口兼用
   7
STANDARD
   0
LINE
   8
LEVEL003
   6
CONTINUOUS
  62
3
  10
 679.631
  20
 880.263
  30
0.0
  11
 679.631
  21
 730.263
  31
0.0
   0
LINE
   8
LEVEL003
   6
CONTINUOUS
  62
3
  10
 679.631
  20
 880.263
  30
0.0
  11
 677.515
  21
 868.263
  31
0.0
   0
LINE
   8
LEVEL003
   6
CONTINUOUS
  62
3
  10
 679.631
  20
 880.263
  30
0.0
  11
 681.747
  21
 868.263
  31
0.0
   0
LINE
   8
LEVEL003
   6
CONTINUOUS
  62
3
  10
 679.631
  20
 730.263
  30
0.0
  11
 681.747
  21
 742.263
  31
0.0
   0
LINE
   8
LEVEL003
   6
CONTINUOUS
  62
3
  10
 679.631
  20
 730.263
  30
0.0
  11
 677.515
  21
 742.263
  31
0.0
   0
TEXT
   8
LEVEL003
  62
3
  10
 676.431
  20
 793.263
  30
0.0
  40
 16.0000
   1
150
  50
 90.0000
  41
 0.500000
   7
STANDARD
  72
1
  11
 676.431
  21
 805.263
  31
0.0
   0
LINE
   8
LEVEL003
   6
CONTINUOUS
  62
3
  10
 962.110
  20
 882.763
  30
0.0
  11
 1075.94
  21
 882.763
  31
0.0
   0
LINE
   8
LEVEL003
   6
CONTINUOUS
  62
3
  10
 962.110
  20
 727.763
  30
0.0
  11
 1075.94
  21
 727.763
  31
0.0
   0
LINE
   8
LEVEL003
   6
CONTINUOUS
  62
3
  10
 1067.94
  20
 882.763
  30
0.0
  11
 1067.94
  21
 727.763
  31
0.0
   0
LINE
   8
LEVEL003
   6
CONTINUOUS
  62
3
  10
 1067.94
  20
 882.763
  30
0.0
  11
 1065.83
  21
 870.763
  31
0.0
   0
LINE
   8
LEVEL003
   6
CONTINUOUS
  62
3
  10
 1067.94
  20
 882.763
  30
0.0
  11
 1070.06
  21
 870.763
  31
0.0
   0
LINE
   8
LEVEL003
   6
CONTINUOUS
  62
3
  10
 1067.94
  20
 727.763
  30
0.0
  11
 1070.06
  21
 739.763
  31
0.0
   0
LINE
   8
LEVEL003
   6
CONTINUOUS
  62
3
  10
 1067.94
  20
 727.763
  30
0.0
  11
 1065.83
  21
 739.763
  31
0.0
   0
TEXT
   8
LEVEL003
  62
3
  10
 1064.74
  20
 793.263
  30
0.0
  40
 16.0000
   1
155
  50
 90.0000
  41
 0.500000
   7
STANDARD
  72
1
  11
 1064.74
  21
 805.263
  31
0.0
   0
LINE
   8
LEVEL003
   6
CONTINUOUS
  62
3
  10
 382.385
  20
 301.908
  30
0.0
  11
 382.385
  21
 252.000
  31
0.0
   0
LINE
   8
LEVEL003
   6
CONTINUOUS
  62
3
  10
 342.406
  20
 301.000
  30
0.0
  11
 342.406
  21
 252.000
  31
0.0
   0
LINE
   8
LEVEL003
   6
CONTINUOUS
  62
3
  10
 382.385
  20
 260.000
  30
0.0
  11
 342.406
  21
 260.000
  31
0.0
   0
LINE
   8
LEVEL003
   6
CONTINUOUS
  62
3
  10
 382.385
  20
 260.000
  30
0.0
  11
 370.385
  21
 262.116
  31
0.0
   0
LINE
   8
LEVEL003
   6
CONTINUOUS
  62
3
  10
 382.385
  20
 260.000
  30
0.0
  11
 370.385
  21
 257.884
  31
0.0
   0
LINE
   8
LEVEL003
   6
CONTINUOUS
  62
3
  10
 342.406
  20
 260.000
  30
0.0
  11
 354.406
  21
 257.884
  31
0.0
   0
LINE
   8
LEVEL003
   6
CONTINUOUS
  62
3
  10
 342.406
  20
 260.000
  30
0.0
  11
 354.406
  21
 262.116
  31
0.0
   0
TEXT
   8
LEVEL003
  62
3
  10
 354.395
  20
 263.200
  30
0.0
  40
 16.0000
   1
40
  41
 0.500000
   7
STANDARD
  72
1
  11
 362.395
  21
 263.200
  31
0.0
   0
LINE
   8
LEVEL003
   6
CONTINUOUS
  62
3
  10
 342.406
  20
 301.000
  30
0.0
  11
 342.406
  21
 212.000
  31
0.0
   0
LINE
   8
LEVEL003
   6
CONTINUOUS
  62
3
  10
 959.265
  20
 301.000
  30
0.0
  11
 959.265
  21
 212.000
  31
0.0
   0
LINE
   8
LEVEL003
   6
CONTINUOUS
  62
3
  10
 342.406
  20
 220.000
  30
0.0
  11
 959.265
  21
 220.000
  31
0.0
   0
LINE
   8
LEVEL003
   6
CONTINUOUS
  62
3
  10
 342.406
  20
 220.000
  30
0.0
  11
 354.406
  21
 217.884
  31
0.0
   0
LINE
   8
LEVEL003
   6
CONTINUOUS
  62
3
  10
 342.406
  20
 220.000
  30
0.0
  11
 354.406
  21
 222.116
  31
0.0
   0
LINE
   8
LEVEL003
   6
CONTINUOUS
  62
3
  10
 959.265
  20
 220.000
  30
0.0
  11
 947.265
  21
 222.116
  31
0.0
   0
LINE
   8
LEVEL003
   6
CONTINUOUS
  62
3
  10
 959.265
  20
 220.000
  30
0.0
  11
 947.265
  21
 217.884
  31
0.0
   0
TEXT
   8
LEVEL003
  62
3
  10
 630.835
  20
 223.200
  30
0.0
  40
 16.0000
   1
約615
   7
STANDARD
  72
1
  11
 650.835
  21
 223.200
  31
0.0
   0
LINE
   8
LEVEL003
   6
CONTINUOUS
  62
3
  10
 919.181
  20
 304.211
  30
0.0
  11
 919.181
  21
 252.000
  31
0.0
   0
LINE
   8
LEVEL003
   6
CONTINUOUS
  62
3
  10
 959.265
  20
 301.000
  30
0.0
  11
 959.265
  21
 252.000
  31
0.0
   0
LINE
   8
LEVEL003
   6
CONTINUOUS
  62
3
  10
 919.181
  20
 260.000
  30
0.0
  11
 959.265
  21
 260.000
  31
0.0
   0
LINE
   8
LEVEL003
   6
CONTINUOUS
  62
3
  10
 919.181
  20
 260.000
  30
0.0
  11
 931.181
  21
 257.884
  31
0.0
   0
LINE
   8
LEVEL003
   6
CONTINUOUS
  62
3
  10
 919.181
  20
 260.000
  30
0.0
  11
 931.181
  21
 262.116
  31
0.0
   0
LINE
   8
LEVEL003
   6
CONTINUOUS
  62
3
  10
 959.265
  20
 260.000
  30
0.0
  11
 947.265
  21
 262.116
  31
0.0
   0
LINE
   8
LEVEL003
   6
CONTINUOUS
  62
3
  10
 959.265
  20
 260.000
  30
0.0
  11
 947.265
  21
 257.884
  31
0.0
   0
TEXT
   8
LEVEL003
  62
3
  10
 931.223
  20
 263.200
  30
0.0
  40
 16.0000
   1
40
  41
 0.500000
   7
STANDARD
  72
1
  11
 939.223
  21
 263.200
  31
0.0
   0
LINE
   8
LEVEL003
   6
CONTINUOUS
  62
3
  10
 312.593
  20
 424.676
  30
0.0
  11
 312.593
  21
 172.000
  31
0.0
   0
LINE
   8
LEVEL003
   6
CONTINUOUS
  62
3
  10
 1022.61
  20
 447.134
  30
0.0
  11
 1022.61
  21
 172.000
  31
0.0
   0
LINE
   8
LEVEL003
   6
CONTINUOUS
  62
3
  10
 312.593
  20
 180.000
  30
0.0
  11
 1022.61
  21
 180.000
  31
0.0
   0
LINE
   8
LEVEL003
   6
CONTINUOUS
  62
3
  10
 312.593
  20
 180.000
  30
0.0
  11
 324.593
  21
 177.884
  31
0.0
   0
LINE
   8
LEVEL003
   6
CONTINUOUS
  62
3
  10
 312.593
  20
 180.000
  30
0.0
  11
 324.593
  21
 182.116
  31
0.0
   0
LINE
   8
LEVEL003
   6
CONTINUOUS
  62
3
  10
 1022.61
  20
 180.000
  30
0.0
  11
 1010.61
  21
 182.116
  31
0.0
   0
LINE
   8
LEVEL003
   6
CONTINUOUS
  62
3
  10
 1022.61
  20
 180.000
  30
0.0
  11
 1010.61
  21
 177.884
  31
0.0
   0
TEXT
   8
LEVEL003
  62
3
  10
 647.602
  20
 183.200
  30
0.0
  40
 16.0000
   1
約710
   7
STANDARD
  72
1
  11
 667.602
  21
 183.200
  31
0.0
   0
LINE
   8
LEVEL003
   6
CONTINUOUS
  62
3
  10
 629.265
  20
 391.354
  30
0.0
  11
 658.020
  21
 459.845
  31
0.0
   0
LINE
   8
LEVEL003
   6
CONTINUOUS
  62
3
  10
 658.020
  20
 459.845
  30
0.0
  11
 758.927
  21
 459.845
  31
0.0
   0
LINE
   8
LEVEL003
   6
CONTINUOUS
  62
3
  10
 629.265
  20
 391.354
  30
0.0
  11
 635.861
  21
 401.600
  31
0.0
   0
LINE
   8
LEVEL003
   6
CONTINUOUS
  62
3
  10
 629.265
  20
 391.354
  30
0.0
  11
 631.959
  21
 403.238
  31
0.0
   0
LINE
   8
LEVEL003
   6
CONTINUOUS
  62
3
  10
 573.845
  20
 432.658
  30
0.0
  11
 598.418
  21
 499.580
  31
0.0
   0
LINE
   8
LEVEL003
   6
CONTINUOUS
  62
3
  10
 598.418
  20
 499.580
  30
0.0
  11
 688.344
  21
 499.580
  31
0.0
   0
LINE
   8
LEVEL003
   6
CONTINUOUS
  62
3
  10
 573.845
  20
 432.658
  30
0.0
  11
 579.967
  21
 443.193
  31
0.0
   0
LINE
   8
LEVEL003
   6
CONTINUOUS
  62
3
  10
 573.845
  20
 432.658
  30
0.0
  11
 575.994
  21
 444.652
  31
0.0
   0
ARC
   8
LEVEL001
   6
CONTINUOUS
  62
7
  10
 145.450
  20
 437.938
  30
0.0
  40
 16.0000
  50
 59.7749
  51
 179.776
   0
ARC
   8
LEVEL001
   6
CONTINUOUS
  62
7
  10
 147.947
  20
 445.048
  30
0.0
  40
 13.5000
  50
 28.0020
  51
 151.998
   0
ARC
   8
LEVEL001
   6
CONTINUOUS
  62
7
  10
 147.947
  20
 442.280
  30
0.0
  40
 15.0000
  50
 12.4300
  51
 147.848
   0
ARC
   8
LEVEL001
   6
CONTINUOUS
  62
7
  10
 147.947
  20
 439.459
  30
0.0
  40
 13.5000
  50
 26.9603
  51
 153.040
   0
ARC
   8
LEVEL001
   6
CONTINUOUS
  62
7
  10
 147.947
  20
 437.426
  30
0.0
  40
 10.7500
  50
 50.8575
  51
 129.143
   0
ARC
   8
LEVEL001
   6
CONTINUOUS
  62
7
  10
 147.947
  20
 438.348
  30
0.0
  40
 11.0127
  50
 41.9835
  51
 138.017
   0
LINE
   8
LEVEL001
   6
DASHDOT
  62
1
  10
 147.947
  20
 463.092
  30
0.0
  11
 147.947
  21
 295.263
  31
0.0
   0
ARC
   8
LEVEL001
   6
CONTINUOUS
  62
7
  10
 114.527
  20
 391.397
  30
0.0
  40
 7.50000
  50
 20.0000
  51
 200.000
   0
LINE
   8
LEVEL001
   6
CONTINUOUS
  62
7
  10
 126.911
  20
 386.070
  30
0.0
  11
 125.935
  21
 384.907
  31
0.0
   0
LINE
   8
LEVEL001
   6
CONTINUOUS
  62
7
  10
 125.935
  20
 384.907
  30
0.0
  11
 109.960
  21
 379.093
  31
0.0
   0
LINE
   8
LEVEL001
   6
CONTINUOUS
  62
7
  10
 109.960
  20
 379.093
  30
0.0
  11
 108.464
  21
 379.356
  31
0.0
   0
LINE
   8
LEVEL001
   6
CONTINUOUS
  62
7
  10
 108.464
  20
 379.356
  30
0.0
  11
 105.564
  21
 387.327
  31
0.0
   0
LINE
   8
LEVEL001
   6
CONTINUOUS
  62
7
  10
 105.564
  20
 387.327
  30
0.0
  11
 106.540
  21
 388.490
  31
0.0
   0
LINE
   8
LEVEL001
   6
CONTINUOUS
  62
7
  10
 106.540
  20
 388.490
  30
0.0
  11
 122.514
  21
 394.304
  31
0.0
   0
LINE
   8
LEVEL001
   6
CONTINUOUS
  62
7
  10
 122.514
  20
 394.304
  30
0.0
  11
 124.010
  21
 394.040
  31
0.0
   0
LINE
   8
LEVEL001
   6
CONTINUOUS
  62
7
  10
 124.010
  20
 394.040
  30
0.0
  11
 126.911
  21
 386.070
  31
0.0
   0
LINE
   8
LEVEL001
   6
CONTINUOUS
  62
7
  10
 113.076
  20
 381.035
  30
0.0
  11
 110.175
  21
 389.005
  31
0.0
   0
ARC
   8
LEVEL001
   6
CONTINUOUS
  62
7
  10
 120.082
  20
 376.136
  30
0.0
  40
 16.2408
  50
 92.4120
  51
 127.588
   0
ARC
   8
LEVEL001
   6
CONTINUOUS
  62
7
  10
 109.577
  20
 380.146
  30
0.0
  40
 8.87961
  50
 86.1351
  51
 110.000
   0
LINE
   8
LEVEL001
   6
CONTINUOUS
  62
7
  10
 122.299
  20
 384.392
  30
0.0
  11
 119.398
  21
 392.362
  31
0.0
   0
ARC
   8
LEVEL001
   6
CONTINUOUS
  62
7
  10
 125.551
  20
 385.960
  30
0.0
  40
 8.87961
  50
 110.000
  51
 133.865
   0
LINE
   8
LEVEL001
   6
DASHDOT
  62
1
  10
 111.088
  20
 400.845
  30
0.0
  11
 135.782
  21
 333.000
  31
0.0
   0
ARC
   8
LEVEL001
   6
CONTINUOUS
  62
7
  10
 112.393
  20
 397.261
  30
0.0
  40
 16.2408
  50
 272.412
  51
 307.588
   0
ARC
   8
LEVEL001
   6
CONTINUOUS
  62
7
  10
 122.898
  20
 393.251
  30
0.0
  40
 8.87961
  50
 266.135
  51
 290.000
   0
ARC
   8
LEVEL001
   6
CONTINUOUS
  62
7
  10
 106.923
  20
 387.437
  30
0.0
  40
 8.87961
  50
 290.000
  51
 313.865
   0
LINE
   8
LEVEL003
   6
CONTINUOUS
  62
7
  10
 127.947
  20
 398.500
  30
0.0
  11
 116.935
  21
 398.500
  31
0.0
   0
LINE
   8
LEVEL003
   6
CONTINUOUS
  62
7
  10
 115.447
  20
 398.840
  30
0.0
  11
 115.447
  21
 399.346
  31
0.0
   0
LINE
   8
LEVEL003
   6
CONTINUOUS
  62
7
  10
 88.4472
  20
 395.346
  30
0.0
  11
 90.4472
  21
 397.346
  31
0.0
   0
LINE
   8
LEVEL003
   6
CONTINUOUS
  62
7
  10
 90.4472
  20
 397.346
  30
0.0
  11
 109.959
  21
 397.346
  31
0.0
   0
LINE
   8
LEVEL003
   6
CONTINUOUS
  62
7
  10
 88.4472
  20
 395.346
  30
0.0
  11
 108.151
  21
 395.346
  31
0.0
   0
LINE
   8
LEVEL003
   6
CONTINUOUS
  62
7
  10
 105.830
  20
 386.594
  30
0.0
  11
 74.9472
  21
 386.594
  31
0.0
   0
LINE
   8
LEVEL003
   6
CONTINUOUS
  62
7
  10
 128.473
  20
 386.594
  30
0.0
  11
 126.911
  21
 386.594
  31
0.0
   0
LINE
   8
LEVEL001
   6
DASHDOT
  62
1
  10
 357.366
  20
 333.347
  30
0.0
  11
 350.168
  21
 333.183
  31
0.0
   0
LINE
   8
LEVEL001
   6
DASHDOT
  62
1
  10
 377.361
  20
 333.801
  30
0.0
  11
 370.163
  21
 333.637
  31
0.0
   0
ARC
   8
LEVEL001
   6
CONTINUOUS
  62
7
  10
 382.465
  20
 390.974
  30
0.0
  40
 3.00000
  50
 181.300
  51
 271.300
   0
LINE
   8
LEVEL001
   6
CONTINUOUS
  62
7
  10
 382.533
  20
 387.975
  30
0.0
  11
 383.777
  21
 388.003
  31
0.0
   0
ARC
   8
LEVEL001
   6
CONTINUOUS
  62
7
  10
 383.823
  20
 386.004
  30
0.0
  40
 2.00000
  50
 1.30048
  51
 91.3005
   0
ARC
   8
LEVEL001
   6
CONTINUOUS
  62
7
  10
 337.114
  20
 405.906
  30
0.0
  40
 3.00000
  50
 181.300
  51
 271.300
   0
LINE
   8
LEVEL001
   6
CONTINUOUS
  62
7
  10
 334.115
  20
 405.838
  30
0.0
  11
 334.100
  21
 406.483
  31
0.0
   0
LINE
   8
LEVEL001
   6
CONTINUOUS
  62
7
  10
 337.182
  20
 402.907
  30
0.0
  11
 339.182
  21
 402.952
  31
0.0
   0
LINE
   8
LEVEL001
   6
CONTINUOUS
  62
7
  10
 379.172
  20
 403.860
  30
0.0
  11
 378.149
  21
 404.837
  31
0.0
   0
LINE
   8
LEVEL001
   6
CONTINUOUS
  62
7
  10
 340.159
  20
 403.974
  30
0.0
  11
 339.182
  21
 402.952
  31
0.0
   0
LINE
   8
LEVEL001
   6
CONTINUOUS
  62
7
  10
 379.466
  20
 390.906
  30
0.0
  11
 379.172
  21
 403.860
  31
0.0
   0
ARC
   8
LEVEL001
   6
CONTINUOUS
  62
7
  10
 349.097
  20
 406.824
  30
0.0
  40
 15.0000
  50
 141.914
  51
 181.300
   0
ARC
   8
LEVEL001
   6
CONTINUOUS
  62
7
  10
 345.124
  20
 405.588
  30
0.0
  40
 30.0000
  50
 149.857
  51
 213.688
   0
LINE
   8
LEVEL001
   6
DASHDOT
  62
1
  10
 339.226
  20
 356.941
  30
0.0
  11
 339.362
  21
 350.943
  31
0.0
   0
LINE
   8
LEVEL001
   6
DASHDOT
  62
1
  10
 309.302
  20
 353.261
  30
0.0
  11
 373.285
  21
 354.714
  31
0.0
   0
ARC
   8
LEVEL001
   6
CONTINUOUS
  62
7
  10
 307.680
  20
 380.627
  30
0.0
  40
 15.0000
  50
 1.30033
  51
 33.6879
   0
ARC
   8
LEVEL001
   6
CONTINUOUS
  62
7
  10
 307.680
  20
 380.627
  30
0.0
  40
 15.0000
  50
 1.30033
  51
 33.6879
   0
LINE
   8
LEVEL001
   6
CONTINUOUS
  62
7
  10
 313.370
  20
 372.358
  30
0.0
  11
 314.164
  21
 337.367
  31
0.0
   0
ARC
   8
LEVEL001
   6
CONTINUOUS
  62
7
  10
 335.292
  20
 334.846
  30
0.0
  40
 3.00000
  50
 75.3377
  51
 91.3005
   0
ARC
   8
LEVEL001
   6
CONTINUOUS
  62
7
  10
 340.294
  20
 353.965
  30
0.0
  40
 16.7620
  50
 255.338
  51
 260.709
   0
LINE
   8
LEVEL001
   6
CONTINUOUS
  62
7
  10
 314.164
  20
 337.367
  30
0.0
  11
 335.224
  21
 337.845
  31
0.0
   0
ARC
   8
LEVEL001
   6
CONTINUOUS
  62
7
  10
 336.780
  20
 332.488
  30
0.0
  40
 5.00000
  50
 1.30047
  51
 80.7089
   0
LINE
   8
LEVEL001
   6
CONTINUOUS
  62
7
  10
 342.406
  20
 305.000
  30
0.0
  11
 382.385
  21
 305.908
  31
0.0
   0
LINE
   8
LEVEL001
   6
CONTINUOUS
  62
7
  10
 342.406
  20
 305.000
  30
0.0
  11
 341.779
  21
 332.602
  31
0.0
   0
LINE
   8
LEVEL001
   6
DASHDOT
  62
1
  10
 339.673
  20
 317.441
  30
0.0
  11
 367.078
  21
 318.063
  31
0.0
   0
ARC
   8
LEVEL001
   6
CONTINUOUS
  62
7
  10
 390.947
  20
 380.621
  30
0.0
  40
 5.00000
  50
 181.300
  51
 222.803
   0
LINE
   8
LEVEL001
   6
CONTINUOUS
  62
7
  10
 385.822
  20
 386.049
  30
0.0
  11
 385.948
  21
 380.508
  31
0.0
   0
ARC
   8
LEVEL001
   6
CONTINUOUS
  62
7
  10
 385.354
  20
 305.475
  30
0.0
  40
 3.00000
  50
 91.3005
  51
 171.706
   0
LINE
   8
LEVEL001
   6
DASHDOT
  62
1
  10
 361.401
  20
 305.431
  30
0.0
  11
 358.469
  21
 434.562
  31
0.0
   0
LINE
   8
LEVEL001
   6
CONTINUOUS
  62
7
  10
 378.149
  20
 404.837
  30
0.0
  11
 340.159
  21
 403.974
  31
0.0
   0
LINE
   8
LEVEL001
   6
CONTINUOUS
  62
7
  10
 333.115
  20
 405.815
  30
0.0
  11
 332.911
  21
 414.813
  31
0.0
   0
LINE
   8
LEVEL001
   6
CONTINUOUS
  62
7
  10
 332.116
  20
 405.792
  30
0.0
  11
 331.892
  21
 415.627
  31
0.0
   0
ARC
   8
LEVEL001
   6
CONTINUOUS
  62
7
  10
 337.114
  20
 405.906
  30
0.0
  40
 4.00000
  50
 181.298
  51
 271.300
   0
ARC
   8
LEVEL001
   6
CONTINUOUS
  62
7
  10
 337.114
  20
 405.906
  30
0.0
  40
 5.00000
  50
 181.300
  51
 271.168
   0
ARC
   8
LEVEL001
   6
CONTINUOUS
  62
7
  10
 337.114
  20
 405.906
  30
0.0
  40
 11.0000
  50
 181.300
  51
 271.300
   0
ARC
   8
LEVEL001
   6
CONTINUOUS
  62
7
  10
 337.114
  20
 405.906
  30
0.0
  40
 10.0000
  50
 181.300
  51
 271.201
   0
LINE
   8
LEVEL001
   6
CONTINUOUS
  62
7
  10
 326.117
  20
 405.656
  30
0.0
  11
 325.902
  21
 415.117
  31
0.0
   0
LINE
   8
LEVEL001
   6
CONTINUOUS
  62
7
  10
 327.117
  20
 405.679
  30
0.0
  11
 326.901
  21
 415.201
  31
0.0
   0
ARC
   8
LEVEL001
   6
CONTINUOUS
  62
7
  10
 335.910
  20
 414.881
  30
0.0
  40
 3.00000
  50
 163.803
  51
 181.300
   0
ARC
   8
LEVEL001
   6
CONTINUOUS
  62
7
  10
 329.525
  20
 409.735
  30
0.0
  40
 2.50000
  50
 157.722
  51
 181.300
   0
LINE
   8
LEVEL001
   6
CONTINUOUS
  62
7
  10
 327.212
  20
 410.683
  30
0.0
  11
 331.793
  21
 410.787
  31
0.0
   0
LINE
   8
LEVEL001
   6
CONTINUOUS
  62
7
  10
 353.009
  20
 366.652
  30
0.0
  11
 373.004
  21
 367.106
  31
0.0
   0
ARC
   8
LEVEL003
   6
CONTINUOUS
  62
7
  10
 379.963
  20
 391.044
  30
0.0
  40
 3.00000
  50
 121.300
  51
 181.300
   0
LINE
   8
LEVEL003
   6
CONTINUOUS
  62
7
  10
 341.920
  20
 392.512
  30
0.0
  11
 376.911
  21
 393.306
  31
0.0
   0
ARC
   8
LEVEL003
   6
CONTINUOUS
  62
7
  10
 338.973
  20
 390.114
  30
0.0
  40
 3.00000
  50
 1.30048
  51
 61.3005
   0
ARC
   8
LEVEL003
   6
CONTINUOUS
  62
7
  10
 341.374
  20
 394.500
  30
0.0
  40
 2.00000
  50
 181.300
  51
 241.300
   0
LINE
   8
LEVEL003
   6
CONTINUOUS
  62
7
  10
 339.363
  20
 394.954
  30
0.0
  11
 339.375
  21
 394.454
  31
0.0
   0
ARC
   8
LEVEL003
   6
CONTINUOUS
  62
7
  10
 344.840
  20
 404.081
  30
0.0
  40
 2.00000
  50
 271.300
  51
 1.30048
   0
ARC
   8
LEVEL003
   6
CONTINUOUS
  62
7
  10
 344.863
  20
 403.081
  30
0.0
  40
 2.00000
  50
 271.300
  51
 1.30048
   0
ARC
   8
LEVEL003
   6
CONTINUOUS
  62
7
  10
 345.090
  20
 393.084
  30
0.0
  40
 2.00000
  50
 1.30048
  51
 91.3005
   0
ARC
   8
LEVEL003
   6
CONTINUOUS
  62
7
  10
 345.067
  20
 394.083
  30
0.0
  40
 2.00000
  50
 1.30047
  51
 91.3005
   0
LINE
   8
LEVEL001
   6
CONTINUOUS
  62
7
  10
 344.885
  20
 402.081
  30
0.0
  11
 337.205
  21
 401.907
  31
0.0
   0
LINE
   8
LEVEL001
   6
CONTINUOUS
  62
7
  10
 344.908
  20
 401.082
  30
0.0
  11
 337.216
  21
 400.907
  31
0.0
   0
LINE
   8
LEVEL001
   6
CONTINUOUS
  62
7
  10
 345.021
  20
 396.083
  30
0.0
  11
 337.324
  21
 395.908
  31
0.0
   0
LINE
   8
LEVEL001
   6
CONTINUOUS
  62
7
  10
 345.044
  20
 395.083
  30
0.0
  11
 337.364
  21
 394.909
  31
0.0
   0
LINE
   8
LEVEL003
   6
CONTINUOUS
  62
7
  10
 360.658
  20
 382.210
  30
0.0
  11
 360.588
  21
 382.550
  31
0.0
   0
LINE
   8
LEVEL003
   6
CONTINUOUS
  62
7
  10
 360.588
  20
 382.550
  30
0.0
  11
 360.394
  21
 382.882
  31
0.0
   0
LINE
   8
LEVEL003
   6
CONTINUOUS
  62
7
  10
 360.394
  20
 382.882
  30
0.0
  11
 360.080
  21
 383.200
  31
0.0
   0
LINE
   8
LEVEL003
   6
CONTINUOUS
  62
7
  10
 360.080
  20
 383.200
  30
0.0
  11
 359.649
  21
 383.500
  31
0.0
   0
LINE
   8
LEVEL003
   6
CONTINUOUS
  62
7
  10
 359.649
  20
 383.500
  30
0.0
  11
 359.110
  21
 383.777
  31
0.0
   0
LINE
   8
LEVEL003
   6
CONTINUOUS
  62
7
  10
 359.110
  20
 383.777
  30
0.0
  11
 358.470
  21
 384.026
  31
0.0
   0
LINE
   8
LEVEL003
   6
CONTINUOUS
  62
7
  10
 358.470
  20
 384.026
  30
0.0
  11
 357.739
  21
 384.245
  31
0.0
   0
LINE
   8
LEVEL003
   6
CONTINUOUS
  62
7
  10
 357.739
  20
 384.245
  30
0.0
  11
 356.929
  21
 384.429
  31
0.0
   0
LINE
   8
LEVEL003
   6
CONTINUOUS
  62
7
  10
 356.929
  20
 384.429
  30
0.0
  11
 356.053
  21
 384.575
  31
0.0
   0
LINE
   8
LEVEL003
   6
CONTINUOUS
  62
7
  10
 356.053
  20
 384.575
  30
0.0
  11
 355.123
  21
 384.682
  31
0.0
   0
LINE
   8
LEVEL003
   6
CONTINUOUS
  62
7
  10
 355.123
  20
 384.682
  30
0.0
  11
 354.155
  21
 384.747
  31
0.0
   0
LINE
   8
LEVEL003
   6
CONTINUOUS
  62
7
  10
 354.155
  20
 384.747
  30
0.0
  11
 353.164
  21
 384.770
  31
0.0
   0
LINE
   8
LEVEL003
   6
CONTINUOUS
  62
7
  10
 353.164
  20
 384.770
  30
0.0
  11
 352.165
  21
 384.750
  31
0.0
   0
LINE
   8
LEVEL003
   6
CONTINUOUS
  62
7
  10
 352.165
  20
 384.750
  30
0.0
  11
 351.174
  21
 384.688
  31
0.0
   0
LINE
   8
LEVEL003
   6
CONTINUOUS
  62
7
  10
 351.174
  20
 384.688
  30
0.0
  11
 350.205
  21
 384.584
  31
0.0
   0
LINE
   8
LEVEL003
   6
CONTINUOUS
  62
7
  10
 350.205
  20
 384.584
  30
0.0
  11
 349.275
  21
 384.441
  31
0.0
   0
LINE
   8
LEVEL003
   6
CONTINUOUS
  62
7
  10
 349.275
  20
 384.441
  30
0.0
  11
 348.398
  21
 384.259
  31
0.0
   0
LINE
   8
LEVEL003
   6
CONTINUOUS
  62
7
  10
 348.398
  20
 384.259
  30
0.0
  11
 347.588
  21
 384.043
  31
0.0
   0
LINE
   8
LEVEL003
   6
CONTINUOUS
  62
7
  10
 347.588
  20
 384.043
  30
0.0
  11
 346.856
  21
 383.796
  31
0.0
   0
LINE
   8
LEVEL003
   6
CONTINUOUS
  62
7
  10
 346.856
  20
 383.796
  30
0.0
  11
 346.216
  21
 383.521
  31
0.0
   0
LINE
   8
LEVEL003
   6
CONTINUOUS
  62
7
  10
 346.216
  20
 383.521
  30
0.0
  11
 345.675
  21
 383.222
  31
0.0
   0
LINE
   8
LEVEL003
   6
CONTINUOUS
  62
7
  10
 345.675
  20
 383.222
  30
0.0
  11
 345.244
  21
 382.905
  31
0.0
   0
LINE
   8
LEVEL003
   6
CONTINUOUS
  62
7
  10
 345.244
  20
 382.905
  30
0.0
  11
 344.928
  21
 382.574
  31
0.0
   0
LINE
   8
LEVEL003
   6
CONTINUOUS
  62
7
  10
 344.928
  20
 382.574
  30
0.0
  11
 344.734
  21
 382.235
  31
0.0
   0
LINE
   8
LEVEL003
   6
CONTINUOUS
  62
7
  10
 344.734
  20
 382.235
  30
0.0
  11
 344.662
  21
 381.893
  31
0.0
   0
LINE
   8
LEVEL003
   6
CONTINUOUS
  62
7
  10
 344.662
  20
 381.893
  30
0.0
  11
 344.716
  21
 381.552
  31
0.0
   0
LINE
   8
LEVEL003
   6
CONTINUOUS
  62
7
  10
 344.716
  20
 381.552
  30
0.0
  11
 344.894
  21
 381.220
  31
0.0
   0
LINE
   8
LEVEL003
   6
CONTINUOUS
  62
7
  10
 344.894
  20
 381.220
  30
0.0
  11
 345.192
  21
 380.899
  31
0.0
   0
LINE
   8
LEVEL003
   6
CONTINUOUS
  62
7
  10
 345.192
  20
 380.899
  30
0.0
  11
 345.608
  21
 380.597
  31
0.0
   0
LINE
   8
LEVEL003
   6
CONTINUOUS
  62
7
  10
 345.608
  20
 380.597
  30
0.0
  11
 346.133
  21
 380.316
  31
0.0
   0
LINE
   8
LEVEL003
   6
CONTINUOUS
  62
7
  10
 346.133
  20
 380.316
  30
0.0
  11
 346.760
  21
 380.063
  31
0.0
   0
LINE
   8
LEVEL003
   6
CONTINUOUS
  62
7
  10
 346.760
  20
 380.063
  30
0.0
  11
 347.479
  21
 379.840
  31
0.0
   0
LINE
   8
LEVEL003
   6
CONTINUOUS
  62
7
  10
 347.479
  20
 379.840
  30
0.0
  11
 348.280
  21
 379.651
  31
0.0
   0
LINE
   8
LEVEL003
   6
CONTINUOUS
  62
7
  10
 348.280
  20
 379.651
  30
0.0
  11
 349.148
  21
 379.500
  31
0.0
   0
LINE
   8
LEVEL003
   6
CONTINUOUS
  62
7
  10
 349.148
  20
 379.500
  30
0.0
  11
 350.071
  21
 379.388
  31
0.0
   0
LINE
   8
LEVEL003
   6
CONTINUOUS
  62
7
  10
 350.071
  20
 379.388
  30
0.0
  11
 351.035
  21
 379.317
  31
0.0
   0
LINE
   8
LEVEL003
   6
CONTINUOUS
  62
7
  10
 351.035
  20
 379.317
  30
0.0
  11
 352.024
  21
 379.288
  31
0.0
   0
LINE
   8
LEVEL003
   6
CONTINUOUS
  62
7
  10
 352.024
  20
 379.288
  30
0.0
  11
 353.023
  21
 379.302
  31
0.0
   0
LINE
   8
LEVEL003
   6
CONTINUOUS
  62
7
  10
 353.023
  20
 379.302
  30
0.0
  11
 354.016
  21
 379.359
  31
0.0
   0
LINE
   8
LEVEL003
   6
CONTINUOUS
  62
7
  10
 354.016
  20
 379.359
  30
0.0
  11
 354.988
  21
 379.457
  31
0.0
   0
LINE
   8
LEVEL003
   6
CONTINUOUS
  62
7
  10
 354.988
  20
 379.457
  30
0.0
  11
 355.924
  21
 379.596
  31
0.0
   0
LINE
   8
LEVEL003
   6
CONTINUOUS
  62
7
  10
 355.924
  20
 379.596
  30
0.0
  11
 356.809
  21
 379.772
  31
0.0
   0
LINE
   8
LEVEL003
   6
CONTINUOUS
  62
7
  10
 356.809
  20
 379.772
  30
0.0
  11
 357.629
  21
 379.984
  31
0.0
   0
LINE
   8
LEVEL003
   6
CONTINUOUS
  62
7
  10
 357.629
  20
 379.984
  30
0.0
  11
 358.372
  21
 380.228
  31
0.0
   0
LINE
   8
LEVEL003
   6
CONTINUOUS
  62
7
  10
 358.372
  20
 380.228
  30
0.0
  11
 359.025
  21
 380.499
  31
0.0
   0
LINE
   8
LEVEL003
   6
CONTINUOUS
  62
7
  10
 359.025
  20
 380.499
  30
0.0
  11
 359.580
  21
 380.795
  31
0.0
   0
LINE
   8
LEVEL003
   6
CONTINUOUS
  62
7
  10
 359.580
  20
 380.795
  30
0.0
  11
 360.026
  21
 381.110
  31
0.0
   0
LINE
   8
LEVEL003
   6
CONTINUOUS
  62
7
  10
 360.026
  20
 381.110
  30
0.0
  11
 360.357
  21
 381.439
  31
0.0
   0
LINE
   8
LEVEL003
   6
CONTINUOUS
  62
7
  10
 360.357
  20
 381.439
  30
0.0
  11
 360.568
  21
 381.777
  31
0.0
   0
LINE
   8
LEVEL003
   6
CONTINUOUS
  62
7
  10
 360.568
  20
 381.777
  30
0.0
  11
 360.656
  21
 382.120
  31
0.0
   0
LINE
   8
LEVEL003
   6
CONTINUOUS
  62
7
  10
 360.656
  20
 382.120
  30
0.0
  11
 360.658
  21
 382.210
  31
0.0
   0
LINE
   8
LEVEL003
   6
CONTINUOUS
  62
7
  10
 345.903
  20
 383.358
  30
0.0
  11
 345.217
  21
 383.039
  31
0.0
   0
LINE
   8
LEVEL003
   6
CONTINUOUS
  62
7
  10
 345.217
  20
 383.039
  30
0.0
  11
 344.647
  21
 382.696
  31
0.0
   0
LINE
   8
LEVEL003
   6
CONTINUOUS
  62
7
  10
 344.647
  20
 382.696
  30
0.0
  11
 344.202
  21
 382.334
  31
0.0
   0
LINE
   8
LEVEL003
   6
CONTINUOUS
  62
7
  10
 344.202
  20
 382.334
  30
0.0
  11
 343.890
  21
 381.958
  31
0.0
   0
LINE
   8
LEVEL003
   6
CONTINUOUS
  62
7
  10
 343.890
  20
 381.958
  30
0.0
  11
 343.715
  21
 381.575
  31
0.0
   0
LINE
   8
LEVEL003
   6
CONTINUOUS
  62
7
  10
 343.715
  20
 381.575
  30
0.0
  11
 343.679
  21
 381.190
  31
0.0
   0
LINE
   8
LEVEL003
   6
CONTINUOUS
  62
7
  10
 343.679
  20
 381.190
  30
0.0
  11
 343.784
  21
 380.809
  31
0.0
   0
LINE
   8
LEVEL003
   6
CONTINUOUS
  62
7
  10
 343.784
  20
 380.809
  30
0.0
  11
 344.028
  21
 380.438
  31
0.0
   0
LINE
   8
LEVEL003
   6
CONTINUOUS
  62
7
  10
 344.028
  20
 380.438
  30
0.0
  11
 344.406
  21
 380.084
  31
0.0
   0
LINE
   8
LEVEL003
   6
CONTINUOUS
  62
7
  10
 344.406
  20
 380.084
  30
0.0
  11
 344.914
  21
 379.751
  31
0.0
   0
LINE
   8
LEVEL003
   6
CONTINUOUS
  62
7
  10
 344.914
  20
 379.751
  30
0.0
  11
 345.542
  21
 379.445
  31
0.0
   0
LINE
   8
LEVEL003
   6
CONTINUOUS
  62
7
  10
 345.542
  20
 379.445
  30
0.0
  11
 346.282
  21
 379.170
  31
0.0
   0
LINE
   8
LEVEL003
   6
CONTINUOUS
  62
7
  10
 346.282
  20
 379.170
  30
0.0
  11
 347.122
  21
 378.931
  31
0.0
   0
LINE
   8
LEVEL003
   6
CONTINUOUS
  62
7
  10
 347.122
  20
 378.931
  30
0.0
  11
 348.048
  21
 378.732
  31
0.0
   0
LINE
   8
LEVEL003
   6
CONTINUOUS
  62
7
  10
 348.048
  20
 378.732
  30
0.0
  11
 349.046
  21
 378.575
  31
0.0
   0
LINE
   8
LEVEL003
   6
CONTINUOUS
  62
7
  10
 349.046
  20
 378.575
  30
0.0
  11
 350.101
  21
 378.463
  31
0.0
   0
LINE
   8
LEVEL003
   6
CONTINUOUS
  62
7
  10
 350.101
  20
 378.463
  30
0.0
  11
 351.196
  21
 378.399
  31
0.0
   0
LINE
   8
LEVEL003
   6
CONTINUOUS
  62
7
  10
 351.196
  20
 378.399
  30
0.0
  11
 352.314
  21
 378.382
  31
0.0
   0
LINE
   8
LEVEL003
   6
CONTINUOUS
  62
7
  10
 352.314
  20
 378.382
  30
0.0
  11
 353.438
  21
 378.413
  31
0.0
   0
LINE
   8
LEVEL003
   6
CONTINUOUS
  62
7
  10
 353.438
  20
 378.413
  30
0.0
  11
 354.550
  21
 378.492
  31
0.0
   0
LINE
   8
LEVEL003
   6
CONTINUOUS
  62
7
  10
 354.550
  20
 378.492
  30
0.0
  11
 355.632
  21
 378.617
  31
0.0
   0
LINE
   8
LEVEL003
   6
CONTINUOUS
  62
7
  10
 355.632
  20
 378.617
  30
0.0
  11
 356.669
  21
 378.787
  31
0.0
   0
LINE
   8
LEVEL003
   6
CONTINUOUS
  62
7
  10
 356.669
  20
 378.787
  30
0.0
  11
 357.643
  21
 378.998
  31
0.0
   0
LINE
   8
LEVEL003
   6
CONTINUOUS
  62
7
  10
 357.643
  20
 378.998
  30
0.0
  11
 358.539
  21
 379.248
  31
0.0
   0
LINE
   8
LEVEL003
   6
CONTINUOUS
  62
7
  10
 358.539
  20
 379.248
  30
0.0
  11
 359.344
  21
 379.533
  31
0.0
   0
LINE
   8
LEVEL003
   6
CONTINUOUS
  62
7
  10
 359.344
  20
 379.533
  30
0.0
  11
 360.045
  21
 379.847
  31
0.0
   0
LINE
   8
LEVEL003
   6
CONTINUOUS
  62
7
  10
 360.045
  20
 379.847
  30
0.0
  11
 360.630
  21
 380.187
  31
0.0
   0
LINE
   8
LEVEL003
   6
CONTINUOUS
  62
7
  10
 360.630
  20
 380.187
  30
0.0
  11
 361.092
  21
 380.547
  31
0.0
   0
LINE
   8
LEVEL003
   6
CONTINUOUS
  62
7
  10
 361.092
  20
 380.547
  30
0.0
  11
 361.422
  21
 380.922
  31
0.0
   0
LINE
   8
LEVEL003
   6
CONTINUOUS
  62
7
  10
 361.422
  20
 380.922
  30
0.0
  11
 361.616
  21
 381.304
  31
0.0
   0
LINE
   8
LEVEL003
   6
CONTINUOUS
  62
7
  10
 361.616
  20
 381.304
  30
0.0
  11
 361.670
  21
 381.690
  31
0.0
   0
LINE
   8
LEVEL003
   6
CONTINUOUS
  62
7
  10
 361.670
  20
 381.690
  30
0.0
  11
 361.584
  21
 382.071
  31
0.0
   0
LINE
   8
LEVEL003
   6
CONTINUOUS
  62
7
  10
 361.584
  20
 382.071
  30
0.0
  11
 361.358
  21
 382.444
  31
0.0
   0
LINE
   8
LEVEL003
   6
CONTINUOUS
  62
7
  10
 361.358
  20
 382.444
  30
0.0
  11
 360.998
  21
 382.801
  31
0.0
   0
LINE
   8
LEVEL003
   6
CONTINUOUS
  62
7
  10
 360.998
  20
 382.801
  30
0.0
  11
 360.507
  21
 383.137
  31
0.0
   0
LINE
   8
LEVEL003
   6
CONTINUOUS
  62
7
  10
 360.507
  20
 383.137
  30
0.0
  11
 359.894
  21
 383.447
  31
0.0
   0
LINE
   8
LEVEL003
   6
CONTINUOUS
  62
7
  10
 359.894
  20
 383.447
  30
0.0
  11
 359.350
  21
 383.663
  31
0.0
   0
LINE
   8
LEVEL003
   6
CONTINUOUS
  62
7
  10
 343.918
  20
 370.551
  30
0.0
  11
 343.997
  21
 370.169
  31
0.0
   0
LINE
   8
LEVEL003
   6
CONTINUOUS
  62
7
  10
 343.997
  20
 370.169
  30
0.0
  11
 344.215
  21
 369.796
  31
0.0
   0
LINE
   8
LEVEL003
   6
CONTINUOUS
  62
7
  10
 344.215
  20
 369.796
  30
0.0
  11
 344.569
  21
 369.438
  31
0.0
   0
LINE
   8
LEVEL003
   6
CONTINUOUS
  62
7
  10
 344.569
  20
 369.438
  30
0.0
  11
 345.053
  21
 369.101
  31
0.0
   0
LINE
   8
LEVEL003
   6
CONTINUOUS
  62
7
  10
 345.053
  20
 369.101
  30
0.0
  11
 345.660
  21
 368.789
  31
0.0
   0
LINE
   8
LEVEL003
   6
CONTINUOUS
  62
7
  10
 345.660
  20
 368.789
  30
0.0
  11
 346.380
  21
 368.508
  31
0.0
   0
LINE
   8
LEVEL003
   6
CONTINUOUS
  62
7
  10
 346.380
  20
 368.508
  30
0.0
  11
 347.202
  21
 368.263
  31
0.0
   0
LINE
   8
LEVEL003
   6
CONTINUOUS
  62
7
  10
 347.202
  20
 368.263
  30
0.0
  11
 348.113
  21
 368.056
  31
0.0
   0
LINE
   8
LEVEL003
   6
CONTINUOUS
  62
7
  10
 348.113
  20
 368.056
  30
0.0
  11
 349.100
  21
 367.891
  31
0.0
   0
LINE
   8
LEVEL003
   6
CONTINUOUS
  62
7
  10
 349.100
  20
 367.891
  30
0.0
  11
 350.145
  21
 367.771
  31
0.0
   0
LINE
   8
LEVEL003
   6
CONTINUOUS
  62
7
  10
 350.145
  20
 367.771
  30
0.0
  11
 351.234
  21
 367.697
  31
0.0
   0
LINE
   8
LEVEL003
   6
CONTINUOUS
  62
7
  10
 351.234
  20
 367.697
  30
0.0
  11
 352.349
  21
 367.671
  31
0.0
   0
LINE
   8
LEVEL003
   6
CONTINUOUS
  62
7
  10
 352.349
  20
 367.671
  30
0.0
  11
 353.473
  21
 367.694
  31
0.0
   0
LINE
   8
LEVEL003
   6
CONTINUOUS
  62
7
  10
 353.473
  20
 367.694
  30
0.0
  11
 354.589
  21
 367.764
  31
0.0
   0
LINE
   8
LEVEL003
   6
CONTINUOUS
  62
7
  10
 354.589
  20
 367.764
  30
0.0
  11
 355.678
  21
 367.881
  31
0.0
   0
LINE
   8
LEVEL003
   6
CONTINUOUS
  62
7
  10
 355.678
  20
 367.881
  30
0.0
  11
 356.724
  21
 368.042
  31
0.0
   0
LINE
   8
LEVEL003
   6
CONTINUOUS
  62
7
  10
 356.724
  20
 368.042
  30
0.0
  11
 357.711
  21
 368.246
  31
0.0
   0
LINE
   8
LEVEL003
   6
CONTINUOUS
  62
7
  10
 357.711
  20
 368.246
  30
0.0
  11
 358.623
  21
 368.489
  31
0.0
   0
LINE
   8
LEVEL003
   6
CONTINUOUS
  62
7
  10
 358.623
  20
 368.489
  30
0.0
  11
 359.445
  21
 368.768
  31
0.0
   0
LINE
   8
LEVEL003
   6
CONTINUOUS
  62
7
  10
 359.445
  20
 368.768
  30
0.0
  11
 360.166
  21
 369.077
  31
0.0
   0
LINE
   8
LEVEL003
   6
CONTINUOUS
  62
7
  10
 360.166
  20
 369.077
  30
0.0
  11
 360.774
  21
 369.413
  31
0.0
   0
LINE
   8
LEVEL003
   6
CONTINUOUS
  62
7
  10
 360.774
  20
 369.413
  30
0.0
  11
 361.259
  21
 369.770
  31
0.0
   0
LINE
   8
LEVEL003
   6
CONTINUOUS
  62
7
  10
 361.259
  20
 369.770
  30
0.0
  11
 361.614
  21
 370.142
  31
0.0
   0
LINE
   8
LEVEL003
   6
CONTINUOUS
  62
7
  10
 361.614
  20
 370.142
  30
0.0
  11
 361.834
  21
 370.523
  31
0.0
   0
LINE
   8
LEVEL003
   6
CONTINUOUS
  62
7
  10
 361.834
  20
 370.523
  30
0.0
  11
 361.914
  21
 370.909
  31
0.0
   0
LINE
   8
LEVEL003
   6
CONTINUOUS
  62
7
  10
 361.914
  20
 370.909
  30
0.0
  11
 361.914
  21
 370.960
  31
0.0
   0
LINE
   8
LEVEL003
   6
CONTINUOUS
  62
7
  10
 343.675
  20
 381.261
  30
0.0
  11
 343.918
  21
 370.551
  31
0.0
   0
LINE
   8
LEVEL003
   6
CONTINUOUS
  62
7
  10
 361.671
  20
 381.669
  30
0.0
  11
 361.914
  21
 370.960
  31
0.0
   0
LINE
   8
LEVEL003
   6
CONTINUOUS
  62
7
  10
 380.653
  20
 382.664
  30
0.0
  11
 380.583
  21
 383.004
  31
0.0
   0
LINE
   8
LEVEL003
   6
CONTINUOUS
  62
7
  10
 380.583
  20
 383.004
  30
0.0
  11
 380.389
  21
 383.335
  31
0.0
   0
LINE
   8
LEVEL003
   6
CONTINUOUS
  62
7
  10
 380.389
  20
 383.335
  30
0.0
  11
 380.074
  21
 383.654
  31
0.0
   0
LINE
   8
LEVEL003
   6
CONTINUOUS
  62
7
  10
 380.074
  20
 383.654
  30
0.0
  11
 379.644
  21
 383.954
  31
0.0
   0
LINE
   8
LEVEL003
   6
CONTINUOUS
  62
7
  10
 379.644
  20
 383.954
  30
0.0
  11
 379.105
  21
 384.231
  31
0.0
   0
LINE
   8
LEVEL003
   6
CONTINUOUS
  62
7
  10
 379.105
  20
 384.231
  30
0.0
  11
 378.465
  21
 384.480
  31
0.0
   0
LINE
   8
LEVEL003
   6
CONTINUOUS
  62
7
  10
 378.465
  20
 384.480
  30
0.0
  11
 377.734
  21
 384.699
  31
0.0
   0
LINE
   8
LEVEL003
   6
CONTINUOUS
  62
7
  10
 377.734
  20
 384.699
  30
0.0
  11
 376.924
  21
 384.883
  31
0.0
   0
LINE
   8
LEVEL003
   6
CONTINUOUS
  62
7
  10
 376.924
  20
 384.883
  30
0.0
  11
 376.048
  21
 385.029
  31
0.0
   0
LINE
   8
LEVEL003
   6
CONTINUOUS
  62
7
  10
 376.048
  20
 385.029
  30
0.0
  11
 375.118
  21
 385.136
  31
0.0
   0
LINE
   8
LEVEL003
   6
CONTINUOUS
  62
7
  10
 375.118
  20
 385.136
  30
0.0
  11
 374.150
  21
 385.201
  31
0.0
   0
LINE
   8
LEVEL003
   6
CONTINUOUS
  62
7
  10
 374.150
  20
 385.201
  30
0.0
  11
 373.159
  21
 385.224
  31
0.0
   0
LINE
   8
LEVEL003
   6
CONTINUOUS
  62
7
  10
 373.159
  20
 385.224
  30
0.0
  11
 372.160
  21
 385.204
  31
0.0
   0
LINE
   8
LEVEL003
   6
CONTINUOUS
  62
7
  10
 372.160
  20
 385.204
  30
0.0
  11
 371.168
  21
 385.142
  31
0.0
   0
LINE
   8
LEVEL003
   6
CONTINUOUS
  62
7
  10
 371.168
  20
 385.142
  30
0.0
  11
 370.200
  21
 385.038
  31
0.0
   0
LINE
   8
LEVEL003
   6
CONTINUOUS
  62
7
  10
 370.200
  20
 385.038
  30
0.0
  11
 369.270
  21
 384.895
  31
0.0
   0
LINE
   8
LEVEL003
   6
CONTINUOUS
  62
7
  10
 369.270
  20
 384.895
  30
0.0
  11
 368.393
  21
 384.713
  31
0.0
   0
LINE
   8
LEVEL003
   6
CONTINUOUS
  62
7
  10
 368.393
  20
 384.713
  30
0.0
  11
 367.583
  21
 384.497
  31
0.0
   0
LINE
   8
LEVEL003
   6
CONTINUOUS
  62
7
  10
 367.583
  20
 384.497
  30
0.0
  11
 366.851
  21
 384.250
  31
0.0
   0
LINE
   8
LEVEL003
   6
CONTINUOUS
  62
7
  10
 366.851
  20
 384.250
  30
0.0
  11
 366.210
  21
 383.974
  31
0.0
   0
LINE
   8
LEVEL003
   6
CONTINUOUS
  62
7
  10
 366.210
  20
 383.974
  30
0.0
  11
 365.670
  21
 383.676
  31
0.0
   0
LINE
   8
LEVEL003
   6
CONTINUOUS
  62
7
  10
 365.670
  20
 383.676
  30
0.0
  11
 365.239
  21
 383.359
  31
0.0
   0
LINE
   8
LEVEL003
   6
CONTINUOUS
  62
7
  10
 365.239
  20
 383.359
  30
0.0
  11
 364.923
  21
 383.028
  31
0.0
   0
LINE
   8
LEVEL003
   6
CONTINUOUS
  62
7
  10
 364.923
  20
 383.028
  30
0.0
  11
 364.728
  21
 382.689
  31
0.0
   0
LINE
   8
LEVEL003
   6
CONTINUOUS
  62
7
  10
 364.728
  20
 382.689
  30
0.0
  11
 364.657
  21
 382.347
  31
0.0
   0
LINE
   8
LEVEL003
   6
CONTINUOUS
  62
7
  10
 364.657
  20
 382.347
  30
0.0
  11
 364.711
  21
 382.006
  31
0.0
   0
LINE
   8
LEVEL003
   6
CONTINUOUS
  62
7
  10
 364.711
  20
 382.006
  30
0.0
  11
 364.888
  21
 381.673
  31
0.0
   0
LINE
   8
LEVEL003
   6
CONTINUOUS
  62
7
  10
 364.888
  20
 381.673
  30
0.0
  11
 365.187
  21
 381.353
  31
0.0
   0
LINE
   8
LEVEL003
   6
CONTINUOUS
  62
7
  10
 365.187
  20
 381.353
  30
0.0
  11
 365.602
  21
 381.051
  31
0.0
   0
LINE
   8
LEVEL003
   6
CONTINUOUS
  62
7
  10
 365.602
  20
 381.051
  30
0.0
  11
 366.128
  21
 380.770
  31
0.0
   0
LINE
   8
LEVEL003
   6
CONTINUOUS
  62
7
  10
 366.128
  20
 380.770
  30
0.0
  11
 366.755
  21
 380.517
  31
0.0
   0
LINE
   8
LEVEL003
   6
CONTINUOUS
  62
7
  10
 366.755
  20
 380.517
  30
0.0
  11
 367.474
  21
 380.294
  31
0.0
   0
LINE
   8
LEVEL003
   6
CONTINUOUS
  62
7
  10
 367.474
  20
 380.294
  30
0.0
  11
 368.274
  21
 380.105
  31
0.0
   0
LINE
   8
LEVEL003
   6
CONTINUOUS
  62
7
  10
 368.274
  20
 380.105
  30
0.0
  11
 369.143
  21
 379.954
  31
0.0
   0
LINE
   8
LEVEL003
   6
CONTINUOUS
  62
7
  10
 369.143
  20
 379.954
  30
0.0
  11
 370.066
  21
 379.841
  31
0.0
   0
LINE
   8
LEVEL003
   6
CONTINUOUS
  62
7
  10
 370.066
  20
 379.841
  30
0.0
  11
 371.030
  21
 379.771
  31
0.0
   0
LINE
   8
LEVEL003
   6
CONTINUOUS
  62
7
  10
 371.030
  20
 379.771
  30
0.0
  11
 372.019
  21
 379.742
  31
0.0
   0
LINE
   8
LEVEL003
   6
CONTINUOUS
  62
7
  10
 372.019
  20
 379.742
  30
0.0
  11
 373.018
  21
 379.756
  31
0.0
   0
LINE
   8
LEVEL003
   6
CONTINUOUS
  62
7
  10
 373.018
  20
 379.756
  30
0.0
  11
 374.011
  21
 379.813
  31
0.0
   0
LINE
   8
LEVEL003
   6
CONTINUOUS
  62
7
  10
 374.011
  20
 379.813
  30
0.0
  11
 374.983
  21
 379.911
  31
0.0
   0
LINE
   8
LEVEL003
   6
CONTINUOUS
  62
7
  10
 374.983
  20
 379.911
  30
0.0
  11
 375.919
  21
 380.050
  31
0.0
   0
LINE
   8
LEVEL003
   6
CONTINUOUS
  62
7
  10
 375.919
  20
 380.050
  30
0.0
  11
 376.804
  21
 380.226
  31
0.0
   0
LINE
   8
LEVEL003
   6
CONTINUOUS
  62
7
  10
 376.804
  20
 380.226
  30
0.0
  11
 377.624
  21
 380.438
  31
0.0
   0
LINE
   8
LEVEL003
   6
CONTINUOUS
  62
7
  10
 377.624
  20
 380.438
  30
0.0
  11
 378.367
  21
 380.681
  31
0.0
   0
LINE
   8
LEVEL003
   6
CONTINUOUS
  62
7
  10
 378.367
  20
 380.681
  30
0.0
  11
 379.020
  21
 380.953
  31
0.0
   0
LINE
   8
LEVEL003
   6
CONTINUOUS
  62
7
  10
 379.020
  20
 380.953
  30
0.0
  11
 379.574
  21
 381.249
  31
0.0
   0
LINE
   8
LEVEL003
   6
CONTINUOUS
  62
7
  10
 379.574
  20
 381.249
  30
0.0
  11
 380.021
  21
 381.564
  31
0.0
   0
LINE
   8
LEVEL003
   6
CONTINUOUS
  62
7
  10
 380.021
  20
 381.564
  30
0.0
  11
 380.352
  21
 381.893
  31
0.0
   0
LINE
   8
LEVEL003
   6
CONTINUOUS
  62
7
  10
 380.352
  20
 381.893
  30
0.0
  11
 380.563
  21
 382.231
  31
0.0
   0
LINE
   8
LEVEL003
   6
CONTINUOUS
  62
7
  10
 380.563
  20
 382.231
  30
0.0
  11
 380.651
  21
 382.573
  31
0.0
   0
LINE
   8
LEVEL003
   6
CONTINUOUS
  62
7
  10
 380.651
  20
 382.573
  30
0.0
  11
 380.653
  21
 382.664
  31
0.0
   0
LINE
   8
LEVEL003
   6
CONTINUOUS
  62
7
  10
 365.898
  20
 383.811
  30
0.0
  11
 365.212
  21
 383.493
  31
0.0
   0
LINE
   8
LEVEL003
   6
CONTINUOUS
  62
7
  10
 365.212
  20
 383.493
  30
0.0
  11
 364.642
  21
 383.150
  31
0.0
   0
LINE
   8
LEVEL003
   6
CONTINUOUS
  62
7
  10
 364.642
  20
 383.150
  30
0.0
  11
 364.197
  21
 382.788
  31
0.0
   0
LINE
   8
LEVEL003
   6
CONTINUOUS
  62
7
  10
 364.197
  20
 382.788
  30
0.0
  11
 363.885
  21
 382.412
  31
0.0
   0
LINE
   8
LEVEL003
   6
CONTINUOUS
  62
7
  10
 363.885
  20
 382.412
  30
0.0
  11
 363.710
  21
 382.029
  31
0.0
   0
LINE
   8
LEVEL003
   6
CONTINUOUS
  62
7
  10
 363.710
  20
 382.029
  30
0.0
  11
 363.674
  21
 381.644
  31
0.0
   0
LINE
   8
LEVEL003
   6
CONTINUOUS
  62
7
  10
 363.674
  20
 381.644
  30
0.0
  11
 363.779
  21
 381.263
  31
0.0
   0
LINE
   8
LEVEL003
   6
CONTINUOUS
  62
7
  10
 363.779
  20
 381.263
  30
0.0
  11
 364.023
  21
 380.892
  31
0.0
   0
LINE
   8
LEVEL003
   6
CONTINUOUS
  62
7
  10
 364.023
  20
 380.892
  30
0.0
  11
 364.401
  21
 380.538
  31
0.0
   0
LINE
   8
LEVEL003
   6
CONTINUOUS
  62
7
  10
 364.401
  20
 380.538
  30
0.0
  11
 364.909
  21
 380.205
  31
0.0
   0
LINE
   8
LEVEL003
   6
CONTINUOUS
  62
7
  10
 364.909
  20
 380.205
  30
0.0
  11
 365.537
  21
 379.898
  31
0.0
   0
LINE
   8
LEVEL003
   6
CONTINUOUS
  62
7
  10
 365.537
  20
 379.898
  30
0.0
  11
 366.277
  21
 379.624
  31
0.0
   0
LINE
   8
LEVEL003
   6
CONTINUOUS
  62
7
  10
 366.277
  20
 379.624
  30
0.0
  11
 367.116
  21
 379.385
  31
0.0
   0
LINE
   8
LEVEL003
   6
CONTINUOUS
  62
7
  10
 367.116
  20
 379.385
  30
0.0
  11
 368.043
  21
 379.185
  31
0.0
   0
LINE
   8
LEVEL003
   6
CONTINUOUS
  62
7
  10
 368.043
  20
 379.185
  30
0.0
  11
 369.041
  21
 379.029
  31
0.0
   0
LINE
   8
LEVEL003
   6
CONTINUOUS
  62
7
  10
 369.041
  20
 379.029
  30
0.0
  11
 370.096
  21
 378.917
  31
0.0
   0
LINE
   8
LEVEL003
   6
CONTINUOUS
  62
7
  10
 370.096
  20
 378.917
  30
0.0
  11
 371.191
  21
 378.852
  31
0.0
   0
LINE
   8
LEVEL003
   6
CONTINUOUS
  62
7
  10
 371.191
  20
 378.852
  30
0.0
  11
 372.309
  21
 378.836
  31
0.0
   0
LINE
   8
LEVEL003
   6
CONTINUOUS
  62
7
  10
 372.309
  20
 378.836
  30
0.0
  11
 373.433
  21
 378.867
  31
0.0
   0
LINE
   8
LEVEL003
   6
CONTINUOUS
  62
7
  10
 373.433
  20
 378.867
  30
0.0
  11
 374.545
  21
 378.946
  31
0.0
   0
LINE
   8
LEVEL003
   6
CONTINUOUS
  62
7
  10
 374.545
  20
 378.946
  30
0.0
  11
 375.627
  21
 379.071
  31
0.0
   0
LINE
   8
LEVEL003
   6
CONTINUOUS
  62
7
  10
 375.627
  20
 379.071
  30
0.0
  11
 376.663
  21
 379.241
  31
0.0
   0
LINE
   8
LEVEL003
   6
CONTINUOUS
  62
7
  10
 376.663
  20
 379.241
  30
0.0
  11
 377.637
  21
 379.452
  31
0.0
   0
LINE
   8
LEVEL003
   6
CONTINUOUS
  62
7
  10
 377.637
  20
 379.452
  30
0.0
  11
 378.534
  21
 379.702
  31
0.0
   0
LINE
   8
LEVEL003
   6
CONTINUOUS
  62
7
  10
 378.534
  20
 379.702
  30
0.0
  11
 379.339
  21
 379.987
  31
0.0
   0
LINE
   8
LEVEL003
   6
CONTINUOUS
  62
7
  10
 379.339
  20
 379.987
  30
0.0
  11
 380.040
  21
 380.301
  31
0.0
   0
LINE
   8
LEVEL003
   6
CONTINUOUS
  62
7
  10
 380.040
  20
 380.301
  30
0.0
  11
 380.625
  21
 380.641
  31
0.0
   0
LINE
   8
LEVEL003
   6
CONTINUOUS
  62
7
  10
 380.625
  20
 380.641
  30
0.0
  11
 381.087
  21
 381.001
  31
0.0
   0
LINE
   8
LEVEL003
   6
CONTINUOUS
  62
7
  10
 381.087
  20
 381.001
  30
0.0
  11
 381.417
  21
 381.376
  31
0.0
   0
LINE
   8
LEVEL003
   6
CONTINUOUS
  62
7
  10
 381.417
  20
 381.376
  30
0.0
  11
 381.611
  21
 381.758
  31
0.0
   0
LINE
   8
LEVEL003
   6
CONTINUOUS
  62
7
  10
 381.611
  20
 381.758
  30
0.0
  11
 381.665
  21
 382.144
  31
0.0
   0
LINE
   8
LEVEL003
   6
CONTINUOUS
  62
7
  10
 381.665
  20
 382.144
  30
0.0
  11
 381.579
  21
 382.525
  31
0.0
   0
LINE
   8
LEVEL003
   6
CONTINUOUS
  62
7
  10
 381.579
  20
 382.525
  30
0.0
  11
 381.353
  21
 382.898
  31
0.0
   0
LINE
   8
LEVEL003
   6
CONTINUOUS
  62
7
  10
 381.353
  20
 382.898
  30
0.0
  11
 380.992
  21
 383.255
  31
0.0
   0
LINE
   8
LEVEL003
   6
CONTINUOUS
  62
7
  10
 380.992
  20
 383.255
  30
0.0
  11
 380.502
  21
 383.591
  31
0.0
   0
LINE
   8
LEVEL003
   6
CONTINUOUS
  62
7
  10
 380.502
  20
 383.591
  30
0.0
  11
 379.889
  21
 383.901
  31
0.0
   0
LINE
   8
LEVEL003
   6
CONTINUOUS
  62
7
  10
 379.889
  20
 383.901
  30
0.0
  11
 379.345
  21
 384.117
  31
0.0
   0
LINE
   8
LEVEL003
   6
CONTINUOUS
  62
7
  10
 363.670
  20
 381.715
  30
0.0
  11
 363.913
  21
 371.005
  31
0.0
   0
LINE
   8
LEVEL003
   6
CONTINUOUS
  62
7
  10
 363.913
  20
 371.005
  30
0.0
  11
 363.992
  21
 370.623
  31
0.0
   0
LINE
   8
LEVEL003
   6
CONTINUOUS
  62
7
  10
 363.992
  20
 370.623
  30
0.0
  11
 364.210
  21
 370.250
  31
0.0
   0
LINE
   8
LEVEL003
   6
CONTINUOUS
  62
7
  10
 364.210
  20
 370.250
  30
0.0
  11
 364.564
  21
 369.892
  31
0.0
   0
LINE
   8
LEVEL003
   6
CONTINUOUS
  62
7
  10
 364.564
  20
 369.892
  30
0.0
  11
 365.048
  21
 369.555
  31
0.0
   0
LINE
   8
LEVEL003
   6
CONTINUOUS
  62
7
  10
 365.048
  20
 369.555
  30
0.0
  11
 365.655
  21
 369.243
  31
0.0
   0
LINE
   8
LEVEL003
   6
CONTINUOUS
  62
7
  10
 365.655
  20
 369.243
  30
0.0
  11
 366.375
  21
 368.962
  31
0.0
   0
LINE
   8
LEVEL003
   6
CONTINUOUS
  62
7
  10
 366.375
  20
 368.962
  30
0.0
  11
 367.197
  21
 368.716
  31
0.0
   0
LINE
   8
LEVEL003
   6
CONTINUOUS
  62
7
  10
 367.197
  20
 368.716
  30
0.0
  11
 368.108
  21
 368.509
  31
0.0
   0
LINE
   8
LEVEL003
   6
CONTINUOUS
  62
7
  10
 368.108
  20
 368.509
  30
0.0
  11
 369.094
  21
 368.345
  31
0.0
   0
LINE
   8
LEVEL003
   6
CONTINUOUS
  62
7
  10
 369.094
  20
 368.345
  30
0.0
  11
 370.140
  21
 368.225
  31
0.0
   0
LINE
   8
LEVEL003
   6
CONTINUOUS
  62
7
  10
 370.140
  20
 368.225
  30
0.0
  11
 371.229
  21
 368.151
  31
0.0
   0
LINE
   8
LEVEL003
   6
CONTINUOUS
  62
7
  10
 371.229
  20
 368.151
  30
0.0
  11
 372.344
  21
 368.125
  31
0.0
   0
LINE
   8
LEVEL003
   6
CONTINUOUS
  62
7
  10
 372.344
  20
 368.125
  30
0.0
  11
 373.468
  21
 368.148
  31
0.0
   0
LINE
   8
LEVEL003
   6
CONTINUOUS
  62
7
  10
 373.468
  20
 368.148
  30
0.0
  11
 374.584
  21
 368.218
  31
0.0
   0
LINE
   8
LEVEL003
   6
CONTINUOUS
  62
7
  10
 374.584
  20
 368.218
  30
0.0
  11
 375.673
  21
 368.334
  31
0.0
   0
LINE
   8
LEVEL003
   6
CONTINUOUS
  62
7
  10
 375.673
  20
 368.334
  30
0.0
  11
 376.719
  21
 368.496
  31
0.0
   0
LINE
   8
LEVEL003
   6
CONTINUOUS
  62
7
  10
 376.719
  20
 368.496
  30
0.0
  11
 377.706
  21
 368.700
  31
0.0
   0
LINE
   8
LEVEL003
   6
CONTINUOUS
  62
7
  10
 377.706
  20
 368.700
  30
0.0
  11
 378.617
  21
 368.943
  31
0.0
   0
LINE
   8
LEVEL003
   6
CONTINUOUS
  62
7
  10
 378.617
  20
 368.943
  30
0.0
  11
 379.440
  21
 369.222
  31
0.0
   0
LINE
   8
LEVEL003
   6
CONTINUOUS
  62
7
  10
 379.440
  20
 369.222
  30
0.0
  11
 380.161
  21
 369.531
  31
0.0
   0
LINE
   8
LEVEL003
   6
CONTINUOUS
  62
7
  10
 380.161
  20
 369.531
  30
0.0
  11
 380.769
  21
 369.867
  31
0.0
   0
LINE
   8
LEVEL003
   6
CONTINUOUS
  62
7
  10
 380.769
  20
 369.867
  30
0.0
  11
 381.254
  21
 370.224
  31
0.0
   0
LINE
   8
LEVEL003
   6
CONTINUOUS
  62
7
  10
 381.254
  20
 370.224
  30
0.0
  11
 381.609
  21
 370.596
  31
0.0
   0
LINE
   8
LEVEL003
   6
CONTINUOUS
  62
7
  10
 381.609
  20
 370.596
  30
0.0
  11
 381.828
  21
 370.977
  31
0.0
   0
LINE
   8
LEVEL003
   6
CONTINUOUS
  62
7
  10
 381.828
  20
 370.977
  30
0.0
  11
 381.909
  21
 371.363
  31
0.0
   0
LINE
   8
LEVEL003
   6
CONTINUOUS
  62
7
  10
 381.909
  20
 371.363
  30
0.0
  11
 381.909
  21
 371.414
  31
0.0
   0
ARC
   8
LEVEL001
   6
CONTINUOUS
  62
7
  10
 356.711
  20
 384.845
  30
0.0
  40
 3.00000
  50
 335.872
  51
 181.571
   0
LINE
   8
LEVEL001
   6
CONTINUOUS
  62
7
  10
 361.195
  20
 382.624
  30
0.0
  11
 364.146
  21
 388.015
  31
0.0
   0
LINE
   8
LEVEL001
   6
CONTINUOUS
  62
7
  10
 364.146
  20
 388.015
  30
0.0
  11
 369.918
  21
 388.146
  31
0.0
   0
LINE
   8
LEVEL001
   6
CONTINUOUS
  62
7
  10
 369.918
  20
 388.146
  30
0.0
  11
 367.983
  21
 384.610
  31
0.0
   0
LINE
   8
LEVEL001
   6
CONTINUOUS
  62
7
  10
 363.754
  20
 378.003
  30
0.0
  11
 361.755
  21
 377.958
  31
0.0
   0
LINE
   8
LEVEL003
   6
CONTINUOUS
  62
7
  10
 376.963
  20
 390.976
  30
0.0
  11
 377.103
  21
 384.847
  31
0.0
   0
ARC
   8
LEVEL003
   6
CONTINUOUS
  62
7
  10
 337.227
  20
 378.899
  30
0.0
  40
 5.00000
  50
 299.934
  51
 1.30048
   0
LINE
   8
LEVEL003
   6
CONTINUOUS
  62
7
  10
 340.217
  20
 372.684
  30
0.0
  11
 340.979
  21
 370.106
  31
0.0
   0
LINE
   8
LEVEL003
   6
CONTINUOUS
  62
7
  10
 373.004
  20
 367.106
  30
0.0
  11
 374.499
  21
 367.172
  31
0.0
   0
LINE
   8
LEVEL003
   6
CONTINUOUS
  62
7
  10
 374.499
  20
 367.172
  30
0.0
  11
 375.969
  21
 367.301
  31
0.0
   0
LINE
   8
LEVEL003
   6
CONTINUOUS
  62
7
  10
 375.969
  20
 367.301
  30
0.0
  11
 377.392
  21
 367.491
  31
0.0
   0
LINE
   8
LEVEL003
   6
CONTINUOUS
  62
7
  10
 377.392
  20
 367.491
  30
0.0
  11
 378.744
  21
 367.739
  31
0.0
   0
LINE
   8
LEVEL003
   6
CONTINUOUS
  62
7
  10
 378.744
  20
 367.739
  30
0.0
  11
 380.006
  21
 368.041
  31
0.0
   0
LINE
   8
LEVEL003
   6
CONTINUOUS
  62
7
  10
 380.006
  20
 368.041
  30
0.0
  11
 381.157
  21
 368.393
  31
0.0
   0
LINE
   8
LEVEL003
   6
CONTINUOUS
  62
7
  10
 381.157
  20
 368.393
  30
0.0
  11
 382.179
  21
 368.788
  31
0.0
   0
LINE
   8
LEVEL003
   6
CONTINUOUS
  62
7
  10
 382.179
  20
 368.788
  30
0.0
  11
 383.056
  21
 369.222
  31
0.0
   0
LINE
   8
LEVEL003
   6
CONTINUOUS
  62
7
  10
 383.056
  20
 369.222
  30
0.0
  11
 383.776
  21
 369.686
  31
0.0
   0
LINE
   8
LEVEL003
   6
CONTINUOUS
  62
7
  10
 383.776
  20
 369.686
  30
0.0
  11
 384.325
  21
 370.174
  31
0.0
   0
LINE
   8
LEVEL003
   6
CONTINUOUS
  62
7
  10
 384.325
  20
 370.174
  30
0.0
  11
 384.697
  21
 370.678
  31
0.0
   0
LINE
   8
LEVEL003
   6
CONTINUOUS
  62
7
  10
 384.697
  20
 370.678
  30
0.0
  11
 384.865
  21
 371.102
  31
0.0
   0
LINE
   8
LEVEL003
   6
CONTINUOUS
  62
7
  10
 361.827
  20
 374.780
  30
0.0
  11
 363.827
  21
 374.826
  31
0.0
   0
LINE
   8
LEVEL003
   6
CONTINUOUS
  62
7
  10
 340.754
  20
 374.787
  30
0.0
  11
 343.824
  21
 374.734
  31
0.0
   0
LINE
   8
LEVEL003
   6
CONTINUOUS
  62
7
  10
 341.972
  20
 390.182
  30
0.0
  11
 342.226
  21
 379.012
  31
0.0
   0
LINE
   8
LEVEL003
   6
CONTINUOUS
  62
7
  10
 340.979
  20
 370.106
  30
0.0
  11
 341.222
  21
 369.604
  31
0.0
   0
LINE
   8
LEVEL003
   6
CONTINUOUS
  62
7
  10
 341.222
  20
 369.604
  30
0.0
  11
 341.647
  21
 369.121
  31
0.0
   0
LINE
   8
LEVEL003
   6
CONTINUOUS
  62
7
  10
 341.647
  20
 369.121
  30
0.0
  11
 342.248
  21
 368.664
  31
0.0
   0
LINE
   8
LEVEL003
   6
CONTINUOUS
  62
7
  10
 342.248
  20
 368.664
  30
0.0
  11
 343.016
  21
 368.238
  31
0.0
   0
LINE
   8
LEVEL003
   6
CONTINUOUS
  62
7
  10
 343.016
  20
 368.238
  30
0.0
  11
 343.938
  21
 367.853
  31
0.0
   0
LINE
   8
LEVEL003
   6
CONTINUOUS
  62
7
  10
 343.938
  20
 367.853
  30
0.0
  11
 345.000
  21
 367.512
  31
0.0
   0
LINE
   8
LEVEL003
   6
CONTINUOUS
  62
7
  10
 345.000
  20
 367.512
  30
0.0
  11
 346.185
  21
 367.222
  31
0.0
   0
LINE
   8
LEVEL003
   6
CONTINUOUS
  62
7
  10
 346.185
  20
 367.222
  30
0.0
  11
 347.476
  21
 366.988
  31
0.0
   0
LINE
   8
LEVEL003
   6
CONTINUOUS
  62
7
  10
 347.476
  20
 366.988
  30
0.0
  11
 348.852
  21
 366.812
  31
0.0
   0
LINE
   8
LEVEL003
   6
CONTINUOUS
  62
7
  10
 348.852
  20
 366.812
  30
0.0
  11
 350.291
  21
 366.697
  31
0.0
   0
LINE
   8
LEVEL003
   6
CONTINUOUS
  62
7
  10
 350.291
  20
 366.697
  30
0.0
  11
 351.771
  21
 366.646
  31
0.0
   0
LINE
   8
LEVEL003
   6
CONTINUOUS
  62
7
  10
 351.771
  20
 366.646
  30
0.0
  11
 353.009
  21
 366.652
  31
0.0
   0
ARC
   8
LEVEL003
   6
CONTINUOUS
  62
7
  10
 377.365
  20
 395.317
  30
0.0
  40
 2.00000
  50
 301.300
  51
 1.30048
   0
LINE
   8
LEVEL003
   6
CONTINUOUS
  62
7
  10
 381.666
  20
 382.123
  30
0.0
  11
 381.909
  21
 371.414
  31
0.0
   0
LINE
   8
LEVEL003
   6
CONTINUOUS
  62
7
  10
 385.490
  20
 373.633
  30
0.0
  11
 384.865
  21
 371.102
  31
0.0
   0
LINE
   8
LEVEL003
   6
CONTINUOUS
  62
7
  10
 386.040
  20
 375.862
  30
0.0
  11
 381.814
  21
 375.596
  31
0.0
   0
ARC
   8
LEVEL003
   6
CONTINUOUS
  62
7
  10
 388.403
  20
 372.915
  30
0.0
  40
 3.00000
  50
 111.305
  51
 166.140
   0
LINE
   8
LEVEL003
   6
CONTINUOUS
  62
7
  10
 373.710
  20
 336.028
  30
0.0
  11
 375.735
  21
 334.919
  31
0.0
   0
LINE
   8
LEVEL003
   6
CONTINUOUS
  62
7
  10
 375.735
  20
 334.919
  30
0.0
  11
 375.788
  21
 332.610
  31
0.0
   0
LINE
   8
LEVEL003
   6
CONTINUOUS
  62
7
  10
 375.788
  20
 332.610
  30
0.0
  11
 373.814
  21
 331.410
  31
0.0
   0
LINE
   8
LEVEL003
   6
CONTINUOUS
  62
7
  10
 373.814
  20
 331.410
  30
0.0
  11
 371.789
  21
 332.519
  31
0.0
   0
LINE
   8
LEVEL003
   6
CONTINUOUS
  62
7
  10
 371.789
  20
 332.519
  30
0.0
  11
 371.736
  21
 334.828
  31
0.0
   0
LINE
   8
LEVEL003
   6
CONTINUOUS
  62
7
  10
 371.736
  20
 334.828
  30
0.0
  11
 373.710
  21
 336.028
  31
0.0
   0
CIRCLE
   8
LEVEL003
   6
CONTINUOUS
  62
7
  10
 373.762
  20
 333.719
  30
0.0
  40
 4.00000
   0
LINE
   8
LEVEL003
   6
CONTINUOUS
  62
7
  10
 353.715
  20
 335.574
  30
0.0
  11
 355.741
  21
 334.465
  31
0.0
   0
LINE
   8
LEVEL003
   6
CONTINUOUS
  62
7
  10
 355.741
  20
 334.465
  30
0.0
  11
 355.793
  21
 332.156
  31
0.0
   0
LINE
   8
LEVEL003
   6
CONTINUOUS
  62
7
  10
 355.793
  20
 332.156
  30
0.0
  11
 353.820
  21
 330.956
  31
0.0
   0
LINE
   8
LEVEL003
   6
CONTINUOUS
  62
7
  10
 353.820
  20
 330.956
  30
0.0
  11
 351.794
  21
 332.065
  31
0.0
   0
LINE
   8
LEVEL003
   6
CONTINUOUS
  62
7
  10
 351.794
  20
 332.065
  30
0.0
  11
 351.742
  21
 334.374
  31
0.0
   0
LINE
   8
LEVEL003
   6
CONTINUOUS
  62
7
  10
 351.742
  20
 334.374
  30
0.0
  11
 353.715
  21
 335.574
  31
0.0
   0
CIRCLE
   8
LEVEL003
   6
CONTINUOUS
  62
7
  10
 353.767
  20
 333.265
  30
0.0
  40
 4.00000
   0
CIRCLE
   8
LEVEL003
   6
CONTINUOUS
  62
3
  10
 353.767
  20
 333.265
  30
0.0
  40
 3.37500
   0
CIRCLE
   8
LEVEL003
   6
CONTINUOUS
  62
3
  10
 373.762
  20
 333.719
  30
0.0
  40
 3.37500
   0
ARC
   8
LEVEL003
   6
CONTINUOUS
  62
7
  10
 335.860
  20
 377.870
  30
0.0
  40
 5.00000
  50
 271.300
  51
 313.975
   0
LINE
   8
LEVEL003
   6
CONTINUOUS
  62
7
  10
 340.817
  20
 337.132
  30
0.0
  11
 351.575
  21
 349.509
  31
0.0
   0
ARC
   8
LEVEL003
   6
CONTINUOUS
  62
7
  10
 346.292
  20
 354.101
  30
0.0
  40
 7.00000
  50
 319.001
  51
 42.0829
   0
LINE
   8
LEVEL003
   6
CONTINUOUS
  62
7
  10
 353.926
  20
 326.267
  30
0.0
  11
 373.921
  21
 326.721
  31
0.0
   0
LINE
   8
LEVEL003
   6
CONTINUOUS
  62
7
  10
 353.608
  20
 340.263
  30
0.0
  11
 373.603
  21
 340.717
  31
0.0
   0
ARC
   8
LEVEL003
   6
CONTINUOUS
  62
7
  10
 373.762
  20
 333.719
  30
0.0
  40
 7.00000
  50
 271.300
  51
 91.3002
   0
ARC
   8
LEVEL003
   6
CONTINUOUS
  62
7
  10
 353.767
  20
 333.265
  30
0.0
  40
 7.00000
  50
 91.3002
  51
 271.300
   0
LINE
   8
LEVEL003
   6
CONTINUOUS
  62
7
  10
 346.179
  20
 364.671
  30
0.0
  11
 351.488
  21
 358.792
  31
0.0
   0
LINE
   8
LEVEL001
   6
CONTINUOUS
  62
7
  10
 322.754
  20
 377.573
  30
0.0
  11
 322.677
  21
 380.968
  31
0.0
   0
ARC
   8
LEVEL001
   6
CONTINUOUS
  62
7
  10
 317.755
  20
 377.459
  30
0.0
  40
 5.00000
  50
 271.300
  51
 1.30047
   0
LINE
   8
LEVEL001
   6
CONTINUOUS
  62
7
  10
 313.370
  20
 372.358
  30
0.0
  11
 335.973
  21
 372.871
  31
0.0
   0
LINE
   8
LEVEL001
   6
CONTINUOUS
  62
7
  10
 338.866
  20
 373.875
  30
0.0
  11
 340.233
  21
 374.903
  31
0.0
   0
ARC
   8
LEVEL001
   6
CONTINUOUS
  62
7
  10
 348.858
  20
 309.148
  30
0.0
  40
 2.00000
  50
 91.3005
  51
 181.300
   0
LINE
   8
LEVEL001
   6
CONTINUOUS
  62
7
  10
 346.859
  20
 309.102
  30
0.0
  11
 346.938
  21
 305.603
  31
0.0
   0
LINE
   8
LEVEL003
   6
CONTINUOUS
  62
7
  10
 348.813
  20
 311.147
  30
0.0
  11
 375.712
  21
 311.758
  31
0.0
   0
LINE
   8
LEVEL001
   6
CONTINUOUS
  62
7
  10
 348.753
  20
 313.796
  30
0.0
  11
 375.651
  21
 314.406
  31
0.0
   0
LINE
   8
LEVEL001
   6
CONTINUOUS
  62
7
  10
 343.358
  20
 309.078
  30
0.0
  11
 344.897
  21
 311.582
  31
0.0
   0
ARC
   8
LEVEL001
   6
CONTINUOUS
  62
7
  10
 348.858
  20
 309.148
  30
0.0
  40
 4.64950
  50
 91.3005
  51
 148.424
   0
ARC
   8
LEVEL003
   6
CONTINUOUS
  62
7
  10
 375.757
  20
 309.758
  30
0.0
  40
 2.00000
  50
 1.30048
  51
 91.3005
   0
LINE
   8
LEVEL001
   6
CONTINUOUS
  62
7
  10
 377.756
  20
 309.804
  30
0.0
  11
 377.836
  21
 306.304
  31
0.0
   0
LINE
   8
LEVEL001
   6
CONTINUOUS
  62
7
  10
 381.255
  20
 309.938
  30
0.0
  11
 379.604
  21
 312.370
  31
0.0
   0
ARC
   8
LEVEL001
   6
CONTINUOUS
  62
7
  10
 375.757
  20
 309.758
  30
0.0
  40
 4.64950
  50
 34.1771
  51
 91.3005
   0
ARC
   8
LEVEL001
   6
CONTINUOUS
  62
7
  10
 348.938
  20
 305.648
  30
0.0
  40
 2.00000
  50
 181.300
  51
 195.778
   0
ARC
   8
LEVEL001
   6
CONTINUOUS
  62
7
  10
 375.836
  20
 306.259
  30
0.0
  40
 2.00000
  50
 346.823
  51
 1.30047
   0
ARC
   8
LEVEL001
   6
CONTINUOUS
  62
7
  10
 325.986
  20
 332.778
  30
0.0
  40
 4.00000
  50
 237.837
  51
 316.300
   0
LINE
   8
LEVEL001
   6
CONTINUOUS
  62
7
  10
 332.532
  20
 333.838
  30
0.0
  11
 328.878
  21
 330.015
  31
0.0
   0
ARC
   8
LEVEL001
   6
CONTINUOUS
  62
7
  10
 338.315
  20
 328.311
  30
0.0
  40
 8.00000
  50
 98.7712
  51
 136.300
   0
ARC
   8
LEVEL001
   6
CONTINUOUS
  62
7
  10
 339.294
  20
 353.942
  30
0.0
  40
 29.0000
  50
 214.764
  51
 237.837
   0
ARC
   8
LEVEL001
   6
CONTINUOUS
  62
7
  10
 340.145
  20
 316.452
  30
0.0
  40
 20.0000
  50
 90.8983
  51
 98.7712
   0
ARC
   8
LEVEL001
   6
CONTINUOUS
  62
7
  10
 339.294
  20
 353.942
  30
0.0
  40
 29.0000
  50
 124.764
  51
 140.368
   0
LINE
   8
LEVEL001
   6
DOT
  62
3
  10
 313.990
  20
 345.034
  30
0.0
  11
 314.853
  21
 345.938
  31
0.0
   0
LINE
   8
LEVEL001
   6
DOT
  62
3
  10
 313.612
  20
 361.692
  30
0.0
  11
 314.515
  21
 360.829
  31
0.0
   0
LINE
   8
LEVEL001
   6
DOT
  62
3
  10
 313.612
  20
 361.692
  30
0.0
  11
 319.306
  21
 361.628
  31
0.0
   0
LINE
   8
LEVEL001
   6
DOT
  62
3
  10
 319.326
  20
 360.777
  30
0.0
  11
 314.515
  21
 360.829
  31
0.0
   0
LINE
   8
LEVEL001
   6
DOT
  62
3
  10
 314.515
  20
 360.829
  30
0.0
  11
 314.853
  21
 345.938
  31
0.0
   0
LINE
   8
LEVEL001
   6
DOT
  62
3
  10
 314.853
  20
 345.938
  30
0.0
  11
 319.657
  21
 346.208
  31
0.0
   0
LINE
   8
LEVEL001
   6
DOT
  62
3
  10
 313.990
  20
 345.034
  30
0.0
  11
 319.676
  21
 345.357
  31
0.0
   0
LINE
   8
LEVEL001
   6
CONTINUOUS
  62
7
  10
 385.285
  20
 308.474
  30
0.0
  11
 388.337
  21
 308.543
  31
0.0
   0
LINE
   8
LEVEL001
   6
CONTINUOUS
  62
7
  10
 388.337
  20
 308.543
  30
0.0
  11
 388.826
  21
 309.055
  31
0.0
   0
LINE
   8
LEVEL001
   6
CONTINUOUS
  62
7
  10
 388.826
  20
 309.055
  30
0.0
  11
 388.077
  21
 342.046
  31
0.0
   0
LINE
   8
LEVEL001
   6
CONTINUOUS
  62
7
  10
 388.077
  20
 342.046
  30
0.0
  11
 387.278
  21
 377.224
  31
0.0
   0
LINE
   8
LEVEL003
   6
CONTINUOUS
  62
7
  10
 384.955
  20
 369.416
  30
0.0
  11
 385.101
  21
 362.977
  31
0.0
   0
LINE
   8
LEVEL003
   6
CONTINUOUS
  62
7
  10
 385.419
  20
 348.962
  30
0.0
  11
 386.292
  21
 310.497
  31
0.0
   0
ARC
   8
LEVEL003
   6
CONTINUOUS
  62
7
  10
 388.100
  20
 363.045
  30
0.0
  40
 3.00000
  50
 181.300
  51
 261.706
   0
ARC
   8
LEVEL003
   6
CONTINUOUS
  62
7
  10
 388.418
  20
 349.030
  30
0.0
  40
 3.00000
  50
 100.895
  51
 181.300
   0
LINE
   8
LEVEL001
   6
DASHDOT
  62
1
  10
 372.555
  20
 386.898
  30
0.0
  11
 373.844
  21
 330.120
  31
0.0
   0
LINE
   8
LEVEL001
   6
DASHDOT
  62
1
  10
 352.565
  20
 386.205
  30
0.0
  11
 353.849
  21
 329.666
  31
0.0
   0
LINE
   8
LEVEL001
   6
CONTINUOUS
  62
7
  10
 388.814
  20
 309.554
  30
0.0
  11
 405.310
  21
 309.929
  31
0.0
   0
LINE
   8
LEVEL001
   6
CONTINUOUS
  62
7
  10
 403.835
  20
 374.912
  30
0.0
  11
 387.339
  21
 374.538
  31
0.0
   0
LINE
   8
LEVEL001
   6
CONTINUOUS
  62
7
  10
 403.835
  20
 374.912
  30
0.0
  11
 404.857
  21
 373.935
  31
0.0
   0
LINE
   8
LEVEL001
   6
CONTINUOUS
  62
7
  10
 404.857
  20
 373.935
  30
0.0
  11
 405.572
  21
 342.443
  31
0.0
   0
LINE
   8
LEVEL001
   6
CONTINUOUS
  62
7
  10
 405.310
  20
 309.929
  30
0.0
  11
 406.287
  21
 310.951
  31
0.0
   0
LINE
   8
LEVEL001
   6
CONTINUOUS
  62
7
  10
 406.287
  20
 310.951
  30
0.0
  11
 405.572
  21
 342.443
  31
0.0
   0
LINE
   8
LEVEL001
   6
CONTINUOUS
  62
7
  10
 403.835
  20
 374.912
  30
0.0
  11
 405.310
  21
 309.929
  31
0.0
   0
LINE
   8
LEVEL001
   6
DASHDOT
  62
1
  10
 375.580
  20
 341.762
  30
0.0
  11
 947.926
  21
 354.755
  31
0.0
   0
LINE
   8
LEVEL003
   6
CONTINUOUS
  62
7
  10
 929.280
  20
 361.262
  30
0.0
  11
 939.206
  21
 361.487
  31
0.0
   0
ARC
   8
LEVEL003
   6
CONTINUOUS
  62
7
  10
 927.629
  20
 366.298
  30
0.0
  40
 12.5359
  50
 337.436
  51
 1.30045
   0
ARC
   8
LEVEL001
   6
CONTINUOUS
  62
7
  10
 437.645
  20
 383.682
  30
0.0
  40
 3.00000
  50
 91.3005
  51
 181.300
   0
LINE
   8
LEVEL003
   6
CONTINUOUS
  62
7
  10
 412.935
  20
 370.618
  30
0.0
  11
 414.742
  21
 372.509
  31
0.0
   0
LINE
   8
LEVEL001
   6
CONTINUOUS
  62
7
  10
 414.742
  20
 372.509
  30
0.0
  11
 423.040
  21
 372.697
  31
0.0
   0
LINE
   8
LEVEL001
   6
CONTINUOUS
  62
7
  10
 424.932
  20
 370.890
  30
0.0
  11
 423.040
  21
 372.697
  31
0.0
   0
LINE
   8
LEVEL003
   6
CONTINUOUS
  62
7
  10
 414.206
  20
 314.632
  30
0.0
  11
 416.097
  21
 312.824
  31
0.0
   0
LINE
   8
LEVEL001
   6
CONTINUOUS
  62
7
  10
 416.097
  20
 312.824
  30
0.0
  11
 424.395
  21
 313.013
  31
0.0
   0
LINE
   8
LEVEL001
   6
CONTINUOUS
  62
7
  10
 426.203
  20
 314.904
  30
0.0
  11
 424.395
  21
 313.013
  31
0.0
   0
LINE
   8
LEVEL003
   6
CONTINUOUS
  62
7
  10
 436.348
  20
 308.633
  30
0.0
  11
 918.923
  21
 319.588
  31
0.0
   0
LINE
   8
LEVEL003
   6
CONTINUOUS
  62
7
  10
 806.981
  20
 395.067
  30
0.0
  11
 806.891
  21
 399.066
  31
0.0
   0
LINE
   8
LEVEL003
   6
CONTINUOUS
  62
7
  10
 807.868
  20
 400.088
  30
0.0
  11
 830.862
  21
 400.610
  31
0.0
   0
LINE
   8
LEVEL003
   6
CONTINUOUS
  62
7
  10
 807.868
  20
 400.088
  30
0.0
  11
 806.891
  21
 399.066
  31
0.0
   0
LINE
   8
LEVEL003
   6
CONTINUOUS
  62
7
  10
 831.975
  20
 395.634
  30
0.0
  11
 831.884
  21
 399.633
  31
0.0
   0
LINE
   8
LEVEL003
   6
CONTINUOUS
  62
7
  10
 830.862
  20
 400.610
  30
0.0
  11
 831.884
  21
 399.633
  31
0.0
   0
ARC
   8
LEVEL001
   6
CONTINUOUS
  62
7
  10
 916.521
  20
 394.553
  30
0.0
  40
 3.00000
  50
 1.30048
  51
 91.3005
   0
ARC
   8
LEVEL001
   6
CONTINUOUS
  62
7
  10
 922.181
  20
 308.280
  30
0.0
  40
 3.00000
  50
 181.300
  51
 269.582
   0
LINE
   8
LEVEL001
   6
CONTINUOUS
  62
7
  10
 922.159
  20
 305.280
  30
0.0
  11
 959.265
  21
 305.000
  31
0.0
   0
LINE
   8
LEVEL001
   6
CONTINUOUS
  62
7
  10
 958.697
  20
 329.994
  30
0.0
  11
 959.265
  21
 305.000
  31
0.0
   0
LINE
   8
LEVEL003
   6
CONTINUOUS
  62
7
  10
 919.181
  20
 308.211
  30
0.0
  11
 917.221
  21
 394.569
  31
0.0
   0
LINE
   8
LEVEL001
   6
CONTINUOUS
  62
7
  10
 806.891
  20
 399.066
  30
0.0
  11
 831.884
  21
 399.633
  31
0.0
   0
LINE
   8
LEVEL003
   6
CONTINUOUS
  62
7
  10
 437.577
  20
 386.681
  30
0.0
  11
 916.453
  21
 397.552
  31
0.0
   0
LINE
   8
LEVEL001
   6
CONTINUOUS
  62
7
  10
 434.645
  20
 383.614
  30
0.0
  11
 436.348
  21
 308.633
  31
0.0
   0
LINE
   8
LEVEL003
   6
CONTINUOUS
  62
7
  10
 404.937
  20
 370.436
  30
0.0
  11
 412.935
  21
 370.618
  31
0.0
   0
LINE
   8
LEVEL003
   6
CONTINUOUS
  62
7
  10
 406.208
  20
 314.450
  30
0.0
  11
 414.206
  21
 314.632
  31
0.0
   0
LINE
   8
LEVEL001
   6
CONTINUOUS
  62
7
  10
 412.935
  20
 370.618
  30
0.0
  11
 414.206
  21
 314.632
  31
0.0
   0
LINE
   8
LEVEL001
   6
CONTINUOUS
  62
7
  10
 416.097
  20
 312.824
  30
0.0
  11
 414.742
  21
 372.509
  31
0.0
   0
LINE
   8
LEVEL001
   6
CONTINUOUS
  62
7
  10
 423.040
  20
 372.697
  30
0.0
  11
 424.395
  21
 313.013
  31
0.0
   0
LINE
   8
LEVEL001
   6
CONTINUOUS
  62
7
  10
 426.203
  20
 314.904
  30
0.0
  11
 424.932
  21
 370.890
  31
0.0
   0
LINE
   8
LEVEL003
   6
CONTINUOUS
  62
7
  10
 920.020
  20
 372.627
  30
0.0
  11
 924.019
  21
 372.718
  31
0.0
   0
LINE
   8
LEVEL003
   6
CONTINUOUS
  62
7
  10
 924.019
  20
 372.718
  30
0.0
  11
 925.041
  21
 371.740
  31
0.0
   0
LINE
   8
LEVEL003
   6
CONTINUOUS
  62
7
  10
 925.189
  20
 365.242
  30
0.0
  11
 929.188
  21
 365.333
  31
0.0
   0
LINE
   8
LEVEL003
   6
CONTINUOUS
  62
7
  10
 923.693
  20
 453.168
  30
0.0
  11
 923.927
  21
 442.866
  31
0.0
   0
LINE
   8
LEVEL003
   6
CONTINUOUS
  62
7
  10
 923.927
  20
 442.866
  30
0.0
  11
 927.126
  21
 442.939
  31
0.0
   0
LINE
   8
LEVEL003
   6
CONTINUOUS
  62
7
  10
 927.126
  20
 442.939
  30
0.0
  11
 926.892
  21
 453.241
  31
0.0
   0
LINE
   8
LEVEL003
   6
CONTINUOUS
  62
7
  10
 926.892
  20
 453.241
  30
0.0
  11
 923.693
  21
 453.168
  31
0.0
   0
LINE
   8
LEVEL003
   6
CONTINUOUS
  62
7
  10
 925.405
  20
 377.750
  30
0.0
  11
 928.604
  21
 377.823
  31
0.0
   0
LINE
   8
LEVEL001
   6
DASHDOT
  62
1
  10
 939.087
  20
 387.563
  30
0.0
  11
 916.691
  21
 387.055
  31
0.0
   0
LINE
   8
LEVEL003
   6
CONTINUOUS
  62
7
  10
 920.101
  20
 394.640
  30
0.0
  11
 919.543
  21
 393.621
  31
0.0
   0
LINE
   8
LEVEL003
   6
CONTINUOUS
  62
7
  10
 919.543
  20
 393.621
  30
0.0
  11
 919.838
  21
 380.625
  31
0.0
   0
LINE
   8
LEVEL003
   6
CONTINUOUS
  62
7
  10
 919.838
  20
 380.625
  30
0.0
  11
 920.441
  21
 379.633
  31
0.0
   0
LINE
   8
LEVEL003
   6
CONTINUOUS
  62
7
  10
 920.441
  20
 379.633
  30
0.0
  11
 924.279
  21
 379.720
  31
0.0
   0
LINE
   8
LEVEL003
   6
CONTINUOUS
  62
7
  10
 924.279
  20
 379.720
  30
0.0
  11
 924.837
  21
 380.738
  31
0.0
   0
LINE
   8
LEVEL003
   6
CONTINUOUS
  62
7
  10
 924.837
  20
 380.738
  30
0.0
  11
 924.542
  21
 393.735
  31
0.0
   0
LINE
   8
LEVEL003
   6
CONTINUOUS
  62
7
  10
 924.542
  20
 393.735
  30
0.0
  11
 923.939
  21
 394.727
  31
0.0
   0
LINE
   8
LEVEL003
   6
CONTINUOUS
  62
7
  10
 923.939
  20
 394.727
  30
0.0
  11
 920.101
  21
 394.640
  31
0.0
   0
ARC
   8
LEVEL003
   6
CONTINUOUS
  62
7
  10
 926.332
  20
 393.775
  30
0.0
  40
 6.79029
  50
 181.300
  51
 205.165
   0
ARC
   8
LEVEL003
   6
CONTINUOUS
  62
7
  10
 926.627
  20
 380.779
  30
0.0
  40
 6.79029
  50
 157.436
  51
 181.300
   0
ARC
   8
LEVEL003
   6
CONTINUOUS
  62
7
  10
 918.048
  20
 380.584
  30
0.0
  40
 6.79029
  50
 1.30050
  51
 25.1654
   0
ARC
   8
LEVEL003
   6
CONTINUOUS
  62
7
  10
 917.753
  20
 393.581
  30
0.0
  40
 6.79029
  50
 337.436
  51
 1.30045
   0
ARC
   8
LEVEL003
   6
CONTINUOUS
  62
7
  10
 932.107
  20
 387.405
  30
0.0
  40
 12.4194
  50
 163.713
  51
 198.888
   0
ARC
   8
LEVEL003
   6
CONTINUOUS
  62
7
  10
 912.273
  20
 386.955
  30
0.0
  40
 12.4194
  50
 343.713
  51
 18.8884
   0
LINE
   8
LEVEL003
   6
CONTINUOUS
  62
7
  10
 920.186
  20
 390.888
  30
0.0
  11
 924.024
  21
 390.975
  31
0.0
   0
LINE
   8
LEVEL003
   6
CONTINUOUS
  62
7
  10
 920.356
  20
 383.384
  30
0.0
  11
 924.194
  21
 383.471
  31
0.0
   0
LINE
   8
LEVEL003
   6
CONTINUOUS
  62
7
  10
 924.570
  20
 392.485
  30
0.0
  11
 925.070
  21
 392.496
  31
0.0
   0
LINE
   8
LEVEL003
   6
CONTINUOUS
  62
7
  10
 928.269
  20
 392.569
  30
0.0
  11
 929.069
  21
 392.587
  31
0.0
   0
LINE
   8
LEVEL003
   6
CONTINUOUS
  62
7
  10
 924.809
  20
 381.988
  30
0.0
  11
 925.308
  21
 381.999
  31
0.0
   0
LINE
   8
LEVEL003
   6
CONTINUOUS
  62
7
  10
 928.508
  20
 382.072
  30
0.0
  11
 929.307
  21
 382.090
  31
0.0
   0
ARC
   8
LEVEL011
   6
CONTINUOUS
  62
7
  10
 314.603
  20
 428.909
  30
0.0
  40
 2.00000
  50
 121.722
  51
 222.387
   0
LINE
   8
LEVEL011
   6
CONTINUOUS
  62
7
  10
 324.264
  20
 415.357
  30
0.0
  11
 313.126
  21
 427.561
  31
0.0
   0
ARC
   8
LEVEL011
   6
CONTINUOUS
  62
7
  10
 352.986
  20
 366.814
  30
0.0
  40
 75.0000
  50
 105.656
  51
 121.722
   0
LINE
   8
LEVEL011
   6
CONTINUOUS
  62
7
  10
 323.416
  20
 416.286
  30
0.0
  11
 324.621
  21
 424.164
  31
0.0
   0
LINE
   8
LEVEL011
   6
CONTINUOUS
  62
7
  10
 324.264
  20
 415.357
  30
0.0
  11
 342.036
  21
 416.302
  31
0.0
   0
ARC
   8
LEVEL011
   6
CONTINUOUS
  62
7
  10
 335.138
  20
 426.951
  30
0.0
  40
 10.0000
  50
 69.5462
  51
 149.781
   0
CIRCLE
   8
LEVEL011
   6
CONTINUOUS
  62
7
  10
 335.615
  20
 427.878
  30
0.0
  40
 4.00000
   0
ARC
   8
LEVEL011
   6
CONTINUOUS
  62
7
  10
 335.615
  20
 427.878
  30
0.0
  40
 5.00000
  50
 191.142
  51
 138.746
   0
CIRCLE
   8
LEVEL011
   6
CONTINUOUS
  62
7
  10
 335.615
  20
 427.878
  30
0.0
  40
 5.00000
   0
LINE
   8
LEVEL011
   6
DASHDOT
  62
1
  10
 336.148
  20
 417.862
  30
0.0
  11
 335.096
  21
 437.636
  31
0.0
   0
ARC
   8
LEVEL011
   6
CONTINUOUS
  62
7
  10
 330.172
  20
 424.784
  30
0.0
  40
 2.00000
  50
 93.0449
  51
 146.175
   0
ARC
   8
LEVEL011
   6
CONTINUOUS
  62
7
  10
 328.699
  20
 432.989
  30
0.0
  40
 2.00000
  50
 234.176
  51
 323.533
   0
ARC
   8
LEVEL011
   6
CONTINUOUS
  62
7
  10
 330.172
  20
 424.784
  30
0.0
  40
 3.60000
  50
 93.0449
  51
 146.175
   0
ARC
   8
LEVEL011
   6
CONTINUOUS
  62
7
  10
 328.699
  20
 432.989
  30
0.0
  40
 3.60000
  50
 234.176
  51
 323.533
   0
ARC
   8
LEVEL011
   6
CONTINUOUS
  62
7
  10
 335.615
  20
 427.878
  30
0.0
  40
 6.59982
  50
 42.5565
  51
 143.533
   0
LINE
   8
LEVEL011
   6
CONTINUOUS
  62
7
  10
 329.980
  20
 428.379
  30
0.0
  11
 330.644
  21
 428.414
  31
0.0
   0
LINE
   8
LEVEL011
   6
CONTINUOUS
  62
7
  10
 330.065
  20
 426.781
  30
0.0
  11
 330.729
  21
 426.817
  31
0.0
   0
LINE
   8
LEVEL011
   6
DASHDOT
  62
1
  10
 325.629
  20
 427.346
  30
0.0
  11
 352.138
  21
 428.757
  31
0.0
   0
ARC
   8
LEVEL011
   6
CONTINUOUS
  62
7
  10
 325.187
  20
 428.124
  30
0.0
  40
 4.00000
  50
 54.1758
  51
 326.175
   0
ARC
   8
LEVEL011
   6
CONTINUOUS
  62
7
  10
 325.187
  20
 428.124
  30
0.0
  40
 2.40000
  50
 54.1764
  51
 326.175
   0
ARC
   8
LEVEL011
   6
CONTINUOUS
  62
7
  10
 335.138
  20
 426.951
  30
0.0
  40
 10.0000
  50
 159.507
  51
 171.304
   0
LINE
   8
LEVEL011
   6
CONTINUOUS
  62
7
  10
 324.863
  20
 425.746
  30
0.0
  11
 325.279
  21
 428.464
  31
0.0
   0
ARC
   8
LEVEL011
   6
CONTINUOUS
  62
7
  10
 331.936
  20
 441.920
  30
0.0
  40
 3.00000
  50
 285.656
  51
 3.04479
   0
LINE
   8
LEVEL011
   6
CONTINUOUS
  62
7
  10
 336.776
  20
 445.064
  30
0.0
  11
 377.147
  21
 447.211
  31
0.0
   0
LINE
   8
LEVEL011
   6
CONTINUOUS
  62
7
  10
 334.864
  20
 443.360
  30
0.0
  11
 334.932
  21
 442.080
  31
0.0
   0
ARC
   8
LEVEL011
   6
CONTINUOUS
  62
7
  10
 336.883
  20
 443.066
  30
0.0
  40
 2.00000
  50
 93.0449
  51
 183.045
   0
LINE
   8
LEVEL011
   6
DASHDOT
  62
1
  10
 350.555
  20
 417.757
  30
0.0
  11
 368.648
  21
 418.719
  31
0.0
   0
LINE
   8
LEVEL011
   6
DASHDOT
  62
1
  10
 359.329
  20
 405.658
  30
0.0
  11
 358.131
  21
 428.174
  31
0.0
   0
ARC
   8
LEVEL011
   6
CONTINUOUS
  62
7
  10
 379.697
  20
 399.279
  30
0.0
  40
 10.0000
  50
 3.04471
  51
 93.0449
   0
ARC
   8
LEVEL011
   6
CONTINUOUS
  62
7
  10
 379.697
  20
 399.279
  30
0.0
  40
 48.0000
  50
 46.1880
  51
 93.0449
   0
ARC
   8
LEVEL011
   6
CONTINUOUS
  62
7
  10
 426.773
  20
 448.349
  30
0.0
  40
 20.0000
  50
 226.188
  51
 273.045
   0
LINE
   8
LEVEL011
   6
CONTINUOUS
  62
7
  10
 427.835
  20
 428.377
  30
0.0
  11
 462.243
  21
 430.207
  31
0.0
   0
ARC
   8
LEVEL011
   6
CONTINUOUS
  62
7
  10
 411.264
  20
 389.442
  30
0.0
  40
 5.00000
  50
 93.0449
  51
 183.045
   0
ARC
   8
LEVEL011
   6
CONTINUOUS
  62
7
  10
 463.241
  20
 430.260
  30
0.0
  40
 1.00000
  50
 93.0455
  51
 183.044
   0
LINE
   8
LEVEL011
   6
CONTINUOUS
  62
7
  10
 470.731
  20
 430.659
  30
0.0
  11
 469.679
  21
 431.604
  31
0.0
   0
LINE
   8
LEVEL011
   6
CONTINUOUS
  62
7
  10
 463.188
  20
 431.259
  30
0.0
  11
 469.679
  21
 431.604
  31
0.0
   0
ARC
   8
LEVEL011
   6
CONTINUOUS
  62
7
  10
 464.994
  20
 397.307
  30
0.0
  40
 1.00000
  50
 183.046
  51
 273.044
   0
LINE
   8
LEVEL011
   6
CONTINUOUS
  62
7
  10
 472.484
  20
 397.705
  30
0.0
  11
 471.538
  21
 396.654
  31
0.0
   0
LINE
   8
LEVEL011
   6
CONTINUOUS
  62
7
  10
 465.047
  20
 396.308
  30
0.0
  11
 471.538
  21
 396.654
  31
0.0
   0
LINE
   8
LEVEL011
   6
DASHDOT
  62
1
  10
 389.183
  20
 409.798
  30
0.0
  11
 471.607
  21
 414.182
  31
0.0
   0
ARC
   8
LEVEL011
   6
CONTINUOUS
  62
7
  10
 342.567
  20
 406.316
  30
0.0
  40
 10.0000
  50
 36.4120
  51
 93.0449
   0
LINE
   8
LEVEL011
   6
CONTINUOUS
  62
7
  10
 347.333
  20
 434.168
  30
0.0
  11
 344.574
  21
 431.230
  31
0.0
   0
LINE
   8
LEVEL011
   6
CONTINUOUS
  62
7
  10
 346.167
  20
 435.263
  30
0.0
  11
 347.333
  21
 434.168
  31
0.0
   0
LINE
   8
LEVEL011
   6
CONTINUOUS
  62
7
  10
 346.167
  20
 435.263
  30
0.0
  11
 343.408
  21
 432.325
  31
0.0
   0
LINE
   8
LEVEL011
   6
CONTINUOUS
  62
7
  10
 348.854
  20
 429.383
  30
0.0
  11
 348.939
  21
 427.785
  31
0.0
   0
ARC
   8
LEVEL011
   6
CONTINUOUS
  62
7
  10
 341.950
  20
 433.694
  30
0.0
  40
 2.00000
  50
 222.556
  51
 316.807
   0
ARC
   8
LEVEL011
   6
CONTINUOUS
  62
7
  10
 341.950
  20
 433.694
  30
0.0
  40
 3.60000
  50
 222.557
  51
 316.805
   0
LINE
   8
LEVEL011
   6
CONTINUOUS
  62
7
  10
 340.501
  20
 428.939
  30
0.0
  11
 348.854
  21
 429.383
  31
0.0
   0
LINE
   8
LEVEL011
   6
CONTINUOUS
  62
7
  10
 340.586
  20
 427.341
  30
0.0
  11
 348.939
  21
 427.785
  31
0.0
   0
LINE
   8
LEVEL011
   6
CONTINUOUS
  62
7
  10
 338.658
  20
 436.322
  30
0.0
  11
 344.955
  21
 433.973
  31
0.0
   0
LINE
   8
LEVEL011
   6
CONTINUOUS
  62
7
  10
 346.581
  20
 433.367
  30
0.0
  11
 362.157
  21
 427.558
  31
0.0
   0
LINE
   8
LEVEL011
   6
CONTINUOUS
  62
7
  10
 359.194
  20
 408.202
  30
0.0
  11
 379.165
  21
 409.265
  31
0.0
   0
ARC
   8
LEVEL011
   6
CONTINUOUS
  62
7
  10
 358.662
  20
 418.188
  30
0.0
  40
 10.0000
  50
 216.412
  51
 273.045
   0
CIRCLE
   8
LEVEL001
   6
CONTINUOUS
  62
7
  10
 358.662
  20
 418.188
  30
0.0
  40
 5.00000
   0
ARC
   8
LEVEL011
   6
CONTINUOUS
  62
7
  10
 358.662
  20
 418.188
  30
0.0
  40
 10.0000
  50
 8.49756
  51
 69.5463
   0
LINE
   8
LEVEL011
   6
CONTINUOUS
  62
7
  10
 370.178
  20
 408.787
  30
0.0
  11
 368.553
  21
 419.666
  31
0.0
   0
LINE
   8
LEVEL011
   6
CONTINUOUS
  62
7
  10
 470.731
  20
 430.659
  30
0.0
  11
 471.607
  21
 414.182
  31
0.0
   0
LINE
   8
LEVEL011
   6
CONTINUOUS
  62
7
  10
 471.607
  20
 414.182
  30
0.0
  11
 472.484
  21
 397.705
  31
0.0
   0
ARC
   8
LEVEL011
   6
CONTINUOUS
  62
7
  10
 399.174
  20
 403.820
  30
0.0
  40
 10.0000
  50
 218.688
  51
 273.045
   0
ARC
   8
LEVEL011
   6
CONTINUOUS
  62
7
  10
 427.538
  20
 397.317
  30
0.0
  40
 2.00000
  50
 273.045
  51
 1.04497
   0
LINE
   8
LEVEL011
   6
CONTINUOUS
  62
7
  10
 429.379
  20
 406.032
  30
0.0
  11
 429.538
  21
 397.354
  31
0.0
   0
ARC
   8
LEVEL011
   6
CONTINUOUS
  62
7
  10
 425.997
  20
 426.276
  30
0.0
  40
 2.00000
  50
 5.04497
  51
 93.0450
   0
LINE
   8
LEVEL011
   6
CONTINUOUS
  62
7
  10
 427.990
  20
 426.452
  30
0.0
  11
 428.753
  21
 417.806
  31
0.0
   0
ARC
   8
LEVEL011
   6
CONTINUOUS
  62
7
  10
 431.741
  20
 418.070
  30
0.0
  40
 3.00000
  50
 185.045
  51
 273.045
   0
ARC
   8
LEVEL011
   6
CONTINUOUS
  62
7
  10
 432.379
  20
 406.087
  30
0.0
  40
 3.00000
  50
 93.0449
  51
 181.045
   0
LINE
   8
LEVEL011
   6
CONTINUOUS
  62
7
  10
 399.706
  20
 393.834
  30
0.0
  11
 463.995
  21
 397.254
  31
0.0
   0
LINE
   8
LEVEL001
   6
CONTINUOUS
  62
7
  10
 462.243
  20
 430.207
  30
0.0
  11
 463.995
  21
 397.254
  31
0.0
   0
ARC
   8
LEVEL011
   6
CONTINUOUS
  62
7
  10
 391.738
  20
 379.992
  30
0.0
  40
 3.00000
  50
 3.04501
  51
 81.5077
   0
ARC
   8
LEVEL011
   6
CONTINUOUS
  62
7
  10
 405.720
  20
 380.706
  30
0.0
  40
 3.00000
  50
 102.686
  51
 183.045
   0
ARC
   8
LEVEL011
   6
CONTINUOUS
  62
7
  10
 404.622
  20
 385.584
  30
0.0
  40
 2.00000
  50
 282.686
  51
 350.671
   0
LINE
   8
LEVEL011
   6
CONTINUOUS
  62
7
  10
 406.479
  20
 385.253
  30
0.0
  11
 406.271
  21
 389.176
  31
0.0
   0
ARC
   8
LEVEL011
   6
CONTINUOUS
  62
7
  10
 392.476
  20
 384.937
  30
0.0
  40
 2.00000
  50
 183.045
  51
 261.508
   0
LINE
   8
LEVEL011
   6
CONTINUOUS
  62
7
  10
 390.479
  20
 384.831
  30
0.0
  11
 389.683
  21
 399.810
  31
0.0
   0
LINE
   8
LEVEL011
   6
CONTINUOUS
  62
7
  10
 392.583
  20
 382.940
  30
0.0
  11
 404.728
  21
 383.586
  31
0.0
   0
LINE
   8
LEVEL012
   6
DASHDOT
  62
1
  10
 471.607
  20
 414.182
  30
0.0
  11
 1027.55
  21
 443.755
  31
0.0
   0
LINE
   8
LEVEL012
   6
CONTINUOUS
  62
7
  10
 938.665
  20
 425.508
  30
0.0
  11
 937.231
  21
 452.470
  31
0.0
   0
LINE
   8
LEVEL012
   6
CONTINUOUS
  62
7
  10
 937.231
  20
 452.470
  30
0.0
  11
 947.270
  21
 452.002
  31
0.0
   0
LINE
   8
LEVEL012
   6
CONTINUOUS
  62
7
  10
 947.270
  20
 452.002
  30
0.0
  11
 948.598
  21
 427.038
  31
0.0
   0
LINE
   8
LEVEL012
   6
CONTINUOUS
  62
7
  10
 948.598
  20
 427.038
  30
0.0
  11
 938.665
  21
 425.508
  31
0.0
   0
LINE
   8
LEVEL012
   6
CONTINUOUS
  62
7
  10
 1010.51
  20
 430.331
  30
0.0
  11
 1009.18
  21
 455.296
  31
0.0
   0
LINE
   8
LEVEL012
   6
CONTINUOUS
  62
7
  10
 1009.18
  20
 455.296
  30
0.0
  11
 1019.11
  21
 456.825
  31
0.0
   0
LINE
   8
LEVEL012
   6
CONTINUOUS
  62
7
  10
 1019.11
  20
 456.825
  30
0.0
  11
 1020.55
  21
 429.864
  31
0.0
   0
LINE
   8
LEVEL012
   6
CONTINUOUS
  62
7
  10
 1020.55
  20
 429.864
  30
0.0
  11
 1010.51
  21
 430.331
  31
0.0
   0
ARC
   8
LEVEL012
   6
CONTINUOUS
  62
7
  10
 990.998
  20
 441.811
  30
0.0
  40
 31.8750
  50
 337.987
  51
 28.1026
   0
LINE
   8
LEVEL012
   6
CONTINUOUS
  62
3
  10
 950.603
  20
 426.990
  30
0.0
  11
 949.259
  21
 452.262
  31
0.0
   0
LINE
   8
LEVEL012
   6
CONTINUOUS
  62
3
  10
 949.259
  20
 452.262
  30
0.0
  11
 951.248
  21
 452.522
  31
0.0
   0
LINE
   8
LEVEL012
   6
CONTINUOUS
  62
3
  10
 951.248
  20
 452.522
  30
0.0
  11
 952.608
  21
 426.943
  31
0.0
   0
LINE
   8
LEVEL012
   6
CONTINUOUS
  62
3
  10
 952.608
  20
 426.943
  30
0.0
  11
 950.603
  21
 426.990
  31
0.0
   0
LINE
   8
LEVEL012
   6
CONTINUOUS
  62
3
  10
 947.350
  20
 450.500
  30
0.0
  11
 949.339
  21
 450.760
  31
0.0
   0
LINE
   8
LEVEL012
   6
CONTINUOUS
  62
3
  10
 954.614
  20
 426.895
  30
0.0
  11
 953.237
  21
 452.782
  31
0.0
   0
LINE
   8
LEVEL012
   6
CONTINUOUS
  62
3
  10
 953.237
  20
 452.782
  30
0.0
  11
 955.226
  21
 453.042
  31
0.0
   0
LINE
   8
LEVEL012
   6
CONTINUOUS
  62
3
  10
 955.226
  20
 453.042
  30
0.0
  11
 956.619
  21
 426.848
  31
0.0
   0
LINE
   8
LEVEL012
   6
CONTINUOUS
  62
3
  10
 956.619
  20
 426.848
  30
0.0
  11
 954.614
  21
 426.895
  31
0.0
   0
LINE
   8
LEVEL012
   6
CONTINUOUS
  62
3
  10
 958.624
  20
 426.801
  30
0.0
  11
 957.215
  21
 453.302
  31
0.0
   0
LINE
   8
LEVEL012
   6
CONTINUOUS
  62
3
  10
 957.215
  20
 453.302
  30
0.0
  11
 959.204
  21
 453.561
  31
0.0
   0
LINE
   8
LEVEL012
   6
CONTINUOUS
  62
3
  10
 959.204
  20
 453.561
  30
0.0
  11
 960.630
  21
 426.753
  31
0.0
   0
LINE
   8
LEVEL012
   6
CONTINUOUS
  62
3
  10
 960.630
  20
 426.753
  30
0.0
  11
 958.624
  21
 426.801
  31
0.0
   0
LINE
   8
LEVEL012
   6
CONTINUOUS
  62
3
  10
 962.635
  20
 426.706
  30
0.0
  11
 961.193
  21
 453.821
  31
0.0
   0
LINE
   8
LEVEL012
   6
CONTINUOUS
  62
3
  10
 961.193
  20
 453.821
  30
0.0
  11
 963.182
  21
 454.081
  31
0.0
   0
LINE
   8
LEVEL012
   6
CONTINUOUS
  62
3
  10
 963.182
  20
 454.081
  30
0.0
  11
 964.640
  21
 426.658
  31
0.0
   0
LINE
   8
LEVEL012
   6
CONTINUOUS
  62
3
  10
 964.640
  20
 426.658
  30
0.0
  11
 962.635
  21
 426.706
  31
0.0
   0
LINE
   8
LEVEL012
   6
CONTINUOUS
  62
3
  10
 966.646
  20
 426.611
  30
0.0
  11
 965.171
  21
 454.341
  31
0.0
   0
LINE
   8
LEVEL012
   6
CONTINUOUS
  62
3
  10
 965.171
  20
 454.341
  30
0.0
  11
 967.160
  21
 454.601
  31
0.0
   0
LINE
   8
LEVEL012
   6
CONTINUOUS
  62
3
  10
 967.160
  20
 454.601
  30
0.0
  11
 968.651
  21
 426.564
  31
0.0
   0
LINE
   8
LEVEL012
   6
CONTINUOUS
  62
3
  10
 968.651
  20
 426.564
  30
0.0
  11
 966.646
  21
 426.611
  31
0.0
   0
LINE
   8
LEVEL012
   6
CONTINUOUS
  62
3
  10
 970.656
  20
 426.516
  30
0.0
  11
 969.149
  21
 454.861
  31
0.0
   0
LINE
   8
LEVEL012
   6
CONTINUOUS
  62
3
  10
 969.149
  20
 454.861
  30
0.0
  11
 971.138
  21
 455.121
  31
0.0
   0
LINE
   8
LEVEL012
   6
CONTINUOUS
  62
3
  10
 971.138
  20
 455.121
  30
0.0
  11
 972.662
  21
 426.469
  31
0.0
   0
LINE
   8
LEVEL012
   6
CONTINUOUS
  62
3
  10
 972.662
  20
 426.469
  30
0.0
  11
 970.656
  21
 426.516
  31
0.0
   0
LINE
   8
LEVEL012
   6
CONTINUOUS
  62
3
  10
 974.667
  20
 426.421
  30
0.0
  11
 973.127
  21
 455.380
  31
0.0
   0
LINE
   8
LEVEL012
   6
CONTINUOUS
  62
3
  10
 973.127
  20
 455.380
  30
0.0
  11
 975.116
  21
 455.640
  31
0.0
   0
LINE
   8
LEVEL012
   6
CONTINUOUS
  62
3
  10
 975.116
  20
 455.640
  30
0.0
  11
 976.672
  21
 426.374
  31
0.0
   0
LINE
   8
LEVEL012
   6
CONTINUOUS
  62
3
  10
 976.672
  20
 426.374
  30
0.0
  11
 974.667
  21
 426.421
  31
0.0
   0
LINE
   8
LEVEL012
   6
CONTINUOUS
  62
3
  10
 951.328
  20
 451.020
  30
0.0
  11
 953.317
  21
 451.280
  31
0.0
   0
LINE
   8
LEVEL012
   6
CONTINUOUS
  62
3
  10
 955.306
  20
 451.539
  30
0.0
  11
 957.295
  21
 451.799
  31
0.0
   0
LINE
   8
LEVEL012
   6
CONTINUOUS
  62
3
  10
 959.284
  20
 452.059
  30
0.0
  11
 961.273
  21
 452.319
  31
0.0
   0
LINE
   8
LEVEL012
   6
CONTINUOUS
  62
3
  10
 948.518
  20
 428.540
  30
0.0
  11
 950.523
  21
 428.492
  31
0.0
   0
LINE
   8
LEVEL012
   6
CONTINUOUS
  62
3
  10
 952.528
  20
 428.445
  30
0.0
  11
 954.534
  21
 428.398
  31
0.0
   0
LINE
   8
LEVEL012
   6
CONTINUOUS
  62
3
  10
 956.539
  20
 428.350
  30
0.0
  11
 958.544
  21
 428.303
  31
0.0
   0
LINE
   8
LEVEL012
   6
CONTINUOUS
  62
3
  10
 960.550
  20
 428.255
  30
0.0
  11
 962.555
  21
 428.208
  31
0.0
   0
LINE
   8
LEVEL012
   6
CONTINUOUS
  62
3
  10
 964.560
  20
 428.161
  30
0.0
  11
 966.566
  21
 428.113
  31
0.0
   0
LINE
   8
LEVEL012
   6
CONTINUOUS
  62
3
  10
 968.571
  20
 428.066
  30
0.0
  11
 970.577
  21
 428.019
  31
0.0
   0
LINE
   8
LEVEL012
   6
CONTINUOUS
  62
3
  10
 972.582
  20
 427.971
  30
0.0
  11
 974.587
  21
 427.924
  31
0.0
   0
LINE
   8
LEVEL012
   6
CONTINUOUS
  62
3
  10
 986.652
  20
 427.025
  30
0.0
  11
 985.108
  21
 456.052
  31
0.0
   0
LINE
   8
LEVEL012
   6
CONTINUOUS
  62
3
  10
 985.108
  20
 456.052
  30
0.0
  11
 987.114
  21
 455.989
  31
0.0
   0
LINE
   8
LEVEL012
   6
CONTINUOUS
  62
3
  10
 987.114
  20
 455.989
  30
0.0
  11
 988.640
  21
 427.301
  31
0.0
   0
LINE
   8
LEVEL012
   6
CONTINUOUS
  62
3
  10
 988.640
  20
 427.301
  30
0.0
  11
 986.652
  21
 427.025
  31
0.0
   0
LINE
   8
LEVEL012
   6
CONTINUOUS
  62
3
  10
 990.628
  20
 427.576
  30
0.0
  11
 989.120
  21
 455.926
  31
0.0
   0
LINE
   8
LEVEL012
   6
CONTINUOUS
  62
3
  10
 989.120
  20
 455.926
  30
0.0
  11
 991.126
  21
 455.863
  31
0.0
   0
LINE
   8
LEVEL012
   6
CONTINUOUS
  62
3
  10
 991.126
  20
 455.863
  30
0.0
  11
 992.617
  21
 427.852
  31
0.0
   0
LINE
   8
LEVEL012
   6
CONTINUOUS
  62
3
  10
 992.617
  20
 427.852
  30
0.0
  11
 990.628
  21
 427.576
  31
0.0
   0
LINE
   8
LEVEL012
   6
CONTINUOUS
  62
3
  10
 994.605
  20
 428.127
  30
0.0
  11
 993.133
  21
 455.800
  31
0.0
   0
LINE
   8
LEVEL012
   6
CONTINUOUS
  62
3
  10
 993.133
  20
 455.800
  30
0.0
  11
 995.139
  21
 455.737
  31
0.0
   0
LINE
   8
LEVEL012
   6
CONTINUOUS
  62
3
  10
 995.139
  20
 455.737
  30
0.0
  11
 996.593
  21
 428.402
  31
0.0
   0
LINE
   8
LEVEL012
   6
CONTINUOUS
  62
3
  10
 996.593
  20
 428.402
  30
0.0
  11
 994.605
  21
 428.127
  31
0.0
   0
LINE
   8
LEVEL012
   6
CONTINUOUS
  62
3
  10
 998.581
  20
 428.678
  30
0.0
  11
 997.145
  21
 455.674
  31
0.0
   0
LINE
   8
LEVEL012
   6
CONTINUOUS
  62
3
  10
 997.145
  20
 455.674
  30
0.0
  11
 999.151
  21
 455.611
  31
0.0
   0
LINE
   8
LEVEL012
   6
CONTINUOUS
  62
3
  10
 999.151
  20
 455.611
  30
0.0
  11
 1000.57
  21
 428.953
  31
0.0
   0
LINE
   8
LEVEL012
   6
CONTINUOUS
  62
3
  10
 1000.57
  20
 428.953
  30
0.0
  11
 998.581
  21
 428.678
  31
0.0
   0
LINE
   8
LEVEL012
   6
CONTINUOUS
  62
3
  10
 1002.56
  20
 429.229
  30
0.0
  11
 1001.16
  21
 455.548
  31
0.0
   0
LINE
   8
LEVEL012
   6
CONTINUOUS
  62
3
  10
 1001.16
  20
 455.548
  30
0.0
  11
 1003.16
  21
 455.485
  31
0.0
   0
LINE
   8
LEVEL012
   6
CONTINUOUS
  62
3
  10
 1003.16
  20
 455.485
  30
0.0
  11
 1004.55
  21
 429.504
  31
0.0
   0
LINE
   8
LEVEL012
   6
CONTINUOUS
  62
3
  10
 1004.55
  20
 429.504
  30
0.0
  11
 1002.56
  21
 429.229
  31
0.0
   0
LINE
   8
LEVEL012
   6
CONTINUOUS
  62
3
  10
 1006.53
  20
 429.780
  30
0.0
  11
 1005.17
  21
 455.422
  31
0.0
   0
LINE
   8
LEVEL012
   6
CONTINUOUS
  62
3
  10
 1005.17
  20
 455.422
  30
0.0
  11
 1007.18
  21
 455.359
  31
0.0
   0
LINE
   8
LEVEL012
   6
CONTINUOUS
  62
3
  10
 1007.18
  20
 455.359
  30
0.0
  11
 1008.52
  21
 430.055
  31
0.0
   0
LINE
   8
LEVEL012
   6
CONTINUOUS
  62
3
  10
 1008.52
  20
 430.055
  30
0.0
  11
 1006.53
  21
 429.780
  31
0.0
   0
LINE
   8
LEVEL012
   6
CONTINUOUS
  62
3
  10
 996.513
  20
 429.906
  30
0.0
  11
 998.501
  21
 430.181
  31
0.0
   0
LINE
   8
LEVEL012
   6
CONTINUOUS
  62
3
  10
 1000.49
  20
 430.457
  30
0.0
  11
 1002.48
  21
 430.732
  31
0.0
   0
LINE
   8
LEVEL012
   6
CONTINUOUS
  62
3
  10
 1004.47
  20
 431.008
  30
0.0
  11
 1006.45
  21
 431.283
  31
0.0
   0
LINE
   8
LEVEL012
   6
CONTINUOUS
  62
3
  10
 1008.44
  20
 431.559
  30
0.0
  11
 1010.43
  21
 431.834
  31
0.0
   0
LINE
   8
LEVEL012
   6
CONTINUOUS
  62
3
  10
 976.593
  20
 427.876
  30
0.0
  11
 978.598
  21
 427.829
  31
0.0
   0
LINE
   8
LEVEL012
   6
CONTINUOUS
  62
3
  10
 980.608
  20
 427.702
  30
0.0
  11
 982.596
  21
 427.977
  31
0.0
   0
LINE
   8
LEVEL012
   6
CONTINUOUS
  62
3
  10
 984.584
  20
 428.253
  30
0.0
  11
 986.572
  21
 428.528
  31
0.0
   0
LINE
   8
LEVEL012
   6
CONTINUOUS
  62
3
  10
 988.560
  20
 428.804
  30
0.0
  11
 990.548
  21
 429.079
  31
0.0
   0
LINE
   8
LEVEL012
   6
CONTINUOUS
  62
3
  10
 992.537
  20
 429.355
  30
0.0
  11
 994.525
  21
 429.630
  31
0.0
   0
LINE
   8
LEVEL012
   6
CONTINUOUS
  62
3
  10
 977.891
  20
 441.113
  30
0.0
  11
 977.105
  21
 455.900
  31
0.0
   0
LINE
   8
LEVEL012
   6
CONTINUOUS
  62
3
  10
 977.105
  20
 455.900
  30
0.0
  11
 979.094
  21
 456.160
  31
0.0
   0
LINE
   8
LEVEL012
   6
CONTINUOUS
  62
3
  10
 979.094
  20
 456.160
  30
0.0
  11
 979.888
  21
 441.220
  31
0.0
   0
LINE
   8
LEVEL012
   6
CONTINUOUS
  62
3
  10
 981.886
  20
 441.326
  30
0.0
  11
 981.096
  21
 456.178
  31
0.0
   0
LINE
   8
LEVEL012
   6
CONTINUOUS
  62
3
  10
 981.096
  20
 456.178
  30
0.0
  11
 983.102
  21
 456.115
  31
0.0
   0
LINE
   8
LEVEL012
   6
CONTINUOUS
  62
3
  10
 983.102
  20
 456.115
  30
0.0
  11
 983.883
  21
 441.432
  31
0.0
   0
LINE
   8
LEVEL012
   6
CONTINUOUS
  62
3
  10
 977.891
  20
 441.113
  30
0.0
  11
 978.678
  21
 426.327
  31
0.0
   0
LINE
   8
LEVEL012
   6
CONTINUOUS
  62
3
  10
 978.678
  20
 426.327
  30
0.0
  11
 980.683
  21
 426.279
  31
0.0
   0
LINE
   8
LEVEL012
   6
CONTINUOUS
  62
3
  10
 980.683
  20
 426.279
  30
0.0
  11
 979.888
  21
 441.220
  31
0.0
   0
LINE
   8
LEVEL012
   6
CONTINUOUS
  62
3
  10
 981.886
  20
 441.326
  30
0.0
  11
 982.676
  21
 426.474
  31
0.0
   0
LINE
   8
LEVEL012
   6
CONTINUOUS
  62
3
  10
 982.676
  20
 426.474
  30
0.0
  11
 984.664
  21
 426.750
  31
0.0
   0
LINE
   8
LEVEL012
   6
CONTINUOUS
  62
3
  10
 984.664
  20
 426.750
  30
0.0
  11
 983.883
  21
 441.432
  31
0.0
   0
LINE
   8
LEVEL012
   6
CONTINUOUS
  62
3
  10
 963.262
  20
 452.579
  30
0.0
  11
 965.251
  21
 452.839
  31
0.0
   0
LINE
   8
LEVEL012
   6
CONTINUOUS
  62
3
  10
 967.240
  20
 453.099
  30
0.0
  11
 969.229
  21
 453.358
  31
0.0
   0
LINE
   8
LEVEL012
   6
CONTINUOUS
  62
3
  10
 971.218
  20
 453.618
  30
0.0
  11
 973.207
  21
 453.878
  31
0.0
   0
LINE
   8
LEVEL012
   6
CONTINUOUS
  62
3
  10
 975.196
  20
 454.138
  30
0.0
  11
 977.185
  21
 454.398
  31
0.0
   0
LINE
   8
LEVEL012
   6
CONTINUOUS
  62
3
  10
 979.169
  20
 454.738
  30
0.0
  11
 981.176
  21
 454.675
  31
0.0
   0
LINE
   8
LEVEL012
   6
CONTINUOUS
  62
3
  10
 983.182
  20
 454.612
  30
0.0
  11
 985.188
  21
 454.549
  31
0.0
   0
LINE
   8
LEVEL012
   6
CONTINUOUS
  62
3
  10
 987.194
  20
 454.485
  30
0.0
  11
 989.200
  21
 454.422
  31
0.0
   0
LINE
   8
LEVEL012
   6
CONTINUOUS
  62
3
  10
 991.206
  20
 454.359
  30
0.0
  11
 993.213
  21
 454.297
  31
0.0
   0
LINE
   8
LEVEL012
   6
CONTINUOUS
  62
3
  10
 995.219
  20
 454.233
  30
0.0
  11
 997.225
  21
 454.170
  31
0.0
   0
LINE
   8
LEVEL012
   6
CONTINUOUS
  62
3
  10
 999.231
  20
 454.107
  30
0.0
  11
 1001.24
  21
 454.044
  31
0.0
   0
LINE
   8
LEVEL012
   6
CONTINUOUS
  62
3
  10
 1003.24
  20
 453.981
  30
0.0
  11
 1005.25
  21
 453.918
  31
0.0
   0
LINE
   8
LEVEL012
   6
CONTINUOUS
  62
3
  10
 1007.26
  20
 453.855
  30
0.0
  11
 1009.26
  21
 453.792
  31
0.0
   0
LINE
   8
LEVEL012
   6
CONTINUOUS
  62
7
  10
 913.804
  20
 426.939
  30
0.0
  11
 912.662
  21
 448.409
  31
0.0
   0
LINE
   8
LEVEL012
   6
CONTINUOUS
  62
7
  10
 916.404
  20
 429.831
  30
0.0
  11
 915.554
  21
 445.809
  31
0.0
   0
LINE
   8
LEVEL012
   6
CONTINUOUS
  62
7
  10
 471.032
  20
 424.917
  30
0.0
  11
 912.662
  21
 448.409
  31
0.0
   0
LINE
   8
LEVEL012
   6
CONTINUOUS
  62
7
  10
 472.182
  20
 403.447
  30
0.0
  11
 913.804
  21
 426.939
  31
0.0
   0
LINE
   8
LEVEL012
   6
CONTINUOUS
  62
7
  10
 913.804
  20
 426.939
  30
0.0
  11
 916.404
  21
 429.831
  31
0.0
   0
LINE
   8
LEVEL012
   6
CONTINUOUS
  62
7
  10
 916.404
  20
 429.831
  30
0.0
  11
 938.373
  21
 431.000
  31
0.0
   0
ARC
   8
LEVEL001
   6
CONTINUOUS
  62
7
  10
 348.627
  20
 405.457
  30
0.0
  40
 1.00000
  50
 271.300
  51
 1.30047
   0
LINE
   8
LEVEL001
   6
CONTINUOUS
  62
7
  10
 349.627
  20
 405.479
  30
0.0
  11
 349.441
  21
 413.662
  31
0.0
   0
LINE
   8
LEVEL001
   6
CONTINUOUS
  62
7
  10
 372.144
  20
 404.990
  30
0.0
  11
 346.151
  21
 404.400
  31
0.0
   0
ARC
   8
LEVEL001
   6
CONTINUOUS
  62
7
  10
 369.622
  20
 405.933
  30
0.0
  40
 1.00000
  50
 181.300
  51
 271.300
   0
LINE
   8
LEVEL001
   6
CONTINUOUS
  62
7
  10
 368.622
  20
 405.911
  30
0.0
  11
 368.555
  21
 408.895
  31
0.0
   0
LINE
   8
LEVEL001
   6
CONTINUOUS
  62
7
  10
 372.440
  20
 404.707
  30
0.0
  11
 372.144
  21
 404.990
  31
0.0
   0
LINE
   8
LEVEL001
   6
CONTINUOUS
  62
7
  10
 345.868
  20
 404.104
  30
0.0
  11
 346.151
  21
 404.400
  31
0.0
   0
LINE
   8
LEVEL012
   6
CONTINUOUS
  62
7
  10
 927.047
  20
 446.420
  30
0.0
  11
 937.523
  21
 446.977
  31
0.0
   0
LINE
   8
LEVEL012
   6
CONTINUOUS
  62
7
  10
 912.662
  20
 448.409
  30
0.0
  11
 915.554
  21
 445.809
  31
0.0
   0
LINE
   8
LEVEL012
   6
CONTINUOUS
  62
7
  10
 915.554
  20
 445.809
  30
0.0
  11
 923.850
  21
 446.250
  31
0.0
   0
POINT
   8
LEVEL001
  62
7
  10
 342.406
  20
 305.000
  30
0.0
   0
LINE
   8
LEVEL001
   6
CONTINUOUS
  62
7
  10
 811.085
  20
 401.555
  30
0.0
  11
 827.581
  21
 401.929
  31
0.0
   0
LINE
   8
LEVEL050
   6
CONTINUOUS
  62
7
  10
 809.296
  20
 403.265
  30
0.0
  11
 829.291
  21
 403.719
  31
0.0
   0
ARC
   8
LEVEL001
   6
CONTINUOUS
  62
7
  10
 811.560
  20
 401.066
  30
0.0
  40
 0.500000
  50
 91.3005
  51
 231.300
   0
LINE
   8
LEVEL050
   6
CONTINUOUS
  62
7
  10
 809.296
  20
 403.265
  30
0.0
  11
 811.085
  21
 401.555
  31
0.0
   0
LINE
   8
LEVEL001
   6
CONTINUOUS
  62
3
  10
 810.131
  20
 410.536
  30
0.0
  11
 810.296
  21
 403.287
  31
0.0
   0
LINE
   8
LEVEL001
   6
CONTINUOUS
  62
3
  10
 811.619
  20
 411.069
  30
0.0
  11
 811.795
  21
 403.321
  31
0.0
   0
LINE
   8
LEVEL001
   6
CONTINUOUS
  62
3
  10
 813.119
  20
 411.104
  30
0.0
  11
 813.295
  21
 403.356
  31
0.0
   0
ARC
   8
LEVEL050
   6
CONTINUOUS
  62
7
  10
 814.175
  20
 408.627
  30
0.0
  40
 5.00000
  50
 91.3005
  51
 181.300
   0
LINE
   8
LEVEL050
   6
CONTINUOUS
  62
7
  10
 814.062
  20
 413.626
  30
0.0
  11
 824.059
  21
 413.853
  31
0.0
   0
LINE
   8
LEVEL001
   6
CONTINUOUS
  62
3
  10
 814.619
  20
 411.138
  30
0.0
  11
 814.794
  21
 403.390
  31
0.0
   0
LINE
   8
LEVEL001
   6
CONTINUOUS
  62
3
  10
 816.118
  20
 411.172
  30
0.0
  11
 816.294
  21
 403.424
  31
0.0
   0
LINE
   8
LEVEL001
   6
CONTINUOUS
  62
3
  10
 817.618
  20
 411.206
  30
0.0
  11
 817.794
  21
 403.458
  31
0.0
   0
LINE
   8
LEVEL050
   6
CONTINUOUS
  62
7
  10
 809.296
  20
 403.265
  30
0.0
  11
 809.177
  21
 408.513
  31
0.0
   0
ARC
   8
LEVEL001
   6
CONTINUOUS
  62
7
  10
 827.129
  20
 401.419
  30
0.0
  40
 0.500000
  50
 311.300
  51
 91.3005
   0
LINE
   8
LEVEL001
   6
CONTINUOUS
  62
3
  10
 825.116
  20
 411.376
  30
0.0
  11
 825.292
  21
 403.628
  31
0.0
   0
LINE
   8
LEVEL001
   6
CONTINUOUS
  62
3
  10
 826.615
  20
 411.410
  30
0.0
  11
 826.791
  21
 403.662
  31
0.0
   0
ARC
   8
LEVEL050
   6
CONTINUOUS
  62
7
  10
 824.173
  20
 408.854
  30
0.0
  40
 5.00000
  50
 1.30048
  51
 91.3005
   0
LINE
   8
LEVEL001
   6
CONTINUOUS
  62
7
  10
 827.459
  20
 401.043
  30
0.0
  11
 826.863
  21
 400.520
  31
0.0
   0
LINE
   8
LEVEL050
   6
CONTINUOUS
  62
7
  10
 829.291
  20
 403.719
  30
0.0
  11
 827.581
  21
 401.929
  31
0.0
   0
LINE
   8
LEVEL001
   6
CONTINUOUS
  62
3
  10
 820.617
  20
 411.274
  30
0.0
  11
 820.793
  21
 403.526
  31
0.0
   0
LINE
   8
LEVEL001
   6
CONTINUOUS
  62
3
  10
 822.117
  20
 411.308
  30
0.0
  11
 822.293
  21
 403.560
  31
0.0
   0
LINE
   8
LEVEL001
   6
CONTINUOUS
  62
3
  10
 823.616
  20
 411.342
  30
0.0
  11
 823.792
  21
 403.594
  31
0.0
   0
LINE
   8
LEVEL001
   6
CONTINUOUS
  62
3
  10
 828.126
  20
 410.944
  30
0.0
  11
 828.291
  21
 403.696
  31
0.0
   0
LINE
   8
LEVEL050
   6
CONTINUOUS
  62
7
  10
 829.291
  20
 403.719
  30
0.0
  11
 829.172
  21
 408.967
  31
0.0
   0
LINE
   8
LEVEL003
   6
DASHDOT
  62
1
  10
 818.976
  20
 417.460
  30
0.0
  11
 819.705
  21
 385.353
  31
0.0
   0
LINE
   8
LEVEL001
   6
CONTINUOUS
  62
7
  10
 811.247
  20
 400.675
  30
0.0
  11
 811.867
  21
 400.179
  31
0.0
   0
LINE
   8
LEVEL003
   6
CONTINUOUS
  62
7
  10
 918.027
  20
 359.078
  30
0.0
  11
 928.024
  21
 359.305
  31
0.0
   0
LINE
   8
LEVEL003
   6
CONTINUOUS
  62
7
  10
 928.024
  20
 359.305
  30
0.0
  11
 958.697
  21
 329.994
  31
0.0
   0
LINE
   8
LEVEL001
   6
CONTINUOUS
  62
7
  10
 920.326
  20
 359.130
  30
0.0
  11
 919.520
  21
 394.621
  31
0.0
   0
LINE
   8
LEVEL001
   6
CONTINUOUS
  62
7
  10
 924.019
  20
 372.718
  30
0.0
  11
 924.325
  21
 359.221
  31
0.0
   0
LINE
   8
LEVEL003
   6
CONTINUOUS
  62
7
  10
 925.041
  20
 371.740
  30
0.0
  11
 925.325
  21
 359.244
  31
0.0
   0
ARC
   8
LEVEL003
   6
CONTINUOUS
  62
7
  10
 917.512
  20
 354.065
  30
0.0
  40
 22.9282
  50
 345.115
  51
 18.8884
   0
LINE
   8
LEVEL003
   6
CONTINUOUS
  62
7
  10
 929.353
  20
 358.035
  30
0.0
  11
 929.123
  21
 368.189
  31
0.0
   0
LINE
   8
LEVEL003
   6
CONTINUOUS
  62
7
  10
 929.123
  20
 368.189
  30
0.0
  11
 939.048
  21
 368.414
  31
0.0
   0
LINE
   8
LEVEL003
   6
CONTINUOUS
  62
7
  10
 939.048
  20
 368.414
  30
0.0
  11
 940.162
  21
 366.582
  31
0.0
   0
LINE
   8
LEVEL003
   6
CONTINUOUS
  62
7
  10
 940.162
  20
 366.582
  30
0.0
  11
 940.600
  21
 347.287
  31
0.0
   0
ARC
   8
LEVEL011
   6
DASHDOT
  62
1
  10
 385.598
  20
 506.811
  30
0.0
  40
 20.0000
  50
 271.188
  51
 318.045
   0
ARC
   8
LEVEL011
   6
DASHDOT
  62
1
  10
 424.175
  20
 519.808
  30
0.0
  40
 1.00000
  50
 138.045
  51
 228.044
   0
ARC
   8
LEVEL011
   6
DASHDOT
  62
1
  10
 400.657
  20
 490.655
  30
0.0
  40
 2.00000
  50
 50.0450
  51
 138.045
   0
ARC
   8
LEVEL011
   6
DASHDOT
  62
1
  10
 410.522
  20
 488.914
  30
0.0
  40
 3.00000
  50
 230.045
  51
 318.045
   0
ARC
   8
LEVEL011
   6
DASHDOT
  62
1
  10
 419.446
  20
 480.892
  30
0.0
  40
 3.00000
  50
 138.045
  51
 226.045
   0
ARC
   8
LEVEL011
   6
DASHDOT
  62
1
  10
 448.717
  20
 497.746
  30
0.0
  40
 1.00000
  50
 228.046
  51
 318.044
   0
ARC
   8
LEVEL011
   6
DASHDOT
  62
1
  10
 422.224
  20
 471.268
  30
0.0
  40
 2.00000
  50
 318.045
  51
 46.0450
   0
ARC
   8
LEVEL011
   6
DASHDOT
  62
1
  10
 387.008
  20
 438.826
  30
0.0
  40
 48.0000
  50
 91.1880
  51
 138.045
   0
LINE
   8
LEVEL011
   6
DASHDOT
  62
1
  10
 400.471
  20
 493.440
  30
0.0
  11
 423.507
  21
 519.064
  31
0.0
   0
LINE
   8
LEVEL011
   6
DASHDOT
  62
1
  10
 429.190
  20
 525.385
  30
0.0
  11
 427.777
  21
 525.310
  31
0.0
   0
LINE
   8
LEVEL011
   6
DASHDOT
  62
1
  10
 423.432
  20
 520.476
  30
0.0
  11
 427.777
  21
 525.310
  31
0.0
   0
LINE
   8
LEVEL011
   6
DASHDOT
  62
1
  10
 386.278
  20
 452.971
  30
0.0
  11
 441.460
  21
 514.354
  31
0.0
   0
LINE
   8
LEVEL011
   6
DASHDOT
  62
1
  10
 429.190
  20
 525.385
  30
0.0
  11
 441.460
  21
 514.354
  31
0.0
   0
LINE
   8
LEVEL011
   6
DASHDOT
  62
1
  10
 441.460
  20
 514.354
  30
0.0
  11
 453.731
  21
 503.323
  31
0.0
   0
LINE
   8
LEVEL011
   6
DASHDOT
  62
1
  10
 417.363
  20
 478.732
  30
0.0
  11
 423.612
  21
 472.707
  31
0.0
   0
LINE
   8
LEVEL011
   6
DASHDOT
  62
1
  10
 401.942
  20
 492.189
  30
0.0
  11
 408.595
  21
 486.615
  31
0.0
   0
LINE
   8
LEVEL001
   6
DASHDOT
  62
1
  10
 423.507
  20
 519.064
  30
0.0
  11
 448.048
  21
 497.002
  31
0.0
   0
LINE
   8
LEVEL011
   6
DASHDOT
  62
1
  10
 453.731
  20
 503.323
  30
0.0
  11
 453.806
  21
 501.911
  31
0.0
   0
LINE
   8
LEVEL011
   6
DASHDOT
  62
1
  10
 449.460
  20
 497.077
  30
0.0
  11
 453.806
  21
 501.911
  31
0.0
   0
LINE
   8
LEVEL011
   6
DASHDOT
  62
1
  10
 405.006
  20
 449.124
  30
0.0
  11
 448.048
  21
 497.002
  31
0.0
   0
LINE
   8
LEVEL011
   6
DASHDOT
  62
1
  10
 324.284
  20
 440.851
  30
0.0
  11
 351.312
  21
 470.916
  31
0.0
   0
LINE
   8
LEVEL012
   6
DASHDOT
  62
1
  10
 433.463
  20
 521.538
  30
0.0
  11
 464.446
  21
 556.003
  31
0.0
   0
LINE
   8
LEVEL012
   6
DASHDOT
  62
1
  10
 441.460
  20
 514.354
  30
0.0
  11
 472.441
  21
 548.816
  31
0.0
   0
LINE
   8
LEVEL012
   6
DASHDOT
  62
1
  10
 449.457
  20
 507.171
  30
0.0
  11
 480.435
  21
 541.629
  31
0.0
   0
ARC
   8
LEVEL003
   6
CONTINUOUS
  62
3
  10
 345.370
  20
 407.467
  30
0.0
  40
 152.926
  50
 3.04494
  51
 48.0449
   0
LINE
   8
LEVEL003
   6
CONTINUOUS
  62
3
  10
 498.080
  20
 415.590
  30
0.0
  11
 499.239
  21
 427.720
  31
0.0
   0
LINE
   8
LEVEL003
   6
CONTINUOUS
  62
3
  10
 498.080
  20
 415.590
  30
0.0
  11
 495.020
  21
 427.385
  31
0.0
   0
LINE
   8
LEVEL003
   6
CONTINUOUS
  62
3
  10
 447.608
  20
 521.193
  30
0.0
  11
 454.864
  21
 511.404
  31
0.0
   0
LINE
   8
LEVEL003
   6
CONTINUOUS
  62
3
  10
 447.608
  20
 521.193
  30
0.0
  11
 457.775
  21
 514.476
  31
0.0
   0
TEXT
   8
LEVEL003
  62
3
  10
 439.834
  20
 452.390
  30
0.0
  40
 16.0000
   1
約45%%d
   7
STANDARD
  72
2
  11
 487.834
  21
 463.057
  31
0.0
  73
2
   0
LINE
   8
LEVEL003
   6
CONTINUOUS
  62
7
  10
 927.410
  20
 430.417
  30
0.0
  11
 928.604
  21
 377.823
  31
0.0
   0
LINE
   8
LEVEL001
   6
CONTINUOUS
  62
7
  10
 924.213
  20
 430.247
  30
0.0
  11
 925.405
  21
 377.750
  31
0.0
   0
TEXT
   8
LEVEL003
  62
3
  10
 850.800
  20
 499.821
  30
0.0
  40
 16.0000
   1
フック
   7
STANDARD
   0
LINE
   8
LEVEL003
   6
CONTINUOUS
  62
3
  10
 923.693
  20
 453.168
  30
0.0
  11
 903.147
  21
 497.195
  31
0.0
   0
LINE
   8
LEVEL003
   6
CONTINUOUS
  62
3
  10
 903.147
  20
 497.195
  30
0.0
  11
 843.489
  21
 497.195
  31
0.0
   0
LINE
   8
LEVEL003
   6
CONTINUOUS
  62
3
  10
 923.693
  20
 453.168
  30
0.0
  11
 920.536
  21
 464.937
  31
0.0
   0
LINE
   8
LEVEL003
   6
CONTINUOUS
  62
3
  10
 923.693
  20
 453.168
  30
0.0
  11
 916.701
  21
 463.148
  31
0.0
   0
LINE
   8
LEVEL003
   6
CONTINUOUS
  62
3
  10
 1023.11
  20
 456.825
  30
0.0
  11
 1088.00
  21
 456.825
  31
0.0
   0
LINE
   8
LEVEL003
   6
CONTINUOUS
  62
3
  10
 963.265
  20
 305.000
  30
0.0
  11
 1088.00
  21
 305.000
  31
0.0
   0
LINE
   8
LEVEL003
   6
CONTINUOUS
  62
3
  10
 1080.00
  20
 456.825
  30
0.0
  11
 1080.00
  21
 305.000
  31
0.0
   0
LINE
   8
LEVEL003
   6
CONTINUOUS
  62
3
  10
 1080.00
  20
 456.825
  30
0.0
  11
 1077.88
  21
 444.825
  31
0.0
   0
LINE
   8
LEVEL003
   6
CONTINUOUS
  62
3
  10
 1080.00
  20
 456.825
  30
0.0
  11
 1082.12
  21
 444.825
  31
0.0
   0
LINE
   8
LEVEL003
   6
CONTINUOUS
  62
3
  10
 1080.00
  20
 305.000
  30
0.0
  11
 1082.12
  21
 317.000
  31
0.0
   0
LINE
   8
LEVEL003
   6
CONTINUOUS
  62
3
  10
 1080.00
  20
 305.000
  30
0.0
  11
 1077.88
  21
 317.000
  31
0.0
   0
TEXT
   8
LEVEL003
  62
3
  10
 1076.80
  20
 360.913
  30
0.0
  40
 16.0000
   1
約150
  50
 90.0000
   7
STANDARD
  72
1
  11
 1076.80
  21
 380.913
  31
0.0
   0
LINE
   8
LEVEL001
   6
CONTINUOUS
  62
3
  10
 377.781
  20
 769.026
  30
0.0
  11
 377.781
  21
 769.263
  31
0.0
   0
ARC
   8
LEVEL001
   6
CONTINUOUS
  62
7
  10
 429.075
  20
 819.763
  30
0.0
  40
 2.00000
  50
 2.00010
  51
 90.0001
   0
LINE
   8
LEVEL001
   6
CONTINUOUS
  62
7
  10
 431.074
  20
 819.833
  30
0.0
  11
 431.377
  21
 811.158
  31
0.0
   0
ARC
   8
LEVEL001
   6
CONTINUOUS
  62
7
  10
 466.478
  20
 821.763
  30
0.0
  40
 1.00000
  50
 90.0006
  51
 179.999
   0
LINE
   8
LEVEL001
   6
CONTINUOUS
  62
7
  10
 465.478
  20
 821.763
  30
0.0
  11
 465.478
  21
 788.763
  31
0.0
   0
LINE
   8
LEVEL001
   6
CONTINUOUS
  62
7
  10
 466.478
  20
 822.763
  30
0.0
  11
 472.978
  21
 822.763
  31
0.0
   0
LINE
   8
LEVEL001
   6
CONTINUOUS
  62
7
  10
 472.978
  20
 822.763
  30
0.0
  11
 473.978
  21
 821.763
  31
0.0
   0
LINE
   8
LEVEL001
   6
CONTINUOUS
  62
7
  10
 472.978
  20
 822.763
  30
0.0
  11
 472.978
  21
 787.763
  31
0.0
   0
ARC
   8
LEVEL001
   6
CONTINUOUS
  62
7
  10
 429.075
  20
 790.763
  30
0.0
  40
 2.00000
  50
 270.000
  51
 358.000
   0
LINE
   8
LEVEL001
   6
CONTINUOUS
  62
7
  10
 431.377
  20
 799.367
  30
0.0
  11
 431.074
  21
 790.693
  31
0.0
   0
ARC
   8
LEVEL001
   6
CONTINUOUS
  62
7
  10
 466.478
  20
 788.763
  30
0.0
  40
 1.00000
  50
 180.001
  51
 270.000
   0
LINE
   8
LEVEL001
   6
CONTINUOUS
  62
7
  10
 473.978
  20
 821.763
  30
0.0
  11
 473.978
  21
 788.763
  31
0.0
   0
LINE
   8
LEVEL001
   6
CONTINUOUS
  62
7
  10
 473.978
  20
 788.763
  30
0.0
  11
 472.978
  21
 787.763
  31
0.0
   0
LINE
   8
LEVEL001
   6
CONTINUOUS
  62
7
  10
 466.478
  20
 787.763
  30
0.0
  11
 472.978
  21
 787.763
  31
0.0
   0
ARC
   8
LEVEL001
   6
CONTINUOUS
  62
7
  10
 434.375
  20
 811.263
  30
0.0
  40
 3.00000
  50
 182.000
  51
 270.000
   0
ARC
   8
LEVEL001
   6
CONTINUOUS
  62
7
  10
 434.375
  20
 799.263
  30
0.0
  40
 3.00000
  50
 90.0001
  51
 178.000
   0
LINE
   8
LEVEL014
   6
CONTINUOUS
  62
7
  10
 940.753
  20
 791.763
  30
0.0
  11
 940.753
  21
 818.763
  31
0.0
   0
LINE
   8
LEVEL014
   6
CONTINUOUS
  62
7
  10
 940.753
  20
 818.763
  30
0.0
  11
 950.753
  21
 817.763
  31
0.0
   0
LINE
   8
LEVEL014
   6
CONTINUOUS
  62
7
  10
 950.753
  20
 817.763
  30
0.0
  11
 950.753
  21
 792.763
  31
0.0
   0
LINE
   8
LEVEL014
   6
CONTINUOUS
  62
7
  10
 950.753
  20
 792.763
  30
0.0
  11
 940.753
  21
 791.763
  31
0.0
   0
LINE
   8
LEVEL014
   6
CONTINUOUS
  62
3
  10
 952.753
  20
 792.609
  30
0.0
  11
 952.753
  21
 817.917
  31
0.0
   0
LINE
   8
LEVEL014
   6
CONTINUOUS
  62
3
  10
 952.753
  20
 817.917
  30
0.0
  11
 954.753
  21
 818.070
  31
0.0
   0
LINE
   8
LEVEL014
   6
CONTINUOUS
  62
3
  10
 954.753
  20
 818.070
  30
0.0
  11
 954.753
  21
 792.455
  31
0.0
   0
LINE
   8
LEVEL014
   6
CONTINUOUS
  62
3
  10
 954.753
  20
 792.455
  30
0.0
  11
 952.753
  21
 792.609
  31
0.0
   0
LINE
   8
LEVEL014
   6
CONTINUOUS
  62
3
  10
 950.753
  20
 816.258
  30
0.0
  11
 952.753
  21
 816.412
  31
0.0
   0
LINE
   8
LEVEL014
   6
CONTINUOUS
  62
3
  10
 956.753
  20
 792.301
  30
0.0
  11
 956.753
  21
 818.224
  31
0.0
   0
LINE
   8
LEVEL014
   6
CONTINUOUS
  62
3
  10
 956.753
  20
 818.224
  30
0.0
  11
 958.753
  21
 818.378
  31
0.0
   0
LINE
   8
LEVEL014
   6
CONTINUOUS
  62
3
  10
 958.753
  20
 818.378
  30
0.0
  11
 958.753
  21
 792.147
  31
0.0
   0
LINE
   8
LEVEL014
   6
CONTINUOUS
  62
3
  10
 958.753
  20
 792.147
  30
0.0
  11
 956.753
  21
 792.301
  31
0.0
   0
LINE
   8
LEVEL014
   6
CONTINUOUS
  62
3
  10
 960.753
  20
 791.993
  30
0.0
  11
 960.753
  21
 818.532
  31
0.0
   0
LINE
   8
LEVEL014
   6
CONTINUOUS
  62
3
  10
 960.753
  20
 818.532
  30
0.0
  11
 962.753
  21
 818.686
  31
0.0
   0
LINE
   8
LEVEL014
   6
CONTINUOUS
  62
3
  10
 962.753
  20
 818.686
  30
0.0
  11
 962.753
  21
 791.840
  31
0.0
   0
LINE
   8
LEVEL014
   6
CONTINUOUS
  62
3
  10
 962.753
  20
 791.840
  30
0.0
  11
 960.753
  21
 791.993
  31
0.0
   0
LINE
   8
LEVEL014
   6
CONTINUOUS
  62
3
  10
 964.753
  20
 791.686
  30
0.0
  11
 964.753
  21
 818.840
  31
0.0
   0
LINE
   8
LEVEL014
   6
CONTINUOUS
  62
3
  10
 964.753
  20
 818.840
  30
0.0
  11
 966.753
  21
 818.993
  31
0.0
   0
LINE
   8
LEVEL014
   6
CONTINUOUS
  62
3
  10
 966.753
  20
 818.993
  30
0.0
  11
 966.753
  21
 791.532
  31
0.0
   0
LINE
   8
LEVEL014
   6
CONTINUOUS
  62
3
  10
 966.753
  20
 791.532
  30
0.0
  11
 964.753
  21
 791.686
  31
0.0
   0
LINE
   8
LEVEL014
   6
CONTINUOUS
  62
3
  10
 968.753
  20
 791.378
  30
0.0
  11
 968.753
  21
 819.147
  31
0.0
   0
LINE
   8
LEVEL014
   6
CONTINUOUS
  62
3
  10
 968.753
  20
 819.147
  30
0.0
  11
 970.753
  21
 819.301
  31
0.0
   0
LINE
   8
LEVEL014
   6
CONTINUOUS
  62
3
  10
 970.753
  20
 819.301
  30
0.0
  11
 970.753
  21
 791.224
  31
0.0
   0
LINE
   8
LEVEL014
   6
CONTINUOUS
  62
3
  10
 970.753
  20
 791.224
  30
0.0
  11
 968.753
  21
 791.378
  31
0.0
   0
LINE
   8
LEVEL014
   6
CONTINUOUS
  62
3
  10
 972.753
  20
 791.070
  30
0.0
  11
 972.753
  21
 819.455
  31
0.0
   0
LINE
   8
LEVEL014
   6
CONTINUOUS
  62
3
  10
 972.753
  20
 819.455
  30
0.0
  11
 974.753
  21
 819.609
  31
0.0
   0
LINE
   8
LEVEL014
   6
CONTINUOUS
  62
3
  10
 974.753
  20
 819.609
  30
0.0
  11
 974.753
  21
 790.917
  31
0.0
   0
LINE
   8
LEVEL014
   6
CONTINUOUS
  62
3
  10
 974.753
  20
 790.917
  30
0.0
  11
 972.753
  21
 791.070
  31
0.0
   0
LINE
   8
LEVEL014
   6
CONTINUOUS
  62
3
  10
 976.753
  20
 790.763
  30
0.0
  11
 976.753
  21
 819.763
  31
0.0
   0
LINE
   8
LEVEL014
   6
CONTINUOUS
  62
3
  10
 976.753
  20
 819.763
  30
0.0
  11
 978.753
  21
 819.917
  31
0.0
   0
LINE
   8
LEVEL014
   6
CONTINUOUS
  62
3
  10
 978.753
  20
 819.917
  30
0.0
  11
 978.753
  21
 790.609
  31
0.0
   0
LINE
   8
LEVEL014
   6
CONTINUOUS
  62
3
  10
 978.753
  20
 790.609
  30
0.0
  11
 976.753
  21
 790.763
  31
0.0
   0
LINE
   8
LEVEL014
   6
CONTINUOUS
  62
3
  10
 954.753
  20
 816.566
  30
0.0
  11
 956.753
  21
 816.720
  31
0.0
   0
LINE
   8
LEVEL014
   6
CONTINUOUS
  62
3
  10
 958.753
  20
 816.874
  30
0.0
  11
 960.753
  21
 817.027
  31
0.0
   0
LINE
   8
LEVEL014
   6
CONTINUOUS
  62
3
  10
 962.753
  20
 817.181
  30
0.0
  11
 964.753
  21
 817.335
  31
0.0
   0
LINE
   8
LEVEL014
   6
CONTINUOUS
  62
3
  10
 966.753
  20
 817.489
  30
0.0
  11
 968.753
  21
 817.643
  31
0.0
   0
LINE
   8
LEVEL014
   6
CONTINUOUS
  62
3
  10
 970.753
  20
 817.797
  30
0.0
  11
 972.753
  21
 817.951
  31
0.0
   0
LINE
   8
LEVEL014
   6
CONTINUOUS
  62
3
  10
 974.753
  20
 818.104
  30
0.0
  11
 976.753
  21
 818.258
  31
0.0
   0
LINE
   8
LEVEL014
   6
CONTINUOUS
  62
3
  10
 988.753
  20
 790.729
  30
0.0
  11
 988.753
  21
 819.797
  31
0.0
   0
LINE
   8
LEVEL014
   6
CONTINUOUS
  62
3
  10
 988.753
  20
 819.797
  30
0.0
  11
 990.753
  21
 819.627
  31
0.0
   0
LINE
   8
LEVEL014
   6
CONTINUOUS
  62
3
  10
 990.753
  20
 819.627
  30
0.0
  11
 990.753
  21
 790.898
  31
0.0
   0
LINE
   8
LEVEL014
   6
CONTINUOUS
  62
3
  10
 990.753
  20
 790.898
  30
0.0
  11
 988.753
  21
 790.729
  31
0.0
   0
LINE
   8
LEVEL014
   6
CONTINUOUS
  62
3
  10
 992.753
  20
 791.068
  30
0.0
  11
 992.753
  21
 819.458
  31
0.0
   0
LINE
   8
LEVEL014
   6
CONTINUOUS
  62
3
  10
 992.753
  20
 819.458
  30
0.0
  11
 994.753
  21
 819.288
  31
0.0
   0
LINE
   8
LEVEL014
   6
CONTINUOUS
  62
3
  10
 994.753
  20
 819.288
  30
0.0
  11
 994.753
  21
 791.237
  31
0.0
   0
LINE
   8
LEVEL014
   6
CONTINUOUS
  62
3
  10
 994.753
  20
 791.237
  30
0.0
  11
 992.753
  21
 791.068
  31
0.0
   0
LINE
   8
LEVEL014
   6
CONTINUOUS
  62
3
  10
 996.753
  20
 791.407
  30
0.0
  11
 996.753
  21
 819.119
  31
0.0
   0
LINE
   8
LEVEL014
   6
CONTINUOUS
  62
3
  10
 996.753
  20
 819.119
  30
0.0
  11
 998.753
  21
 818.949
  31
0.0
   0
LINE
   8
LEVEL014
   6
CONTINUOUS
  62
3
  10
 998.753
  20
 818.949
  30
0.0
  11
 998.753
  21
 791.576
  31
0.0
   0
LINE
   8
LEVEL014
   6
CONTINUOUS
  62
3
  10
 998.753
  20
 791.576
  30
0.0
  11
 996.753
  21
 791.407
  31
0.0
   0
LINE
   8
LEVEL014
   6
CONTINUOUS
  62
3
  10
 1000.75
  20
 791.746
  30
0.0
  11
 1000.75
  21
 818.780
  31
0.0
   0
LINE
   8
LEVEL014
   6
CONTINUOUS
  62
3
  10
 1000.75
  20
 818.780
  30
0.0
  11
 1002.75
  21
 818.610
  31
0.0
   0
LINE
   8
LEVEL014
   6
CONTINUOUS
  62
3
  10
 1002.75
  20
 818.610
  30
0.0
  11
 1002.75
  21
 791.915
  31
0.0
   0
LINE
   8
LEVEL014
   6
CONTINUOUS
  62
3
  10
 1002.75
  20
 791.915
  30
0.0
  11
 1000.75
  21
 791.746
  31
0.0
   0
LINE
   8
LEVEL014
   6
CONTINUOUS
  62
3
  10
 1004.75
  20
 792.085
  30
0.0
  11
 1004.75
  21
 818.441
  31
0.0
   0
LINE
   8
LEVEL014
   6
CONTINUOUS
  62
3
  10
 1004.75
  20
 818.441
  30
0.0
  11
 1006.75
  21
 818.271
  31
0.0
   0
LINE
   8
LEVEL014
   6
CONTINUOUS
  62
3
  10
 1006.75
  20
 818.271
  30
0.0
  11
 1006.75
  21
 792.254
  31
0.0
   0
LINE
   8
LEVEL014
   6
CONTINUOUS
  62
3
  10
 1006.75
  20
 792.254
  30
0.0
  11
 1004.75
  21
 792.085
  31
0.0
   0
LINE
   8
LEVEL014
   6
CONTINUOUS
  62
3
  10
 1008.75
  20
 792.424
  30
0.0
  11
 1008.75
  21
 818.102
  31
0.0
   0
LINE
   8
LEVEL014
   6
CONTINUOUS
  62
3
  10
 1008.75
  20
 818.102
  30
0.0
  11
 1010.75
  21
 817.932
  31
0.0
   0
LINE
   8
LEVEL014
   6
CONTINUOUS
  62
3
  10
 1010.75
  20
 817.932
  30
0.0
  11
 1010.75
  21
 792.593
  31
0.0
   0
LINE
   8
LEVEL014
   6
CONTINUOUS
  62
3
  10
 1010.75
  20
 792.593
  30
0.0
  11
 1008.75
  21
 792.424
  31
0.0
   0
LINE
   8
LEVEL014
   6
CONTINUOUS
  62
3
  10
 978.753
  20
 818.412
  30
0.0
  11
 980.753
  21
 818.566
  31
0.0
   0
LINE
   8
LEVEL014
   6
CONTINUOUS
  62
3
  10
 982.753
  20
 818.800
  30
0.0
  11
 984.753
  21
 818.630
  31
0.0
   0
LINE
   8
LEVEL014
   6
CONTINUOUS
  62
3
  10
 986.753
  20
 818.461
  30
0.0
  11
 988.753
  21
 818.291
  31
0.0
   0
LINE
   8
LEVEL014
   6
CONTINUOUS
  62
3
  10
 990.753
  20
 818.122
  30
0.0
  11
 992.753
  21
 817.952
  31
0.0
   0
LINE
   8
LEVEL014
   6
CONTINUOUS
  62
3
  10
 994.753
  20
 817.783
  30
0.0
  11
 996.753
  21
 817.613
  31
0.0
   0
LINE
   8
LEVEL014
   6
CONTINUOUS
  62
3
  10
 998.753
  20
 817.444
  30
0.0
  11
 1000.75
  21
 817.274
  31
0.0
   0
LINE
   8
LEVEL014
   6
CONTINUOUS
  62
3
  10
 1002.75
  20
 817.105
  30
0.0
  11
 1004.75
  21
 816.935
  31
0.0
   0
LINE
   8
LEVEL014
   6
CONTINUOUS
  62
3
  10
 1006.75
  20
 816.766
  30
0.0
  11
 1008.75
  21
 816.596
  31
0.0
   0
LINE
   8
LEVEL014
   6
CONTINUOUS
  62
3
  10
 1010.75
  20
 816.427
  30
0.0
  11
 1012.75
  21
 816.257
  31
0.0
   0
ARC
   8
LEVEL014
   6
CONTINUOUS
  62
7
  10
 993.878
  20
 805.263
  30
0.0
  40
 31.8750
  50
 334.942
  51
 25.0576
   0
LINE
   8
LEVEL014
   6
CONTINUOUS
  62
7
  10
 1012.75
  20
 792.763
  30
0.0
  11
 1012.75
  21
 817.763
  31
0.0
   0
LINE
   8
LEVEL014
   6
CONTINUOUS
  62
7
  10
 1012.75
  20
 817.763
  30
0.0
  11
 1022.75
  21
 818.763
  31
0.0
   0
LINE
   8
LEVEL014
   6
CONTINUOUS
  62
7
  10
 1022.75
  20
 818.763
  30
0.0
  11
 1022.75
  21
 791.763
  31
0.0
   0
LINE
   8
LEVEL014
   6
CONTINUOUS
  62
7
  10
 1022.75
  20
 791.763
  30
0.0
  11
 1012.75
  21
 792.763
  31
0.0
   0
LINE
   8
LEVEL014
   6
CONTINUOUS
  62
3
  10
 950.753
  20
 794.267
  30
0.0
  11
 952.753
  21
 794.113
  31
0.0
   0
LINE
   8
LEVEL014
   6
CONTINUOUS
  62
3
  10
 954.753
  20
 793.959
  30
0.0
  11
 956.753
  21
 793.806
  31
0.0
   0
LINE
   8
LEVEL014
   6
CONTINUOUS
  62
3
  10
 958.753
  20
 793.652
  30
0.0
  11
 960.753
  21
 793.498
  31
0.0
   0
LINE
   8
LEVEL014
   6
CONTINUOUS
  62
3
  10
 962.753
  20
 793.344
  30
0.0
  11
 964.753
  21
 793.190
  31
0.0
   0
LINE
   8
LEVEL014
   6
CONTINUOUS
  62
3
  10
 966.753
  20
 793.036
  30
0.0
  11
 968.753
  21
 792.882
  31
0.0
   0
LINE
   8
LEVEL014
   6
CONTINUOUS
  62
3
  10
 970.753
  20
 792.729
  30
0.0
  11
 972.753
  21
 792.575
  31
0.0
   0
LINE
   8
LEVEL014
   6
CONTINUOUS
  62
3
  10
 974.753
  20
 792.421
  30
0.0
  11
 976.753
  21
 792.267
  31
0.0
   0
LINE
   8
LEVEL014
   6
CONTINUOUS
  62
3
  10
 998.753
  20
 793.082
  30
0.0
  11
 1000.75
  21
 793.251
  31
0.0
   0
LINE
   8
LEVEL014
   6
CONTINUOUS
  62
3
  10
 1002.75
  20
 793.421
  30
0.0
  11
 1004.75
  21
 793.590
  31
0.0
   0
LINE
   8
LEVEL014
   6
CONTINUOUS
  62
3
  10
 1006.75
  20
 793.760
  30
0.0
  11
 1008.75
  21
 793.929
  31
0.0
   0
LINE
   8
LEVEL014
   6
CONTINUOUS
  62
3
  10
 1010.75
  20
 794.099
  30
0.0
  11
 1012.75
  21
 794.268
  31
0.0
   0
LINE
   8
LEVEL014
   6
CONTINUOUS
  62
3
  10
 978.753
  20
 792.113
  30
0.0
  11
 980.753
  21
 791.959
  31
0.0
   0
LINE
   8
LEVEL014
   6
CONTINUOUS
  62
3
  10
 982.753
  20
 791.726
  30
0.0
  11
 984.753
  21
 791.895
  31
0.0
   0
LINE
   8
LEVEL014
   6
CONTINUOUS
  62
3
  10
 986.753
  20
 792.065
  30
0.0
  11
 988.753
  21
 792.234
  31
0.0
   0
LINE
   8
LEVEL014
   6
CONTINUOUS
  62
3
  10
 990.753
  20
 792.404
  30
0.0
  11
 992.753
  21
 792.573
  31
0.0
   0
LINE
   8
LEVEL014
   6
CONTINUOUS
  62
3
  10
 994.753
  20
 792.743
  30
0.0
  11
 996.753
  21
 792.912
  31
0.0
   0
LINE
   8
LEVEL014
   6
CONTINUOUS
  62
7
  10
 916.096
  20
 794.513
  30
0.0
  11
 916.096
  21
 816.013
  31
0.0
   0
LINE
   8
LEVEL014
   6
CONTINUOUS
  62
7
  10
 918.846
  20
 797.263
  30
0.0
  11
 918.846
  21
 813.263
  31
0.0
   0
LINE
   8
LEVEL003
   6
CONTINUOUS
  62
7
  10
 926.406
  20
 816.263
  30
0.0
  11
 926.906
  21
 816.263
  31
0.0
   0
LINE
   8
LEVEL003
   6
CONTINUOUS
  62
7
  10
 926.406
  20
 794.263
  30
0.0
  11
 926.906
  21
 794.263
  31
0.0
   0
LINE
   8
LEVEL003
   6
CONTINUOUS
  62
7
  10
 940.753
  20
 817.263
  30
0.0
  11
 930.406
  21
 817.263
  31
0.0
   0
LINE
   8
LEVEL003
   6
CONTINUOUS
  62
7
  10
 930.406
  20
 817.263
  30
0.0
  11
 930.406
  21
 813.263
  31
0.0
   0
ARC
   8
LEVEL003
   6
CONTINUOUS
  62
7
  10
 924.076
  20
 811.263
  30
0.0
  40
 17.3301
  50
 15.7734
  51
 20.2562
   0
LINE
   8
LEVEL003
   6
CONTINUOUS
  62
7
  10
 930.406
  20
 797.263
  30
0.0
  11
 930.406
  21
 793.263
  31
0.0
   0
LINE
   8
LEVEL003
   6
CONTINUOUS
  62
7
  10
 930.406
  20
 793.263
  30
0.0
  11
 940.753
  21
 793.263
  31
0.0
   0
ARC
   8
LEVEL003
   6
CONTINUOUS
  62
7
  10
 924.076
  20
 799.263
  30
0.0
  40
 17.3301
  50
 339.744
  51
 344.227
   0
LINE
   8
LEVEL001
   6
CONTINUOUS
  62
7
  10
 405.406
  20
 837.763
  30
0.0
  11
 406.406
  21
 836.763
  31
0.0
   0
LINE
   8
LEVEL001
   6
CONTINUOUS
  62
7
  10
 406.406
  20
 836.763
  30
0.0
  11
 406.406
  21
 821.763
  31
0.0
   0
LINE
   8
LEVEL001
   6
CONTINUOUS
  62
7
  10
 405.406
  20
 837.763
  30
0.0
  11
 405.406
  21
 821.763
  31
0.0
   0
LINE
   8
LEVEL001
   6
CONTINUOUS
  62
7
  10
 406.406
  20
 788.763
  30
0.0
  11
 406.406
  21
 773.763
  31
0.0
   0
LINE
   8
LEVEL001
   6
CONTINUOUS
  62
7
  10
 406.406
  20
 773.763
  30
0.0
  11
 405.406
  21
 772.763
  31
0.0
   0
LINE
   8
LEVEL001
   6
CONTINUOUS
  62
7
  10
 405.406
  20
 788.763
  30
0.0
  11
 405.406
  21
 772.763
  31
0.0
   0
LINE
   8
LEVEL001
   6
CONTINUOUS
  62
7
  10
 409.406
  20
 833.263
  30
0.0
  11
 409.406
  21
 833.463
  31
0.0
   0
LINE
   8
LEVEL003
   6
CONTINUOUS
  62
7
  10
 414.406
  20
 833.263
  30
0.0
  11
 416.256
  21
 835.113
  31
0.0
   0
LINE
   8
LEVEL001
   6
CONTINUOUS
  62
7
  10
 416.256
  20
 835.113
  30
0.0
  11
 424.556
  21
 835.113
  31
0.0
   0
LINE
   8
LEVEL001
   6
CONTINUOUS
  62
7
  10
 426.406
  20
 833.263
  30
0.0
  11
 424.556
  21
 835.113
  31
0.0
   0
LINE
   8
LEVEL003
   6
CONTINUOUS
  62
7
  10
 414.406
  20
 777.263
  30
0.0
  11
 416.256
  21
 775.413
  31
0.0
   0
LINE
   8
LEVEL001
   6
CONTINUOUS
  62
7
  10
 416.256
  20
 775.413
  30
0.0
  11
 424.556
  21
 775.413
  31
0.0
   0
LINE
   8
LEVEL001
   6
CONTINUOUS
  62
7
  10
 426.406
  20
 777.263
  30
0.0
  11
 424.556
  21
 775.413
  31
0.0
   0
LINE
   8
LEVEL003
   6
DASHDOT
  62
1
  10
 840.156
  20
 850.263
  30
0.0
  11
 802.656
  21
 850.263
  31
0.0
   0
LINE
   8
LEVEL003
   6
DASHDOT
  62
1
  10
 821.406
  20
 869.013
  30
0.0
  11
 821.406
  21
 831.513
  31
0.0
   0
LINE
   8
LEVEL003
   6
CONTINUOUS
  62
7
  10
 922.106
  20
 727.763
  30
0.0
  11
 959.106
  21
 727.763
  31
0.0
   0
ARC
   8
LEVEL003
   6
CONTINUOUS
  62
7
  10
 922.106
  20
 730.763
  30
0.0
  40
 3.00000
  50
 180.000
  51
 270.000
   0
LINE
   8
LEVEL003
   6
CONTINUOUS
  62
7
  10
 959.106
  20
 730.063
  30
0.0
  11
 922.106
  21
 730.063
  31
0.0
   0
ARC
   8
LEVEL003
   6
CONTINUOUS
  62
7
  10
 922.106
  20
 730.763
  30
0.0
  40
 0.700000
  50
 180.000
  51
 270.000
   0
LINE
   8
LEVEL003
   6
CONTINUOUS
  62
7
  10
 929.106
  20
 730.063
  30
0.0
  11
 929.106
  21
 727.763
  31
0.0
   0
LINE
   8
LEVEL003
   6
CONTINUOUS
  62
7
  10
 922.106
  20
 882.763
  30
0.0
  11
 959.106
  21
 882.763
  31
0.0
   0
ARC
   8
LEVEL003
   6
CONTINUOUS
  62
7
  10
 922.106
  20
 879.763
  30
0.0
  40
 3.00000
  50
 90.0000
  51
 180.000
   0
LINE
   8
LEVEL003
   6
CONTINUOUS
  62
7
  10
 922.106
  20
 880.463
  30
0.0
  11
 959.106
  21
 880.463
  31
0.0
   0
ARC
   8
LEVEL003
   6
CONTINUOUS
  62
7
  10
 922.106
  20
 879.763
  30
0.0
  40
 0.700000
  50
 90.0000
  51
 180.000
   0
LINE
   8
LEVEL003
   6
CONTINUOUS
  62
7
  10
 929.106
  20
 880.463
  30
0.0
  11
 929.106
  21
 882.763
  31
0.0
   0
ARC
   8
LEVEL001
   6
CONTINUOUS
  62
7
  10
 405.406
  20
 829.688
  30
0.0
  40
 5.50000
  50
 43.3418
  51
 79.5243
   0
LINE
   8
LEVEL003
   6
CONTINUOUS
  62
7
  10
 406.406
  20
 777.263
  30
0.0
  11
 414.406
  21
 777.263
  31
0.0
   0
LINE
   8
LEVEL003
   6
CONTINUOUS
  62
7
  10
 406.406
  20
 833.263
  30
0.0
  11
 414.406
  21
 833.263
  31
0.0
   0
LINE
   8
LEVEL003
   6
CONTINUOUS
  62
7
  10
 414.406
  20
 833.263
  30
0.0
  11
 414.406
  21
 821.763
  31
0.0
   0
LINE
   8
LEVEL003
   6
CONTINUOUS
  62
7
  10
 414.406
  20
 788.763
  30
0.0
  11
 414.406
  21
 777.263
  31
0.0
   0
LINE
   8
LEVEL001
   6
CONTINUOUS
  62
7
  10
 416.256
  20
 835.113
  30
0.0
  11
 416.256
  21
 821.763
  31
0.0
   0
LINE
   8
LEVEL001
   6
CONTINUOUS
  62
7
  10
 416.256
  20
 788.763
  30
0.0
  11
 416.256
  21
 775.413
  31
0.0
   0
LINE
   8
LEVEL001
   6
CONTINUOUS
  62
7
  10
 424.556
  20
 775.413
  30
0.0
  11
 424.556
  21
 788.763
  31
0.0
   0
LINE
   8
LEVEL001
   6
CONTINUOUS
  62
7
  10
 424.556
  20
 821.763
  30
0.0
  11
 424.556
  21
 835.113
  31
0.0
   0
LINE
   8
LEVEL001
   6
CONTINUOUS
  62
7
  10
 426.406
  20
 833.263
  30
0.0
  11
 426.406
  21
 821.763
  31
0.0
   0
LINE
   8
LEVEL001
   6
CONTINUOUS
  62
7
  10
 426.406
  20
 788.763
  30
0.0
  11
 426.406
  21
 777.263
  31
0.0
   0
LINE
   8
LEVEL001
   6
CONTINUOUS
  62
7
  10
 436.406
  20
 880.263
  30
0.0
  11
 436.406
  21
 821.763
  31
0.0
   0
LINE
   8
LEVEL001
   6
CONTINUOUS
  62
7
  10
 436.406
  20
 788.763
  30
0.0
  11
 436.406
  21
 730.263
  31
0.0
   0
LINE
   8
LEVEL003
   6
CONTINUOUS
  62
7
  10
 959.106
  20
 727.763
  30
0.0
  11
 959.106
  21
 793.625
  31
0.0
   0
LINE
   8
LEVEL003
   6
CONTINUOUS
  62
7
  10
 959.106
  20
 816.901
  30
0.0
  11
 959.106
  21
 882.763
  31
0.0
   0
LINE
   8
LEVEL003
   6
CONTINUOUS
  62
7
  10
 921.406
  20
 730.763
  30
0.0
  11
 921.406
  21
 797.263
  31
0.0
   0
LINE
   8
LEVEL003
   6
CONTINUOUS
  62
7
  10
 921.406
  20
 813.263
  30
0.0
  11
 921.406
  21
 879.763
  31
0.0
   0
LINE
   8
LEVEL003
   6
CONTINUOUS
  62
7
  10
 921.406
  20
 823.763
  30
0.0
  11
 925.406
  21
 823.763
  31
0.0
   0
LINE
   8
LEVEL003
   6
CONTINUOUS
  62
7
  10
 925.406
  20
 823.763
  30
0.0
  11
 926.406
  21
 822.763
  31
0.0
   0
LINE
   8
LEVEL003
   6
CONTINUOUS
  62
7
  10
 925.406
  20
 823.763
  30
0.0
  11
 925.406
  21
 813.263
  31
0.0
   0
LINE
   8
LEVEL003
   6
CONTINUOUS
  62
7
  10
 926.406
  20
 822.763
  30
0.0
  11
 926.406
  21
 813.263
  31
0.0
   0
LINE
   8
LEVEL003
   6
CONTINUOUS
  62
7
  10
 926.406
  20
 787.763
  30
0.0
  11
 925.406
  21
 786.763
  31
0.0
   0
LINE
   8
LEVEL003
   6
CONTINUOUS
  62
7
  10
 921.406
  20
 786.763
  30
0.0
  11
 925.406
  21
 786.763
  31
0.0
   0
LINE
   8
LEVEL003
   6
CONTINUOUS
  62
7
  10
 925.406
  20
 797.263
  30
0.0
  11
 925.406
  21
 786.763
  31
0.0
   0
LINE
   8
LEVEL003
   6
CONTINUOUS
  62
7
  10
 926.406
  20
 797.263
  30
0.0
  11
 926.406
  21
 787.763
  31
0.0
   0
LINE
   8
LEVEL003
   6
CONTINUOUS
  62
7
  10
 436.406
  20
 880.263
  30
0.0
  11
 919.106
  21
 880.263
  31
0.0
   0
LINE
   8
LEVEL003
   6
CONTINUOUS
  62
7
  10
 436.406
  20
 730.263
  30
0.0
  11
 919.106
  21
 730.263
  31
0.0
   0
LINE
   8
LEVEL003
   6
CONTINUOUS
  62
7
  10
 926.906
  20
 823.692
  30
0.0
  11
 929.106
  21
 823.692
  31
0.0
   0
LINE
   8
LEVEL003
   6
CONTINUOUS
  62
7
  10
 929.106
  20
 823.692
  30
0.0
  11
 929.106
  21
 788.263
  31
0.0
   0
LINE
   8
LEVEL003
   6
CONTINUOUS
  62
7
  10
 926.906
  20
 823.692
  30
0.0
  11
 926.906
  21
 788.263
  31
0.0
   0
LINE
   8
LEVEL003
   6
CONTINUOUS
  62
7
  10
 929.106
  20
 788.263
  30
0.0
  11
 926.906
  21
 788.263
  31
0.0
   0
LINE
   8
LEVEL003
   6
CONTINUOUS
  62
7
  10
 929.106
  20
 794.449
  30
0.0
  11
 926.906
  21
 794.449
  31
0.0
   0
LINE
   8
LEVEL014
   6
CONTINUOUS
  62
7
  10
 929.106
  20
 813.263
  30
0.0
  11
 940.753
  21
 813.263
  31
0.0
   0
LINE
   8
LEVEL003
   6
CONTINUOUS
  62
7
  10
 929.106
  20
 816.263
  30
0.0
  11
 930.406
  21
 816.263
  31
0.0
   0
LINE
   8
LEVEL014
   6
CONTINUOUS
  62
7
  10
 929.106
  20
 797.263
  30
0.0
  11
 940.753
  21
 797.263
  31
0.0
   0
LINE
   8
LEVEL003
   6
CONTINUOUS
  62
7
  10
 929.106
  20
 794.263
  30
0.0
  11
 930.406
  21
 794.263
  31
0.0
   0
LINE
   8
LEVEL001
   6
CONTINUOUS
  62
7
  10
 388.906
  20
 838.263
  30
0.0
  11
 388.406
  21
 838.763
  31
0.0
   0
LINE
   8
LEVEL001
   6
DASHDOT
  62
1
  10
 311.406
  20
 798.263
  30
0.0
  11
 341.406
  21
 798.263
  31
0.0
   0
LINE
   8
LEVEL001
   6
CONTINUOUS
  62
3
  10
 377.781
  20
 769.026
  30
0.0
  11
 377.781
  21
 769.263
  31
0.0
   0
LINE
   8
LEVEL001
   6
DASHDOT
  62
1
  10
 329.406
  20
 820.263
  30
0.0
  11
 313.406
  21
 820.263
  31
0.0
   0
LINE
   8
LEVEL001
   6
DASHDOT
  62
1
  10
 361.406
  20
 783.427
  30
0.0
  11
 361.406
  21
 827.780
  31
0.0
   0
ARC
   8
LEVEL001
   6
CONTINUOUS
  62
7
  10
 321.332
  20
 812.263
  30
0.0
  40
 3.00000
  50
 270.000
  51
 355.000
   0
ARC
   8
LEVEL001
   6
CONTINUOUS
  62
7
  10
 319.406
  20
 807.263
  30
0.0
  40
 2.00000
  50
 90.0000
  51
 180.000
   0
LINE
   8
LEVEL001
   6
CONTINUOUS
  62
7
  10
 317.406
  20
 807.263
  30
0.0
  11
 317.406
  21
 803.263
  31
0.0
   0
ARC
   8
LEVEL001
   6
CONTINUOUS
  62
7
  10
 319.406
  20
 803.263
  30
0.0
  40
 2.00000
  50
 180.000
  51
 270.000
   0
LINE
   8
LEVEL001
   6
CONTINUOUS
  62
7
  10
 314.906
  20
 831.324
  30
0.0
  11
 314.906
  21
 776.688
  31
0.0
   0
ARC
   8
LEVEL001
   6
CONTINUOUS
  62
7
  10
 316.601
  20
 830.263
  30
0.0
  40
 2.00000
  50
 90.0000
  51
 147.933
   0
LINE
   8
LEVEL001
   6
CONTINUOUS
  62
7
  10
 345.513
  20
 769.691
  30
0.0
  11
 346.551
  21
 757.827
  31
0.0
   0
ARC
   8
LEVEL001
   6
CONTINUOUS
  62
7
  10
 351.532
  20
 758.263
  30
0.0
  40
 5.00000
  50
 185.000
  51
 270.000
   0
ARC
   8
LEVEL001
   6
CONTINUOUS
  62
7
  10
 373.275
  20
 758.263
  30
0.0
  40
 5.00000
  50
 270.000
  51
 355.000
   0
LINE
   8
LEVEL001
   6
CONTINUOUS
  62
7
  10
 351.532
  20
 753.263
  30
0.0
  11
 373.275
  21
 753.263
  31
0.0
   0
ARC
   8
LEVEL001
   6
CONTINUOUS
  62
7
  10
 325.694
  20
 812.263
  30
0.0
  40
 3.00000
  50
 270.000
  51
 355.000
   0
LINE
   8
LEVEL001
   6
CONTINUOUS
  62
7
  10
 319.406
  20
 809.263
  30
0.0
  11
 325.694
  21
 809.263
  31
0.0
   0
ARC
   8
LEVEL001
   6
CONTINUOUS
  62
7
  10
 325.694
  20
 798.263
  30
0.0
  40
 3.00000
  50
 5.00000
  51
 90.0000
   0
LINE
   8
LEVEL001
   6
CONTINUOUS
  62
7
  10
 319.406
  20
 801.263
  30
0.0
  11
 325.694
  21
 801.263
  31
0.0
   0
LINE
   8
LEVEL001
   6
DASHDOT
  62
1
  10
 354.406
  20
 850.263
  30
0.0
  11
 354.406
  21
 764.179
  31
0.0
   0
ARC
   8
LEVEL001
   6
CONTINUOUS
  62
7
  10
 323.906
  20
 823.763
  30
0.0
  40
 2.00000
  50
 270.000
  51
 0.827250E-9
   0
ARC
   8
LEVEL001
   6
CONTINUOUS
  62
7
  10
 317.203
  20
 819.763
  30
0.0
  40
 2.00000
  50
 90.0001
  51
 178.000
   0
ARC
   8
LEVEL001
   6
CONTINUOUS
  62
7
  10
 374.406
  20
 823.763
  30
0.0
  40
 2.00000
  50
 180.000
  51
 270.000
   0
LINE
   8
LEVEL001
   6
CONTINUOUS
  62
7
  10
 325.906
  20
 823.763
  30
0.0
  11
 372.406
  21
 823.763
  31
0.0
   0
LINE
   8
LEVEL001
   6
CONTINUOUS
  62
7
  10
 317.203
  20
 821.763
  30
0.0
  11
 465.478
  21
 821.763
  31
0.0
   0
ARC
   8
LEVEL001
   6
CONTINUOUS
  62
7
  10
 323.906
  20
 786.763
  30
0.0
  40
 2.00000
  50
 0.125267E-3
  51
 90.0000
   0
ARC
   8
LEVEL001
   6
CONTINUOUS
  62
7
  10
 317.203
  20
 790.763
  30
0.0
  40
 2.00000
  50
 182.000
  51
 270.000
   0
ARC
   8
LEVEL001
   6
CONTINUOUS
  62
7
  10
 374.406
  20
 786.763
  30
0.0
  40
 2.00000
  50
 90.0000
  51
 180.000
   0
LINE
   8
LEVEL001
   6
CONTINUOUS
  62
7
  10
 325.906
  20
 786.763
  30
0.0
  11
 372.406
  21
 786.763
  31
0.0
   0
LINE
   8
LEVEL001
   6
CONTINUOUS
  62
7
  10
 317.203
  20
 788.763
  30
0.0
  11
 465.478
  21
 788.763
  31
0.0
   0
LINE
   8
LEVEL001
   6
CONTINUOUS
  62
7
  10
 386.360
  20
 776.217
  30
0.0
  11
 387.458
  21
 788.763
  31
0.0
   0
LINE
   8
LEVEL003
   6
CONTINUOUS
  62
7
  10
 363.406
  20
 773.364
  30
0.0
  11
 363.336
  21
 774.418
  31
0.0
   0
LINE
   8
LEVEL003
   6
CONTINUOUS
  62
7
  10
 363.336
  20
 774.418
  30
0.0
  11
 363.126
  21
 775.456
  31
0.0
   0
LINE
   8
LEVEL003
   6
CONTINUOUS
  62
7
  10
 363.126
  20
 775.456
  30
0.0
  11
 362.780
  21
 776.461
  31
0.0
   0
LINE
   8
LEVEL003
   6
CONTINUOUS
  62
7
  10
 362.780
  20
 776.461
  30
0.0
  11
 362.304
  21
 777.418
  31
0.0
   0
LINE
   8
LEVEL003
   6
CONTINUOUS
  62
7
  10
 362.304
  20
 777.418
  30
0.0
  11
 361.704
  21
 778.312
  31
0.0
   0
LINE
   8
LEVEL003
   6
CONTINUOUS
  62
7
  10
 361.704
  20
 778.312
  30
0.0
  11
 360.991
  21
 779.128
  31
0.0
   0
LINE
   8
LEVEL003
   6
CONTINUOUS
  62
7
  10
 360.991
  20
 779.128
  30
0.0
  11
 360.175
  21
 779.855
  31
0.0
   0
LINE
   8
LEVEL003
   6
CONTINUOUS
  62
7
  10
 360.175
  20
 779.855
  30
0.0
  11
 359.269
  21
 780.480
  31
0.0
   0
LINE
   8
LEVEL003
   6
CONTINUOUS
  62
7
  10
 359.269
  20
 780.480
  30
0.0
  11
 358.286
  21
 780.994
  31
0.0
   0
LINE
   8
LEVEL003
   6
CONTINUOUS
  62
7
  10
 358.286
  20
 780.994
  30
0.0
  11
 357.244
  21
 781.389
  31
0.0
   0
LINE
   8
LEVEL003
   6
CONTINUOUS
  62
7
  10
 357.244
  20
 781.389
  30
0.0
  11
 356.157
  21
 781.659
  31
0.0
   0
LINE
   8
LEVEL003
   6
CONTINUOUS
  62
7
  10
 356.157
  20
 781.659
  30
0.0
  11
 355.042
  21
 781.800
  31
0.0
   0
LINE
   8
LEVEL003
   6
CONTINUOUS
  62
7
  10
 355.042
  20
 781.800
  30
0.0
  11
 353.918
  21
 781.808
  31
0.0
   0
LINE
   8
LEVEL003
   6
CONTINUOUS
  62
7
  10
 353.918
  20
 781.808
  30
0.0
  11
 352.802
  21
 781.685
  31
0.0
   0
LINE
   8
LEVEL003
   6
CONTINUOUS
  62
7
  10
 352.802
  20
 781.685
  30
0.0
  11
 351.710
  21
 781.433
  31
0.0
   0
LINE
   8
LEVEL003
   6
CONTINUOUS
  62
7
  10
 351.710
  20
 781.433
  30
0.0
  11
 350.660
  21
 781.054
  31
0.0
   0
LINE
   8
LEVEL003
   6
CONTINUOUS
  62
7
  10
 350.660
  20
 781.054
  30
0.0
  11
 349.669
  21
 780.555
  31
0.0
   0
LINE
   8
LEVEL003
   6
CONTINUOUS
  62
7
  10
 349.669
  20
 780.555
  30
0.0
  11
 348.752
  21
 779.944
  31
0.0
   0
LINE
   8
LEVEL003
   6
CONTINUOUS
  62
7
  10
 348.752
  20
 779.944
  30
0.0
  11
 347.923
  21
 779.230
  31
0.0
   0
LINE
   8
LEVEL003
   6
CONTINUOUS
  62
7
  10
 347.923
  20
 779.230
  30
0.0
  11
 347.196
  21
 778.425
  31
0.0
   0
LINE
   8
LEVEL003
   6
CONTINUOUS
  62
7
  10
 347.196
  20
 778.425
  30
0.0
  11
 346.580
  21
 777.541
  31
0.0
   0
LINE
   8
LEVEL003
   6
CONTINUOUS
  62
7
  10
 346.580
  20
 777.541
  30
0.0
  11
 346.087
  21
 776.591
  31
0.0
   0
LINE
   8
LEVEL003
   6
CONTINUOUS
  62
7
  10
 346.087
  20
 776.591
  30
0.0
  11
 345.724
  21
 775.592
  31
0.0
   0
LINE
   8
LEVEL003
   6
CONTINUOUS
  62
7
  10
 345.724
  20
 775.592
  30
0.0
  11
 345.496
  21
 774.557
  31
0.0
   0
LINE
   8
LEVEL003
   6
CONTINUOUS
  62
7
  10
 345.496
  20
 774.557
  30
0.0
  11
 345.407
  21
 773.504
  31
0.0
   0
LINE
   8
LEVEL003
   6
CONTINUOUS
  62
7
  10
 345.407
  20
 773.504
  30
0.0
  11
 345.459
  21
 772.449
  31
0.0
   0
LINE
   8
LEVEL003
   6
CONTINUOUS
  62
7
  10
 345.459
  20
 772.449
  30
0.0
  11
 345.650
  21
 771.408
  31
0.0
   0
LINE
   8
LEVEL003
   6
CONTINUOUS
  62
7
  10
 345.650
  20
 771.408
  30
0.0
  11
 345.978
  21
 770.397
  31
0.0
   0
LINE
   8
LEVEL003
   6
CONTINUOUS
  62
7
  10
 345.978
  20
 770.397
  30
0.0
  11
 346.437
  21
 769.433
  31
0.0
   0
LINE
   8
LEVEL003
   6
CONTINUOUS
  62
7
  10
 346.437
  20
 769.433
  30
0.0
  11
 347.021
  21
 768.530
  31
0.0
   0
LINE
   8
LEVEL003
   6
CONTINUOUS
  62
7
  10
 347.021
  20
 768.530
  30
0.0
  11
 347.720
  21
 767.702
  31
0.0
   0
LINE
   8
LEVEL003
   6
CONTINUOUS
  62
7
  10
 347.720
  20
 767.702
  30
0.0
  11
 348.523
  21
 766.963
  31
0.0
   0
LINE
   8
LEVEL003
   6
CONTINUOUS
  62
7
  10
 348.523
  20
 766.963
  30
0.0
  11
 349.418
  21
 766.324
  31
0.0
   0
LINE
   8
LEVEL003
   6
CONTINUOUS
  62
7
  10
 349.418
  20
 766.324
  30
0.0
  11
 350.391
  21
 765.794
  31
0.0
   0
LINE
   8
LEVEL003
   6
CONTINUOUS
  62
7
  10
 350.391
  20
 765.794
  30
0.0
  11
 351.427
  21
 765.383
  31
0.0
   0
LINE
   8
LEVEL003
   6
CONTINUOUS
  62
7
  10
 351.427
  20
 765.383
  30
0.0
  11
 352.509
  21
 765.096
  31
0.0
   0
LINE
   8
LEVEL003
   6
CONTINUOUS
  62
7
  10
 352.509
  20
 765.096
  30
0.0
  11
 353.620
  21
 764.939
  31
0.0
   0
LINE
   8
LEVEL003
   6
CONTINUOUS
  62
7
  10
 353.620
  20
 764.939
  30
0.0
  11
 354.744
  21
 764.912
  31
0.0
   0
LINE
   8
LEVEL003
   6
CONTINUOUS
  62
7
  10
 354.744
  20
 764.912
  30
0.0
  11
 355.863
  21
 765.018
  31
0.0
   0
LINE
   8
LEVEL003
   6
CONTINUOUS
  62
7
  10
 355.863
  20
 765.018
  30
0.0
  11
 356.959
  21
 765.254
  31
0.0
   0
LINE
   8
LEVEL003
   6
CONTINUOUS
  62
7
  10
 356.959
  20
 765.254
  30
0.0
  11
 358.015
  21
 765.616
  31
0.0
   0
LINE
   8
LEVEL003
   6
CONTINUOUS
  62
7
  10
 358.015
  20
 765.616
  30
0.0
  11
 359.015
  21
 766.099
  31
0.0
   0
LINE
   8
LEVEL003
   6
CONTINUOUS
  62
7
  10
 359.015
  20
 766.099
  30
0.0
  11
 359.942
  21
 766.696
  31
0.0
   0
LINE
   8
LEVEL003
   6
CONTINUOUS
  62
7
  10
 359.942
  20
 766.696
  30
0.0
  11
 360.784
  21
 767.397
  31
0.0
   0
LINE
   8
LEVEL003
   6
CONTINUOUS
  62
7
  10
 360.784
  20
 767.397
  30
0.0
  11
 361.526
  21
 768.190
  31
0.0
   0
LINE
   8
LEVEL003
   6
CONTINUOUS
  62
7
  10
 361.526
  20
 768.190
  30
0.0
  11
 362.157
  21
 769.065
  31
0.0
   0
LINE
   8
LEVEL003
   6
CONTINUOUS
  62
7
  10
 362.157
  20
 769.065
  30
0.0
  11
 362.666
  21
 770.007
  31
0.0
   0
LINE
   8
LEVEL003
   6
CONTINUOUS
  62
7
  10
 362.666
  20
 770.007
  30
0.0
  11
 363.047
  21
 771.001
  31
0.0
   0
LINE
   8
LEVEL003
   6
CONTINUOUS
  62
7
  10
 363.047
  20
 771.001
  30
0.0
  11
 363.293
  21
 772.031
  31
0.0
   0
LINE
   8
LEVEL003
   6
CONTINUOUS
  62
7
  10
 363.293
  20
 772.031
  30
0.0
  11
 363.401
  21
 773.083
  31
0.0
   0
LINE
   8
LEVEL003
   6
CONTINUOUS
  62
7
  10
 363.401
  20
 773.083
  30
0.0
  11
 363.406
  21
 773.364
  31
0.0
   0
LINE
   8
LEVEL003
   6
CONTINUOUS
  62
7
  10
 345.406
  20
 773.364
  30
0.0
  11
 345.406
  21
 777.263
  31
0.0
   0
LINE
   8
LEVEL003
   6
CONTINUOUS
  62
7
  10
 363.406
  20
 773.364
  30
0.0
  11
 363.406
  21
 777.263
  31
0.0
   0
LINE
   8
LEVEL003
   6
CONTINUOUS
  62
7
  10
 362.406
  20
 773.158
  30
0.0
  11
 362.343
  21
 774.096
  31
0.0
   0
LINE
   8
LEVEL003
   6
CONTINUOUS
  62
7
  10
 362.343
  20
 774.096
  30
0.0
  11
 362.157
  21
 775.018
  31
0.0
   0
LINE
   8
LEVEL003
   6
CONTINUOUS
  62
7
  10
 362.157
  20
 775.018
  30
0.0
  11
 361.850
  21
 775.912
  31
0.0
   0
LINE
   8
LEVEL003
   6
CONTINUOUS
  62
7
  10
 361.850
  20
 775.912
  30
0.0
  11
 361.426
  21
 776.763
  31
0.0
   0
LINE
   8
LEVEL003
   6
CONTINUOUS
  62
7
  10
 361.426
  20
 776.763
  30
0.0
  11
 360.894
  21
 777.557
  31
0.0
   0
LINE
   8
LEVEL003
   6
CONTINUOUS
  62
7
  10
 360.894
  20
 777.557
  30
0.0
  11
 360.259
  21
 778.283
  31
0.0
   0
LINE
   8
LEVEL003
   6
CONTINUOUS
  62
7
  10
 360.259
  20
 778.283
  30
0.0
  11
 359.534
  21
 778.928
  31
0.0
   0
LINE
   8
LEVEL003
   6
CONTINUOUS
  62
7
  10
 359.534
  20
 778.928
  30
0.0
  11
 358.728
  21
 779.484
  31
0.0
   0
LINE
   8
LEVEL003
   6
CONTINUOUS
  62
7
  10
 358.728
  20
 779.484
  30
0.0
  11
 357.855
  21
 779.941
  31
0.0
   0
LINE
   8
LEVEL003
   6
CONTINUOUS
  62
7
  10
 357.855
  20
 779.941
  30
0.0
  11
 356.928
  21
 780.292
  31
0.0
   0
LINE
   8
LEVEL003
   6
CONTINUOUS
  62
7
  10
 356.928
  20
 780.292
  30
0.0
  11
 355.962
  21
 780.532
  31
0.0
   0
LINE
   8
LEVEL003
   6
CONTINUOUS
  62
7
  10
 355.962
  20
 780.532
  30
0.0
  11
 354.972
  21
 780.657
  31
0.0
   0
LINE
   8
LEVEL003
   6
CONTINUOUS
  62
7
  10
 354.972
  20
 780.657
  30
0.0
  11
 353.972
  21
 780.665
  31
0.0
   0
LINE
   8
LEVEL003
   6
CONTINUOUS
  62
7
  10
 353.972
  20
 780.665
  30
0.0
  11
 352.980
  21
 780.556
  31
0.0
   0
LINE
   8
LEVEL003
   6
CONTINUOUS
  62
7
  10
 352.980
  20
 780.556
  30
0.0
  11
 352.010
  21
 780.331
  31
0.0
   0
LINE
   8
LEVEL003
   6
CONTINUOUS
  62
7
  10
 352.010
  20
 780.331
  30
0.0
  11
 351.077
  21
 779.994
  31
0.0
   0
LINE
   8
LEVEL003
   6
CONTINUOUS
  62
7
  10
 351.077
  20
 779.994
  30
0.0
  11
 350.196
  21
 779.551
  31
0.0
   0
LINE
   8
LEVEL003
   6
CONTINUOUS
  62
7
  10
 350.196
  20
 779.551
  30
0.0
  11
 349.380
  21
 779.008
  31
0.0
   0
LINE
   8
LEVEL003
   6
CONTINUOUS
  62
7
  10
 349.380
  20
 779.008
  30
0.0
  11
 348.644
  21
 778.373
  31
0.0
   0
LINE
   8
LEVEL003
   6
CONTINUOUS
  62
7
  10
 348.644
  20
 778.373
  30
0.0
  11
 347.997
  21
 777.657
  31
0.0
   0
LINE
   8
LEVEL003
   6
CONTINUOUS
  62
7
  10
 347.997
  20
 777.657
  30
0.0
  11
 347.450
  21
 776.871
  31
0.0
   0
LINE
   8
LEVEL003
   6
CONTINUOUS
  62
7
  10
 347.450
  20
 776.871
  30
0.0
  11
 347.011
  21
 776.028
  31
0.0
   0
LINE
   8
LEVEL003
   6
CONTINUOUS
  62
7
  10
 347.011
  20
 776.028
  30
0.0
  11
 346.688
  21
 775.139
  31
0.0
   0
LINE
   8
LEVEL003
   6
CONTINUOUS
  62
7
  10
 346.688
  20
 775.139
  30
0.0
  11
 346.486
  21
 774.219
  31
0.0
   0
LINE
   8
LEVEL003
   6
CONTINUOUS
  62
7
  10
 346.486
  20
 774.219
  30
0.0
  11
 346.407
  21
 773.283
  31
0.0
   0
LINE
   8
LEVEL003
   6
CONTINUOUS
  62
7
  10
 346.407
  20
 773.283
  30
0.0
  11
 346.453
  21
 772.345
  31
0.0
   0
LINE
   8
LEVEL003
   6
CONTINUOUS
  62
7
  10
 346.453
  20
 772.345
  30
0.0
  11
 346.623
  21
 771.420
  31
0.0
   0
LINE
   8
LEVEL003
   6
CONTINUOUS
  62
7
  10
 346.623
  20
 771.420
  30
0.0
  11
 346.914
  21
 770.521
  31
0.0
   0
LINE
   8
LEVEL003
   6
CONTINUOUS
  62
7
  10
 346.914
  20
 770.521
  30
0.0
  11
 347.322
  21
 769.664
  31
0.0
   0
LINE
   8
LEVEL003
   6
CONTINUOUS
  62
7
  10
 347.322
  20
 769.664
  30
0.0
  11
 347.841
  21
 768.862
  31
0.0
   0
LINE
   8
LEVEL003
   6
CONTINUOUS
  62
7
  10
 347.841
  20
 768.862
  30
0.0
  11
 348.463
  21
 768.126
  31
0.0
   0
LINE
   8
LEVEL003
   6
CONTINUOUS
  62
7
  10
 348.463
  20
 768.126
  30
0.0
  11
 349.177
  21
 767.469
  31
0.0
   0
LINE
   8
LEVEL003
   6
CONTINUOUS
  62
7
  10
 349.177
  20
 767.469
  30
0.0
  11
 349.972
  21
 766.901
  31
0.0
   0
LINE
   8
LEVEL003
   6
CONTINUOUS
  62
7
  10
 349.972
  20
 766.901
  30
0.0
  11
 350.837
  21
 766.430
  31
0.0
   0
LINE
   8
LEVEL003
   6
CONTINUOUS
  62
7
  10
 350.837
  20
 766.430
  30
0.0
  11
 351.758
  21
 766.065
  31
0.0
   0
LINE
   8
LEVEL003
   6
CONTINUOUS
  62
7
  10
 351.758
  20
 766.065
  30
0.0
  11
 352.719
  21
 765.810
  31
0.0
   0
LINE
   8
LEVEL003
   6
CONTINUOUS
  62
7
  10
 352.719
  20
 765.810
  30
0.0
  11
 353.708
  21
 765.670
  31
0.0
   0
LINE
   8
LEVEL003
   6
CONTINUOUS
  62
7
  10
 353.708
  20
 765.670
  30
0.0
  11
 354.707
  21
 765.646
  31
0.0
   0
LINE
   8
LEVEL003
   6
CONTINUOUS
  62
7
  10
 354.707
  20
 765.646
  30
0.0
  11
 355.701
  21
 765.740
  31
0.0
   0
LINE
   8
LEVEL003
   6
CONTINUOUS
  62
7
  10
 355.701
  20
 765.740
  30
0.0
  11
 356.675
  21
 765.950
  31
0.0
   0
LINE
   8
LEVEL003
   6
CONTINUOUS
  62
7
  10
 356.675
  20
 765.950
  30
0.0
  11
 357.614
  21
 766.272
  31
0.0
   0
LINE
   8
LEVEL003
   6
CONTINUOUS
  62
7
  10
 357.614
  20
 766.272
  30
0.0
  11
 358.502
  21
 766.701
  31
0.0
   0
LINE
   8
LEVEL003
   6
CONTINUOUS
  62
7
  10
 358.502
  20
 766.701
  30
0.0
  11
 359.327
  21
 767.232
  31
0.0
   0
LINE
   8
LEVEL003
   6
CONTINUOUS
  62
7
  10
 359.327
  20
 767.232
  30
0.0
  11
 360.075
  21
 767.854
  31
0.0
   0
LINE
   8
LEVEL003
   6
CONTINUOUS
  62
7
  10
 360.075
  20
 767.854
  30
0.0
  11
 360.735
  21
 768.560
  31
0.0
   0
LINE
   8
LEVEL003
   6
CONTINUOUS
  62
7
  10
 360.735
  20
 768.560
  30
0.0
  11
 361.295
  21
 769.337
  31
0.0
   0
LINE
   8
LEVEL003
   6
CONTINUOUS
  62
7
  10
 361.295
  20
 769.337
  30
0.0
  11
 361.749
  21
 770.174
  31
0.0
   0
LINE
   8
LEVEL003
   6
CONTINUOUS
  62
7
  10
 361.749
  20
 770.174
  30
0.0
  11
 362.087
  21
 771.058
  31
0.0
   0
LINE
   8
LEVEL003
   6
CONTINUOUS
  62
7
  10
 362.087
  20
 771.058
  30
0.0
  11
 362.306
  21
 771.974
  31
0.0
   0
LINE
   8
LEVEL003
   6
CONTINUOUS
  62
7
  10
 362.306
  20
 771.974
  30
0.0
  11
 362.401
  21
 772.909
  31
0.0
   0
LINE
   8
LEVEL003
   6
CONTINUOUS
  62
7
  10
 362.401
  20
 772.909
  30
0.0
  11
 362.406
  21
 773.158
  31
0.0
   0
LINE
   8
LEVEL003
   6
CONTINUOUS
  62
7
  10
 354.406
  20
 778.389
  30
0.0
  11
 359.406
  21
 776.045
  31
0.0
   0
LINE
   8
LEVEL003
   6
CONTINUOUS
  62
7
  10
 359.406
  20
 776.045
  30
0.0
  11
 359.406
  21
 770.272
  31
0.0
   0
LINE
   8
LEVEL003
   6
CONTINUOUS
  62
7
  10
 359.406
  20
 770.272
  30
0.0
  11
 354.406
  21
 767.928
  31
0.0
   0
LINE
   8
LEVEL003
   6
CONTINUOUS
  62
7
  10
 354.406
  20
 767.928
  30
0.0
  11
 349.406
  21
 770.272
  31
0.0
   0
LINE
   8
LEVEL003
   6
CONTINUOUS
  62
7
  10
 349.406
  20
 770.272
  30
0.0
  11
 349.406
  21
 776.045
  31
0.0
   0
LINE
   8
LEVEL003
   6
CONTINUOUS
  62
7
  10
 349.406
  20
 776.045
  30
0.0
  11
 354.406
  21
 778.389
  31
0.0
   0
LINE
   8
LEVEL003
   6
CONTINUOUS
  62
7
  10
 383.406
  20
 773.364
  30
0.0
  11
 383.336
  21
 774.418
  31
0.0
   0
LINE
   8
LEVEL003
   6
CONTINUOUS
  62
7
  10
 383.336
  20
 774.418
  30
0.0
  11
 383.126
  21
 775.456
  31
0.0
   0
LINE
   8
LEVEL003
   6
CONTINUOUS
  62
7
  10
 383.126
  20
 775.456
  30
0.0
  11
 382.780
  21
 776.461
  31
0.0
   0
LINE
   8
LEVEL003
   6
CONTINUOUS
  62
7
  10
 382.780
  20
 776.461
  30
0.0
  11
 382.304
  21
 777.418
  31
0.0
   0
LINE
   8
LEVEL003
   6
CONTINUOUS
  62
7
  10
 382.304
  20
 777.418
  30
0.0
  11
 381.704
  21
 778.312
  31
0.0
   0
LINE
   8
LEVEL003
   6
CONTINUOUS
  62
7
  10
 381.704
  20
 778.312
  30
0.0
  11
 380.991
  21
 779.128
  31
0.0
   0
LINE
   8
LEVEL003
   6
CONTINUOUS
  62
7
  10
 380.991
  20
 779.128
  30
0.0
  11
 380.175
  21
 779.855
  31
0.0
   0
LINE
   8
LEVEL003
   6
CONTINUOUS
  62
7
  10
 380.175
  20
 779.855
  30
0.0
  11
 379.269
  21
 780.480
  31
0.0
   0
LINE
   8
LEVEL003
   6
CONTINUOUS
  62
7
  10
 379.269
  20
 780.480
  30
0.0
  11
 378.286
  21
 780.994
  31
0.0
   0
LINE
   8
LEVEL003
   6
CONTINUOUS
  62
7
  10
 378.286
  20
 780.994
  30
0.0
  11
 377.244
  21
 781.389
  31
0.0
   0
LINE
   8
LEVEL003
   6
CONTINUOUS
  62
7
  10
 377.244
  20
 781.389
  30
0.0
  11
 376.157
  21
 781.659
  31
0.0
   0
LINE
   8
LEVEL003
   6
CONTINUOUS
  62
7
  10
 376.157
  20
 781.659
  30
0.0
  11
 375.042
  21
 781.800
  31
0.0
   0
LINE
   8
LEVEL003
   6
CONTINUOUS
  62
7
  10
 375.042
  20
 781.800
  30
0.0
  11
 373.918
  21
 781.808
  31
0.0
   0
LINE
   8
LEVEL003
   6
CONTINUOUS
  62
7
  10
 373.918
  20
 781.808
  30
0.0
  11
 372.802
  21
 781.685
  31
0.0
   0
LINE
   8
LEVEL003
   6
CONTINUOUS
  62
7
  10
 372.802
  20
 781.685
  30
0.0
  11
 371.710
  21
 781.433
  31
0.0
   0
LINE
   8
LEVEL003
   6
CONTINUOUS
  62
7
  10
 371.710
  20
 781.433
  30
0.0
  11
 370.660
  21
 781.054
  31
0.0
   0
LINE
   8
LEVEL003
   6
CONTINUOUS
  62
7
  10
 370.660
  20
 781.054
  30
0.0
  11
 369.669
  21
 780.555
  31
0.0
   0
LINE
   8
LEVEL003
   6
CONTINUOUS
  62
7
  10
 369.669
  20
 780.555
  30
0.0
  11
 368.752
  21
 779.944
  31
0.0
   0
LINE
   8
LEVEL003
   6
CONTINUOUS
  62
7
  10
 368.752
  20
 779.944
  30
0.0
  11
 367.923
  21
 779.230
  31
0.0
   0
LINE
   8
LEVEL003
   6
CONTINUOUS
  62
7
  10
 367.923
  20
 779.230
  30
0.0
  11
 367.196
  21
 778.425
  31
0.0
   0
LINE
   8
LEVEL003
   6
CONTINUOUS
  62
7
  10
 367.196
  20
 778.425
  30
0.0
  11
 366.580
  21
 777.541
  31
0.0
   0
LINE
   8
LEVEL003
   6
CONTINUOUS
  62
7
  10
 366.580
  20
 777.541
  30
0.0
  11
 366.087
  21
 776.591
  31
0.0
   0
LINE
   8
LEVEL003
   6
CONTINUOUS
  62
7
  10
 366.087
  20
 776.591
  30
0.0
  11
 365.724
  21
 775.592
  31
0.0
   0
LINE
   8
LEVEL003
   6
CONTINUOUS
  62
7
  10
 365.724
  20
 775.592
  30
0.0
  11
 365.496
  21
 774.557
  31
0.0
   0
LINE
   8
LEVEL003
   6
CONTINUOUS
  62
7
  10
 365.496
  20
 774.557
  30
0.0
  11
 365.407
  21
 773.504
  31
0.0
   0
LINE
   8
LEVEL003
   6
CONTINUOUS
  62
7
  10
 365.407
  20
 773.504
  30
0.0
  11
 365.459
  21
 772.449
  31
0.0
   0
LINE
   8
LEVEL003
   6
CONTINUOUS
  62
7
  10
 365.459
  20
 772.449
  30
0.0
  11
 365.650
  21
 771.408
  31
0.0
   0
LINE
   8
LEVEL003
   6
CONTINUOUS
  62
7
  10
 365.650
  20
 771.408
  30
0.0
  11
 365.978
  21
 770.397
  31
0.0
   0
LINE
   8
LEVEL003
   6
CONTINUOUS
  62
7
  10
 365.978
  20
 770.397
  30
0.0
  11
 366.437
  21
 769.433
  31
0.0
   0
LINE
   8
LEVEL003
   6
CONTINUOUS
  62
7
  10
 366.437
  20
 769.433
  30
0.0
  11
 367.021
  21
 768.530
  31
0.0
   0
LINE
   8
LEVEL003
   6
CONTINUOUS
  62
7
  10
 367.021
  20
 768.530
  30
0.0
  11
 367.720
  21
 767.702
  31
0.0
   0
LINE
   8
LEVEL003
   6
CONTINUOUS
  62
7
  10
 367.720
  20
 767.702
  30
0.0
  11
 368.523
  21
 766.963
  31
0.0
   0
LINE
   8
LEVEL003
   6
CONTINUOUS
  62
7
  10
 368.523
  20
 766.963
  30
0.0
  11
 369.418
  21
 766.324
  31
0.0
   0
LINE
   8
LEVEL003
   6
CONTINUOUS
  62
7
  10
 369.418
  20
 766.324
  30
0.0
  11
 370.391
  21
 765.794
  31
0.0
   0
LINE
   8
LEVEL003
   6
CONTINUOUS
  62
7
  10
 370.391
  20
 765.794
  30
0.0
  11
 371.427
  21
 765.383
  31
0.0
   0
LINE
   8
LEVEL003
   6
CONTINUOUS
  62
7
  10
 371.427
  20
 765.383
  30
0.0
  11
 372.509
  21
 765.096
  31
0.0
   0
LINE
   8
LEVEL003
   6
CONTINUOUS
  62
7
  10
 372.509
  20
 765.096
  30
0.0
  11
 373.620
  21
 764.939
  31
0.0
   0
LINE
   8
LEVEL003
   6
CONTINUOUS
  62
7
  10
 373.620
  20
 764.939
  30
0.0
  11
 374.744
  21
 764.912
  31
0.0
   0
LINE
   8
LEVEL003
   6
CONTINUOUS
  62
7
  10
 374.744
  20
 764.912
  30
0.0
  11
 375.863
  21
 765.018
  31
0.0
   0
LINE
   8
LEVEL003
   6
CONTINUOUS
  62
7
  10
 375.863
  20
 765.018
  30
0.0
  11
 376.959
  21
 765.254
  31
0.0
   0
LINE
   8
LEVEL003
   6
CONTINUOUS
  62
7
  10
 376.959
  20
 765.254
  30
0.0
  11
 378.015
  21
 765.616
  31
0.0
   0
LINE
   8
LEVEL003
   6
CONTINUOUS
  62
7
  10
 378.015
  20
 765.616
  30
0.0
  11
 379.015
  21
 766.099
  31
0.0
   0
LINE
   8
LEVEL003
   6
CONTINUOUS
  62
7
  10
 379.015
  20
 766.099
  30
0.0
  11
 379.942
  21
 766.696
  31
0.0
   0
LINE
   8
LEVEL003
   6
CONTINUOUS
  62
7
  10
 379.942
  20
 766.696
  30
0.0
  11
 380.784
  21
 767.397
  31
0.0
   0
LINE
   8
LEVEL003
   6
CONTINUOUS
  62
7
  10
 380.784
  20
 767.397
  30
0.0
  11
 381.526
  21
 768.190
  31
0.0
   0
LINE
   8
LEVEL003
   6
CONTINUOUS
  62
7
  10
 381.526
  20
 768.190
  30
0.0
  11
 382.157
  21
 769.065
  31
0.0
   0
LINE
   8
LEVEL003
   6
CONTINUOUS
  62
7
  10
 382.157
  20
 769.065
  30
0.0
  11
 382.666
  21
 770.007
  31
0.0
   0
LINE
   8
LEVEL003
   6
CONTINUOUS
  62
7
  10
 382.666
  20
 770.007
  30
0.0
  11
 383.047
  21
 771.001
  31
0.0
   0
LINE
   8
LEVEL003
   6
CONTINUOUS
  62
7
  10
 383.047
  20
 771.001
  30
0.0
  11
 383.293
  21
 772.031
  31
0.0
   0
LINE
   8
LEVEL003
   6
CONTINUOUS
  62
7
  10
 383.293
  20
 772.031
  30
0.0
  11
 383.401
  21
 773.083
  31
0.0
   0
LINE
   8
LEVEL003
   6
CONTINUOUS
  62
7
  10
 383.401
  20
 773.083
  30
0.0
  11
 383.406
  21
 773.364
  31
0.0
   0
LINE
   8
LEVEL003
   6
CONTINUOUS
  62
7
  10
 365.406
  20
 773.364
  30
0.0
  11
 365.406
  21
 777.263
  31
0.0
   0
LINE
   8
LEVEL003
   6
CONTINUOUS
  62
7
  10
 383.406
  20
 773.364
  30
0.0
  11
 383.406
  21
 777.263
  31
0.0
   0
LINE
   8
LEVEL003
   6
CONTINUOUS
  62
7
  10
 382.406
  20
 773.158
  30
0.0
  11
 382.343
  21
 774.096
  31
0.0
   0
LINE
   8
LEVEL003
   6
CONTINUOUS
  62
7
  10
 382.343
  20
 774.096
  30
0.0
  11
 382.157
  21
 775.018
  31
0.0
   0
LINE
   8
LEVEL003
   6
CONTINUOUS
  62
7
  10
 382.157
  20
 775.018
  30
0.0
  11
 381.850
  21
 775.912
  31
0.0
   0
LINE
   8
LEVEL003
   6
CONTINUOUS
  62
7
  10
 381.850
  20
 775.912
  30
0.0
  11
 381.426
  21
 776.763
  31
0.0
   0
LINE
   8
LEVEL003
   6
CONTINUOUS
  62
7
  10
 381.426
  20
 776.763
  30
0.0
  11
 380.894
  21
 777.557
  31
0.0
   0
LINE
   8
LEVEL003
   6
CONTINUOUS
  62
7
  10
 380.894
  20
 777.557
  30
0.0
  11
 380.259
  21
 778.283
  31
0.0
   0
LINE
   8
LEVEL003
   6
CONTINUOUS
  62
7
  10
 380.259
  20
 778.283
  30
0.0
  11
 379.534
  21
 778.928
  31
0.0
   0
LINE
   8
LEVEL003
   6
CONTINUOUS
  62
7
  10
 379.534
  20
 778.928
  30
0.0
  11
 378.728
  21
 779.484
  31
0.0
   0
LINE
   8
LEVEL003
   6
CONTINUOUS
  62
7
  10
 378.728
  20
 779.484
  30
0.0
  11
 377.855
  21
 779.941
  31
0.0
   0
LINE
   8
LEVEL003
   6
CONTINUOUS
  62
7
  10
 377.855
  20
 779.941
  30
0.0
  11
 376.928
  21
 780.292
  31
0.0
   0
LINE
   8
LEVEL003
   6
CONTINUOUS
  62
7
  10
 376.928
  20
 780.292
  30
0.0
  11
 375.962
  21
 780.532
  31
0.0
   0
LINE
   8
LEVEL003
   6
CONTINUOUS
  62
7
  10
 375.962
  20
 780.532
  30
0.0
  11
 374.972
  21
 780.657
  31
0.0
   0
LINE
   8
LEVEL003
   6
CONTINUOUS
  62
7
  10
 374.972
  20
 780.657
  30
0.0
  11
 373.972
  21
 780.665
  31
0.0
   0
LINE
   8
LEVEL003
   6
CONTINUOUS
  62
7
  10
 373.972
  20
 780.665
  30
0.0
  11
 372.980
  21
 780.556
  31
0.0
   0
LINE
   8
LEVEL003
   6
CONTINUOUS
  62
7
  10
 372.980
  20
 780.556
  30
0.0
  11
 372.010
  21
 780.331
  31
0.0
   0
LINE
   8
LEVEL003
   6
CONTINUOUS
  62
7
  10
 372.010
  20
 780.331
  30
0.0
  11
 371.077
  21
 779.994
  31
0.0
   0
LINE
   8
LEVEL003
   6
CONTINUOUS
  62
7
  10
 371.077
  20
 779.994
  30
0.0
  11
 370.196
  21
 779.551
  31
0.0
   0
LINE
   8
LEVEL003
   6
CONTINUOUS
  62
7
  10
 370.196
  20
 779.551
  30
0.0
  11
 369.380
  21
 779.008
  31
0.0
   0
LINE
   8
LEVEL003
   6
CONTINUOUS
  62
7
  10
 369.380
  20
 779.008
  30
0.0
  11
 368.644
  21
 778.373
  31
0.0
   0
LINE
   8
LEVEL003
   6
CONTINUOUS
  62
7
  10
 368.644
  20
 778.373
  30
0.0
  11
 367.997
  21
 777.657
  31
0.0
   0
LINE
   8
LEVEL003
   6
CONTINUOUS
  62
7
  10
 367.997
  20
 777.657
  30
0.0
  11
 367.450
  21
 776.871
  31
0.0
   0
LINE
   8
LEVEL003
   6
CONTINUOUS
  62
7
  10
 367.450
  20
 776.871
  30
0.0
  11
 367.011
  21
 776.028
  31
0.0
   0
LINE
   8
LEVEL003
   6
CONTINUOUS
  62
7
  10
 367.011
  20
 776.028
  30
0.0
  11
 366.688
  21
 775.139
  31
0.0
   0
LINE
   8
LEVEL003
   6
CONTINUOUS
  62
7
  10
 366.688
  20
 775.139
  30
0.0
  11
 366.486
  21
 774.219
  31
0.0
   0
LINE
   8
LEVEL003
   6
CONTINUOUS
  62
7
  10
 366.486
  20
 774.219
  30
0.0
  11
 366.407
  21
 773.283
  31
0.0
   0
LINE
   8
LEVEL003
   6
CONTINUOUS
  62
7
  10
 366.407
  20
 773.283
  30
0.0
  11
 366.453
  21
 772.345
  31
0.0
   0
LINE
   8
LEVEL003
   6
CONTINUOUS
  62
7
  10
 366.453
  20
 772.345
  30
0.0
  11
 366.623
  21
 771.420
  31
0.0
   0
LINE
   8
LEVEL003
   6
CONTINUOUS
  62
7
  10
 366.623
  20
 771.420
  30
0.0
  11
 366.914
  21
 770.521
  31
0.0
   0
LINE
   8
LEVEL003
   6
CONTINUOUS
  62
7
  10
 366.914
  20
 770.521
  30
0.0
  11
 367.322
  21
 769.664
  31
0.0
   0
LINE
   8
LEVEL003
   6
CONTINUOUS
  62
7
  10
 367.322
  20
 769.664
  30
0.0
  11
 367.841
  21
 768.862
  31
0.0
   0
LINE
   8
LEVEL003
   6
CONTINUOUS
  62
7
  10
 367.841
  20
 768.862
  30
0.0
  11
 368.463
  21
 768.126
  31
0.0
   0
LINE
   8
LEVEL003
   6
CONTINUOUS
  62
7
  10
 368.463
  20
 768.126
  30
0.0
  11
 369.177
  21
 767.469
  31
0.0
   0
LINE
   8
LEVEL003
   6
CONTINUOUS
  62
7
  10
 369.177
  20
 767.469
  30
0.0
  11
 369.972
  21
 766.901
  31
0.0
   0
LINE
   8
LEVEL003
   6
CONTINUOUS
  62
7
  10
 369.972
  20
 766.901
  30
0.0
  11
 370.837
  21
 766.430
  31
0.0
   0
LINE
   8
LEVEL003
   6
CONTINUOUS
  62
7
  10
 370.837
  20
 766.430
  30
0.0
  11
 371.758
  21
 766.065
  31
0.0
   0
LINE
   8
LEVEL003
   6
CONTINUOUS
  62
7
  10
 371.758
  20
 766.065
  30
0.0
  11
 372.719
  21
 765.810
  31
0.0
   0
LINE
   8
LEVEL003
   6
CONTINUOUS
  62
7
  10
 372.719
  20
 765.810
  30
0.0
  11
 373.708
  21
 765.670
  31
0.0
   0
LINE
   8
LEVEL003
   6
CONTINUOUS
  62
7
  10
 373.708
  20
 765.670
  30
0.0
  11
 374.707
  21
 765.646
  31
0.0
   0
LINE
   8
LEVEL003
   6
CONTINUOUS
  62
7
  10
 374.707
  20
 765.646
  30
0.0
  11
 375.701
  21
 765.740
  31
0.0
   0
LINE
   8
LEVEL003
   6
CONTINUOUS
  62
7
  10
 375.701
  20
 765.740
  30
0.0
  11
 376.675
  21
 765.950
  31
0.0
   0
LINE
   8
LEVEL003
   6
CONTINUOUS
  62
7
  10
 376.675
  20
 765.950
  30
0.0
  11
 377.614
  21
 766.272
  31
0.0
   0
LINE
   8
LEVEL003
   6
CONTINUOUS
  62
7
  10
 377.614
  20
 766.272
  30
0.0
  11
 378.502
  21
 766.701
  31
0.0
   0
LINE
   8
LEVEL003
   6
CONTINUOUS
  62
7
  10
 378.502
  20
 766.701
  30
0.0
  11
 379.327
  21
 767.232
  31
0.0
   0
LINE
   8
LEVEL003
   6
CONTINUOUS
  62
7
  10
 379.327
  20
 767.232
  30
0.0
  11
 380.075
  21
 767.854
  31
0.0
   0
LINE
   8
LEVEL003
   6
CONTINUOUS
  62
7
  10
 380.075
  20
 767.854
  30
0.0
  11
 380.735
  21
 768.560
  31
0.0
   0
LINE
   8
LEVEL003
   6
CONTINUOUS
  62
7
  10
 380.735
  20
 768.560
  30
0.0
  11
 381.295
  21
 769.337
  31
0.0
   0
LINE
   8
LEVEL003
   6
CONTINUOUS
  62
7
  10
 381.295
  20
 769.337
  30
0.0
  11
 381.749
  21
 770.174
  31
0.0
   0
LINE
   8
LEVEL003
   6
CONTINUOUS
  62
7
  10
 381.749
  20
 770.174
  30
0.0
  11
 382.087
  21
 771.058
  31
0.0
   0
LINE
   8
LEVEL003
   6
CONTINUOUS
  62
7
  10
 382.087
  20
 771.058
  30
0.0
  11
 382.306
  21
 771.974
  31
0.0
   0
LINE
   8
LEVEL003
   6
CONTINUOUS
  62
7
  10
 382.306
  20
 771.974
  30
0.0
  11
 382.401
  21
 772.909
  31
0.0
   0
LINE
   8
LEVEL003
   6
CONTINUOUS
  62
7
  10
 382.401
  20
 772.909
  30
0.0
  11
 382.406
  21
 773.158
  31
0.0
   0
LINE
   8
LEVEL003
   6
CONTINUOUS
  62
7
  10
 383.406
  20
 777.263
  30
0.0
  11
 383.336
  21
 778.317
  31
0.0
   0
LINE
   8
LEVEL003
   6
CONTINUOUS
  62
7
  10
 383.336
  20
 778.317
  30
0.0
  11
 383.126
  21
 779.355
  31
0.0
   0
LINE
   8
LEVEL003
   6
CONTINUOUS
  62
7
  10
 383.126
  20
 779.355
  30
0.0
  11
 382.780
  21
 780.360
  31
0.0
   0
LINE
   8
LEVEL003
   6
CONTINUOUS
  62
7
  10
 382.780
  20
 780.360
  30
0.0
  11
 382.304
  21
 781.317
  31
0.0
   0
LINE
   8
LEVEL003
   6
CONTINUOUS
  62
7
  10
 382.304
  20
 781.317
  30
0.0
  11
 381.704
  21
 782.211
  31
0.0
   0
LINE
   8
LEVEL003
   6
CONTINUOUS
  62
7
  10
 381.704
  20
 782.211
  30
0.0
  11
 380.991
  21
 783.027
  31
0.0
   0
LINE
   8
LEVEL003
   6
CONTINUOUS
  62
7
  10
 380.991
  20
 783.027
  30
0.0
  11
 380.175
  21
 783.754
  31
0.0
   0
LINE
   8
LEVEL003
   6
CONTINUOUS
  62
7
  10
 380.175
  20
 783.754
  30
0.0
  11
 379.269
  21
 784.379
  31
0.0
   0
LINE
   8
LEVEL003
   6
CONTINUOUS
  62
7
  10
 379.269
  20
 784.379
  30
0.0
  11
 378.286
  21
 784.893
  31
0.0
   0
LINE
   8
LEVEL003
   6
CONTINUOUS
  62
7
  10
 378.286
  20
 784.893
  30
0.0
  11
 377.244
  21
 785.288
  31
0.0
   0
LINE
   8
LEVEL003
   6
CONTINUOUS
  62
7
  10
 377.244
  20
 785.288
  30
0.0
  11
 376.157
  21
 785.558
  31
0.0
   0
LINE
   8
LEVEL003
   6
CONTINUOUS
  62
7
  10
 376.157
  20
 785.558
  30
0.0
  11
 375.042
  21
 785.699
  31
0.0
   0
LINE
   8
LEVEL003
   6
CONTINUOUS
  62
7
  10
 375.042
  20
 785.699
  30
0.0
  11
 373.918
  21
 785.707
  31
0.0
   0
LINE
   8
LEVEL003
   6
CONTINUOUS
  62
7
  10
 373.918
  20
 785.707
  30
0.0
  11
 372.802
  21
 785.584
  31
0.0
   0
LINE
   8
LEVEL003
   6
CONTINUOUS
  62
7
  10
 372.802
  20
 785.584
  30
0.0
  11
 371.710
  21
 785.332
  31
0.0
   0
LINE
   8
LEVEL003
   6
CONTINUOUS
  62
7
  10
 371.710
  20
 785.332
  30
0.0
  11
 370.660
  21
 784.953
  31
0.0
   0
LINE
   8
LEVEL003
   6
CONTINUOUS
  62
7
  10
 370.660
  20
 784.953
  30
0.0
  11
 369.669
  21
 784.454
  31
0.0
   0
LINE
   8
LEVEL003
   6
CONTINUOUS
  62
7
  10
 369.669
  20
 784.454
  30
0.0
  11
 368.752
  21
 783.843
  31
0.0
   0
LINE
   8
LEVEL003
   6
CONTINUOUS
  62
7
  10
 368.752
  20
 783.843
  30
0.0
  11
 367.923
  21
 783.129
  31
0.0
   0
LINE
   8
LEVEL003
   6
CONTINUOUS
  62
7
  10
 367.923
  20
 783.129
  30
0.0
  11
 367.196
  21
 782.324
  31
0.0
   0
LINE
   8
LEVEL003
   6
CONTINUOUS
  62
7
  10
 367.196
  20
 782.324
  30
0.0
  11
 366.580
  21
 781.440
  31
0.0
   0
LINE
   8
LEVEL003
   6
CONTINUOUS
  62
7
  10
 366.580
  20
 781.440
  30
0.0
  11
 366.087
  21
 780.490
  31
0.0
   0
LINE
   8
LEVEL003
   6
CONTINUOUS
  62
7
  10
 366.087
  20
 780.490
  30
0.0
  11
 365.724
  21
 779.491
  31
0.0
   0
LINE
   8
LEVEL003
   6
CONTINUOUS
  62
7
  10
 365.724
  20
 779.491
  30
0.0
  11
 365.496
  21
 778.456
  31
0.0
   0
LINE
   8
LEVEL003
   6
CONTINUOUS
  62
7
  10
 365.496
  20
 778.456
  30
0.0
  11
 365.407
  21
 777.403
  31
0.0
   0
LINE
   8
LEVEL003
   6
CONTINUOUS
  62
7
  10
 365.407
  20
 777.403
  30
0.0
  11
 365.406
  21
 777.263
  31
0.0
   0
LINE
   8
LEVEL003
   6
CONTINUOUS
  62
7
  10
 374.406
  20
 778.389
  30
0.0
  11
 379.406
  21
 776.045
  31
0.0
   0
LINE
   8
LEVEL003
   6
CONTINUOUS
  62
7
  10
 379.406
  20
 776.045
  30
0.0
  11
 379.406
  21
 770.272
  31
0.0
   0
LINE
   8
LEVEL003
   6
CONTINUOUS
  62
7
  10
 379.406
  20
 770.272
  30
0.0
  11
 374.406
  21
 767.928
  31
0.0
   0
LINE
   8
LEVEL003
   6
CONTINUOUS
  62
7
  10
 374.406
  20
 767.928
  30
0.0
  11
 369.406
  21
 770.272
  31
0.0
   0
LINE
   8
LEVEL003
   6
CONTINUOUS
  62
7
  10
 369.406
  20
 770.272
  30
0.0
  11
 369.406
  21
 776.045
  31
0.0
   0
LINE
   8
LEVEL003
   6
CONTINUOUS
  62
7
  10
 369.406
  20
 776.045
  30
0.0
  11
 374.406
  21
 778.389
  31
0.0
   0
LINE
   8
LEVEL003
   6
DASHDOT
  62
1
  10
 386.406
  20
 773.158
  30
0.0
  11
 362.406
  21
 773.158
  31
0.0
   0
LINE
   8
LEVEL003
   6
DASHDOT
  62
1
  10
 366.406
  20
 773.158
  30
0.0
  11
 342.406
  21
 773.158
  31
0.0
   0
LINE
   8
LEVEL001
   6
CONTINUOUS
  62
7
  10
 388.906
  20
 772.263
  30
0.0
  11
 388.906
  21
 788.763
  31
0.0
   0
LINE
   8
LEVEL001
   6
CONTINUOUS
  62
7
  10
 388.906
  20
 821.763
  30
0.0
  11
 388.906
  21
 838.263
  31
0.0
   0
LINE
   8
LEVEL001
   6
CONTINUOUS
  62
7
  10
 356.406
  20
 824.013
  30
0.0
  11
 366.406
  21
 824.013
  31
0.0
   0
LINE
   8
LEVEL001
   6
CONTINUOUS
  62
7
  10
 366.406
  20
 824.013
  30
0.0
  11
 366.406
  21
 823.763
  31
0.0
   0
LINE
   8
LEVEL001
   6
CONTINUOUS
  62
7
  10
 366.406
  20
 824.013
  30
0.0
  11
 365.406
  21
 825.013
  31
0.0
   0
LINE
   8
LEVEL001
   6
CONTINUOUS
  62
7
  10
 356.406
  20
 824.013
  30
0.0
  11
 356.406
  21
 823.763
  31
0.0
   0
LINE
   8
LEVEL001
   6
CONTINUOUS
  62
7
  10
 356.406
  20
 824.013
  30
0.0
  11
 357.406
  21
 825.013
  31
0.0
   0
LINE
   8
LEVEL001
   6
CONTINUOUS
  62
7
  10
 357.406
  20
 825.013
  30
0.0
  11
 365.406
  21
 825.013
  31
0.0
   0
LINE
   8
LEVEL001
   6
CONTINUOUS
  62
7
  10
 356.406
  20
 786.513
  30
0.0
  11
 366.406
  21
 786.513
  31
0.0
   0
LINE
   8
LEVEL001
   6
CONTINUOUS
  62
7
  10
 356.406
  20
 786.513
  30
0.0
  11
 356.406
  21
 786.763
  31
0.0
   0
LINE
   8
LEVEL001
   6
CONTINUOUS
  62
7
  10
 356.406
  20
 786.513
  30
0.0
  11
 357.406
  21
 785.513
  31
0.0
   0
LINE
   8
LEVEL001
   6
CONTINUOUS
  62
7
  10
 366.406
  20
 786.513
  30
0.0
  11
 366.406
  21
 786.763
  31
0.0
   0
LINE
   8
LEVEL001
   6
CONTINUOUS
  62
7
  10
 366.406
  20
 786.513
  30
0.0
  11
 365.406
  21
 785.513
  31
0.0
   0
LINE
   8
LEVEL001
   6
CONTINUOUS
  62
7
  10
 357.406
  20
 785.513
  30
0.0
  11
 365.406
  21
 785.513
  31
0.0
   0
ARC
   8
LEVEL001
   6
CONTINUOUS
  62
7
  10
 361.406
  20
 805.263
  30
0.0
  40
 20.0000
  50
 102.108
  51
 112.332
   0
ARC
   8
LEVEL001
   6
CONTINUOUS
  62
7
  10
 361.406
  20
 805.263
  30
0.0
  40
 20.0000
  50
 67.6685
  51
 77.8932
   0
ARC
   8
LEVEL001
   6
CONTINUOUS
  62
7
  10
 361.406
  20
 805.263
  30
0.0
  40
 20.0000
  50
 80.9313
  51
 99.0687
   0
ARC
   8
LEVEL001
   6
CONTINUOUS
  62
7
  10
 361.406
  20
 805.263
  30
0.0
  40
 20.0000
  50
 247.668
  51
 257.892
   0
ARC
   8
LEVEL001
   6
CONTINUOUS
  62
7
  10
 361.406
  20
 805.263
  30
0.0
  40
 20.0000
  50
 260.931
  51
 279.069
   0
ARC
   8
LEVEL001
   6
CONTINUOUS
  62
7
  10
 361.406
  20
 805.263
  30
0.0
  40
 20.0000
  50
 282.107
  51
 292.332
   0
LINE
   8
LEVEL001
   6
CONTINUOUS
  62
7
  10
 342.457
  20
 776.217
  30
0.0
  11
 342.689
  21
 774.826
  31
0.0
   0
LINE
   8
LEVEL001
   6
CONTINUOUS
  62
7
  10
 342.689
  20
 774.826
  30
0.0
  11
 343.104
  21
 773.472
  31
0.0
   0
LINE
   8
LEVEL001
   6
CONTINUOUS
  62
7
  10
 343.104
  20
 773.472
  30
0.0
  11
 343.695
  21
 772.178
  31
0.0
   0
LINE
   8
LEVEL001
   6
CONTINUOUS
  62
7
  10
 343.695
  20
 772.178
  30
0.0
  11
 344.453
  21
 770.962
  31
0.0
   0
LINE
   8
LEVEL001
   6
CONTINUOUS
  62
7
  10
 344.453
  20
 770.962
  30
0.0
  11
 345.367
  21
 769.846
  31
0.0
   0
LINE
   8
LEVEL001
   6
CONTINUOUS
  62
7
  10
 345.367
  20
 769.846
  30
0.0
  11
 346.422
  21
 768.845
  31
0.0
   0
LINE
   8
LEVEL001
   6
CONTINUOUS
  62
7
  10
 346.422
  20
 768.845
  30
0.0
  11
 347.295
  21
 768.179
  31
0.0
   0
LINE
   8
LEVEL001
   6
CONTINUOUS
  62
7
  10
 358.807
  20
 765.986
  30
0.0
  11
 370.005
  21
 765.986
  31
0.0
   0
LINE
   8
LEVEL001
   6
CONTINUOUS
  62
7
  10
 381.517
  20
 768.179
  30
0.0
  11
 382.666
  21
 769.083
  31
0.0
   0
LINE
   8
LEVEL001
   6
CONTINUOUS
  62
7
  10
 382.666
  20
 769.083
  30
0.0
  11
 383.687
  21
 770.115
  31
0.0
   0
LINE
   8
LEVEL001
   6
CONTINUOUS
  62
7
  10
 383.687
  20
 770.115
  30
0.0
  11
 384.563
  21
 771.258
  31
0.0
   0
LINE
   8
LEVEL001
   6
CONTINUOUS
  62
7
  10
 384.563
  20
 771.258
  30
0.0
  11
 385.280
  21
 772.495
  31
0.0
   0
LINE
   8
LEVEL001
   6
CONTINUOUS
  62
7
  10
 385.280
  20
 772.495
  30
0.0
  11
 385.828
  21
 773.806
  31
0.0
   0
LINE
   8
LEVEL001
   6
CONTINUOUS
  62
7
  10
 385.828
  20
 773.806
  30
0.0
  11
 386.198
  21
 775.171
  31
0.0
   0
LINE
   8
LEVEL001
   6
CONTINUOUS
  62
7
  10
 386.198
  20
 775.171
  30
0.0
  11
 386.354
  21
 776.217
  31
0.0
   0
LINE
   8
LEVEL001
   6
DASHDOT
  62
1
  10
 338.406
  20
 777.315
  30
0.0
  11
 338.406
  21
 832.315
  31
0.0
   0
LINE
   8
LEVEL001
   6
CONTINUOUS
  62
7
  10
 333.406
  20
 828.763
  30
0.0
  11
 334.406
  21
 829.763
  31
0.0
   0
LINE
   8
LEVEL001
   6
CONTINUOUS
  62
7
  10
 334.406
  20
 829.763
  30
0.0
  11
 342.406
  21
 829.763
  31
0.0
   0
LINE
   8
LEVEL001
   6
CONTINUOUS
  62
7
  10
 342.406
  20
 829.763
  30
0.0
  11
 343.406
  21
 828.763
  31
0.0
   0
LINE
   8
LEVEL001
   6
CONTINUOUS
  62
7
  10
 333.406
  20
 828.763
  30
0.0
  11
 343.406
  21
 828.763
  31
0.0
   0
LINE
   8
LEVEL001
   6
CONTINUOUS
  62
7
  10
 342.451
  20
 776.217
  30
0.0
  11
 342.054
  21
 780.763
  31
0.0
   0
ARC
   8
LEVEL001
   6
CONTINUOUS
  62
7
  10
 324.791
  20
 826.263
  30
0.0
  40
 0.800000
  50
 90.0000
  51
 270.000
   0
LINE
   8
LEVEL001
   6
CONTINUOUS
  62
7
  10
 324.791
  20
 827.063
  30
0.0
  11
 351.702
  21
 827.063
  31
0.0
   0
LINE
   8
LEVEL001
   6
CONTINUOUS
  62
7
  10
 324.791
  20
 825.463
  30
0.0
  11
 351.702
  21
 825.463
  31
0.0
   0
LINE
   8
LEVEL001
   6
DASHDOT
  62
1
  10
 323.248
  20
 826.263
  30
0.0
  11
 352.620
  21
 826.263
  31
0.0
   0
LINE
   8
LEVEL001
   6
CONTINUOUS
  62
7
  10
 351.702
  20
 827.063
  30
0.0
  11
 351.702
  21
 825.463
  31
0.0
   0
ARC
   8
LEVEL001
   6
CONTINUOUS
  62
7
  10
 349.520
  20
 826.263
  30
0.0
  40
 0.800000
  50
 270.000
  51
 90.0000
   0
LINE
   8
LEVEL001
   6
CONTINUOUS
  62
7
  10
 343.406
  20
 827.063
  30
0.0
  11
 343.406
  21
 828.763
  31
0.0
   0
LINE
   8
LEVEL001
   6
CONTINUOUS
  62
7
  10
 333.406
  20
 828.763
  30
0.0
  11
 333.406
  21
 827.063
  31
0.0
   0
LINE
   8
LEVEL001
   6
CONTINUOUS
  62
7
  10
 333.406
  20
 825.463
  30
0.0
  11
 333.406
  21
 823.763
  31
0.0
   0
LINE
   8
LEVEL001
   6
CONTINUOUS
  62
7
  10
 333.406
  20
 781.763
  30
0.0
  11
 334.406
  21
 780.763
  31
0.0
   0
LINE
   8
LEVEL001
   6
CONTINUOUS
  62
7
  10
 334.406
  20
 780.763
  30
0.0
  11
 342.406
  21
 780.763
  31
0.0
   0
LINE
   8
LEVEL001
   6
CONTINUOUS
  62
7
  10
 333.406
  20
 781.763
  30
0.0
  11
 343.406
  21
 781.763
  31
0.0
   0
LINE
   8
LEVEL001
   6
CONTINUOUS
  62
7
  10
 324.791
  20
 783.463
  30
0.0
  11
 351.702
  21
 783.463
  31
0.0
   0
LINE
   8
LEVEL001
   6
CONTINUOUS
  62
7
  10
 324.791
  20
 785.063
  30
0.0
  11
 351.702
  21
 785.063
  31
0.0
   0
LINE
   8
LEVEL001
   6
DASHDOT
  62
1
  10
 323.248
  20
 784.263
  30
0.0
  11
 352.620
  21
 784.263
  31
0.0
   0
LINE
   8
LEVEL001
   6
CONTINUOUS
  62
7
  10
 333.406
  20
 781.763
  30
0.0
  11
 333.406
  21
 783.463
  31
0.0
   0
LINE
   8
LEVEL001
   6
CONTINUOUS
  62
7
  10
 333.406
  20
 785.063
  30
0.0
  11
 333.406
  21
 786.763
  31
0.0
   0
LINE
   8
LEVEL001
   6
CONTINUOUS
  62
7
  10
 342.406
  20
 780.763
  30
0.0
  11
 343.406
  21
 781.763
  31
0.0
   0
LINE
   8
LEVEL001
   6
CONTINUOUS
  62
7
  10
 343.406
  20
 783.463
  30
0.0
  11
 343.406
  21
 781.763
  31
0.0
   0
LINE
   8
LEVEL001
   6
CONTINUOUS
  62
7
  10
 351.702
  20
 783.463
  30
0.0
  11
 351.702
  21
 785.063
  31
0.0
   0
ARC
   8
LEVEL001
   6
CONTINUOUS
  62
7
  10
 349.520
  20
 784.263
  30
0.0
  40
 0.800000
  50
 270.000
  51
 90.0000
   0
ARC
   8
LEVEL001
   6
CONTINUOUS
  62
7
  10
 324.791
  20
 784.263
  30
0.0
  40
 0.800000
  50
 90.0000
  51
 270.000
   0
LINE
   8
LEVEL001
   6
CONTINUOUS
  62
7
  10
 343.406
  20
 823.763
  30
0.0
  11
 343.406
  21
 825.463
  31
0.0
   0
LINE
   8
LEVEL001
   6
CONTINUOUS
  62
7
  10
 343.406
  20
 786.763
  30
0.0
  11
 343.406
  21
 785.063
  31
0.0
   0
LINE
   8
LEVEL003
   6
CONTINUOUS
  62
7
  10
 363.406
  20
 777.263
  30
0.0
  11
 363.336
  21
 778.317
  31
0.0
   0
LINE
   8
LEVEL003
   6
CONTINUOUS
  62
7
  10
 363.336
  20
 778.317
  30
0.0
  11
 363.126
  21
 779.355
  31
0.0
   0
LINE
   8
LEVEL003
   6
CONTINUOUS
  62
7
  10
 363.126
  20
 779.355
  30
0.0
  11
 362.780
  21
 780.360
  31
0.0
   0
LINE
   8
LEVEL003
   6
CONTINUOUS
  62
7
  10
 362.780
  20
 780.360
  30
0.0
  11
 362.304
  21
 781.317
  31
0.0
   0
LINE
   8
LEVEL003
   6
CONTINUOUS
  62
7
  10
 362.304
  20
 781.317
  30
0.0
  11
 361.704
  21
 782.211
  31
0.0
   0
LINE
   8
LEVEL003
   6
CONTINUOUS
  62
7
  10
 361.704
  20
 782.211
  30
0.0
  11
 360.991
  21
 783.027
  31
0.0
   0
LINE
   8
LEVEL003
   6
CONTINUOUS
  62
7
  10
 360.991
  20
 783.027
  30
0.0
  11
 360.175
  21
 783.754
  31
0.0
   0
LINE
   8
LEVEL003
   6
CONTINUOUS
  62
7
  10
 360.175
  20
 783.754
  30
0.0
  11
 359.269
  21
 784.379
  31
0.0
   0
LINE
   8
LEVEL003
   6
CONTINUOUS
  62
7
  10
 359.269
  20
 784.379
  30
0.0
  11
 358.286
  21
 784.893
  31
0.0
   0
LINE
   8
LEVEL003
   6
CONTINUOUS
  62
7
  10
 358.286
  20
 784.893
  30
0.0
  11
 357.244
  21
 785.288
  31
0.0
   0
LINE
   8
LEVEL003
   6
CONTINUOUS
  62
7
  10
 357.244
  20
 785.288
  30
0.0
  11
 356.157
  21
 785.558
  31
0.0
   0
LINE
   8
LEVEL003
   6
CONTINUOUS
  62
7
  10
 356.157
  20
 785.558
  30
0.0
  11
 355.042
  21
 785.699
  31
0.0
   0
LINE
   8
LEVEL003
   6
CONTINUOUS
  62
7
  10
 355.042
  20
 785.699
  30
0.0
  11
 353.918
  21
 785.707
  31
0.0
   0
LINE
   8
LEVEL003
   6
CONTINUOUS
  62
7
  10
 353.918
  20
 785.707
  30
0.0
  11
 352.802
  21
 785.584
  31
0.0
   0
LINE
   8
LEVEL003
   6
CONTINUOUS
  62
7
  10
 352.802
  20
 785.584
  30
0.0
  11
 351.710
  21
 785.332
  31
0.0
   0
LINE
   8
LEVEL003
   6
CONTINUOUS
  62
7
  10
 351.710
  20
 785.332
  30
0.0
  11
 350.927
  21
 785.063
  31
0.0
   0
LINE
   8
LEVEL003
   6
CONTINUOUS
  62
7
  10
 348.285
  20
 783.463
  30
0.0
  11
 347.510
  21
 782.697
  31
0.0
   0
LINE
   8
LEVEL003
   6
CONTINUOUS
  62
7
  10
 347.510
  20
 782.697
  30
0.0
  11
 346.843
  21
 781.847
  31
0.0
   0
LINE
   8
LEVEL003
   6
CONTINUOUS
  62
7
  10
 346.843
  20
 781.847
  30
0.0
  11
 346.293
  21
 780.925
  31
0.0
   0
LINE
   8
LEVEL003
   6
CONTINUOUS
  62
7
  10
 346.293
  20
 780.925
  30
0.0
  11
 345.871
  21
 779.946
  31
0.0
   0
LINE
   8
LEVEL003
   6
CONTINUOUS
  62
7
  10
 345.871
  20
 779.946
  30
0.0
  11
 345.581
  21
 778.925
  31
0.0
   0
LINE
   8
LEVEL003
   6
CONTINUOUS
  62
7
  10
 345.581
  20
 778.925
  30
0.0
  11
 345.430
  21
 777.878
  31
0.0
   0
LINE
   8
LEVEL003
   6
CONTINUOUS
  62
7
  10
 345.430
  20
 777.878
  30
0.0
  11
 345.406
  21
 777.263
  31
0.0
   0
LINE
   8
LEVEL001
   6
CONTINUOUS
  62
7
  10
 343.946
  20
 836.178
  30
0.0
  11
 343.306
  21
 828.863
  31
0.0
   0
ARC
   8
LEVEL001
   6
CONTINUOUS
  62
7
  10
 339.058
  20
 837.263
  30
0.0
  40
 5.00000
  50
 270.000
  51
 355.000
   0
LINE
   8
LEVEL001
   6
CONTINUOUS
  62
7
  10
 316.601
  20
 832.263
  30
0.0
  11
 339.058
  21
 832.263
  31
0.0
   0
LINE
   8
LEVEL001
   6
CONTINUOUS
  62
7
  10
 315.204
  20
 819.832
  30
0.0
  11
 315.027
  21
 814.762
  31
0.0
   0
LINE
   8
LEVEL001
   6
CONTINUOUS
  62
7
  10
 315.027
  20
 795.763
  30
0.0
  11
 315.204
  21
 790.693
  31
0.0
   0
LINE
   8
LEVEL001
   6
CONTINUOUS
  62
7
  10
 324.562
  20
 814.763
  30
0.0
  11
 324.321
  21
 812.001
  31
0.0
   0
LINE
   8
LEVEL001
   6
CONTINUOUS
  62
7
  10
 328.683
  20
 812.001
  30
0.0
  11
 328.925
  21
 814.763
  31
0.0
   0
LINE
   8
LEVEL001
   6
CONTINUOUS
  62
7
  10
 328.406
  20
 805.263
  30
0.0
  11
 329.237
  21
 814.763
  31
0.0
   0
LINE
   8
LEVEL001
   6
CONTINUOUS
  62
7
  10
 315.010
  20
 795.763
  30
0.0
  11
 338.978
  21
 795.763
  31
0.0
   0
LINE
   8
LEVEL001
   6
CONTINUOUS
  62
7
  10
 315.010
  20
 814.763
  30
0.0
  11
 338.978
  21
 814.763
  31
0.0
   0
LINE
   8
LEVEL001
   6
CONTINUOUS
  62
7
  10
 338.978
  20
 814.763
  30
0.0
  11
 338.978
  21
 795.763
  31
0.0
   0
LINE
   8
LEVEL001
   6
CONTINUOUS
  62
7
  10
 328.683
  20
 798.524
  30
0.0
  11
 328.925
  21
 795.763
  31
0.0
   0
LINE
   8
LEVEL001
   6
CONTINUOUS
  62
7
  10
 328.406
  20
 805.263
  30
0.0
  11
 329.237
  21
 795.763
  31
0.0
   0
LINE
   8
LEVEL001
   6
CONTINUOUS
  62
7
  10
 351.906
  20
 848.263
  30
0.0
  11
 374.062
  21
 848.263
  31
0.0
   0
LINE
   8
LEVEL001
   6
CONTINUOUS
  62
7
  10
 388.406
  20
 771.263
  30
0.0
  11
 388.906
  21
 771.763
  31
0.0
   0
LINE
   8
LEVEL001
   6
CONTINUOUS
  62
7
  10
 388.906
  20
 771.763
  30
0.0
  11
 388.906
  21
 772.763
  31
0.0
   0
ARC
   8
LEVEL001
   6
CONTINUOUS
  62
7
  10
 317.301
  20
 772.263
  30
0.0
  40
 2.00000
  50
 185.000
  51
 270.000
   0
LINE
   8
LEVEL001
   6
CONTINUOUS
  62
7
  10
 314.906
  20
 776.688
  30
0.0
  11
 315.308
  21
 772.088
  31
0.0
   0
LINE
   8
LEVEL001
   6
CONTINUOUS
  62
7
  10
 317.301
  20
 770.263
  30
0.0
  11
 344.998
  21
 770.263
  31
0.0
   0
LINE
   8
LEVEL001
   6
DASHDOT
  62
1
  10
 313.030
  20
 777.263
  30
0.0
  11
 382.283
  21
 777.263
  31
0.0
   0
LINE
   8
LEVEL001
   6
CONTINUOUS
  62
7
  10
 378.978
  20
 766.079
  30
0.0
  11
 378.256
  21
 757.827
  31
0.0
   0
LINE
   8
LEVEL003
   6
CONTINUOUS
  62
7
  10
 384.566
  20
 771.263
  30
0.0
  11
 388.406
  21
 771.263
  31
0.0
   0
LINE
   8
LEVEL001
   6
CONTINUOUS
  62
7
  10
 326.231
  20
 845.266
  30
0.0
  11
 325.493
  21
 836.827
  31
0.0
   0
ARC
   8
LEVEL001
   6
CONTINUOUS
  62
7
  10
 320.512
  20
 837.263
  30
0.0
  40
 5.00000
  50
 270.000
  51
 355.000
   0
LINE
   8
LEVEL001
   6
CONTINUOUS
  62
7
  10
 327.318
  20
 846.263
  30
0.0
  11
 326.231
  21
 845.266
  31
0.0
   0
LINE
   8
LEVEL001
   6
CONTINUOUS
  62
7
  10
 353.493
  20
 846.263
  30
0.0
  11
 354.580
  21
 845.266
  31
0.0
   0
LINE
   8
LEVEL001
   6
CONTINUOUS
  62
7
  10
 327.318
  20
 846.263
  30
0.0
  11
 340.406
  21
 846.263
  31
0.0
   0
LINE
   8
LEVEL001
   6
CONTINUOUS
  62
7
  10
 353.493
  20
 846.263
  30
0.0
  11
 340.406
  21
 846.263
  31
0.0
   0
LINE
   8
LEVEL001
   6
CONTINUOUS
  62
7
  10
 326.231
  20
 845.266
  30
0.0
  11
 354.580
  21
 845.266
  31
0.0
   0
LINE
   8
LEVEL003
   6
CONTINUOUS
  62
7
  10
 340.406
  20
 846.263
  30
0.0
  11
 340.406
  21
 856.236
  31
0.0
   0
ARC
   8
LEVEL003
   6
CONTINUOUS
  62
7
  10
 346.156
  20
 840.655
  30
0.0
  40
 16.6080
  50
 69.7438
  51
 110.256
   0
ARC
   8
LEVEL003
   6
CONTINUOUS
  62
7
  10
 334.656
  20
 840.655
  30
0.0
  40
 16.6080
  50
 69.7438
  51
 110.256
   0
LINE
   8
LEVEL003
   6
CONTINUOUS
  62
7
  10
 351.906
  20
 846.263
  30
0.0
  11
 351.906
  21
 857.263
  31
0.0
   0
LINE
   8
LEVEL003
   6
CONTINUOUS
  62
7
  10
 351.906
  20
 857.263
  30
0.0
  11
 328.906
  21
 857.263
  31
0.0
   0
LINE
   8
LEVEL003
   6
CONTINUOUS
  62
7
  10
 328.906
  20
 857.263
  30
0.0
  11
 328.906
  21
 846.263
  31
0.0
   0
LINE
   8
LEVEL001
   6
DASHDOT
  62
1
  10
 340.406
  20
 892.951
  30
0.0
  11
 340.406
  21
 835.000
  31
0.0
   0
LINE
   8
LEVEL001
   6
CONTINUOUS
  62
7
  10
 328.198
  20
 865.855
  30
0.0
  11
 335.406
  21
 865.855
  31
0.0
   0
LINE
   8
LEVEL001
   6
CONTINUOUS
  62
7
  10
 345.406
  20
 865.855
  30
0.0
  11
 352.614
  21
 865.855
  31
0.0
   0
ARC
   8
LEVEL001
   6
CONTINUOUS
  62
7
  10
 322.821
  20
 872.855
  30
0.0
  40
 3.00000
  50
 8.53108
  51
 89.9986
   0
ARC
   8
LEVEL001
   6
CONTINUOUS
  62
7
  10
 317.548
  20
 885.080
  30
0.0
  40
 2.00000
  50
 98.8840
  51
 180.000
   0
LINE
   8
LEVEL001
   6
CONTINUOUS
  62
7
  10
 323.113
  20
 887.855
  30
0.0
  11
 357.696
  21
 887.855
  31
0.0
   0
ARC
   8
LEVEL001
   6
CONTINUOUS
  62
7
  10
 340.404
  20
 738.855
  30
0.0
  40
 150.000
  50
 96.6196
  51
 98.8839
   0
LINE
   8
LEVEL001
   6
CONTINUOUS
  62
7
  10
 315.548
  20
 876.855
  30
0.0
  11
 315.548
  21
 885.080
  31
0.0
   0
ARC
   8
LEVEL001
   6
CONTINUOUS
  62
7
  10
 316.548
  20
 876.855
  30
0.0
  40
 1.00000
  50
 180.000
  51
 270.000
   0
LINE
   8
LEVEL001
   6
CONTINUOUS
  62
7
  10
 316.548
  20
 875.855
  30
0.0
  11
 340.406
  21
 875.855
  31
0.0
   0
ARC
   8
LEVEL010
   6
CONTINUOUS
  62
7
  10
 327.932
  20
 876.855
  30
0.0
  40
 1.00000
  50
 180.000
  51
 270.000
   0
ARC
   8
LEVEL010
   6
CONTINUOUS
  62
7
  10
 328.932
  20
 885.056
  30
0.0
  40
 2.00000
  50
 90.0000
  51
 180.000
   0
LINE
   8
LEVEL010
   6
CONTINUOUS
  62
7
  10
 336.906
  20
 887.855
  30
0.0
  11
 328.735
  21
 887.046
  31
0.0
   0
ARC
   8
LEVEL010
   6
CONTINUOUS
  62
7
  10
 325.932
  20
 876.855
  30
0.0
  40
 1.00000
  50
 270.000
  51
 0.184991E-8
   0
ARC
   8
LEVEL010
   6
CONTINUOUS
  62
7
  10
 324.932
  20
 885.056
  30
0.0
  40
 2.00000
  50
0.0
  51
 90.0000
   0
LINE
   8
LEVEL010
   6
CONTINUOUS
  62
7
  10
 326.932
  20
 876.855
  30
0.0
  11
 326.932
  21
 885.056
  31
0.0
   0
LINE
   8
LEVEL010
   6
CONTINUOUS
  62
7
  10
 324.932
  20
 887.056
  30
0.0
  11
 319.431
  21
 887.056
  31
0.0
   0
LINE
   8
LEVEL010
   6
CONTINUOUS
  62
7
  10
 336.906
  20
 876.855
  30
0.0
  11
 336.906
  21
 885.056
  31
0.0
   0
ARC
   8
LEVEL001
   6
CONTINUOUS
  62
7
  10
 357.988
  20
 872.855
  30
0.0
  40
 3.00000
  50
 89.9990
  51
 171.469
   0
ARC
   8
LEVEL001
   6
CONTINUOUS
  62
7
  10
 364.261
  20
 876.855
  30
0.0
  40
 1.00000
  50
 270.000
  51
 0.247523E-9
   0
ARC
   8
LEVEL001
   6
CONTINUOUS
  62
7
  10
 363.261
  20
 885.080
  30
0.0
  40
 2.00000
  50
 0.651378E-10
  51
 81.1169
   0
LINE
   8
LEVEL001
   6
CONTINUOUS
  62
7
  10
 365.261
  20
 876.855
  30
0.0
  11
 365.261
  21
 885.080
  31
0.0
   0
ARC
   8
LEVEL001
   6
CONTINUOUS
  62
7
  10
 340.405
  20
 738.855
  30
0.0
  40
 150.000
  50
 81.1161
  51
 83.3804
   0
LINE
   8
LEVEL001
   6
CONTINUOUS
  62
7
  10
 340.406
  20
 875.855
  30
0.0
  11
 364.261
  21
 875.855
  31
0.0
   0
ARC
   8
LEVEL010
   6
CONTINUOUS
  62
7
  10
 352.879
  20
 876.855
  30
0.0
  40
 1.00000
  50
 270.000
  51
 0.269670E-8
   0
ARC
   8
LEVEL010
   6
CONTINUOUS
  62
7
  10
 351.879
  20
 885.056
  30
0.0
  40
 2.00000
  50
0.0
  51
 90.0000
   0
LINE
   8
LEVEL010
   6
CONTINUOUS
  62
7
  10
 343.906
  20
 887.855
  30
0.0
  11
 352.077
  21
 887.046
  31
0.0
   0
ARC
   8
LEVEL010
   6
CONTINUOUS
  62
7
  10
 354.879
  20
 876.855
  30
0.0
  40
 1.00000
  50
 180.000
  51
 270.000
   0
ARC
   8
LEVEL010
   6
CONTINUOUS
  62
7
  10
 355.879
  20
 885.056
  30
0.0
  40
 2.00000
  50
 90.0000
  51
 180.000
   0
LINE
   8
LEVEL010
   6
CONTINUOUS
  62
7
  10
 353.879
  20
 876.855
  30
0.0
  11
 353.879
  21
 885.056
  31
0.0
   0
LINE
   8
LEVEL010
   6
CONTINUOUS
  62
7
  10
 355.879
  20
 887.056
  30
0.0
  11
 361.381
  21
 887.056
  31
0.0
   0
LINE
   8
LEVEL010
   6
CONTINUOUS
  62
7
  10
 343.906
  20
 876.855
  30
0.0
  11
 343.906
  21
 885.056
  31
0.0
   0
ARC
   8
LEVEL001
   6
CONTINUOUS
  62
7
  10
 352.182
  20
 867.855
  30
0.0
  40
 2.00000
  50
 270.001
  51
 351.469
   0
LINE
   8
LEVEL001
   6
CONTINUOUS
  62
7
  10
 354.160
  20
 867.558
  30
0.0
  11
 355.021
  21
 873.300
  31
0.0
   0
LINE
   8
LEVEL001
   6
CONTINUOUS
  62
7
  10
 340.406
  20
 865.855
  30
0.0
  11
 352.182
  21
 865.855
  31
0.0
   0
ARC
   8
LEVEL001
   6
CONTINUOUS
  62
7
  10
 328.627
  20
 867.855
  30
0.0
  40
 2.00000
  50
 188.531
  51
 270.001
   0
LINE
   8
LEVEL001
   6
CONTINUOUS
  62
7
  10
 326.649
  20
 867.558
  30
0.0
  11
 325.788
  21
 873.300
  31
0.0
   0
LINE
   8
LEVEL001
   6
CONTINUOUS
  62
7
  10
 328.627
  20
 865.855
  30
0.0
  11
 340.406
  21
 865.855
  31
0.0
   0
ARC
   8
LEVEL001
   6
CONTINUOUS
  62
7
  10
 340.406
  20
 738.855
  30
0.0
  40
 150.000
  50
 80.9510
  51
 99.0490
   0
LINE
   8
LEVEL001
   6
CONTINUOUS
  62
7
  10
 334.054
  20
 865.855
  30
0.0
  11
 334.054
  21
 857.263
  31
0.0
   0
LINE
   8
LEVEL001
   6
CONTINUOUS
  62
7
  10
 346.754
  20
 865.855
  30
0.0
  11
 346.754
  21
 857.263
  31
0.0
   0
POINT
   8
LEVEL001
  62
7
  10
 342.406
  20
 805.263
  30
0.0
   0
POINT
   8
LEVEL001
  62
7
  10
 314.906
  20
 798.263
  30
0.0
   0
LINE
   8
LEVEL001
   6
DOT
  62
3
  10
 314.906
  20
 789.932
  30
0.0
  11
 315.789
  21
 790.815
  31
0.0
   0
LINE
   8
LEVEL001
   6
DOT
  62
3
  10
 314.906
  20
 806.594
  30
0.0
  11
 315.789
  21
 805.710
  31
0.0
   0
LINE
   8
LEVEL001
   6
DOT
  62
3
  10
 314.906
  20
 806.594
  30
0.0
  11
 320.598
  21
 806.400
  31
0.0
   0
LINE
   8
LEVEL001
   6
DOT
  62
3
  10
 320.598
  20
 805.549
  30
0.0
  11
 315.789
  21
 805.710
  31
0.0
   0
LINE
   8
LEVEL001
   6
DOT
  62
3
  10
 315.789
  20
 805.710
  30
0.0
  11
 315.789
  21
 790.815
  31
0.0
   0
LINE
   8
LEVEL001
   6
DOT
  62
3
  10
 315.789
  20
 790.815
  30
0.0
  11
 320.598
  21
 790.976
  31
0.0
   0
LINE
   8
LEVEL001
   6
DOT
  62
3
  10
 314.906
  20
 789.932
  30
0.0
  11
 320.598
  21
 790.125
  31
0.0
   0
LINE
   8
LEVEL001
   6
CONTINUOUS
  62
7
  10
 405.406
  20
 837.763
  30
0.0
  11
 388.906
  21
 837.763
  31
0.0
   0
LINE
   8
LEVEL001
   6
CONTINUOUS
  62
7
  10
 388.906
  20
 772.763
  30
0.0
  11
 405.406
  21
 772.763
  31
0.0
   0
CIRCLE
   8
LEVEL001
   6
CONTINUOUS
  62
7
  10
 354.406
  20
 835.263
  30
0.0
  40
 7.50000
   0
LINE
   8
LEVEL001
   6
CONTINUOUS
  62
7
  10
 354.406
  20
 825.801
  30
0.0
  11
 345.906
  21
 830.355
  31
0.0
   0
LINE
   8
LEVEL001
   6
CONTINUOUS
  62
7
  10
 345.906
  20
 830.355
  30
0.0
  11
 345.906
  21
 839.636
  31
0.0
   0
LINE
   8
LEVEL001
   6
CONTINUOUS
  62
7
  10
 345.906
  20
 839.636
  30
0.0
  11
 354.406
  21
 844.247
  31
0.0
   0
LINE
   8
LEVEL001
   6
CONTINUOUS
  62
7
  10
 354.406
  20
 844.247
  30
0.0
  11
 362.906
  21
 839.636
  31
0.0
   0
LINE
   8
LEVEL001
   6
CONTINUOUS
  62
7
  10
 362.906
  20
 839.636
  30
0.0
  11
 362.906
  21
 830.355
  31
0.0
   0
LINE
   8
LEVEL001
   6
CONTINUOUS
  62
7
  10
 362.906
  20
 830.355
  30
0.0
  11
 354.406
  21
 825.801
  31
0.0
   0
LINE
   8
LEVEL001
   6
CONTINUOUS
  62
7
  10
 345.906
  20
 834.998
  30
0.0
  11
 345.972
  21
 834.002
  31
0.0
   0
LINE
   8
LEVEL001
   6
CONTINUOUS
  62
7
  10
 345.972
  20
 834.002
  30
0.0
  11
 346.170
  21
 833.022
  31
0.0
   0
LINE
   8
LEVEL001
   6
CONTINUOUS
  62
7
  10
 346.170
  20
 833.022
  30
0.0
  11
 346.496
  21
 832.072
  31
0.0
   0
LINE
   8
LEVEL001
   6
CONTINUOUS
  62
7
  10
 346.496
  20
 832.072
  30
0.0
  11
 346.946
  21
 831.169
  31
0.0
   0
LINE
   8
LEVEL001
   6
CONTINUOUS
  62
7
  10
 346.946
  20
 831.169
  30
0.0
  11
 347.513
  21
 830.325
  31
0.0
   0
LINE
   8
LEVEL001
   6
CONTINUOUS
  62
7
  10
 347.513
  20
 830.325
  30
0.0
  11
 348.186
  21
 829.554
  31
0.0
   0
LINE
   8
LEVEL001
   6
CONTINUOUS
  62
7
  10
 348.186
  20
 829.554
  30
0.0
  11
 348.957
  21
 828.867
  31
0.0
   0
LINE
   8
LEVEL001
   6
CONTINUOUS
  62
7
  10
 348.957
  20
 828.867
  30
0.0
  11
 349.813
  21
 828.277
  31
0.0
   0
LINE
   8
LEVEL001
   6
CONTINUOUS
  62
7
  10
 349.813
  20
 828.277
  30
0.0
  11
 350.741
  21
 827.791
  31
0.0
   0
LINE
   8
LEVEL001
   6
CONTINUOUS
  62
7
  10
 350.741
  20
 827.791
  30
0.0
  11
 351.726
  21
 827.418
  31
0.0
   0
LINE
   8
LEVEL001
   6
CONTINUOUS
  62
7
  10
 351.726
  20
 827.418
  30
0.0
  11
 352.752
  21
 827.163
  31
0.0
   0
LINE
   8
LEVEL001
   6
CONTINUOUS
  62
7
  10
 352.752
  20
 827.163
  30
0.0
  11
 353.805
  21
 827.031
  31
0.0
   0
LINE
   8
LEVEL001
   6
CONTINUOUS
  62
7
  10
 353.805
  20
 827.031
  30
0.0
  11
 354.866
  21
 827.022
  31
0.0
   0
LINE
   8
LEVEL001
   6
CONTINUOUS
  62
7
  10
 354.866
  20
 827.022
  30
0.0
  11
 355.921
  21
 827.139
  31
0.0
   0
LINE
   8
LEVEL001
   6
CONTINUOUS
  62
7
  10
 355.921
  20
 827.139
  30
0.0
  11
 356.952
  21
 827.377
  31
0.0
   0
LINE
   8
LEVEL001
   6
CONTINUOUS
  62
7
  10
 356.952
  20
 827.377
  30
0.0
  11
 357.943
  21
 827.735
  31
0.0
   0
LINE
   8
LEVEL001
   6
CONTINUOUS
  62
7
  10
 357.943
  20
 827.735
  30
0.0
  11
 358.879
  21
 828.206
  31
0.0
   0
LINE
   8
LEVEL001
   6
CONTINUOUS
  62
7
  10
 358.879
  20
 828.206
  30
0.0
  11
 359.745
  21
 828.783
  31
0.0
   0
LINE
   8
LEVEL001
   6
CONTINUOUS
  62
7
  10
 359.745
  20
 828.783
  30
0.0
  11
 360.528
  21
 829.457
  31
0.0
   0
LINE
   8
LEVEL001
   6
CONTINUOUS
  62
7
  10
 360.528
  20
 829.457
  30
0.0
  11
 361.216
  21
 830.218
  31
0.0
   0
LINE
   8
LEVEL001
   6
CONTINUOUS
  62
7
  10
 361.216
  20
 830.218
  30
0.0
  11
 361.797
  21
 831.053
  31
0.0
   0
LINE
   8
LEVEL001
   6
CONTINUOUS
  62
7
  10
 361.797
  20
 831.053
  30
0.0
  11
 362.262
  21
 831.950
  31
0.0
   0
LINE
   8
LEVEL001
   6
CONTINUOUS
  62
7
  10
 362.262
  20
 831.950
  30
0.0
  11
 362.606
  21
 832.894
  31
0.0
   0
LINE
   8
LEVEL001
   6
CONTINUOUS
  62
7
  10
 362.606
  20
 832.894
  30
0.0
  11
 362.821
  21
 833.871
  31
0.0
   0
LINE
   8
LEVEL001
   6
CONTINUOUS
  62
7
  10
 362.821
  20
 833.871
  30
0.0
  11
 362.905
  21
 834.866
  31
0.0
   0
LINE
   8
LEVEL001
   6
CONTINUOUS
  62
7
  10
 362.905
  20
 834.866
  30
0.0
  11
 362.856
  21
 835.862
  31
0.0
   0
LINE
   8
LEVEL001
   6
CONTINUOUS
  62
7
  10
 362.856
  20
 835.862
  30
0.0
  11
 362.675
  21
 836.845
  31
0.0
   0
LINE
   8
LEVEL001
   6
CONTINUOUS
  62
7
  10
 362.675
  20
 836.845
  30
0.0
  11
 362.366
  21
 837.800
  31
0.0
   0
LINE
   8
LEVEL001
   6
CONTINUOUS
  62
7
  10
 362.366
  20
 837.800
  30
0.0
  11
 361.932
  21
 838.711
  31
0.0
   0
LINE
   8
LEVEL001
   6
CONTINUOUS
  62
7
  10
 361.932
  20
 838.711
  30
0.0
  11
 361.381
  21
 839.563
  31
0.0
   0
LINE
   8
LEVEL001
   6
CONTINUOUS
  62
7
  10
 361.381
  20
 839.563
  30
0.0
  11
 360.720
  21
 840.345
  31
0.0
   0
LINE
   8
LEVEL001
   6
CONTINUOUS
  62
7
  10
 360.720
  20
 840.345
  30
0.0
  11
 359.962
  21
 841.043
  31
0.0
   0
LINE
   8
LEVEL001
   6
CONTINUOUS
  62
7
  10
 359.962
  20
 841.043
  30
0.0
  11
 359.116
  21
 841.647
  31
0.0
   0
LINE
   8
LEVEL001
   6
CONTINUOUS
  62
7
  10
 359.116
  20
 841.647
  30
0.0
  11
 358.198
  21
 842.147
  31
0.0
   0
LINE
   8
LEVEL001
   6
CONTINUOUS
  62
7
  10
 358.198
  20
 842.147
  30
0.0
  11
 357.220
  21
 842.535
  31
0.0
   0
LINE
   8
LEVEL001
   6
CONTINUOUS
  62
7
  10
 357.220
  20
 842.535
  30
0.0
  11
 356.198
  21
 842.806
  31
0.0
   0
LINE
   8
LEVEL001
   6
CONTINUOUS
  62
7
  10
 356.198
  20
 842.806
  30
0.0
  11
 355.148
  21
 842.955
  31
0.0
   0
LINE
   8
LEVEL001
   6
CONTINUOUS
  62
7
  10
 355.148
  20
 842.955
  30
0.0
  11
 354.086
  21
 842.980
  31
0.0
   0
LINE
   8
LEVEL001
   6
CONTINUOUS
  62
7
  10
 354.086
  20
 842.980
  30
0.0
  11
 353.030
  21
 842.880
  31
0.0
   0
LINE
   8
LEVEL001
   6
CONTINUOUS
  62
7
  10
 353.030
  20
 842.880
  30
0.0
  11
 351.995
  21
 842.657
  31
0.0
   0
LINE
   8
LEVEL001
   6
CONTINUOUS
  62
7
  10
 351.995
  20
 842.657
  30
0.0
  11
 350.997
  21
 842.315
  31
0.0
   0
LINE
   8
LEVEL001
   6
CONTINUOUS
  62
7
  10
 350.997
  20
 842.315
  30
0.0
  11
 350.053
  21
 841.859
  31
0.0
   0
LINE
   8
LEVEL001
   6
CONTINUOUS
  62
7
  10
 350.053
  20
 841.859
  30
0.0
  11
 349.177
  21
 841.295
  31
0.0
   0
LINE
   8
LEVEL001
   6
CONTINUOUS
  62
7
  10
 349.177
  20
 841.295
  30
0.0
  11
 348.382
  21
 840.633
  31
0.0
   0
LINE
   8
LEVEL001
   6
CONTINUOUS
  62
7
  10
 348.382
  20
 840.633
  30
0.0
  11
 347.681
  21
 839.884
  31
0.0
   0
LINE
   8
LEVEL001
   6
CONTINUOUS
  62
7
  10
 347.681
  20
 839.884
  30
0.0
  11
 347.086
  21
 839.058
  31
0.0
   0
LINE
   8
LEVEL001
   6
CONTINUOUS
  62
7
  10
 347.086
  20
 839.058
  30
0.0
  11
 346.604
  21
 838.169
  31
0.0
   0
LINE
   8
LEVEL001
   6
CONTINUOUS
  62
7
  10
 346.604
  20
 838.169
  30
0.0
  11
 346.244
  21
 837.230
  31
0.0
   0
LINE
   8
LEVEL001
   6
CONTINUOUS
  62
7
  10
 346.244
  20
 837.230
  30
0.0
  11
 346.012
  21
 836.256
  31
0.0
   0
LINE
   8
LEVEL001
   6
CONTINUOUS
  62
7
  10
 346.012
  20
 836.256
  30
0.0
  11
 345.910
  21
 835.263
  31
0.0
   0
LINE
   8
LEVEL001
   6
CONTINUOUS
  62
7
  10
 345.910
  20
 835.263
  30
0.0
  11
 345.906
  21
 834.998
  31
0.0
   0
LINE
   8
LEVEL001
   6
CONTINUOUS
  62
7
  10
 344.039
  20
 836.827
  30
0.0
  11
 343.912
  21
 835.600
  31
0.0
   0
LINE
   8
LEVEL001
   6
CONTINUOUS
  62
7
  10
 343.912
  20
 835.600
  30
0.0
  11
 343.949
  21
 834.368
  31
0.0
   0
LINE
   8
LEVEL001
   6
CONTINUOUS
  62
7
  10
 343.949
  20
 834.368
  30
0.0
  11
 344.149
  21
 833.150
  31
0.0
   0
LINE
   8
LEVEL001
   6
CONTINUOUS
  62
7
  10
 344.149
  20
 833.150
  30
0.0
  11
 344.510
  21
 831.965
  31
0.0
   0
LINE
   8
LEVEL001
   6
CONTINUOUS
  62
7
  10
 344.510
  20
 831.965
  30
0.0
  11
 345.024
  21
 830.831
  31
0.0
   0
LINE
   8
LEVEL001
   6
CONTINUOUS
  62
7
  10
 345.024
  20
 830.831
  30
0.0
  11
 345.686
  21
 829.767
  31
0.0
   0
LINE
   8
LEVEL001
   6
CONTINUOUS
  62
7
  10
 345.686
  20
 829.767
  30
0.0
  11
 345.906
  21
 829.470
  31
0.0
   0
LINE
   8
LEVEL001
   6
CONTINUOUS
  62
7
  10
 346.734
  20
 827.063
  30
0.0
  11
 345.906
  21
 827.512
  31
0.0
   0
LINE
   8
LEVEL001
   6
CONTINUOUS
  62
7
  10
 345.906
  20
 827.512
  30
0.0
  11
 345.906
  21
 830.355
  31
0.0
   0
LINE
   8
LEVEL001
   6
CONTINUOUS
  62
7
  10
 363.462
  20
 840.256
  30
0.0
  11
 362.729
  21
 841.278
  31
0.0
   0
LINE
   8
LEVEL001
   6
CONTINUOUS
  62
7
  10
 362.729
  20
 841.278
  30
0.0
  11
 361.866
  21
 842.206
  31
0.0
   0
LINE
   8
LEVEL001
   6
CONTINUOUS
  62
7
  10
 361.866
  20
 842.206
  30
0.0
  11
 360.887
  21
 843.026
  31
0.0
   0
LINE
   8
LEVEL001
   6
CONTINUOUS
  62
7
  10
 360.887
  20
 843.026
  30
0.0
  11
 359.806
  21
 843.724
  31
0.0
   0
LINE
   8
LEVEL001
   6
CONTINUOUS
  62
7
  10
 359.806
  20
 843.724
  30
0.0
  11
 358.641
  21
 844.291
  31
0.0
   0
LINE
   8
LEVEL001
   6
CONTINUOUS
  62
7
  10
 358.641
  20
 844.291
  30
0.0
  11
 357.410
  21
 844.717
  31
0.0
   0
LINE
   8
LEVEL001
   6
CONTINUOUS
  62
7
  10
 357.410
  20
 844.717
  30
0.0
  11
 356.132
  21
 844.995
  31
0.0
   0
LINE
   8
LEVEL001
   6
CONTINUOUS
  62
7
  10
 356.132
  20
 844.995
  30
0.0
  11
 354.828
  21
 845.121
  31
0.0
   0
LINE
   8
LEVEL001
   6
CONTINUOUS
  62
7
  10
 354.828
  20
 845.121
  30
0.0
  11
 353.516
  21
 845.094
  31
0.0
   0
LINE
   8
LEVEL001
   6
CONTINUOUS
  62
7
  10
 353.516
  20
 845.094
  30
0.0
  11
 352.219
  21
 844.913
  31
0.0
   0
LINE
   8
LEVEL001
   6
CONTINUOUS
  62
7
  10
 352.219
  20
 844.913
  30
0.0
  11
 350.956
  21
 844.582
  31
0.0
   0
LINE
   8
LEVEL001
   6
CONTINUOUS
  62
7
  10
 350.956
  20
 844.582
  30
0.0
  11
 349.746
  21
 844.105
  31
0.0
   0
LINE
   8
LEVEL001
   6
CONTINUOUS
  62
7
  10
 349.746
  20
 844.105
  30
0.0
  11
 348.609
  21
 843.490
  31
0.0
   0
LINE
   8
LEVEL001
   6
CONTINUOUS
  62
7
  10
 348.609
  20
 843.490
  30
0.0
  11
 347.563
  21
 842.747
  31
0.0
   0
LINE
   8
LEVEL001
   6
CONTINUOUS
  62
7
  10
 347.563
  20
 842.747
  30
0.0
  11
 346.624
  21
 841.886
  31
0.0
   0
LINE
   8
LEVEL001
   6
CONTINUOUS
  62
7
  10
 346.624
  20
 841.886
  30
0.0
  11
 345.805
  21
 840.923
  31
0.0
   0
LINE
   8
LEVEL001
   6
CONTINUOUS
  62
7
  10
 345.805
  20
 840.923
  30
0.0
  11
 345.122
  21
 839.871
  31
0.0
   0
LINE
   8
LEVEL001
   6
CONTINUOUS
  62
7
  10
 345.122
  20
 839.871
  30
0.0
  11
 344.583
  21
 838.748
  31
0.0
   0
LINE
   8
LEVEL001
   6
CONTINUOUS
  62
7
  10
 344.583
  20
 838.748
  30
0.0
  11
 344.197
  21
 837.570
  31
0.0
   0
LINE
   8
LEVEL001
   6
CONTINUOUS
  62
7
  10
 344.197
  20
 837.570
  30
0.0
  11
 343.970
  21
 836.356
  31
0.0
   0
LINE
   8
LEVEL001
   6
CONTINUOUS
  62
7
  10
 343.970
  20
 836.356
  30
0.0
  11
 343.951
  21
 836.177
  31
0.0
   0
ARC
   8
LEVEL001
   6
CONTINUOUS
  62
7
  10
 364.356
  20
 843.663
  30
0.0
  40
 3.00000
  50
 231.910
  51
 308.090
   0
LINE
   8
LEVEL001
   6
CONTINUOUS
  62
7
  10
 387.861
  20
 836.177
  30
0.0
  11
 387.658
  21
 837.395
  31
0.0
   0
LINE
   8
LEVEL001
   6
CONTINUOUS
  62
7
  10
 387.658
  20
 837.395
  30
0.0
  11
 387.295
  21
 838.579
  31
0.0
   0
LINE
   8
LEVEL001
   6
CONTINUOUS
  62
7
  10
 387.295
  20
 838.579
  30
0.0
  11
 386.778
  21
 839.712
  31
0.0
   0
LINE
   8
LEVEL001
   6
CONTINUOUS
  62
7
  10
 386.778
  20
 839.712
  30
0.0
  11
 386.114
  21
 840.775
  31
0.0
   0
LINE
   8
LEVEL001
   6
CONTINUOUS
  62
7
  10
 386.114
  20
 840.775
  30
0.0
  11
 385.315
  21
 841.753
  31
0.0
   0
LINE
   8
LEVEL001
   6
CONTINUOUS
  62
7
  10
 385.315
  20
 841.753
  30
0.0
  11
 384.392
  21
 842.629
  31
0.0
   0
LINE
   8
LEVEL001
   6
CONTINUOUS
  62
7
  10
 384.392
  20
 842.629
  30
0.0
  11
 383.360
  21
 843.390
  31
0.0
   0
LINE
   8
LEVEL001
   6
CONTINUOUS
  62
7
  10
 383.360
  20
 843.390
  30
0.0
  11
 382.235
  21
 844.024
  31
0.0
   0
LINE
   8
LEVEL001
   6
CONTINUOUS
  62
7
  10
 382.235
  20
 844.024
  30
0.0
  11
 381.035
  21
 844.521
  31
0.0
   0
LINE
   8
LEVEL001
   6
CONTINUOUS
  62
7
  10
 381.035
  20
 844.521
  30
0.0
  11
 379.779
  21
 844.874
  31
0.0
   0
LINE
   8
LEVEL001
   6
CONTINUOUS
  62
7
  10
 379.779
  20
 844.874
  30
0.0
  11
 378.485
  21
 845.077
  31
0.0
   0
LINE
   8
LEVEL001
   6
CONTINUOUS
  62
7
  10
 378.485
  20
 845.077
  30
0.0
  11
 377.174
  21
 845.127
  31
0.0
   0
LINE
   8
LEVEL001
   6
CONTINUOUS
  62
7
  10
 377.174
  20
 845.127
  30
0.0
  11
 375.867
  21
 845.023
  31
0.0
   0
LINE
   8
LEVEL001
   6
CONTINUOUS
  62
7
  10
 375.867
  20
 845.023
  30
0.0
  11
 374.584
  21
 844.767
  31
0.0
   0
LINE
   8
LEVEL001
   6
CONTINUOUS
  62
7
  10
 374.584
  20
 844.767
  30
0.0
  11
 373.346
  21
 844.362
  31
0.0
   0
LINE
   8
LEVEL001
   6
CONTINUOUS
  62
7
  10
 373.346
  20
 844.362
  30
0.0
  11
 372.170
  21
 843.815
  31
0.0
   0
LINE
   8
LEVEL001
   6
CONTINUOUS
  62
7
  10
 372.170
  20
 843.815
  30
0.0
  11
 371.076
  21
 843.135
  31
0.0
   0
LINE
   8
LEVEL001
   6
CONTINUOUS
  62
7
  10
 371.076
  20
 843.135
  30
0.0
  11
 370.081
  21
 842.332
  31
0.0
   0
LINE
   8
LEVEL001
   6
CONTINUOUS
  62
7
  10
 370.081
  20
 842.332
  30
0.0
  11
 369.200
  21
 841.419
  31
0.0
   0
LINE
   8
LEVEL001
   6
CONTINUOUS
  62
7
  10
 369.200
  20
 841.419
  30
0.0
  11
 368.447
  21
 840.409
  31
0.0
   0
LINE
   8
LEVEL001
   6
CONTINUOUS
  62
7
  10
 368.447
  20
 840.409
  30
0.0
  11
 368.383
  21
 840.308
  31
0.0
   0
LINE
   8
LEVEL001
   6
CONTINUOUS
  62
7
  10
 374.356
  20
 845.129
  30
0.0
  11
 373.047
  21
 845.052
  31
0.0
   0
LINE
   8
LEVEL001
   6
CONTINUOUS
  62
7
  10
 373.047
  20
 845.052
  30
0.0
  11
 371.758
  21
 844.823
  31
0.0
   0
LINE
   8
LEVEL001
   6
CONTINUOUS
  62
7
  10
 371.758
  20
 844.823
  30
0.0
  11
 370.510
  21
 844.444
  31
0.0
   0
LINE
   8
LEVEL001
   6
CONTINUOUS
  62
7
  10
 370.510
  20
 844.444
  30
0.0
  11
 369.322
  21
 843.922
  31
0.0
   0
LINE
   8
LEVEL001
   6
CONTINUOUS
  62
7
  10
 369.322
  20
 843.922
  30
0.0
  11
 368.212
  21
 843.264
  31
0.0
   0
LINE
   8
LEVEL001
   6
CONTINUOUS
  62
7
  10
 368.212
  20
 843.264
  30
0.0
  11
 367.199
  21
 842.482
  31
0.0
   0
LINE
   8
LEVEL001
   6
CONTINUOUS
  62
7
  10
 367.199
  20
 842.482
  30
0.0
  11
 366.297
  21
 841.587
  31
0.0
   0
LINE
   8
LEVEL001
   6
CONTINUOUS
  62
7
  10
 366.297
  20
 841.587
  30
0.0
  11
 366.111
  21
 841.372
  31
0.0
   0
CIRCLE
   8
LEVEL001
   6
CONTINUOUS
  62
7
  10
 377.456
  20
 835.263
  30
0.0
  40
 7.50000
   0
LINE
   8
LEVEL001
   6
CONTINUOUS
  62
7
  10
 377.456
  20
 825.801
  30
0.0
  11
 368.956
  21
 830.355
  31
0.0
   0
LINE
   8
LEVEL001
   6
CONTINUOUS
  62
7
  10
 368.956
  20
 830.355
  30
0.0
  11
 368.956
  21
 839.636
  31
0.0
   0
LINE
   8
LEVEL001
   6
CONTINUOUS
  62
7
  10
 368.956
  20
 839.636
  30
0.0
  11
 377.456
  21
 844.247
  31
0.0
   0
LINE
   8
LEVEL001
   6
CONTINUOUS
  62
7
  10
 377.456
  20
 844.247
  30
0.0
  11
 385.956
  21
 839.636
  31
0.0
   0
LINE
   8
LEVEL001
   6
CONTINUOUS
  62
7
  10
 385.956
  20
 839.636
  30
0.0
  11
 385.956
  21
 830.355
  31
0.0
   0
LINE
   8
LEVEL001
   6
CONTINUOUS
  62
7
  10
 385.956
  20
 830.355
  30
0.0
  11
 377.456
  21
 825.801
  31
0.0
   0
LINE
   8
LEVEL001
   6
CONTINUOUS
  62
7
  10
 368.956
  20
 834.998
  30
0.0
  11
 369.022
  21
 834.002
  31
0.0
   0
LINE
   8
LEVEL001
   6
CONTINUOUS
  62
7
  10
 369.022
  20
 834.002
  30
0.0
  11
 369.220
  21
 833.022
  31
0.0
   0
LINE
   8
LEVEL001
   6
CONTINUOUS
  62
7
  10
 369.220
  20
 833.022
  30
0.0
  11
 369.546
  21
 832.072
  31
0.0
   0
LINE
   8
LEVEL001
   6
CONTINUOUS
  62
7
  10
 369.546
  20
 832.072
  30
0.0
  11
 369.996
  21
 831.169
  31
0.0
   0
LINE
   8
LEVEL001
   6
CONTINUOUS
  62
7
  10
 369.996
  20
 831.169
  30
0.0
  11
 370.562
  21
 830.325
  31
0.0
   0
LINE
   8
LEVEL001
   6
CONTINUOUS
  62
7
  10
 370.562
  20
 830.325
  30
0.0
  11
 371.236
  21
 829.554
  31
0.0
   0
LINE
   8
LEVEL001
   6
CONTINUOUS
  62
7
  10
 371.236
  20
 829.554
  30
0.0
  11
 372.007
  21
 828.867
  31
0.0
   0
LINE
   8
LEVEL001
   6
CONTINUOUS
  62
7
  10
 372.007
  20
 828.867
  30
0.0
  11
 372.863
  21
 828.277
  31
0.0
   0
LINE
   8
LEVEL001
   6
CONTINUOUS
  62
7
  10
 372.863
  20
 828.277
  30
0.0
  11
 373.791
  21
 827.791
  31
0.0
   0
LINE
   8
LEVEL001
   6
CONTINUOUS
  62
7
  10
 373.791
  20
 827.791
  30
0.0
  11
 374.775
  21
 827.418
  31
0.0
   0
LINE
   8
LEVEL001
   6
CONTINUOUS
  62
7
  10
 374.775
  20
 827.418
  30
0.0
  11
 375.802
  21
 827.163
  31
0.0
   0
LINE
   8
LEVEL001
   6
CONTINUOUS
  62
7
  10
 375.802
  20
 827.163
  30
0.0
  11
 376.854
  21
 827.031
  31
0.0
   0
LINE
   8
LEVEL001
   6
CONTINUOUS
  62
7
  10
 376.854
  20
 827.031
  30
0.0
  11
 377.916
  21
 827.022
  31
0.0
   0
LINE
   8
LEVEL001
   6
CONTINUOUS
  62
7
  10
 377.916
  20
 827.022
  30
0.0
  11
 378.971
  21
 827.139
  31
0.0
   0
LINE
   8
LEVEL001
   6
CONTINUOUS
  62
7
  10
 378.971
  20
 827.139
  30
0.0
  11
 380.002
  21
 827.377
  31
0.0
   0
LINE
   8
LEVEL001
   6
CONTINUOUS
  62
7
  10
 380.002
  20
 827.377
  30
0.0
  11
 380.993
  21
 827.735
  31
0.0
   0
LINE
   8
LEVEL001
   6
CONTINUOUS
  62
7
  10
 380.993
  20
 827.735
  30
0.0
  11
 381.929
  21
 828.206
  31
0.0
   0
LINE
   8
LEVEL001
   6
CONTINUOUS
  62
7
  10
 381.929
  20
 828.206
  30
0.0
  11
 382.795
  21
 828.783
  31
0.0
   0
LINE
   8
LEVEL001
   6
CONTINUOUS
  62
7
  10
 382.795
  20
 828.783
  30
0.0
  11
 383.578
  21
 829.457
  31
0.0
   0
LINE
   8
LEVEL001
   6
CONTINUOUS
  62
7
  10
 383.578
  20
 829.457
  30
0.0
  11
 384.265
  21
 830.218
  31
0.0
   0
LINE
   8
LEVEL001
   6
CONTINUOUS
  62
7
  10
 384.265
  20
 830.218
  30
0.0
  11
 384.846
  21
 831.053
  31
0.0
   0
LINE
   8
LEVEL001
   6
CONTINUOUS
  62
7
  10
 384.846
  20
 831.053
  30
0.0
  11
 385.312
  21
 831.950
  31
0.0
   0
LINE
   8
LEVEL001
   6
CONTINUOUS
  62
7
  10
 385.312
  20
 831.950
  30
0.0
  11
 385.655
  21
 832.894
  31
0.0
   0
LINE
   8
LEVEL001
   6
CONTINUOUS
  62
7
  10
 385.655
  20
 832.894
  30
0.0
  11
 385.871
  21
 833.871
  31
0.0
   0
LINE
   8
LEVEL001
   6
CONTINUOUS
  62
7
  10
 385.871
  20
 833.871
  30
0.0
  11
 385.954
  21
 834.866
  31
0.0
   0
LINE
   8
LEVEL001
   6
CONTINUOUS
  62
7
  10
 385.954
  20
 834.866
  30
0.0
  11
 385.906
  21
 835.862
  31
0.0
   0
LINE
   8
LEVEL001
   6
CONTINUOUS
  62
7
  10
 385.906
  20
 835.862
  30
0.0
  11
 385.725
  21
 836.845
  31
0.0
   0
LINE
   8
LEVEL001
   6
CONTINUOUS
  62
7
  10
 385.725
  20
 836.845
  30
0.0
  11
 385.416
  21
 837.800
  31
0.0
   0
LINE
   8
LEVEL001
   6
CONTINUOUS
  62
7
  10
 385.416
  20
 837.800
  30
0.0
  11
 384.982
  21
 838.711
  31
0.0
   0
LINE
   8
LEVEL001
   6
CONTINUOUS
  62
7
  10
 384.982
  20
 838.711
  30
0.0
  11
 384.430
  21
 839.563
  31
0.0
   0
LINE
   8
LEVEL001
   6
CONTINUOUS
  62
7
  10
 384.430
  20
 839.563
  30
0.0
  11
 383.770
  21
 840.345
  31
0.0
   0
LINE
   8
LEVEL001
   6
CONTINUOUS
  62
7
  10
 383.770
  20
 840.345
  30
0.0
  11
 383.012
  21
 841.043
  31
0.0
   0
LINE
   8
LEVEL001
   6
CONTINUOUS
  62
7
  10
 383.012
  20
 841.043
  30
0.0
  11
 382.166
  21
 841.647
  31
0.0
   0
LINE
   8
LEVEL001
   6
CONTINUOUS
  62
7
  10
 382.166
  20
 841.647
  30
0.0
  11
 381.247
  21
 842.147
  31
0.0
   0
LINE
   8
LEVEL001
   6
CONTINUOUS
  62
7
  10
 381.247
  20
 842.147
  30
0.0
  11
 380.269
  21
 842.535
  31
0.0
   0
LINE
   8
LEVEL001
   6
CONTINUOUS
  62
7
  10
 380.269
  20
 842.535
  30
0.0
  11
 379.247
  21
 842.806
  31
0.0
   0
LINE
   8
LEVEL001
   6
CONTINUOUS
  62
7
  10
 379.247
  20
 842.806
  30
0.0
  11
 378.198
  21
 842.955
  31
0.0
   0
LINE
   8
LEVEL001
   6
CONTINUOUS
  62
7
  10
 378.198
  20
 842.955
  30
0.0
  11
 377.136
  21
 842.980
  31
0.0
   0
LINE
   8
LEVEL001
   6
CONTINUOUS
  62
7
  10
 377.136
  20
 842.980
  30
0.0
  11
 376.080
  21
 842.880
  31
0.0
   0
LINE
   8
LEVEL001
   6
CONTINUOUS
  62
7
  10
 376.080
  20
 842.880
  30
0.0
  11
 375.045
  21
 842.657
  31
0.0
   0
LINE
   8
LEVEL001
   6
CONTINUOUS
  62
7
  10
 375.045
  20
 842.657
  30
0.0
  11
 374.047
  21
 842.315
  31
0.0
   0
LINE
   8
LEVEL001
   6
CONTINUOUS
  62
7
  10
 374.047
  20
 842.315
  30
0.0
  11
 373.103
  21
 841.859
  31
0.0
   0
LINE
   8
LEVEL001
   6
CONTINUOUS
  62
7
  10
 373.103
  20
 841.859
  30
0.0
  11
 372.227
  21
 841.295
  31
0.0
   0
LINE
   8
LEVEL001
   6
CONTINUOUS
  62
7
  10
 372.227
  20
 841.295
  30
0.0
  11
 371.432
  21
 840.633
  31
0.0
   0
LINE
   8
LEVEL001
   6
CONTINUOUS
  62
7
  10
 371.432
  20
 840.633
  30
0.0
  11
 370.731
  21
 839.884
  31
0.0
   0
LINE
   8
LEVEL001
   6
CONTINUOUS
  62
7
  10
 370.731
  20
 839.884
  30
0.0
  11
 370.136
  21
 839.058
  31
0.0
   0
LINE
   8
LEVEL001
   6
CONTINUOUS
  62
7
  10
 370.136
  20
 839.058
  30
0.0
  11
 369.654
  21
 838.169
  31
0.0
   0
LINE
   8
LEVEL001
   6
CONTINUOUS
  62
7
  10
 369.654
  20
 838.169
  30
0.0
  11
 369.294
  21
 837.230
  31
0.0
   0
LINE
   8
LEVEL001
   6
CONTINUOUS
  62
7
  10
 369.294
  20
 837.230
  30
0.0
  11
 369.062
  21
 836.256
  31
0.0
   0
LINE
   8
LEVEL001
   6
CONTINUOUS
  62
7
  10
 369.062
  20
 836.256
  30
0.0
  11
 368.960
  21
 835.263
  31
0.0
   0
LINE
   8
LEVEL001
   6
CONTINUOUS
  62
7
  10
 368.960
  20
 835.263
  30
0.0
  11
 368.956
  21
 834.998
  31
0.0
   0
LINE
   8
LEVEL001
   6
CONTINUOUS
  62
7
  10
 362.906
  20
 829.470
  30
0.0
  11
 363.608
  21
 830.511
  31
0.0
   0
LINE
   8
LEVEL001
   6
CONTINUOUS
  62
7
  10
 363.608
  20
 830.511
  30
0.0
  11
 364.167
  21
 831.626
  31
0.0
   0
LINE
   8
LEVEL001
   6
CONTINUOUS
  62
7
  10
 364.167
  20
 831.626
  30
0.0
  11
 364.573
  21
 832.798
  31
0.0
   0
LINE
   8
LEVEL001
   6
CONTINUOUS
  62
7
  10
 364.573
  20
 832.798
  30
0.0
  11
 364.821
  21
 834.008
  31
0.0
   0
LINE
   8
LEVEL001
   6
CONTINUOUS
  62
7
  10
 364.821
  20
 834.008
  30
0.0
  11
 364.906
  21
 835.238
  31
0.0
   0
LINE
   8
LEVEL001
   6
CONTINUOUS
  62
7
  10
 364.906
  20
 835.238
  30
0.0
  11
 364.827
  21
 836.469
  31
0.0
   0
LINE
   8
LEVEL001
   6
CONTINUOUS
  62
7
  10
 364.827
  20
 836.469
  30
0.0
  11
 364.586
  21
 837.680
  31
0.0
   0
LINE
   8
LEVEL001
   6
CONTINUOUS
  62
7
  10
 364.586
  20
 837.680
  30
0.0
  11
 364.186
  21
 838.854
  31
0.0
   0
LINE
   8
LEVEL001
   6
CONTINUOUS
  62
7
  10
 364.186
  20
 838.854
  30
0.0
  11
 363.813
  21
 839.646
  31
0.0
   0
LINE
   8
LEVEL001
   6
CONTINUOUS
  62
7
  10
 368.383
  20
 840.308
  30
0.0
  11
 367.784
  21
 839.212
  31
0.0
   0
LINE
   8
LEVEL001
   6
CONTINUOUS
  62
7
  10
 367.784
  20
 839.212
  30
0.0
  11
 367.335
  21
 838.054
  31
0.0
   0
LINE
   8
LEVEL001
   6
CONTINUOUS
  62
7
  10
 367.335
  20
 838.054
  30
0.0
  11
 367.043
  21
 836.852
  31
0.0
   0
LINE
   8
LEVEL001
   6
CONTINUOUS
  62
7
  10
 367.043
  20
 836.852
  30
0.0
  11
 366.913
  21
 835.626
  31
0.0
   0
LINE
   8
LEVEL001
   6
CONTINUOUS
  62
7
  10
 366.913
  20
 835.626
  30
0.0
  11
 366.947
  21
 834.393
  31
0.0
   0
LINE
   8
LEVEL001
   6
CONTINUOUS
  62
7
  10
 366.947
  20
 834.393
  30
0.0
  11
 367.144
  21
 833.175
  31
0.0
   0
LINE
   8
LEVEL001
   6
CONTINUOUS
  62
7
  10
 367.144
  20
 833.175
  30
0.0
  11
 367.501
  21
 831.989
  31
0.0
   0
LINE
   8
LEVEL001
   6
CONTINUOUS
  62
7
  10
 367.501
  20
 831.989
  30
0.0
  11
 368.012
  21
 830.854
  31
0.0
   0
LINE
   8
LEVEL001
   6
CONTINUOUS
  62
7
  10
 368.012
  20
 830.854
  30
0.0
  11
 368.671
  21
 829.788
  31
0.0
   0
LINE
   8
LEVEL001
   6
CONTINUOUS
  62
7
  10
 368.671
  20
 829.788
  30
0.0
  11
 368.956
  21
 829.406
  31
0.0
   0
LINE
   8
LEVEL001
   6
DASHDOT
  62
1
  10
 342.906
  20
 835.263
  30
0.0
  11
 365.906
  21
 835.263
  31
0.0
   0
LINE
   8
LEVEL001
   6
DASHDOT
  62
1
  10
 387.189
  20
 835.263
  30
0.0
  11
 367.947
  21
 835.263
  31
0.0
   0
LINE
   8
LEVEL001
   6
DASHDOT
  62
1
  10
 377.406
  20
 850.263
  30
0.0
  11
 377.406
  21
 820.017
  31
0.0
   0
LINE
   8
LEVEL001
   6
CONTINUOUS
  62
7
  10
 377.406
  20
 845.129
  30
0.0
  11
 374.356
  21
 845.129
  31
0.0
   0
LINE
   8
LEVEL001
   6
CONTINUOUS
  62
7
  10
 387.866
  20
 836.178
  30
0.0
  11
 388.906
  21
 824.291
  31
0.0
   0
LINE
   8
LEVEL001
   6
CONTINUOUS
  62
7
  10
 385.956
  20
 830.355
  30
0.0
  11
 385.956
  21
 827.512
  31
0.0
   0
LINE
   8
LEVEL001
   6
CONTINUOUS
  62
7
  10
 385.956
  20
 827.512
  30
0.0
  11
 377.456
  21
 822.900
  31
0.0
   0
LINE
   8
LEVEL001
   6
CONTINUOUS
  62
7
  10
 377.456
  20
 822.900
  30
0.0
  11
 368.956
  21
 827.512
  31
0.0
   0
LINE
   8
LEVEL001
   6
CONTINUOUS
  62
7
  10
 368.956
  20
 827.512
  30
0.0
  11
 368.956
  21
 830.355
  31
0.0
   0
LINE
   8
LEVEL001
   6
CONTINUOUS
  62
7
  10
 385.956
  20
 829.535
  30
0.0
  11
 386.649
  21
 830.582
  31
0.0
   0
LINE
   8
LEVEL001
   6
CONTINUOUS
  62
7
  10
 386.649
  20
 830.582
  30
0.0
  11
 387.198
  21
 831.701
  31
0.0
   0
LINE
   8
LEVEL001
   6
CONTINUOUS
  62
7
  10
 387.198
  20
 831.701
  30
0.0
  11
 387.594
  21
 832.876
  31
0.0
   0
LINE
   8
LEVEL001
   6
CONTINUOUS
  62
7
  10
 387.594
  20
 832.876
  30
0.0
  11
 387.831
  21
 834.088
  31
0.0
   0
LINE
   8
LEVEL001
   6
CONTINUOUS
  62
7
  10
 387.831
  20
 834.088
  30
0.0
  11
 387.906
  21
 835.319
  31
0.0
   0
LINE
   8
LEVEL001
   6
CONTINUOUS
  62
7
  10
 387.906
  20
 835.319
  30
0.0
  11
 387.861
  21
 836.177
  31
0.0
   0
LINE
   8
LEVEL001
   6
CONTINUOUS
  62
7
  10
 362.906
  20
 830.355
  30
0.0
  11
 362.906
  21
 827.512
  31
0.0
   0
LINE
   8
LEVEL001
   6
CONTINUOUS
  62
7
  10
 362.906
  20
 827.512
  30
0.0
  11
 358.264
  21
 824.994
  31
0.0
   0
LINE
   8
LEVEL001
   6
CONTINUOUS
  62
7
  10
 352.817
  20
 823.763
  30
0.0
  11
 349.660
  21
 825.475
  31
0.0
   0
LINE
   8
LEVEL001
   6
CONTINUOUS
  62
7
  10
 388.406
  20
 838.763
  30
0.0
  11
 387.223
  21
 838.763
  31
0.0
   0
ARC
   8
LEVEL001
   6
CONTINUOUS
  62
7
  10
 374.062
  20
 843.263
  30
0.0
  40
 5.00000
  50
 20.9505
  51
 90.0000
   0
LINE
   8
LEVEL001
   6
DASHDOT
  62
1
  10
 374.406
  20
 787.495
  30
0.0
  11
 374.406
  21
 764.179
  31
0.0
   0
LINE
   8
LEVEL014
   6
CONTINUOUS
  62
3
  10
 980.753
  20
 805.263
  30
0.0
  11
 980.753
  21
 820.070
  31
0.0
   0
LINE
   8
LEVEL014
   6
CONTINUOUS
  62
3
  10
 980.753
  20
 820.070
  30
0.0
  11
 982.753
  21
 820.224
  31
0.0
   0
LINE
   8
LEVEL014
   6
CONTINUOUS
  62
3
  10
 982.753
  20
 820.224
  30
0.0
  11
 982.753
  21
 805.263
  31
0.0
   0
LINE
   8
LEVEL014
   6
CONTINUOUS
  62
3
  10
 980.753
  20
 805.263
  30
0.0
  11
 980.753
  21
 790.455
  31
0.0
   0
LINE
   8
LEVEL014
   6
CONTINUOUS
  62
3
  10
 980.753
  20
 790.455
  30
0.0
  11
 982.753
  21
 790.301
  31
0.0
   0
LINE
   8
LEVEL014
   6
CONTINUOUS
  62
3
  10
 982.753
  20
 790.301
  30
0.0
  11
 982.753
  21
 805.263
  31
0.0
   0
LINE
   8
LEVEL014
   6
CONTINUOUS
  62
3
  10
 984.753
  20
 805.263
  30
0.0
  11
 984.753
  21
 820.136
  31
0.0
   0
LINE
   8
LEVEL014
   6
CONTINUOUS
  62
3
  10
 984.753
  20
 820.136
  30
0.0
  11
 986.753
  21
 819.966
  31
0.0
   0
LINE
   8
LEVEL014
   6
CONTINUOUS
  62
3
  10
 986.753
  20
 819.966
  30
0.0
  11
 986.753
  21
 805.263
  31
0.0
   0
LINE
   8
LEVEL014
   6
CONTINUOUS
  62
3
  10
 984.753
  20
 805.263
  30
0.0
  11
 984.753
  21
 790.390
  31
0.0
   0
LINE
   8
LEVEL014
   6
CONTINUOUS
  62
3
  10
 984.753
  20
 790.390
  30
0.0
  11
 986.753
  21
 790.559
  31
0.0
   0
LINE
   8
LEVEL014
   6
CONTINUOUS
  62
3
  10
 986.753
  20
 790.559
  30
0.0
  11
 986.753
  21
 805.263
  31
0.0
   0
CIRCLE
   8
LEVEL003
   6
CONTINUOUS
  62
7
  10
 821.406
  20
 850.263
  30
0.0
  40
 12.5000
   0
CIRCLE
   8
LEVEL003
   6
CONTINUOUS
  62
7
  10
 821.406
  20
 850.263
  30
0.0
  40
 11.5000
   0
CIRCLE
   8
LEVEL001
   6
CONTINUOUS
  62
7
  10
 821.406
  20
 850.263
  30
0.0
  40
 14.5000
   0
CIRCLE
   8
LEVEL001
   6
CONTINUOUS
  62
7
  10
 821.406
  20
 850.263
  30
0.0
  40
 10.0000
   0
LINE
   8
LEVEL014
   6
CONTINUOUS
  62
7
  10
 473.978
  20
 816.013
  30
0.0
  11
 655.055
  21
 816.013
  31
0.0
   0
LINE
   8
LEVEL014
   6
CONTINUOUS
  62
7
  10
 686.351
  20
 816.013
  30
0.0
  11
 916.096
  21
 816.013
  31
0.0
   0
LINE
   8
LEVEL014
   6
CONTINUOUS
  62
7
  10
 916.096
  20
 816.013
  30
0.0
  11
 918.846
  21
 813.263
  31
0.0
   0
LINE
   8
LEVEL014
   6
CONTINUOUS
  62
7
  10
 918.846
  20
 813.263
  30
0.0
  11
 926.906
  21
 813.263
  31
0.0
   0
LINE
   8
LEVEL001
   6
DASHDOT
  62
1
  10
 313.406
  20
 805.263
  30
0.0
  11
 655.055
  21
 805.263
  31
0.0
   0
LINE
   8
LEVEL001
   6
DASHDOT
  62
1
  10
 686.351
  20
 805.263
  30
0.0
  11
 1034.00
  21
 805.263
  31
0.0
   0
LINE
   8
LEVEL014
   6
CONTINUOUS
  62
7
  10
 473.978
  20
 794.513
  30
0.0
  11
 655.055
  21
 794.513
  31
0.0
   0
LINE
   8
LEVEL014
   6
CONTINUOUS
  62
7
  10
 686.351
  20
 794.513
  30
0.0
  11
 916.096
  21
 794.513
  31
0.0
   0
LINE
   8
LEVEL014
   6
CONTINUOUS
  62
7
  10
 916.096
  20
 794.513
  30
0.0
  11
 918.846
  21
 797.263
  31
0.0
   0
LINE
   8
LEVEL014
   6
CONTINUOUS
  62
7
  10
 918.846
  20
 797.263
  30
0.0
  11
 926.906
  21
 797.263
  31
0.0
   0
LINE
   8
LEVEL001
   6
CONTINUOUS
  62
7
  10
 929.030
  20
 394.337
  30
0.0
  11
 931.272
  21
 394.192
  31
0.0
   0
ARC
   8
LEVEL001
   6
CONTINUOUS
  62
7
  10
 931.104
  20
 391.597
  30
0.0
  40
 2.60000
  50
 17.1785
  51
 86.2977
   0
LINE
   8
LEVEL001
   6
CONTINUOUS
  62
7
  10
 929.030
  20
 394.337
  30
0.0
  11
 929.347
  21
 380.340
  31
0.0
   0
LINE
   8
LEVEL001
   6
CONTINUOUS
  62
7
  10
 929.347
  20
 380.340
  30
0.0
  11
 931.581
  21
 380.587
  31
0.0
   0
ARC
   8
LEVEL001
   6
CONTINUOUS
  62
7
  10
 931.295
  20
 383.171
  30
0.0
  40
 2.60000
  50
 276.298
  51
 345.417
   0
ARC
   8
LEVEL001
   6
CONTINUOUS
  62
7
  10
 916.392
  20
 387.049
  30
0.0
  40
 18.0000
  50
 345.417
  51
 17.1785
   0
LINE
   8
LEVEL011
   6
DASHDOT
  62
1
  10
 397.818
  20
 397.479
  30
0.0
  11
 399.101
  21
 373.352
  31
0.0
   0
ARC
   8
LEVEL011
   6
CONTINUOUS
  62
7
  10
 401.962
  20
 376.052
  30
0.0
  40
 1.00000
  50
 273.046
  51
 3.04439
   0
ARC
   8
LEVEL011
   6
CONTINUOUS
  62
7
  10
 395.970
  20
 375.733
  30
0.0
  40
 1.00000
  50
 183.045
  51
 273.045
   0
LINE
   8
LEVEL011
   6
CONTINUOUS
  62
7
  10
 396.023
  20
 374.735
  30
0.0
  11
 402.015
  21
 375.054
  31
0.0
   0
LINE
   8
LEVEL011
   6
CONTINUOUS
  62
7
  10
 394.972
  20
 375.680
  30
0.0
  11
 394.734
  21
 380.152
  31
0.0
   0
LINE
   8
LEVEL011
   6
CONTINUOUS
  62
7
  10
 402.960
  20
 376.105
  30
0.0
  11
 402.724
  21
 380.546
  31
0.0
   0
LINE
   8
LEVEL001
   6
CONTINUOUS
  62
7
  10
 426.406
  20
 833.263
  30
0.0
  11
 433.406
  21
 833.263
  31
0.0
   0
LINE
   8
LEVEL001
   6
CONTINUOUS
  62
7
  10
 426.406
  20
 777.263
  30
0.0
  11
 433.406
  21
 777.263
  31
0.0
   0
LINE
   8
LEVEL003
   6
CONTINUOUS
  62
7
  10
 436.406
  20
 836.263
  30
0.0
  11
 433.406
  21
 833.263
  31
0.0
   0
LINE
   8
LEVEL003
   6
CONTINUOUS
  62
7
  10
 433.406
  20
 833.263
  30
0.0
  11
 433.406
  21
 821.763
  31
0.0
   0
LINE
   8
LEVEL003
   6
CONTINUOUS
  62
7
  10
 433.406
  20
 788.763
  30
0.0
  11
 433.406
  21
 777.263
  31
0.0
   0
LINE
   8
LEVEL003
   6
CONTINUOUS
  62
7
  10
 433.406
  20
 777.263
  30
0.0
  11
 436.406
  21
 774.263
  31
0.0
   0
LINE
   8
LEVEL003
   6
CONTINUOUS
  62
7
  10
 434.861
  20
 374.116
  30
0.0
  11
 431.930
  21
 371.049
  31
0.0
   0
LINE
   8
LEVEL003
   6
CONTINUOUS
  62
7
  10
 431.930
  20
 371.049
  30
0.0
  11
 433.201
  21
 315.063
  31
0.0
   0
LINE
   8
LEVEL003
   6
CONTINUOUS
  62
7
  10
 433.201
  20
 315.063
  30
0.0
  11
 436.268
  21
 312.132
  31
0.0
   0
LINE
   8
LEVEL001
   6
CONTINUOUS
  62
7
  10
 424.932
  20
 370.890
  30
0.0
  11
 431.930
  21
 371.049
  31
0.0
   0
LINE
   8
LEVEL001
   6
CONTINUOUS
  62
7
  10
 426.203
  20
 314.904
  30
0.0
  11
 433.201
  21
 315.063
  31
0.0
   0
CIRCLE
   8
LEVEL003
   6
CONTINUOUS
  62
7
  10
 1311.41
  20
 85.8707
  30
0.0
  40
 9.00000
   0
LINE
   8
LEVEL003
   6
CONTINUOUS
  62
7
  10
 1329.07
  20
 94.8707
  30
0.0
  11
 1317.64
  21
 75.0707
  31
0.0
   0
LINE
   8
LEVEL003
   6
CONTINUOUS
  62
7
  10
 1317.64
  20
 75.0707
  30
0.0
  11
 1294.78
  21
 75.0707
  31
0.0
   0
LINE
   8
LEVEL003
   6
CONTINUOUS
  62
7
  10
 1292.18
  20
 70.5707
  30
0.0
  11
 1333.05
  21
 70.5707
  31
0.0
   0
LINE
   8
LEVEL003
   6
CONTINUOUS
  62
7
  10
 1333.05
  20
 70.5707
  30
0.0
  11
 1347.07
  21
 94.8707
  31
0.0
   0
LINE
   8
LEVEL003
   6
CONTINUOUS
  62
7
  10
 1347.07
  20
 94.8707
  30
0.0
  11
 1329.07
  21
 94.8707
  31
0.0
   0
LINE
   8
LEVEL003
   6
CONTINUOUS
  62
7
  10
 1294.78
  20
 75.0707
  30
0.0
  11
 1292.18
  21
 70.5707
  31
0.0
   0
TEXT
   8
LEVEL003
  62
7
  10
 1354.22
  20
 64.5507
  30
0.0
  40
 22.5000
   1
ＯＳＡＫＡ ＪＡＣＫ
   7
STANDARD
   0
TEXT
   8
LEVEL003
  62
7
  10
 1358.96
  20
 110.100
  30
0.0
  40
 15.0000
   1
Model : ＴＷＡ－４
   7
STANDARD
   0
ENDSEC
   0
EOF
