   0
SECTION
   2
HEADER
   9
$LIMMIN
  10
-66.0000
  20
0.0
   9
$LIMMAX
  10
 1674.00
  20
 1180.00
   9
$EXTMIN
  10
-66.0000
  20
0.0
   9
$EXTMAX
  10
 1674.00
  20
 1180.00
   9
$LTSCALE
  40
 34.8000
   0
ENDSEC
   0
SECTION
   2
TABLES
  0
TABLE
  2
LTYPE
 70
    25
  0
LTYPE
  2
CONTINUOUS
 70
    64
  3
Solid line
 72
    65
 73
     0
 40
0.0
  0
LTYPE
  2
BORDER
 70
    64
  3
__ __ . __ __ . __ __ . __ __ . __ __ . __ __ .
 72
    65
 73
     6
 40
1.75
 49
0.5
 49
-0.25
 49
0.5
 49
-0.25
 49
0.0
 49
-0.25
  0
LTYPE
  2
BORDER2
 70
    64
  3
__.__.__.__.__.__.__.__.__.__.__.__.__.__.__.__
 72
    65
 73
     6
 40
0.875
 49
0.25
 49
-0.125
 49
0.25
 49
-0.125
 49
0.0
 49
-0.125
  0
LTYPE
  2
BORDERX2
 70
    64
  3
____  ____  .  ____  ____  .  ____  ____  .  __
 72
    65
 73
     6
 40
3.5
 49
1.0
 49
-0.5
 49
1.0
 49
-0.5
 49
0.0
 49
-0.5
  0
LTYPE
  2
CENTER
 70
    64
  3
____ _ ____ _ ____ _ ____ _ ____ _ ____ _ ____ 
 72
    65
 73
     4
 40
2.0
 49
1.25
 49
-0.25
 49
0.25
 49
-0.25
  0
LTYPE
  2
CENTER2
 70
    64
  3
___ _ ___ _ ___ _ ___ _ ___ _ ___ _ ___ _ ___ _
 72
    65
 73
     4
 40
1.125
 49
0.75
 49
-0.125
 49
0.125
 49
-0.125
  0
LTYPE
  2
CENTERX2
 70
    64
  3
________  __  ________  __  ________  __  _____
 72
    65
 73
     4
 40
4.0
 49
2.5
 49
-0.5
 49
0.5
 49
-0.5
  0
LTYPE
  2
DASHDOT
 70
    64
  3
__ . __ . __ . __ . __ . __ . __ . __ . __ . __
 72
    65
 73
     4
 40
1.0
 49
0.5
 49
-0.25
 49
0.0
 49
-0.25
  0
LTYPE
  2
DASHDOT2
 70
    64
  3
_._._._._._._._._._._._._._._._._._._._._._._._
 72
    65
 73
     4
 40
0.5
 49
0.25
 49
-0.125
 49
0.0
 49
-0.125
  0
LTYPE
  2
DASHDOTX2
 70
    64
  3
____  .  ____  .  ____  .  ____  .  ____  .  __
 72
    65
 73
     4
 40
2.0
 49
1.0
 49
-0.5
 49
0.0
 49
-0.5
  0
LTYPE
  2
DASHED
 70
    64
  3
__ __ __ __ __ __ __ __ __ __ __ __ __ __ __ __
 72
    65
 73
     2
 40
0.75
 49
0.5
 49
-0.25
  0
LTYPE
  2
DASHED2
 70
    64
  3
_ _ _ _ _ _ _ _ _ _ _ _ _ _ _ _ _ _ _ _ _ _ _ _
 72
    65
 73
     2
 40
0.375
 49
0.25
 49
-0.125
  0
LTYPE
  2
DASHEDX2
 70
    64
  3
____  ____  ____  ____  ____  ____  ____  ____ 
 72
    65
 73
     2
 40
1.5
 49
1.0
 49
-0.5
  0
LTYPE
  2
DIVIDE
 70
    64
  3
____ . . ____ . . ____ . . ____ . . ____ . . __
 72
    65
 73
     6
 40
1.25
 49
0.5
 49
-0.25
 49
0.0
 49
-0.25
 49
0.0
 49
-0.25
  0
LTYPE
  2
DIVIDE2
 70
    64
  3
__..__..__..__..__..__..__..__..__..__..__..__.
 72
    65
 73
     6
 40
0.625
 49
0.25
 49
-0.125
 49
0.0
 49
-0.125
 49
0.0
 49
-0.125
  0
LTYPE
  2
DIVIDEX2
 70
    64
  3
________  .  .  ________  .  .  ________  .  . 
 72
    65
 73
     6
 40
2.5
 49
1.0
 49
-0.5
 49
0.0
 49
-0.5
 49
0.0
 49
-0.5
  0
LTYPE
  2
DOT
 70
    64
  3
. . . . . . . . . . . . . . . . . . . . . . . .
 72
    65
 73
     2
 40
0.25
 49
0.0
 49
-0.25
  0
LTYPE
  2
DOT2
 70
    64
  3
...............................................
 72
    65
 73
     2
 40
0.125
 49
0.0
 49
-0.125
  0
LTYPE
  2
DOTX2
 70
    64
  3
.  .  .  .  .  .  .  .  .  .  .  .  .  .  .  . 
 72
    65
 73
     2
 40
0.5
 49
0.0
 49
-0.5
  0
LTYPE
  2
HIDDEN
 70
    64
  3
__ __ __ __ __ __ __ __ __ __ __ __ __ __ __ __
 72
    65
 73
     2
 40
0.375
 49
0.25
 49
-0.125
  0
LTYPE
  2
HIDDEN2
 70
    64
  3
_ _ _ _ _ _ _ _ _ _ _ _ _ _ _ _ _ _ _ _ _ _ _ _
 72
    65
 73
     2
 40
0.1875
 49
0.125
 49
-0.0625
  0
LTYPE
  2
HIDDENX2
 70
    64
  3
____ ____ ____ ____ ____ ____ ____ ____ ____ __
 72
    65
 73
     2
 40
0.75
 49
0.5
 49
-0.25
  0
LTYPE
  2
PHANTOM
 70
    64
  3
______  __  __  ______  __  __  ______  __  __ 
 72
    65
 73
     6
 40
2.5
 49
1.25
 49
-0.25
 49
0.25
 49
-0.25
 49
0.25
 49
-0.25
  0
LTYPE
  2
PHANTOM2
 70
    64
  3
___ _ _ ___ _ _ ___ _ _ ___ _ _ ___ _ _ ___ _ _
 72
    65
 73
     6
 40
1.25
 49
0.625
 49
-0.125
 49
0.125
 49
-0.125
 49
0.125
 49
-0.125
  0
LTYPE
  2
PHANTOMX2
 70
    64
  3
____________    ____    ____    ____________   
 72
    65
 73
     6
 40
5.0
 49
2.5
 49
-0.5
 49
0.5
 49
-0.5
 49
0.5
 49
-0.5
  0
ENDTAB
  0
TABLE
  2
STYLE
 70
     2
  0
STYLE
  2
STANDARD
 70
0
 40
0.0
 41
1.0
 50
0.0
 71
0
 42
0.2
  3
TXT
  4
BIGFONT
  0
STYLE
  2
STANDARD1
 70
     4
 40
0.0
 41
1.0
 50
0.0
 71
     0
 42
0.2
  3
TXT
  4
BIGFONT
  0
ENDTAB
   0
TABLE
   2
LAYER
  70
11
   0
LAYER
   2
0
  70
0
  62
7
   6
CONTINUOUS
   0
LAYER
   2
LEVEL001
  70
0
  62
7
   6
CONTINUOUS
   0
LAYER
   2
LEVEL003
  70
0
  62
7
   6
CONTINUOUS
   0
LAYER
   2
LEVEL010
  70
0
  62
7
   6
CONTINUOUS
   0
LAYER
   2
LEVEL011
  70
0
  62
7
   6
CONTINUOUS
   0
LAYER
   2
LEVEL012
  70
0
  62
7
   6
CONTINUOUS
   0
LAYER
   2
LEVEL014
  70
0
  62
7
   6
CONTINUOUS
   0
LAYER
   2
LEVEL020
  70
0
  62
7
   6
CONTINUOUS
   0
LAYER
   2
LEVEL030
  70
0
  62
7
   6
CONTINUOUS
   0
LAYER
   2
LEVEL050
  70
0
  62
7
   6
CONTINUOUS
   0
LAYER
   2
LEVEL100
  70
0
  62
7
   6
CONTINUOUS
   0
ENDTAB
   0
ENDSEC
   0
SECTION
   2
ENTITIES
   0
LINE
   8
LEVEL001
   6
CONTINUOUS
  62
7
  10
 145.500
  20
 430.000
  30
0.0
  11
 146.500
  21
 429.000
  31
0.0
   0
LINE
   8
LEVEL001
   6
CONTINUOUS
  62
7
  10
 93.5000
  20
 429.000
  30
0.0
  11
 94.5000
  21
 430.000
  31
0.0
   0
LINE
   8
LEVEL001
   6
CONTINUOUS
  62
7
  10
 94.5000
  20
 430.000
  30
0.0
  11
 104.000
  21
 430.000
  31
0.0
   0
LINE
   8
LEVEL001
   6
CONTINUOUS
  62
7
  10
 136.000
  20
 430.000
  30
0.0
  11
 145.500
  21
 430.000
  31
0.0
   0
LINE
   8
LEVEL001
   6
CONTINUOUS
  62
7
  10
 93.5000
  20
 429.000
  30
0.0
  11
 104.000
  21
 429.000
  31
0.0
   0
LINE
   8
LEVEL001
   6
CONTINUOUS
  62
7
  10
 136.000
  20
 429.000
  30
0.0
  11
 146.500
  21
 429.000
  31
0.0
   0
LINE
   8
LEVEL001
   6
CONTINUOUS
  62
7
  10
 97.5000
  20
 309.000
  30
0.0
  11
 142.500
  21
 309.000
  31
0.0
   0
CIRCLE
   8
LEVEL001
   6
CONTINUOUS
  62
7
  10
 120.000
  20
 364.500
  30
0.0
  40
 7.47500
   0
CIRCLE
   8
LEVEL001
   6
CONTINUOUS
  62
7
  10
 120.000
  20
 364.500
  30
0.0
  40
 2.50000
   0
CIRCLE
   8
LEVEL001
   6
CONTINUOUS
  62
7
  10
 98.0000
  20
 364.500
  30
0.0
  40
 7.00000
   0
LINE
   8
LEVEL001
   6
CONTINUOUS
  62
7
  10
 97.7477
  20
 357.505
  30
0.0
  11
 98.9007
  21
 354.000
  31
0.0
   0
ARC
   8
LEVEL001
   6
CONTINUOUS
  62
7
  10
 106.500
  20
 356.500
  30
0.0
  40
 8.00000
  50
 198.210
  51
 265.000
   0
LINE
   8
LEVEL001
   6
CONTINUOUS
  62
7
  10
 157.970
  20
 372.192
  30
0.0
  11
 159.451
  21
 355.124
  31
0.0
   0
ARC
   8
LEVEL001
   6
CONTINUOUS
  62
7
  10
 136.000
  20
 331.000
  30
0.0
  40
 9.00000
  50
 275.000
  51
0.0
   0
LINE
   8
LEVEL001
   6
CONTINUOUS
  62
7
  10
 136.784
  20
 322.034
  30
0.0
  11
 120.000
  21
 320.566
  31
0.0
   0
ARC
   8
LEVEL001
   6
CONTINUOUS
  62
7
  10
 167.000
  20
 370.713
  30
0.0
  40
 2.00000
  50
 0.863075E-10
  51
 85.0000
   0
LINE
   8
LEVEL001
   6
CONTINUOUS
  62
7
  10
 169.000
  20
 370.713
  30
0.0
  11
 169.000
  21
 341.833
  31
0.0
   0
ARC
   8
LEVEL001
   6
CONTINUOUS
  62
7
  10
 167.000
  20
 341.833
  30
0.0
  40
 2.00000
  50
 275.000
  51
 0.407111E-10
   0
ARC
   8
LEVEL001
   6
CONTINUOUS
  62
7
  10
 120.000
  20
 365.000
  30
0.0
  40
 41.5000
  50
 311.843
  51
 320.330
   0
ARC
   8
LEVEL001
   6
CONTINUOUS
  62
7
  10
 71.4665
  20
 393.284
  30
0.0
  40
 2.00000
  50
 110.000
  51
 174.010
   0
ARC
   8
LEVEL001
   6
CONTINUOUS
  62
7
  10
 166.771
  20
 381.174
  30
0.0
  40
 2.00000
  50
 338.500
  51
 68.5000
   0
LINE
   8
LEVEL001
   6
CONTINUOUS
  62
7
  10
 168.632
  20
 380.441
  30
0.0
  11
 168.370
  21
 379.775
  31
0.0
   0
ARC
   8
LEVEL001
   6
CONTINUOUS
  62
7
  10
 171.150
  20
 378.680
  30
0.0
  40
 3.00000
  50
 153.333
  51
 218.151
   0
LINE
   8
LEVEL001
   6
CONTINUOUS
  62
7
  10
 171.611
  20
 371.169
  30
0.0
  11
 171.715
  21
 371.328
  31
0.0
   0
LINE
   8
LEVEL001
   6
CONTINUOUS
  62
7
  10
 171.715
  20
 371.328
  30
0.0
  11
 171.747
  21
 371.567
  31
0.0
   0
LINE
   8
LEVEL001
   6
CONTINUOUS
  62
7
  10
 171.747
  20
 371.567
  30
0.0
  11
 171.707
  21
 371.884
  31
0.0
   0
LINE
   8
LEVEL001
   6
CONTINUOUS
  62
7
  10
 171.707
  20
 371.884
  30
0.0
  11
 171.595
  21
 372.274
  31
0.0
   0
LINE
   8
LEVEL001
   6
CONTINUOUS
  62
7
  10
 171.595
  20
 372.274
  30
0.0
  11
 171.413
  21
 372.730
  31
0.0
   0
LINE
   8
LEVEL001
   6
CONTINUOUS
  62
7
  10
 171.413
  20
 372.730
  30
0.0
  11
 171.164
  21
 373.246
  31
0.0
   0
LINE
   8
LEVEL001
   6
CONTINUOUS
  62
7
  10
 171.164
  20
 373.246
  30
0.0
  11
 170.852
  21
 373.812
  31
0.0
   0
LINE
   8
LEVEL001
   6
CONTINUOUS
  62
7
  10
 170.852
  20
 373.812
  30
0.0
  11
 170.481
  21
 374.421
  31
0.0
   0
LINE
   8
LEVEL001
   6
CONTINUOUS
  62
7
  10
 170.481
  20
 374.421
  30
0.0
  11
 170.058
  21
 375.063
  31
0.0
   0
LINE
   8
LEVEL001
   6
CONTINUOUS
  62
7
  10
 170.058
  20
 375.063
  30
0.0
  11
 169.589
  21
 375.728
  31
0.0
   0
LINE
   8
LEVEL001
   6
CONTINUOUS
  62
7
  10
 169.589
  20
 375.728
  30
0.0
  11
 169.081
  21
 376.406
  31
0.0
   0
LINE
   8
LEVEL001
   6
CONTINUOUS
  62
7
  10
 169.081
  20
 376.406
  30
0.0
  11
 168.766
  21
 376.807
  31
0.0
   0
LINE
   8
LEVEL001
   6
CONTINUOUS
  62
7
  10
 171.611
  20
 371.169
  30
0.0
  11
 169.000
  21
 368.978
  31
0.0
   0
LINE
   8
LEVEL001
   6
CONTINUOUS
  62
7
  10
 168.370
  20
 379.775
  30
0.0
  11
 165.638
  21
 372.840
  31
0.0
   0
LINE
   8
LEVEL001
   6
CONTINUOUS
  62
7
  10
 144.500
  20
 414.536
  30
0.0
  11
 144.500
  21
 395.501
  31
0.0
   0
ARC
   8
LEVEL001
   6
CONTINUOUS
  62
7
  10
 149.500
  20
 395.501
  30
0.0
  40
 5.00000
  50
 180.000
  51
 248.500
   0
ARC
   8
LEVEL001
   6
CONTINUOUS
  62
7
  10
 146.655
  20
 389.098
  30
0.0
  40
 2.00000
  50
 68.5000
  51
 90.0000
   0
LINE
   8
LEVEL001
   6
CONTINUOUS
  62
7
  10
 147.667
  20
 390.849
  30
0.0
  11
 167.504
  21
 383.035
  31
0.0
   0
ARC
   8
LEVEL001
   6
CONTINUOUS
  62
7
  10
 128.500
  20
 397.713
  30
0.0
  40
 5.00000
  50
 180.000
  51
 265.000
   0
LINE
   8
LEVEL001
   6
CONTINUOUS
  62
7
  10
 146.830
  20
 391.090
  30
0.0
  11
 128.064
  21
 392.732
  31
0.0
   0
LINE
   8
LEVEL001
   6
CONTINUOUS
  62
7
  10
 150.697
  20
 379.470
  30
0.0
  11
 128.064
  21
 381.450
  31
0.0
   0
LINE
   8
LEVEL001
   6
CONTINUOUS
  62
7
  10
 120.000
  20
 386.731
  30
0.0
  11
 121.267
  21
 386.620
  31
0.0
   0
ARC
   8
LEVEL001
   6
CONTINUOUS
  62
7
  10
 121.006
  20
 383.631
  30
0.0
  40
 3.00000
  50
 20.4824
  51
 85.0000
   0
ARC
   8
LEVEL001
   6
CONTINUOUS
  62
7
  10
 128.500
  20
 386.431
  30
0.0
  40
 5.00000
  50
 180.000
  51
 265.000
   0
ARC
   8
LEVEL001
   6
CONTINUOUS
  62
7
  10
 111.500
  20
 401.444
  30
0.0
  40
 5.00000
  50
 274.000
  51
 0.130276E-11
   0
LINE
   8
LEVEL001
   6
CONTINUOUS
  62
7
  10
 68.7907
  20
 393.445
  30
0.0
  11
 111.849
  21
 396.456
  31
0.0
   0
ARC
   8
LEVEL001
   6
CONTINUOUS
  62
7
  10
 111.500
  20
 391.006
  30
0.0
  40
 5.00000
  50
 275.000
  51
 0.351744E-10
   0
LINE
   8
LEVEL001
   6
CONTINUOUS
  62
7
  10
 105.367
  20
 385.451
  30
0.0
  11
 120.000
  21
 386.731
  31
0.0
   0
LINE
   8
LEVEL001
   6
CONTINUOUS
  62
7
  10
 123.500
  20
 456.000
  30
0.0
  11
 123.500
  21
 386.431
  31
0.0
   0
ARC
   8
LEVEL001
   6
CONTINUOUS
  62
7
  10
 111.500
  20
 343.013
  30
0.0
  40
 5.00000
  50
 0.195413E-11
  51
 85.0000
   0
LINE
   8
LEVEL001
   6
CONTINUOUS
  62
7
  10
 105.803
  20
 348.530
  30
0.0
  11
 111.936
  21
 347.994
  31
0.0
   0
ARC
   8
LEVEL001
   6
CONTINUOUS
  62
7
  10
 107.000
  20
 327.871
  30
0.0
  40
 5.00000
  50
 0.651378E-12
  51
 86.0000
   0
ARC
   8
LEVEL001
   6
CONTINUOUS
  62
7
  10
 107.000
  20
 332.883
  30
0.0
  40
 5.00000
  50
 0.781653E-11
  51
 86.0000
   0
ARC
   8
LEVEL001
   6
CONTINUOUS
  62
7
  10
 150.000
  20
 336.344
  30
0.0
  40
 5.00000
  50
 101.212
  51
 180.000
   0
ARC
   8
LEVEL001
   6
CONTINUOUS
  62
7
  10
 146.500
  20
 354.000
  30
0.0
  40
 13.0000
  50
 281.212
  51
 4.96017
   0
ARC
   8
LEVEL001
   6
CONTINUOUS
  62
7
  10
 152.855
  20
 333.568
  30
0.0
  40
 5.00000
  50
 95.0000
  51
 158.500
   0
LINE
   8
LEVEL003
   6
CONTINUOUS
  62
7
  10
 167.174
  20
 339.840
  30
0.0
  11
 149.564
  21
 338.300
  31
0.0
   0
ARC
   8
LEVEL003
   6
CONTINUOUS
  62
7
  10
 150.000
  20
 333.319
  30
0.0
  40
 5.00000
  50
 95.0000
  51
 180.000
   0
LINE
   8
LEVEL001
   6
CONTINUOUS
  62
7
  10
 145.000
  20
 331.000
  30
0.0
  11
 145.000
  21
 336.344
  31
0.0
   0
LINE
   8
LEVEL001
   6
CONTINUOUS
  62
7
  10
 120.000
  20
 338.632
  30
0.0
  11
 119.239
  21
 338.699
  31
0.0
   0
ARC
   8
LEVEL001
   6
CONTINUOUS
  62
7
  10
 119.500
  20
 341.687
  30
0.0
  40
 3.00000
  50
 180.000
  51
 265.000
   0
LINE
   8
LEVEL001
   6
CONTINUOUS
  62
7
  10
 116.500
  20
 341.687
  30
0.0
  11
 116.500
  21
 343.013
  31
0.0
   0
LINE
   8
LEVEL001
   6
CONTINUOUS
  62
7
  10
 112.000
  20
 324.015
  30
0.0
  11
 112.000
  21
 332.883
  31
0.0
   0
ARC
   8
LEVEL001
   6
CONTINUOUS
  62
7
  10
 115.000
  20
 324.015
  30
0.0
  40
 3.00000
  50
 180.000
  51
 265.000
   0
LINE
   8
LEVEL001
   6
CONTINUOUS
  62
7
  10
 120.000
  20
 320.566
  30
0.0
  11
 114.739
  21
 321.026
  31
0.0
   0
ARC
   8
LEVEL001
   6
CONTINUOUS
  62
7
  10
 92.5000
  20
 312.105
  30
0.0
  40
 5.00000
  50
 0.566699E-10
  51
 20.0000
   0
LINE
   8
LEVEL003
   6
CONTINUOUS
  62
7
  10
 89.8211
  20
 334.084
  30
0.0
  11
 97.1985
  21
 313.815
  31
0.0
   0
LINE
   8
LEVEL001
   6
CONTINUOUS
  62
7
  10
 93.0970
  20
 333.855
  30
0.0
  11
 97.1985
  21
 322.586
  31
0.0
   0
ARC
   8
LEVEL001
   6
CONTINUOUS
  62
7
  10
 92.5000
  20
 320.876
  30
0.0
  40
 5.00000
  50
 0.101615E-9
  51
 20.0000
   0
ARC
   8
LEVEL001
   6
CONTINUOUS
  62
7
  10
 92.5000
  20
 328.885
  30
0.0
  40
 5.00000
  50
0.0
  51
 86.0000
   0
LINE
   8
LEVEL001
   6
CONTINUOUS
  62
7
  10
 97.5000
  20
 309.000
  30
0.0
  11
 97.5000
  21
 328.885
  31
0.0
   0
LINE
   8
LEVEL001
   6
CONTINUOUS
  62
7
  10
 68.7907
  20
 335.555
  30
0.0
  11
 107.000
  21
 332.883
  31
0.0
   0
LINE
   8
LEVEL001
   6
CONTINUOUS
  62
7
  10
 148.203
  20
 335.401
  30
0.0
  11
 142.848
  21
 321.806
  31
0.0
   0
ARC
   8
LEVEL001
   6
CONTINUOUS
  62
7
  10
 147.500
  20
 319.973
  30
0.0
  40
 5.00000
  50
 158.500
  51
 180.000
   0
LINE
   8
LEVEL001
   6
CONTINUOUS
  62
7
  10
 142.500
  20
 309.000
  30
0.0
  11
 142.500
  21
 324.775
  31
0.0
   0
LINE
   8
LEVEL001
   6
CONTINUOUS
  62
7
  10
 167.174
  20
 372.706
  30
0.0
  11
 160.671
  21
 373.274
  31
0.0
   0
ARC
   8
LEVEL001
   6
CONTINUOUS
  62
7
  10
 161.107
  20
 378.255
  30
0.0
  40
 5.00000
  50
 211.309
  51
 265.000
   0
ARC
   8
LEVEL001
   6
CONTINUOUS
  62
7
  10
 150.000
  20
 371.500
  30
0.0
  40
 8.00000
  50
 4.96017
  51
 85.0000
   0
LINE
   8
LEVEL001
   6
CONTINUOUS
  62
7
  10
 92.2101
  20
 402.963
  30
0.0
  11
 70.7825
  21
 395.164
  31
0.0
   0
LINE
   8
LEVEL001
   6
CONTINUOUS
  62
7
  10
 93.5000
  20
 429.000
  30
0.0
  11
 93.5000
  21
 418.000
  31
0.0
   0
ARC
   8
LEVEL001
   6
CONTINUOUS
  62
7
  10
 93.5000
  20
 414.536
  30
0.0
  40
 2.00000
  50
 0.797938E-10
  51
 60.0000
   0
ARC
   8
LEVEL001
   6
CONTINUOUS
  62
7
  10
 95.5000
  20
 418.000
  30
0.0
  40
 2.00000
  50
 180.000
  51
 240.000
   0
LINE
   8
LEVEL001
   6
CONTINUOUS
  62
7
  10
 146.500
  20
 429.000
  30
0.0
  11
 146.500
  21
 418.000
  31
0.0
   0
ARC
   8
LEVEL001
   6
CONTINUOUS
  62
7
  10
 146.500
  20
 414.536
  30
0.0
  40
 2.00000
  50
 120.000
  51
 180.000
   0
ARC
   8
LEVEL001
   6
CONTINUOUS
  62
7
  10
 144.500
  20
 418.000
  30
0.0
  40
 2.00000
  50
 300.000
  51
0.0
   0
ARC
   8
LEVEL001
   6
CONTINUOUS
  62
7
  10
 134.000
  20
 421.833
  30
0.0
  40
 2.00000
  50
 275.000
  51
0.0
   0
ARC
   8
LEVEL001
   6
CONTINUOUS
  62
7
  10
 106.000
  20
 421.833
  30
0.0
  40
 2.00000
  50
 180.000
  51
 265.000
   0
LINE
   8
LEVEL001
   6
CONTINUOUS
  62
7
  10
 104.000
  20
 439.000
  30
0.0
  11
 104.000
  21
 421.833
  31
0.0
   0
LINE
   8
LEVEL001
   6
CONTINUOUS
  62
7
  10
 136.000
  20
 439.000
  30
0.0
  11
 136.000
  21
 421.833
  31
0.0
   0
LINE
   8
LEVEL001
   6
CONTINUOUS
  62
7
  10
 134.174
  20
 419.840
  30
0.0
  11
 128.064
  21
 419.306
  31
0.0
   0
ARC
   8
LEVEL001
   6
CONTINUOUS
  62
7
  10
 128.500
  20
 414.325
  30
0.0
  40
 5.00000
  50
 95.0000
  51
 180.000
   0
LINE
   8
LEVEL001
   6
CONTINUOUS
  62
7
  10
 105.826
  20
 419.840
  30
0.0
  11
 111.936
  21
 419.306
  31
0.0
   0
ARC
   8
LEVEL001
   6
CONTINUOUS
  62
7
  10
 111.500
  20
 414.325
  30
0.0
  40
 5.00000
  50
 0.651378E-12
  51
 85.0000
   0
LINE
   8
LEVEL001
   6
CONTINUOUS
  62
7
  10
 95.5000
  20
 407.661
  30
0.0
  11
 95.5000
  21
 414.536
  31
0.0
   0
ARC
   8
LEVEL001
   6
CONTINUOUS
  62
7
  10
 90.5000
  20
 407.661
  30
0.0
  40
 5.00000
  50
 290.000
  51
0.0
   0
ARC
   8
LEVEL001
   6
CONTINUOUS
  62
7
  10
 126.500
  20
 456.000
  30
0.0
  40
 3.00000
  50
 90.0000
  51
 180.000
   0
ARC
   8
LEVEL001
   6
CONTINUOUS
  62
7
  10
 113.500
  20
 456.000
  30
0.0
  40
 3.00000
  50
0.0
  51
 90.0000
   0
LINE
   8
LEVEL001
   6
CONTINUOUS
  62
7
  10
 149.034
  20
 341.172
  30
0.0
  11
 120.000
  21
 338.632
  31
0.0
   0
ARC
   8
LEVEL001
   6
CONTINUOUS
  62
7
  10
 69.0000
  20
 338.548
  30
0.0
  40
 3.00000
  50
 259.867
  51
 266.000
   0
LINE
   8
LEVEL003
   6
CONTINUOUS
  62
7
  10
 68.5000
  20
 393.410
  30
0.0
  11
 68.5000
  21
 335.594
  31
0.0
   0
ARC
   8
LEVEL001
   6
CONTINUOUS
  62
7
  10
 69.0000
  20
 390.452
  30
0.0
  40
 3.00000
  50
 94.0000
  51
 99.5941
   0
LINE
   8
LEVEL001
   6
CONTINUOUS
  62
7
  10
 116.500
  20
 456.000
  30
0.0
  11
 116.500
  21
 391.006
  31
0.0
   0
LINE
   8
LEVEL001
   6
CONTINUOUS
  62
7
  10
 116.211
  20
 416.000
  30
0.0
  11
 95.5000
  21
 416.000
  31
0.0
   0
LINE
   8
LEVEL001
   6
CONTINUOUS
  62
7
  10
 144.500
  20
 416.000
  30
0.0
  11
 123.789
  21
 416.000
  31
0.0
   0
LINE
   8
LEVEL001
   6
CONTINUOUS
  62
7
  10
 104.000
  20
 439.000
  30
0.0
  11
 110.500
  21
 439.000
  31
0.0
   0
LINE
   8
LEVEL001
   6
CONTINUOUS
  62
7
  10
 110.500
  20
 439.000
  30
0.0
  11
 110.500
  21
 463.631
  31
0.0
   0
LINE
   8
LEVEL001
   6
CONTINUOUS
  62
7
  10
 129.500
  20
 439.000
  30
0.0
  11
 136.000
  21
 439.000
  31
0.0
   0
LINE
   8
LEVEL001
   6
CONTINUOUS
  62
7
  10
 129.500
  20
 439.000
  30
0.0
  11
 129.500
  21
 463.631
  31
0.0
   0
LINE
   8
LEVEL001
   6
CONTINUOUS
  62
7
  10
 129.500
  20
 463.631
  30
0.0
  11
 120.000
  21
 464.462
  31
0.0
   0
LINE
   8
LEVEL001
   6
CONTINUOUS
  62
7
  10
 110.500
  20
 463.631
  30
0.0
  11
 120.000
  21
 464.462
  31
0.0
   0
CIRCLE
   8
LEVEL001
   6
CONTINUOUS
  62
3
  10
 120.000
  20
 364.500
  30
0.0
  40
 8.33100
   0
LINE
   8
LEVEL001
   6
DASHDOT
  62
1
  10
 120.000
  20
 337.000
  30
0.0
  11
 170.322
  21
 379.225
  31
0.0
   0
LINE
   8
LEVEL001
   6
DASHDOT
  62
1
  10
 90.3846
  20
 365.000
  30
0.0
  11
 164.559
  21
 365.000
  31
0.0
   0
LINE
   8
LEVEL001
   6
DASHDOT
  62
1
  10
 150.000
  20
 371.500
  30
0.0
  11
 150.000
  21
 357.500
  31
0.0
   0
LINE
   8
LEVEL001
   6
DASHDOT
  62
1
  10
 142.864
  20
 332.000
  30
0.0
  11
 127.136
  21
 332.000
  31
0.0
   0
LINE
   8
LEVEL001
   6
DASHDOT
  62
1
  10
 135.000
  20
 339.864
  30
0.0
  11
 135.000
  21
 324.136
  31
0.0
   0
LINE
   8
LEVEL001
   6
DASHDOT
  62
1
  10
 98.0000
  20
 374.078
  30
0.0
  11
 98.0000
  21
 354.922
  31
0.0
   0
ARC
   8
LEVEL001
   6
CONTINUOUS
  62
7
  10
 106.500
  20
 372.500
  30
0.0
  40
 13.0000
  50
 95.0000
  51
 190.867
   0
LINE
   8
LEVEL001
   6
CONTINUOUS
  62
7
  10
 97.7477
  20
 357.505
  30
0.0
  11
 98.9007
  21
 354.000
  31
0.0
   0
LINE
   8
LEVEL001
   6
CONTINUOUS
  62
7
  10
 93.5000
  20
 309.000
  30
0.0
  11
 97.5000
  21
 313.000
  31
0.0
   0
LINE
   8
LEVEL001
   6
CONTINUOUS
  62
7
  10
 146.500
  20
 309.000
  30
0.0
  11
 142.500
  21
 313.000
  31
0.0
   0
LINE
   8
LEVEL001
   6
DASHDOT
  62
1
  10
 128.337
  20
 310.888
  30
0.0
  11
 163.816
  21
 400.958
  31
0.0
   0
LINE
   8
LEVEL003
   6
CONTINUOUS
  62
7
  10
 98.0000
  20
 367.964
  30
0.0
  11
 101.000
  21
 366.232
  31
0.0
   0
LINE
   8
LEVEL003
   6
CONTINUOUS
  62
7
  10
 101.000
  20
 366.232
  30
0.0
  11
 101.000
  21
 362.768
  31
0.0
   0
LINE
   8
LEVEL003
   6
CONTINUOUS
  62
7
  10
 101.000
  20
 362.768
  30
0.0
  11
 98.0000
  21
 361.036
  31
0.0
   0
LINE
   8
LEVEL003
   6
CONTINUOUS
  62
7
  10
 98.0000
  20
 361.036
  30
0.0
  11
 95.0000
  21
 362.768
  31
0.0
   0
LINE
   8
LEVEL003
   6
CONTINUOUS
  62
7
  10
 95.0000
  20
 362.768
  30
0.0
  11
 95.0000
  21
 366.232
  31
0.0
   0
LINE
   8
LEVEL003
   6
CONTINUOUS
  62
7
  10
 95.0000
  20
 366.232
  30
0.0
  11
 98.0000
  21
 367.964
  31
0.0
   0
CIRCLE
   8
LEVEL003
   6
CONTINUOUS
  62
7
  10
 98.0000
  20
 364.500
  30
0.0
  40
 6.57850
   0
CIRCLE
   8
LEVEL003
   6
CONTINUOUS
  62
3
  10
 98.0000
  20
 364.500
  30
0.0
  40
 5.72250
   0
LINE
   8
LEVEL003
   6
CONTINUOUS
  62
7
  10
 135.000
  20
 334.887
  30
0.0
  11
 137.500
  21
 333.443
  31
0.0
   0
LINE
   8
LEVEL003
   6
CONTINUOUS
  62
7
  10
 137.500
  20
 333.443
  30
0.0
  11
 137.500
  21
 330.557
  31
0.0
   0
LINE
   8
LEVEL003
   6
CONTINUOUS
  62
7
  10
 137.500
  20
 330.557
  30
0.0
  11
 135.000
  21
 329.113
  31
0.0
   0
LINE
   8
LEVEL003
   6
CONTINUOUS
  62
7
  10
 135.000
  20
 329.113
  30
0.0
  11
 132.500
  21
 330.557
  31
0.0
   0
LINE
   8
LEVEL003
   6
CONTINUOUS
  62
7
  10
 132.500
  20
 330.557
  30
0.0
  11
 132.500
  21
 333.443
  31
0.0
   0
LINE
   8
LEVEL003
   6
CONTINUOUS
  62
7
  10
 132.500
  20
 333.443
  30
0.0
  11
 135.000
  21
 334.887
  31
0.0
   0
CIRCLE
   8
LEVEL003
   6
CONTINUOUS
  62
7
  10
 135.000
  20
 332.000
  30
0.0
  40
 4.86400
   0
CIRCLE
   8
LEVEL003
   6
CONTINUOUS
  62
3
  10
 135.000
  20
 332.000
  30
0.0
  40
 4.28300
   0
LINE
   8
LEVEL003
   6
CONTINUOUS
  62
7
  10
 150.000
  20
 366.809
  30
0.0
  11
 152.000
  21
 365.655
  31
0.0
   0
LINE
   8
LEVEL003
   6
CONTINUOUS
  62
7
  10
 152.000
  20
 365.655
  30
0.0
  11
 152.000
  21
 363.345
  31
0.0
   0
LINE
   8
LEVEL003
   6
CONTINUOUS
  62
7
  10
 152.000
  20
 363.345
  30
0.0
  11
 150.000
  21
 362.191
  31
0.0
   0
LINE
   8
LEVEL003
   6
CONTINUOUS
  62
7
  10
 150.000
  20
 362.191
  30
0.0
  11
 148.000
  21
 363.345
  31
0.0
   0
LINE
   8
LEVEL003
   6
CONTINUOUS
  62
7
  10
 148.000
  20
 363.345
  30
0.0
  11
 148.000
  21
 365.655
  31
0.0
   0
LINE
   8
LEVEL003
   6
CONTINUOUS
  62
7
  10
 148.000
  20
 365.655
  30
0.0
  11
 150.000
  21
 366.809
  31
0.0
   0
CIRCLE
   8
LEVEL003
   6
CONTINUOUS
  62
7
  10
 150.000
  20
 364.500
  30
0.0
  40
 4.00000
   0
CIRCLE
   8
LEVEL003
   6
CONTINUOUS
  62
3
  10
 150.000
  20
 364.500
  30
0.0
  40
 3.37500
   0
ARC
   8
LEVEL003
   6
CONTINUOUS
  62
7
  10
 82.9729
  20
 364.500
  30
0.0
  40
 21.9729
  50
 162.412
  51
 197.588
   0
ARC
   8
LEVEL003
   6
CONTINUOUS
  62
7
  10
 73.0136
  20
 376.000
  30
0.0
  40
 12.0136
  50
 180.000
  51
 203.865
   0
ARC
   8
LEVEL003
   6
CONTINUOUS
  62
7
  10
 73.0136
  20
 353.000
  30
0.0
  40
 12.0136
  50
 156.135
  51
 180.000
   0
LINE
   8
LEVEL001
   6
CONTINUOUS
  62
7
  10
 52.4075
  20
 352.292
  30
0.0
  11
 52.4075
  21
 359.500
  31
0.0
   0
LINE
   8
LEVEL001
   6
CONTINUOUS
  62
7
  10
 52.4075
  20
 369.500
  30
0.0
  11
 52.4075
  21
 376.708
  31
0.0
   0
ARC
   8
LEVEL001
   6
CONTINUOUS
  62
7
  10
 45.4075
  20
 346.915
  30
0.0
  40
 3.00000
  50
 98.5311
  51
 179.999
   0
ARC
   8
LEVEL001
   6
CONTINUOUS
  62
7
  10
 33.1830
  20
 341.643
  30
0.0
  40
 2.00000
  50
 188.884
  51
 270.000
   0
LINE
   8
LEVEL001
   6
CONTINUOUS
  62
7
  10
 30.4075
  20
 347.207
  30
0.0
  11
 30.4075
  21
 381.790
  31
0.0
   0
ARC
   8
LEVEL001
   6
CONTINUOUS
  62
7
  10
 179.407
  20
 364.499
  30
0.0
  40
 150.000
  50
 186.620
  51
 188.884
   0
LINE
   8
LEVEL001
   6
CONTINUOUS
  62
7
  10
 41.4075
  20
 339.643
  30
0.0
  11
 33.1830
  21
 339.643
  31
0.0
   0
ARC
   8
LEVEL001
   6
CONTINUOUS
  62
7
  10
 41.4075
  20
 340.643
  30
0.0
  40
 1.00000
  50
 270.000
  51
 0.521102E-9
   0
LINE
   8
LEVEL001
   6
CONTINUOUS
  62
7
  10
 42.4075
  20
 340.643
  30
0.0
  11
 42.4075
  21
 364.500
  31
0.0
   0
ARC
   8
LEVEL010
   6
CONTINUOUS
  62
7
  10
 41.4075
  20
 352.026
  30
0.0
  40
 1.00000
  50
 270.000
  51
 0.338716E-9
   0
ARC
   8
LEVEL010
   6
CONTINUOUS
  62
7
  10
 33.2070
  20
 353.026
  30
0.0
  40
 2.00000
  50
 180.000
  51
 270.000
   0
LINE
   8
LEVEL010
   6
CONTINUOUS
  62
7
  10
 30.4075
  20
 361.000
  30
0.0
  11
 31.2167
  21
 352.829
  31
0.0
   0
ARC
   8
LEVEL010
   6
CONTINUOUS
  62
7
  10
 41.4075
  20
 350.026
  30
0.0
  40
 1.00000
  50
0.0
  51
 90.0000
   0
ARC
   8
LEVEL010
   6
CONTINUOUS
  62
7
  10
 33.2070
  20
 349.026
  30
0.0
  40
 2.00000
  50
 90.0000
  51
 180.000
   0
LINE
   8
LEVEL010
   6
CONTINUOUS
  62
7
  10
 41.4075
  20
 351.026
  30
0.0
  11
 33.2070
  21
 351.026
  31
0.0
   0
LINE
   8
LEVEL010
   6
CONTINUOUS
  62
7
  10
 31.2070
  20
 349.026
  30
0.0
  11
 31.2070
  21
 343.525
  31
0.0
   0
LINE
   8
LEVEL010
   6
CONTINUOUS
  62
7
  10
 41.4075
  20
 361.000
  30
0.0
  11
 33.2070
  21
 361.000
  31
0.0
   0
ARC
   8
LEVEL001
   6
CONTINUOUS
  62
7
  10
 45.4075
  20
 382.082
  30
0.0
  40
 3.00000
  50
 179.999
  51
 261.469
   0
ARC
   8
LEVEL001
   6
CONTINUOUS
  62
7
  10
 41.4075
  20
 388.355
  30
0.0
  40
 1.00000
  50
0.0
  51
 90.0000
   0
ARC
   8
LEVEL001
   6
CONTINUOUS
  62
7
  10
 33.1830
  20
 387.355
  30
0.0
  40
 2.00000
  50
 89.9999
  51
 171.117
   0
LINE
   8
LEVEL001
   6
CONTINUOUS
  62
7
  10
 41.4075
  20
 389.355
  30
0.0
  11
 33.1830
  21
 389.355
  31
0.0
   0
ARC
   8
LEVEL001
   6
CONTINUOUS
  62
7
  10
 179.408
  20
 364.499
  30
0.0
  40
 150.000
  50
 171.116
  51
 173.380
   0
LINE
   8
LEVEL001
   6
CONTINUOUS
  62
7
  10
 42.4075
  20
 364.500
  30
0.0
  11
 42.4075
  21
 388.355
  31
0.0
   0
ARC
   8
LEVEL010
   6
CONTINUOUS
  62
7
  10
 41.4075
  20
 376.974
  30
0.0
  40
 1.00000
  50
0.0
  51
 90.0000
   0
ARC
   8
LEVEL010
   6
CONTINUOUS
  62
7
  10
 33.2070
  20
 375.974
  30
0.0
  40
 2.00000
  50
 90.0000
  51
 180.000
   0
LINE
   8
LEVEL010
   6
CONTINUOUS
  62
7
  10
 30.4075
  20
 368.000
  30
0.0
  11
 31.2167
  21
 376.171
  31
0.0
   0
ARC
   8
LEVEL010
   6
CONTINUOUS
  62
7
  10
 41.4075
  20
 378.974
  30
0.0
  40
 1.00000
  50
 270.000
  51
0.0
   0
ARC
   8
LEVEL010
   6
CONTINUOUS
  62
7
  10
 33.2070
  20
 379.974
  30
0.0
  40
 2.00000
  50
 180.000
  51
 270.000
   0
LINE
   8
LEVEL010
   6
CONTINUOUS
  62
7
  10
 41.4075
  20
 377.974
  30
0.0
  11
 33.2070
  21
 377.974
  31
0.0
   0
LINE
   8
LEVEL010
   6
CONTINUOUS
  62
7
  10
 31.2070
  20
 379.974
  30
0.0
  11
 31.2070
  21
 385.475
  31
0.0
   0
LINE
   8
LEVEL010
   6
CONTINUOUS
  62
7
  10
 41.4075
  20
 368.000
  30
0.0
  11
 33.2070
  21
 368.000
  31
0.0
   0
ARC
   8
LEVEL001
   6
CONTINUOUS
  62
7
  10
 50.4075
  20
 376.276
  30
0.0
  40
 2.00000
  50
 0.768312E-3
  51
 81.4689
   0
LINE
   8
LEVEL001
   6
CONTINUOUS
  62
7
  10
 50.7042
  20
 378.254
  30
0.0
  11
 44.9625
  21
 379.115
  31
0.0
   0
LINE
   8
LEVEL001
   6
CONTINUOUS
  62
7
  10
 52.4075
  20
 364.500
  30
0.0
  11
 52.4075
  21
 376.276
  31
0.0
   0
ARC
   8
LEVEL001
   6
CONTINUOUS
  62
7
  10
 50.4075
  20
 352.721
  30
0.0
  40
 2.00000
  50
 278.531
  51
 0.980216E-3
   0
LINE
   8
LEVEL001
   6
CONTINUOUS
  62
7
  10
 50.7042
  20
 350.743
  30
0.0
  11
 44.9625
  21
 349.882
  31
0.0
   0
LINE
   8
LEVEL001
   6
CONTINUOUS
  62
7
  10
 52.4075
  20
 352.721
  30
0.0
  11
 52.4075
  21
 364.500
  31
0.0
   0
ARC
   8
LEVEL001
   6
CONTINUOUS
  62
7
  10
 179.408
  20
 364.500
  30
0.0
  40
 150.000
  50
 170.951
  51
 189.049
   0
LINE
   8
LEVEL001
   6
CONTINUOUS
  62
7
  10
 52.4075
  20
 358.149
  30
0.0
  11
 61.0000
  21
 358.149
  31
0.0
   0
LINE
   8
LEVEL001
   6
CONTINUOUS
  62
7
  10
 52.4075
  20
 370.849
  30
0.0
  11
 61.0000
  21
 370.849
  31
0.0
   0
LINE
   8
LEVEL001
   6
DASHDOT
  62
1
  10
 26.0067
  20
 364.500
  30
0.0
  11
 160.705
  21
 364.500
  31
0.0
   0
LINE
   8
LEVEL003
   6
CONTINUOUS
  62
7
  10
 68.5000
  20
 351.221
  30
0.0
  11
 62.0271
  21
 351.221
  31
0.0
   0
LINE
   8
LEVEL003
   6
CONTINUOUS
  62
7
  10
 62.0271
  20
 351.221
  30
0.0
  11
 61.0000
  21
 353.000
  31
0.0
   0
LINE
   8
LEVEL003
   6
CONTINUOUS
  62
7
  10
 61.0000
  20
 353.000
  30
0.0
  11
 61.0000
  21
 376.000
  31
0.0
   0
LINE
   8
LEVEL003
   6
CONTINUOUS
  62
7
  10
 61.0000
  20
 376.000
  30
0.0
  11
 62.0271
  21
 377.779
  31
0.0
   0
LINE
   8
LEVEL003
   6
CONTINUOUS
  62
7
  10
 62.0271
  20
 377.779
  30
0.0
  11
 68.5000
  21
 377.779
  31
0.0
   0
LINE
   8
LEVEL003
   6
CONTINUOUS
  62
7
  10
 68.5000
  20
 357.860
  30
0.0
  11
 62.0271
  21
 357.860
  31
0.0
   0
LINE
   8
LEVEL003
   6
CONTINUOUS
  62
7
  10
 68.5000
  20
 371.140
  30
0.0
  11
 62.0271
  21
 371.140
  31
0.0
   0
ARC
   8
LEVEL010
   6
CONTINUOUS
  62
7
  10
 101.500
  20
 466.000
  30
0.0
  40
 2.00000
  50
 270.000
  51
0.0
   0
LINE
   8
LEVEL010
   6
CONTINUOUS
  62
7
  10
 101.500
  20
 443.000
  30
0.0
  11
 104.000
  21
 443.000
  31
0.0
   0
LINE
   8
LEVEL010
   6
CONTINUOUS
  62
7
  10
 101.500
  20
 434.500
  30
0.0
  11
 101.500
  21
 464.000
  31
0.0
   0
ARC
   8
LEVEL010
   6
CONTINUOUS
  62
7
  10
 101.500
  20
 449.625
  30
0.0
  40
 2.00000
  50
 270.000
  51
0.0
   0
LINE
   8
LEVEL010
   6
CONTINUOUS
  62
7
  10
 101.500
  20
 449.000
  30
0.0
  11
 96.5000
  21
 449.000
  31
0.0
   0
LINE
   8
LEVEL010
   6
CONTINUOUS
  62
7
  10
 96.5000
  20
 449.000
  30
0.0
  11
 96.5000
  21
 459.000
  31
0.0
   0
LINE
   8
LEVEL010
   6
CONTINUOUS
  62
7
  10
 96.5000
  20
 459.000
  30
0.0
  11
 101.500
  21
 459.000
  31
0.0
   0
LINE
   8
LEVEL010
   6
CONTINUOUS
  62
7
  10
 96.5000
  20
 449.000
  30
0.0
  11
 95.5000
  21
 450.000
  31
0.0
   0
LINE
   8
LEVEL010
   6
CONTINUOUS
  62
7
  10
 95.5000
  20
 450.000
  30
0.0
  11
 95.5000
  21
 458.000
  31
0.0
   0
LINE
   8
LEVEL010
   6
CONTINUOUS
  62
7
  10
 95.5000
  20
 458.000
  30
0.0
  11
 96.5000
  21
 459.000
  31
0.0
   0
ARC
   8
LEVEL010
   6
CONTINUOUS
  62
7
  10
 138.500
  20
 466.000
  30
0.0
  40
 2.00000
  50
 180.000
  51
 270.000
   0
LINE
   8
LEVEL010
   6
CONTINUOUS
  62
7
  10
 136.000
  20
 443.000
  30
0.0
  11
 138.500
  21
 443.000
  31
0.0
   0
LINE
   8
LEVEL010
   6
CONTINUOUS
  62
7
  10
 138.500
  20
 434.500
  30
0.0
  11
 138.500
  21
 464.000
  31
0.0
   0
ARC
   8
LEVEL010
   6
CONTINUOUS
  62
7
  10
 138.500
  20
 449.625
  30
0.0
  40
 2.00000
  50
 180.000
  51
 270.000
   0
LINE
   8
LEVEL010
   6
CONTINUOUS
  62
7
  10
 138.500
  20
 459.000
  30
0.0
  11
 143.500
  21
 459.000
  31
0.0
   0
LINE
   8
LEVEL010
   6
CONTINUOUS
  62
7
  10
 143.500
  20
 459.000
  30
0.0
  11
 143.500
  21
 449.000
  31
0.0
   0
LINE
   8
LEVEL010
   6
CONTINUOUS
  62
7
  10
 143.500
  20
 449.000
  30
0.0
  11
 138.500
  21
 449.000
  31
0.0
   0
LINE
   8
LEVEL010
   6
CONTINUOUS
  62
7
  10
 143.500
  20
 459.000
  30
0.0
  11
 144.500
  21
 458.000
  31
0.0
   0
LINE
   8
LEVEL010
   6
CONTINUOUS
  62
7
  10
 144.500
  20
 458.000
  30
0.0
  11
 144.500
  21
 450.000
  31
0.0
   0
LINE
   8
LEVEL010
   6
CONTINUOUS
  62
7
  10
 144.500
  20
 450.000
  30
0.0
  11
 143.500
  21
 449.000
  31
0.0
   0
ARC
   8
LEVEL010
   6
CONTINUOUS
  62
7
  10
 136.500
  20
 434.500
  30
0.0
  40
 2.00000
  50
 270.000
  51
0.0
   0
LINE
   8
LEVEL010
   6
CONTINUOUS
  62
7
  10
 136.000
  20
 432.500
  30
0.0
  11
 136.500
  21
 432.500
  31
0.0
   0
ARC
   8
LEVEL010
   6
CONTINUOUS
  62
7
  10
 103.500
  20
 434.500
  30
0.0
  40
 2.00000
  50
 180.000
  51
 270.000
   0
LINE
   8
LEVEL010
   6
CONTINUOUS
  62
7
  10
 110.500
  20
 463.631
  30
0.0
  11
 110.500
  21
 470.081
  31
0.0
   0
LINE
   8
LEVEL010
   6
CONTINUOUS
  62
7
  10
 110.500
  20
 470.081
  30
0.0
  11
 129.500
  21
 470.081
  31
0.0
   0
LINE
   8
LEVEL010
   6
CONTINUOUS
  62
7
  10
 129.500
  20
 470.081
  30
0.0
  11
 129.500
  21
 463.631
  31
0.0
   0
LINE
   8
LEVEL010
   6
CONTINUOUS
  62
7
  10
 104.000
  20
 443.000
  30
0.0
  11
 110.500
  21
 447.643
  31
0.0
   0
LINE
   8
LEVEL010
   6
CONTINUOUS
  62
7
  10
 136.000
  20
 443.000
  30
0.0
  11
 129.500
  21
 447.643
  31
0.0
   0
LINE
   8
LEVEL001
   6
DASHDOT
  62
1
  10
 92.7384
  20
 454.000
  30
0.0
  11
 147.391
  21
 454.000
  31
0.0
   0
LINE
   8
LEVEL010
   6
CONTINUOUS
  62
7
  10
 104.000
  20
 432.500
  30
0.0
  11
 103.500
  21
 432.500
  31
0.0
   0
LINE
   8
LEVEL001
   6
DASHDOT
  62
1
  10
 99.0000
  20
 461.952
  30
0.0
  11
 99.0000
  21
 448.373
  31
0.0
   0
LINE
   8
LEVEL001
   6
CONTINUOUS
  62
7
  10
 99.8000
  20
 460.250
  30
0.0
  11
 99.8000
  21
 459.000
  31
0.0
   0
LINE
   8
LEVEL001
   6
CONTINUOUS
  62
7
  10
 98.2000
  20
 460.250
  30
0.0
  11
 98.2000
  21
 459.000
  31
0.0
   0
ARC
   8
LEVEL001
   6
CONTINUOUS
  62
7
  10
 99.0000
  20
 460.250
  30
0.0
  40
 0.800000
  50
0.0
  51
 180.000
   0
LINE
   8
LEVEL001
   6
CONTINUOUS
  62
7
  10
 99.8000
  20
 451.375
  30
0.0
  11
 99.8000
  21
 457.775
  31
0.0
   0
LINE
   8
LEVEL001
   6
CONTINUOUS
  62
7
  10
 98.2000
  20
 457.775
  30
0.0
  11
 98.2000
  21
 451.375
  31
0.0
   0
ARC
   8
LEVEL001
   6
CONTINUOUS
  62
7
  10
 99.0000
  20
 457.775
  30
0.0
  40
 0.800000
  50
0.0
  51
 180.000
   0
ARC
   8
LEVEL001
   6
CONTINUOUS
  62
7
  10
 99.0000
  20
 451.375
  30
0.0
  40
 0.800000
  50
 180.000
  51
0.0
   0
LINE
   8
LEVEL001
   6
CONTINUOUS
  62
7
  10
 101.250
  20
 449.000
  30
0.0
  11
 101.250
  21
 439.000
  31
0.0
   0
LINE
   8
LEVEL001
   6
CONTINUOUS
  62
7
  10
 101.250
  20
 439.000
  30
0.0
  11
 101.500
  21
 439.000
  31
0.0
   0
LINE
   8
LEVEL001
   6
CONTINUOUS
  62
7
  10
 101.250
  20
 439.000
  30
0.0
  11
 100.250
  21
 440.000
  31
0.0
   0
LINE
   8
LEVEL001
   6
CONTINUOUS
  62
7
  10
 100.250
  20
 448.000
  30
0.0
  11
 100.250
  21
 440.000
  31
0.0
   0
LINE
   8
LEVEL001
   6
CONTINUOUS
  62
7
  10
 101.250
  20
 449.000
  30
0.0
  11
 100.250
  21
 448.000
  31
0.0
   0
LINE
   8
LEVEL003
   6
DASHDOT
  62
1
  10
 97.0528
  20
 444.000
  30
0.0
  11
 142.053
  21
 444.000
  31
0.0
   0
LINE
   8
LEVEL001
   6
DASHDOT
  62
1
  10
 141.000
  20
 461.952
  30
0.0
  11
 141.000
  21
 448.373
  31
0.0
   0
LINE
   8
LEVEL001
   6
CONTINUOUS
  62
7
  10
 141.800
  20
 460.250
  30
0.0
  11
 141.800
  21
 459.000
  31
0.0
   0
ARC
   8
LEVEL001
   6
CONTINUOUS
  62
7
  10
 141.000
  20
 460.250
  30
0.0
  40
 0.800000
  50
0.0
  51
 180.000
   0
LINE
   8
LEVEL001
   6
CONTINUOUS
  62
7
  10
 140.200
  20
 460.250
  30
0.0
  11
 140.200
  21
 459.000
  31
0.0
   0
LINE
   8
LEVEL001
   6
CONTINUOUS
  62
7
  10
 140.200
  20
 451.375
  30
0.0
  11
 140.200
  21
 457.775
  31
0.0
   0
LINE
   8
LEVEL001
   6
CONTINUOUS
  62
7
  10
 141.800
  20
 457.775
  30
0.0
  11
 141.800
  21
 451.375
  31
0.0
   0
ARC
   8
LEVEL001
   6
CONTINUOUS
  62
7
  10
 141.000
  20
 457.775
  30
0.0
  40
 0.800000
  50
0.0
  51
 180.000
   0
ARC
   8
LEVEL001
   6
CONTINUOUS
  62
7
  10
 141.000
  20
 451.375
  30
0.0
  40
 0.800000
  50
 180.000
  51
0.0
   0
LINE
   8
LEVEL001
   6
CONTINUOUS
  62
7
  10
 138.750
  20
 449.000
  30
0.0
  11
 138.750
  21
 439.000
  31
0.0
   0
LINE
   8
LEVEL001
   6
CONTINUOUS
  62
7
  10
 138.750
  20
 449.000
  30
0.0
  11
 139.750
  21
 448.000
  31
0.0
   0
LINE
   8
LEVEL001
   6
CONTINUOUS
  62
7
  10
 138.750
  20
 439.000
  30
0.0
  11
 138.500
  21
 439.000
  31
0.0
   0
LINE
   8
LEVEL001
   6
CONTINUOUS
  62
7
  10
 138.750
  20
 439.000
  30
0.0
  11
 139.750
  21
 440.000
  31
0.0
   0
LINE
   8
LEVEL001
   6
CONTINUOUS
  62
7
  10
 139.750
  20
 448.000
  30
0.0
  11
 139.750
  21
 440.000
  31
0.0
   0
LINE
   8
LEVEL001
   6
CONTINUOUS
  62
7
  10
 169.611
  20
 392.476
  30
0.0
  11
 153.794
  21
 398.706
  31
0.0
   0
LINE
   8
LEVEL001
   6
CONTINUOUS
  62
7
  10
 150.291
  20
 389.815
  30
0.0
  11
 153.794
  21
 398.706
  31
0.0
   0
LINE
   8
LEVEL001
   6
CONTINUOUS
  62
7
  10
 153.794
  20
 398.706
  30
0.0
  11
 154.515
  21
 399.067
  31
0.0
   0
LINE
   8
LEVEL001
   6
CONTINUOUS
  62
7
  10
 154.515
  20
 399.067
  30
0.0
  11
 169.329
  21
 393.232
  31
0.0
   0
LINE
   8
LEVEL001
   6
CONTINUOUS
  62
7
  10
 169.329
  20
 393.232
  30
0.0
  11
 169.611
  21
 392.476
  31
0.0
   0
LINE
   8
LEVEL001
   6
CONTINUOUS
  62
7
  10
 169.611
  20
 392.476
  30
0.0
  11
 166.109
  21
 383.585
  31
0.0
   0
ARC
   8
LEVEL001
   6
CONTINUOUS
  62
7
  10
 120.000
  20
 365.000
  30
0.0
  40
 41.5000
  50
 41.1146
  51
 53.8173
   0
ARC
   8
LEVEL001
   6
CONTINUOUS
  62
7
  10
 120.000
  20
 464.106
  30
0.0
  40
 18.2500
  50
 154.704
  51
 180.000
   0
ARC
   8
LEVEL001
   6
CONTINUOUS
  62
7
  10
 120.000
  20
 463.479
  30
0.0
  40
 18.2500
  50
 154.704
  51
 178.031
   0
ARC
   8
LEVEL001
   6
CONTINUOUS
  62
7
  10
 120.000
  20
 464.106
  30
0.0
  40
 18.2500
  50
 0.713838E-12
  51
 25.2964
   0
ARC
   8
LEVEL001
   6
CONTINUOUS
  62
7
  10
 120.000
  20
 463.479
  30
0.0
  40
 18.2500
  50
 1.96882
  51
 25.2964
   0
ARC
   8
LEVEL001
   6
CONTINUOUS
  62
7
  10
 120.000
  20
 464.106
  30
0.0
  40
 18.2500
  50
 51.6775
  51
 128.323
   0
ARC
   8
LEVEL001
   6
CONTINUOUS
  62
7
  10
 120.000
  20
 463.479
  30
0.0
  40
 18.2500
  50
 102.661
  51
 125.026
   0
ARC
   8
LEVEL001
   6
CONTINUOUS
  62
7
  10
 120.000
  20
 463.479
  30
0.0
  40
 18.2500
  50
 54.9737
  51
 77.3392
   0
LINE
   8
LEVEL001
   6
CONTINUOUS
  62
7
  10
 124.000
  20
 481.913
  30
0.0
  11
 124.000
  21
 480.424
  31
0.0
   0
ARC
   8
LEVEL001
   6
CONTINUOUS
  62
7
  10
 126.000
  20
 480.424
  30
0.0
  40
 2.00000
  50
 180.000
  51
 270.000
   0
LINE
   8
LEVEL001
   6
CONTINUOUS
  62
7
  10
 116.000
  20
 480.424
  30
0.0
  11
 116.000
  21
 481.913
  31
0.0
   0
ARC
   8
LEVEL001
   6
CONTINUOUS
  62
7
  10
 114.000
  20
 480.424
  30
0.0
  40
 2.00000
  50
 270.000
  51
 0.153074E-9
   0
ARC
   8
LEVEL010
   6
CONTINUOUS
  62
7
  10
 135.500
  20
 472.000
  30
0.0
  40
 1.00000
  50
0.0
  51
 90.0000
   0
ARC
   8
LEVEL010
   6
CONTINUOUS
  62
7
  10
 135.500
  20
 473.000
  30
0.0
  40
 1.00000
  50
0.0
  51
 90.0000
   0
ARC
   8
LEVEL010
   6
CONTINUOUS
  62
7
  10
 104.500
  20
 472.000
  30
0.0
  40
 1.00000
  50
 90.0000
  51
 180.000
   0
LINE
   8
LEVEL010
   6
CONTINUOUS
  62
7
  10
 104.500
  20
 473.000
  30
0.0
  11
 135.500
  21
 473.000
  31
0.0
   0
ARC
   8
LEVEL010
   6
CONTINUOUS
  62
7
  10
 104.500
  20
 473.000
  30
0.0
  40
 1.00000
  50
 90.0000
  51
 180.000
   0
LINE
   8
LEVEL010
   6
CONTINUOUS
  62
7
  10
 104.500
  20
 474.000
  30
0.0
  11
 135.500
  21
 474.000
  31
0.0
   0
LINE
   8
LEVEL010
   6
CONTINUOUS
  62
7
  10
 136.500
  20
 477.424
  30
0.0
  11
 136.500
  21
 449.625
  31
0.0
   0
ARC
   8
LEVEL010
   6
CONTINUOUS
  62
7
  10
 135.500
  20
 477.424
  30
0.0
  40
 1.00000
  50
0.0
  51
 90.0000
   0
LINE
   8
LEVEL001
   6
CONTINUOUS
  62
7
  10
 135.500
  20
 478.424
  30
0.0
  11
 126.000
  21
 478.424
  31
0.0
   0
LINE
   8
LEVEL010
   6
CONTINUOUS
  62
7
  10
 103.500
  20
 449.625
  30
0.0
  11
 103.500
  21
 477.424
  31
0.0
   0
ARC
   8
LEVEL010
   6
CONTINUOUS
  62
7
  10
 104.500
  20
 477.424
  30
0.0
  40
 1.00000
  50
 90.0000
  51
 180.000
   0
LINE
   8
LEVEL001
   6
CONTINUOUS
  62
7
  10
 114.000
  20
 478.424
  30
0.0
  11
 104.500
  21
 478.424
  31
0.0
   0
LINE
   8
LEVEL001
   6
DASHDOT
  62
1
  10
 120.000
  20
 517.080
  30
0.0
  11
 120.000
  21
 290.000
  31
0.0
   0
LINE
   8
LEVEL001
   6
DASHDOT
  62
1
  10
 70.0000
  20
 389.000
  30
0.0
  11
 120.000
  21
 389.000
  31
0.0
   0
TEXT
   8
LEVEL003
  62
3
  10
 180.000
  20
 920.000
  30
0.0
  40
 16.0000
   1
レリースバルブ
   7
STANDARD
   0
LINE
   8
LEVEL003
   6
CONTINUOUS
  62
3
  10
 313.180
  20
 889.030
  30
0.0
  11
 299.946
  21
 918.806
  31
0.0
   0
LINE
   8
LEVEL003
   6
CONTINUOUS
  62
3
  10
 299.946
  20
 918.806
  30
0.0
  11
 178.860
  21
 918.806
  31
0.0
   0
LINE
   8
LEVEL003
   6
CONTINUOUS
  62
3
  10
 313.180
  20
 889.030
  30
0.0
  11
 310.240
  21
 900.856
  31
0.0
   0
LINE
   8
LEVEL003
   6
CONTINUOUS
  62
3
  10
 313.180
  20
 889.030
  30
0.0
  11
 306.373
  21
 899.137
  31
0.0
   0
LINE
   8
LEVEL003
   6
CONTINUOUS
  62
3
  10
 336.349
  20
 860.000
  30
0.0
  11
 252.000
  21
 860.000
  31
0.0
   0
LINE
   8
LEVEL003
   6
CONTINUOUS
  62
3
  10
 292.535
  20
 800.000
  30
0.0
  11
 252.000
  21
 800.000
  31
0.0
   0
LINE
   8
LEVEL003
   6
CONTINUOUS
  62
3
  10
 260.000
  20
 860.000
  30
0.0
  11
 260.000
  21
 800.000
  31
0.0
   0
LINE
   8
LEVEL003
   6
CONTINUOUS
  62
3
  10
 260.000
  20
 860.000
  30
0.0
  11
 257.884
  21
 848.000
  31
0.0
   0
LINE
   8
LEVEL003
   6
CONTINUOUS
  62
3
  10
 260.000
  20
 860.000
  30
0.0
  11
 262.116
  21
 848.000
  31
0.0
   0
LINE
   8
LEVEL003
   6
CONTINUOUS
  62
3
  10
 260.000
  20
 800.000
  30
0.0
  11
 262.116
  21
 812.000
  31
0.0
   0
LINE
   8
LEVEL003
   6
CONTINUOUS
  62
3
  10
 260.000
  20
 800.000
  30
0.0
  11
 257.884
  21
 812.000
  31
0.0
   0
TEXT
   8
LEVEL003
  62
3
  10
 256.800
  20
 822.000
  30
0.0
  40
 16.0000
   1
60
  50
 90.0000
  41
 0.500000
   7
STANDARD
  72
1
  11
 256.800
  21
 830.000
  31
0.0
   0
LINE
   8
LEVEL003
   6
CONTINUOUS
  62
3
  10
 292.535
  20
 800.000
  30
0.0
  11
 252.000
  21
 800.000
  31
0.0
   0
LINE
   8
LEVEL003
   6
CONTINUOUS
  62
3
  10
 336.000
  20
 715.000
  30
0.0
  11
 252.000
  21
 715.000
  31
0.0
   0
LINE
   8
LEVEL003
   6
CONTINUOUS
  62
3
  10
 260.000
  20
 800.000
  30
0.0
  11
 260.000
  21
 715.000
  31
0.0
   0
LINE
   8
LEVEL003
   6
CONTINUOUS
  62
3
  10
 260.000
  20
 800.000
  30
0.0
  11
 257.884
  21
 788.000
  31
0.0
   0
LINE
   8
LEVEL003
   6
CONTINUOUS
  62
3
  10
 260.000
  20
 800.000
  30
0.0
  11
 262.116
  21
 788.000
  31
0.0
   0
LINE
   8
LEVEL003
   6
CONTINUOUS
  62
3
  10
 260.000
  20
 715.000
  30
0.0
  11
 262.116
  21
 727.000
  31
0.0
   0
LINE
   8
LEVEL003
   6
CONTINUOUS
  62
3
  10
 260.000
  20
 715.000
  30
0.0
  11
 257.884
  21
 727.000
  31
0.0
   0
TEXT
   8
LEVEL003
  62
3
  10
 256.800
  20
 749.500
  30
0.0
  40
 16.0000
   1
85
  50
 90.0000
  41
 0.500000
   7
STANDARD
  72
1
  11
 256.800
  21
 757.500
  31
0.0
   0
LINE
   8
LEVEL003
   6
CONTINUOUS
  62
3
  10
 336.349
  20
 860.000
  30
0.0
  11
 212.000
  21
 860.000
  31
0.0
   0
LINE
   8
LEVEL003
   6
CONTINUOUS
  62
3
  10
 336.000
  20
 715.000
  30
0.0
  11
 212.000
  21
 715.000
  31
0.0
   0
LINE
   8
LEVEL003
   6
CONTINUOUS
  62
3
  10
 220.000
  20
 860.000
  30
0.0
  11
 220.000
  21
 715.000
  31
0.0
   0
LINE
   8
LEVEL003
   6
CONTINUOUS
  62
3
  10
 220.000
  20
 860.000
  30
0.0
  11
 217.884
  21
 848.000
  31
0.0
   0
LINE
   8
LEVEL003
   6
CONTINUOUS
  62
3
  10
 220.000
  20
 860.000
  30
0.0
  11
 222.116
  21
 848.000
  31
0.0
   0
LINE
   8
LEVEL003
   6
CONTINUOUS
  62
3
  10
 220.000
  20
 715.000
  30
0.0
  11
 222.116
  21
 727.000
  31
0.0
   0
LINE
   8
LEVEL003
   6
CONTINUOUS
  62
3
  10
 220.000
  20
 715.000
  30
0.0
  11
 217.884
  21
 727.000
  31
0.0
   0
TEXT
   8
LEVEL003
  62
3
  10
 216.800
  20
 775.500
  30
0.0
  40
 16.0000
   1
145
  50
 90.0000
  41
 0.500000
   7
STANDARD
  72
1
  11
 216.800
  21
 787.500
  31
0.0
   0
LINE
   8
LEVEL001
   6
CONTINUOUS
  62
7
  10
 60.0000
  20
 300.000
  30
0.0
  11
 60.0000
  21
 309.000
  31
0.0
   0
LINE
   8
LEVEL001
   6
CONTINUOUS
  62
7
  10
 60.0000
  20
 309.000
  30
0.0
  11
 205.000
  21
 309.000
  31
0.0
   0
LINE
   8
LEVEL001
   6
CONTINUOUS
  62
7
  10
 205.000
  20
 309.000
  30
0.0
  11
 205.000
  21
 300.000
  31
0.0
   0
LINE
   8
LEVEL001
   6
CONTINUOUS
  62
7
  10
 205.000
  20
 300.000
  30
0.0
  11
 60.0000
  21
 300.000
  31
0.0
   0
LINE
   8
LEVEL003
   6
CONTINUOUS
  62
3
  10
 29.4075
  20
 360.500
  30
0.0
  11
 29.4075
  21
 252.000
  31
0.0
   0
LINE
   8
LEVEL003
   6
CONTINUOUS
  62
3
  10
 205.000
  20
 296.000
  30
0.0
  11
 205.000
  21
 252.000
  31
0.0
   0
LINE
   8
LEVEL003
   6
CONTINUOUS
  62
3
  10
 29.4075
  20
 260.000
  30
0.0
  11
 205.000
  21
 260.000
  31
0.0
   0
LINE
   8
LEVEL003
   6
CONTINUOUS
  62
3
  10
 29.4075
  20
 260.000
  30
0.0
  11
 41.4075
  21
 257.884
  31
0.0
   0
LINE
   8
LEVEL003
   6
CONTINUOUS
  62
3
  10
 29.4075
  20
 260.000
  30
0.0
  11
 41.4075
  21
 262.116
  31
0.0
   0
LINE
   8
LEVEL003
   6
CONTINUOUS
  62
3
  10
 205.000
  20
 260.000
  30
0.0
  11
 193.000
  21
 262.116
  31
0.0
   0
LINE
   8
LEVEL003
   6
CONTINUOUS
  62
3
  10
 205.000
  20
 260.000
  30
0.0
  11
 193.000
  21
 257.884
  31
0.0
   0
TEXT
   8
LEVEL003
  62
3
  10
 97.2040
  20
 263.200
  30
0.0
  40
 16.0000
   1
約175
   7
STANDARD
  72
1
  11
 117.204
  21
 263.200
  31
0.0
   0
ARC
   8
LEVEL001
   6
CONTINUOUS
  62
7
  10
 117.503
  20
 485.723
  30
0.0
  40
 16.0000
  50
 28.2393
  51
 188.602
   0
ARC
   8
LEVEL001
   6
CONTINUOUS
  62
7
  10
 129.837
  20
 492.347
  30
0.0
  40
 2.00000
  50
 272.862
  51
 28.2393
   0
ARC
   8
LEVEL001
   6
CONTINUOUS
  62
7
  10
 120.000
  20
 486.145
  30
0.0
  40
 10.7500
  50
0.0
  51
 180.000
   0
LINE
   8
LEVEL001
   6
CONTINUOUS
  62
7
  10
 101.683
  20
 483.330
  30
0.0
  11
 103.500
  21
 471.318
  31
0.0
   0
ARC
   8
LEVEL001
   6
CONTINUOUS
  62
7
  10
 120.000
  20
 487.576
  30
0.0
  40
 13.5000
  50
 322.778
  51
 76.8153
   0
ARC
   8
LEVEL001
   6
CONTINUOUS
  62
7
  10
 120.000
  20
 491.849
  30
0.0
  40
 13.5000
  50
 349.023
  51
 148.163
   0
LINE
   8
LEVEL001
   6
CONTINUOUS
  62
7
  10
 109.250
  20
 486.145
  30
0.0
  11
 109.250
  21
 478.854
  31
0.0
   0
LINE
   8
LEVEL001
   6
CONTINUOUS
  62
7
  10
 130.750
  20
 486.145
  30
0.0
  11
 130.750
  21
 478.854
  31
0.0
   0
ARC
   8
LEVEL001
   6
CONTINUOUS
  62
7
  10
 322.431
  20
 441.117
  30
0.0
  40
 3.00000
  50
 156.232
  51
 169.559
   0
LINE
   8
LEVEL003
   6
CONTINUOUS
  62
7
  10
 958.846
  20
 407.276
  30
0.0
  11
 962.843
  21
 407.429
  31
0.0
   0
LINE
   8
LEVEL003
   6
CONTINUOUS
  62
7
  10
 962.843
  20
 407.429
  30
0.0
  11
 963.881
  21
 406.468
  31
0.0
   0
ARC
   8
LEVEL001
   6
CONTINUOUS
  62
7
  10
 954.661
  20
 438.139
  30
0.0
  40
 3.00000
  50
 2.19457
  51
 92.1946
   0
LINE
   8
LEVEL003
   6
CONTINUOUS
  62
7
  10
 845.934
  20
 441.978
  30
0.0
  11
 844.973
  21
 440.940
  31
0.0
   0
LINE
   8
LEVEL003
   6
CONTINUOUS
  62
7
  10
 868.917
  20
 442.859
  30
0.0
  11
 869.955
  21
 441.898
  31
0.0
   0
ARC
   8
LEVEL001
   6
CONTINUOUS
  62
7
  10
 452.530
  20
 418.896
  30
0.0
  40
 3.00000
  50
 92.1946
  51
 182.195
   0
LINE
   8
LEVEL001
   6
CONTINUOUS
  62
7
  10
 435.882
  20
 413.305
  30
0.0
  11
 437.497
  21
 411.808
  31
0.0
   0
ARC
   8
LEVEL001
   6
CONTINUOUS
  62
7
  10
 438.177
  20
 412.542
  30
0.0
  40
 1.00000
  50
 227.195
  51
 272.195
   0
LINE
   8
LEVEL001
   6
CONTINUOUS
  62
7
  10
 439.293
  20
 324.270
  30
0.0
  11
 440.790
  21
 325.886
  31
0.0
   0
ARC
   8
LEVEL001
   6
CONTINUOUS
  62
7
  10
 441.523
  20
 325.206
  30
0.0
  40
 1.00000
  50
 92.1946
  51
 137.195
   0
LINE
   8
LEVEL001
   6
CONTINUOUS
  62
7
  10
 430.985
  20
 413.117
  30
0.0
  11
 435.882
  21
 413.305
  31
0.0
   0
LINE
   8
LEVEL001
   6
CONTINUOUS
  62
7
  10
 427.448
  20
 409.729
  30
0.0
  11
 391.888
  21
 408.366
  31
0.0
   0
ARC
   8
LEVEL001
   6
CONTINUOUS
  62
7
  10
 427.410
  20
 410.728
  30
0.0
  40
 1.00000
  50
 272.195
  51
 317.195
   0
LINE
   8
LEVEL001
   6
CONTINUOUS
  62
7
  10
 428.143
  20
 410.049
  30
0.0
  11
 430.985
  21
 413.117
  31
0.0
   0
LINE
   8
LEVEL001
   6
CONTINUOUS
  62
7
  10
 430.611
  20
 327.190
  30
0.0
  11
 395.051
  21
 325.827
  31
0.0
   0
LINE
   8
LEVEL001
   6
CONTINUOUS
  62
7
  10
 434.397
  20
 324.082
  30
0.0
  11
 439.293
  21
 324.270
  31
0.0
   0
ARC
   8
LEVEL001
   6
CONTINUOUS
  62
7
  10
 430.649
  20
 326.190
  30
0.0
  40
 1.00000
  50
 47.1946
  51
 92.1946
   0
LINE
   8
LEVEL001
   6
CONTINUOUS
  62
7
  10
 431.329
  20
 326.924
  30
0.0
  11
 434.397
  21
 324.082
  31
0.0
   0
LINE
   8
LEVEL003
   6
CONTINUOUS
  62
7
  10
 453.438
  20
 316.856
  30
0.0
  11
 959.266
  21
 336.240
  31
0.0
   0
LINE
   8
LEVEL003
   6
CONTINUOUS
  62
7
  10
 964.129
  20
 399.973
  30
0.0
  11
 968.127
  21
 400.126
  31
0.0
   0
LINE
   8
LEVEL003
   6
CONTINUOUS
  62
7
  10
 963.806
  20
 421.477
  30
0.0
  11
 967.003
  21
 421.599
  31
0.0
   0
LINE
   8
LEVEL003
   6
CONTINUOUS
  62
7
  10
 960.917
  20
 496.859
  30
0.0
  11
 961.312
  21
 486.561
  31
0.0
   0
LINE
   8
LEVEL003
   6
CONTINUOUS
  62
7
  10
 961.312
  20
 486.561
  30
0.0
  11
 964.509
  21
 486.684
  31
0.0
   0
LINE
   8
LEVEL003
   6
CONTINUOUS
  62
7
  10
 964.509
  20
 486.684
  30
0.0
  11
 964.115
  21
 496.981
  31
0.0
   0
LINE
   8
LEVEL003
   6
CONTINUOUS
  62
7
  10
 964.115
  20
 496.981
  30
0.0
  11
 960.917
  21
 496.859
  31
0.0
   0
LINE
   8
LEVEL001
   6
DASHDOT
  62
1
  10
 977.333
  20
 431.502
  30
0.0
  11
 954.948
  21
 430.644
  31
0.0
   0
LINE
   8
LEVEL001
   6
CONTINUOUS
  62
7
  10
 849.129
  20
 443.494
  30
0.0
  11
 865.616
  21
 444.126
  31
0.0
   0
LINE
   8
LEVEL050
   6
CONTINUOUS
  62
7
  10
 847.313
  20
 445.176
  30
0.0
  11
 867.298
  21
 445.942
  31
0.0
   0
ARC
   8
LEVEL001
   6
CONTINUOUS
  62
7
  10
 849.611
  20
 443.013
  30
0.0
  40
 0.500000
  50
 92.1946
  51
 232.195
   0
LINE
   8
LEVEL050
   6
CONTINUOUS
  62
7
  10
 847.313
  20
 445.176
  30
0.0
  11
 849.129
  21
 443.494
  31
0.0
   0
LINE
   8
LEVEL001
   6
CONTINUOUS
  62
3
  10
 848.034
  20
 452.459
  30
0.0
  11
 848.312
  21
 445.214
  31
0.0
   0
LINE
   8
LEVEL001
   6
CONTINUOUS
  62
3
  10
 849.514
  20
 453.016
  30
0.0
  11
 849.811
  21
 445.272
  31
0.0
   0
LINE
   8
LEVEL001
   6
CONTINUOUS
  62
3
  10
 851.013
  20
 453.074
  30
0.0
  11
 851.310
  21
 445.329
  31
0.0
   0
LINE
   8
LEVEL001
   6
CONTINUOUS
  62
3
  10
 852.512
  20
 453.131
  30
0.0
  11
 852.809
  21
 445.387
  31
0.0
   0
LINE
   8
LEVEL001
   6
CONTINUOUS
  62
3
  10
 854.011
  20
 453.188
  30
0.0
  11
 854.308
  21
 445.444
  31
0.0
   0
LINE
   8
LEVEL001
   6
CONTINUOUS
  62
3
  10
 855.510
  20
 453.246
  30
0.0
  11
 855.807
  21
 445.502
  31
0.0
   0
ARC
   8
LEVEL050
   6
CONTINUOUS
  62
7
  10
 852.108
  20
 450.614
  30
0.0
  40
 5.00000
  50
 92.1946
  51
 182.195
   0
LINE
   8
LEVEL050
   6
CONTINUOUS
  62
7
  10
 847.313
  20
 445.176
  30
0.0
  11
 847.112
  21
 450.422
  31
0.0
   0
LINE
   8
LEVEL050
   6
CONTINUOUS
  62
7
  10
 851.917
  20
 455.610
  30
0.0
  11
 861.909
  21
 455.993
  31
0.0
   0
ARC
   8
LEVEL001
   6
CONTINUOUS
  62
7
  10
 865.172
  20
 443.609
  30
0.0
  40
 0.500000
  50
 312.195
  51
 92.1946
   0
LINE
   8
LEVEL050
   6
CONTINUOUS
  62
7
  10
 867.298
  20
 445.942
  30
0.0
  11
 865.616
  21
 444.126
  31
0.0
   0
LINE
   8
LEVEL001
   6
CONTINUOUS
  62
3
  10
 858.508
  20
 453.361
  30
0.0
  11
 858.804
  21
 445.616
  31
0.0
   0
LINE
   8
LEVEL001
   6
CONTINUOUS
  62
3
  10
 860.007
  20
 453.418
  30
0.0
  11
 860.303
  21
 445.674
  31
0.0
   0
LINE
   8
LEVEL001
   6
CONTINUOUS
  62
3
  10
 861.505
  20
 453.476
  30
0.0
  11
 861.802
  21
 445.731
  31
0.0
   0
LINE
   8
LEVEL001
   6
CONTINUOUS
  62
3
  10
 863.004
  20
 453.533
  30
0.0
  11
 863.301
  21
 445.789
  31
0.0
   0
LINE
   8
LEVEL001
   6
CONTINUOUS
  62
3
  10
 864.503
  20
 453.591
  30
0.0
  11
 864.800
  21
 445.846
  31
0.0
   0
LINE
   8
LEVEL001
   6
CONTINUOUS
  62
3
  10
 866.021
  20
 453.148
  30
0.0
  11
 866.299
  21
 445.904
  31
0.0
   0
ARC
   8
LEVEL050
   6
CONTINUOUS
  62
7
  10
 862.101
  20
 450.997
  30
0.0
  40
 5.00000
  50
 2.19457
  51
 92.1946
   0
LINE
   8
LEVEL050
   6
CONTINUOUS
  62
7
  10
 867.298
  20
 445.942
  30
0.0
  11
 867.097
  21
 451.188
  31
0.0
   0
LINE
   8
LEVEL003
   6
DASHDOT
  62
1
  10
 856.766
  20
 459.625
  30
0.0
  11
 858.968
  21
 402.170
  31
0.0
   0
ARC
   8
LEVEL001
   6
CONTINUOUS
  62
7
  10
 963.542
  20
 303.000
  30
0.0
  40
 3.00000
  50
 182.195
  51
 270.476
   0
LINE
   8
LEVEL001
   6
CONTINUOUS
  62
7
  10
 963.567
  20
 300.000
  30
0.0
  11
 1000.67
  21
 300.299
  31
0.0
   0
LINE
   8
LEVEL001
   6
CONTINUOUS
  62
7
  10
 998.950
  20
 345.266
  30
0.0
  11
 1000.67
  21
 300.299
  31
0.0
   0
LINE
   8
LEVEL003
   6
CONTINUOUS
  62
7
  10
 956.848
  20
 489.785
  30
0.0
  11
 957.562
  21
 473.801
  31
0.0
   0
LINE
   8
LEVEL003
   6
CONTINUOUS
  62
7
  10
 953.978
  20
 492.410
  30
0.0
  11
 954.938
  21
 470.931
  31
0.0
   0
LINE
   8
LEVEL001
   6
CONTINUOUS
  62
7
  10
 492.462
  20
 471.787
  30
0.0
  11
 953.978
  21
 492.410
  31
0.0
   0
LINE
   8
LEVEL001
   6
CONTINUOUS
  62
7
  10
 493.422
  20
 450.309
  30
0.0
  11
 954.938
  21
 470.931
  31
0.0
   0
LINE
   8
LEVEL012
   6
CONTINUOUS
  62
7
  10
 978.038
  20
 469.210
  30
0.0
  11
 976.832
  21
 496.184
  31
0.0
   0
LINE
   8
LEVEL012
   6
CONTINUOUS
  62
7
  10
 976.832
  20
 496.184
  30
0.0
  11
 986.867
  21
 495.631
  31
0.0
   0
LINE
   8
LEVEL012
   6
CONTINUOUS
  62
7
  10
 986.867
  20
 495.631
  30
0.0
  11
 987.983
  21
 470.656
  31
0.0
   0
LINE
   8
LEVEL012
   6
CONTINUOUS
  62
7
  10
 987.983
  20
 470.656
  30
0.0
  11
 978.038
  21
 469.210
  31
0.0
   0
LINE
   8
LEVEL012
   6
CONTINUOUS
  62
3
  10
 989.988
  20
 470.591
  30
0.0
  11
 988.858
  21
 495.874
  31
0.0
   0
LINE
   8
LEVEL012
   6
CONTINUOUS
  62
3
  10
 988.858
  20
 495.874
  30
0.0
  11
 990.849
  21
 496.117
  31
0.0
   0
LINE
   8
LEVEL012
   6
CONTINUOUS
  62
3
  10
 990.849
  20
 496.117
  30
0.0
  11
 991.993
  21
 470.527
  31
0.0
   0
LINE
   8
LEVEL012
   6
CONTINUOUS
  62
3
  10
 991.993
  20
 470.527
  30
0.0
  11
 989.988
  21
 470.591
  31
0.0
   0
LINE
   8
LEVEL012
   6
CONTINUOUS
  62
3
  10
 986.934
  20
 494.128
  30
0.0
  11
 988.925
  21
 494.371
  31
0.0
   0
LINE
   8
LEVEL012
   6
CONTINUOUS
  62
3
  10
 993.998
  20
 470.463
  30
0.0
  11
 992.840
  21
 496.360
  31
0.0
   0
LINE
   8
LEVEL012
   6
CONTINUOUS
  62
3
  10
 992.840
  20
 496.360
  30
0.0
  11
 994.832
  21
 496.603
  31
0.0
   0
LINE
   8
LEVEL012
   6
CONTINUOUS
  62
3
  10
 994.832
  20
 496.603
  30
0.0
  11
 996.002
  21
 470.398
  31
0.0
   0
LINE
   8
LEVEL012
   6
CONTINUOUS
  62
3
  10
 996.002
  20
 470.398
  30
0.0
  11
 993.998
  21
 470.463
  31
0.0
   0
LINE
   8
LEVEL012
   6
CONTINUOUS
  62
3
  10
 998.007
  20
 470.334
  30
0.0
  11
 996.823
  21
 496.846
  31
0.0
   0
LINE
   8
LEVEL012
   6
CONTINUOUS
  62
3
  10
 996.823
  20
 496.846
  30
0.0
  11
 998.814
  21
 497.089
  31
0.0
   0
LINE
   8
LEVEL012
   6
CONTINUOUS
  62
3
  10
 998.814
  20
 497.089
  30
0.0
  11
 1000.01
  21
 470.269
  31
0.0
   0
LINE
   8
LEVEL012
   6
CONTINUOUS
  62
3
  10
 1000.01
  20
 470.269
  30
0.0
  11
 998.007
  21
 470.334
  31
0.0
   0
LINE
   8
LEVEL012
   6
CONTINUOUS
  62
3
  10
 1002.02
  20
 470.205
  30
0.0
  11
 1000.80
  21
 497.332
  31
0.0
   0
LINE
   8
LEVEL012
   6
CONTINUOUS
  62
3
  10
 1000.80
  20
 497.332
  30
0.0
  11
 1002.80
  21
 497.575
  31
0.0
   0
LINE
   8
LEVEL012
   6
CONTINUOUS
  62
3
  10
 1002.80
  20
 497.575
  30
0.0
  11
 1004.02
  21
 470.141
  31
0.0
   0
LINE
   8
LEVEL012
   6
CONTINUOUS
  62
3
  10
 1004.02
  20
 470.141
  30
0.0
  11
 1002.02
  21
 470.205
  31
0.0
   0
LINE
   8
LEVEL012
   6
CONTINUOUS
  62
3
  10
 1006.03
  20
 470.076
  30
0.0
  11
 1004.79
  21
 497.818
  31
0.0
   0
LINE
   8
LEVEL012
   6
CONTINUOUS
  62
3
  10
 1004.79
  20
 497.818
  30
0.0
  11
 1006.78
  21
 498.061
  31
0.0
   0
LINE
   8
LEVEL012
   6
CONTINUOUS
  62
3
  10
 1006.78
  20
 498.061
  30
0.0
  11
 1008.03
  21
 470.012
  31
0.0
   0
LINE
   8
LEVEL012
   6
CONTINUOUS
  62
3
  10
 1008.03
  20
 470.012
  30
0.0
  11
 1006.03
  21
 470.076
  31
0.0
   0
LINE
   8
LEVEL012
   6
CONTINUOUS
  62
3
  10
 1010.04
  20
 469.947
  30
0.0
  11
 1008.77
  21
 498.304
  31
0.0
   0
LINE
   8
LEVEL012
   6
CONTINUOUS
  62
3
  10
 1008.77
  20
 498.304
  30
0.0
  11
 1010.76
  21
 498.547
  31
0.0
   0
LINE
   8
LEVEL012
   6
CONTINUOUS
  62
3
  10
 1010.76
  20
 498.547
  30
0.0
  11
 1012.04
  21
 469.883
  31
0.0
   0
LINE
   8
LEVEL012
   6
CONTINUOUS
  62
3
  10
 1012.04
  20
 469.883
  30
0.0
  11
 1010.04
  21
 469.947
  31
0.0
   0
LINE
   8
LEVEL012
   6
CONTINUOUS
  62
3
  10
 1014.05
  20
 469.818
  30
0.0
  11
 1012.75
  21
 498.790
  31
0.0
   0
LINE
   8
LEVEL012
   6
CONTINUOUS
  62
3
  10
 1012.75
  20
 498.790
  30
0.0
  11
 1014.74
  21
 499.033
  31
0.0
   0
LINE
   8
LEVEL012
   6
CONTINUOUS
  62
3
  10
 1014.74
  20
 499.033
  30
0.0
  11
 1016.05
  21
 469.754
  31
0.0
   0
LINE
   8
LEVEL012
   6
CONTINUOUS
  62
3
  10
 1016.05
  20
 469.754
  30
0.0
  11
 1014.05
  21
 469.818
  31
0.0
   0
LINE
   8
LEVEL012
   6
CONTINUOUS
  62
3
  10
 990.916
  20
 494.614
  30
0.0
  11
 992.908
  21
 494.857
  31
0.0
   0
LINE
   8
LEVEL012
   6
CONTINUOUS
  62
3
  10
 994.899
  20
 495.100
  30
0.0
  11
 996.890
  21
 495.343
  31
0.0
   0
LINE
   8
LEVEL012
   6
CONTINUOUS
  62
3
  10
 998.881
  20
 495.586
  30
0.0
  11
 1000.87
  21
 495.829
  31
0.0
   0
LINE
   8
LEVEL012
   6
CONTINUOUS
  62
3
  10
 1017.40
  20
 484.483
  30
0.0
  11
 1016.73
  21
 499.276
  31
0.0
   0
LINE
   8
LEVEL012
   6
CONTINUOUS
  62
3
  10
 1016.73
  20
 499.276
  30
0.0
  11
 1018.73
  21
 499.518
  31
0.0
   0
LINE
   8
LEVEL012
   6
CONTINUOUS
  62
3
  10
 1018.73
  20
 499.518
  30
0.0
  11
 1019.39
  21
 484.572
  31
0.0
   0
LINE
   8
LEVEL012
   6
CONTINUOUS
  62
3
  10
 1021.39
  20
 484.661
  30
0.0
  11
 1020.73
  21
 499.519
  31
0.0
   0
LINE
   8
LEVEL012
   6
CONTINUOUS
  62
3
  10
 1020.73
  20
 499.519
  30
0.0
  11
 1022.73
  21
 499.439
  31
0.0
   0
LINE
   8
LEVEL012
   6
CONTINUOUS
  62
3
  10
 1022.73
  20
 499.439
  30
0.0
  11
 1023.39
  21
 484.750
  31
0.0
   0
LINE
   8
LEVEL012
   6
CONTINUOUS
  62
3
  10
 1002.86
  20
 496.072
  30
0.0
  11
 1004.85
  21
 496.315
  31
0.0
   0
LINE
   8
LEVEL012
   6
CONTINUOUS
  62
3
  10
 1006.85
  20
 496.558
  30
0.0
  11
 1008.84
  21
 496.801
  31
0.0
   0
LINE
   8
LEVEL012
   6
CONTINUOUS
  62
3
  10
 1010.83
  20
 497.044
  30
0.0
  11
 1012.82
  21
 497.287
  31
0.0
   0
LINE
   8
LEVEL012
   6
CONTINUOUS
  62
3
  10
 1014.81
  20
 497.530
  30
0.0
  11
 1016.80
  21
 497.773
  31
0.0
   0
LINE
   8
LEVEL012
   6
CONTINUOUS
  62
3
  10
 1018.79
  20
 498.095
  30
0.0
  11
 1020.79
  21
 498.015
  31
0.0
   0
LINE
   8
LEVEL012
   6
CONTINUOUS
  62
3
  10
 1022.80
  20
 497.935
  30
0.0
  11
 1024.81
  21
 497.855
  31
0.0
   0
LINE
   8
LEVEL012
   6
CONTINUOUS
  62
3
  10
 987.916
  20
 472.159
  30
0.0
  11
 989.921
  21
 472.094
  31
0.0
   0
LINE
   8
LEVEL012
   6
CONTINUOUS
  62
3
  10
 991.926
  20
 472.030
  30
0.0
  11
 993.930
  21
 471.966
  31
0.0
   0
LINE
   8
LEVEL012
   6
CONTINUOUS
  62
3
  10
 995.935
  20
 471.901
  30
0.0
  11
 997.940
  21
 471.837
  31
0.0
   0
LINE
   8
LEVEL012
   6
CONTINUOUS
  62
3
  10
 999.945
  20
 471.772
  30
0.0
  11
 1001.95
  21
 471.708
  31
0.0
   0
LINE
   8
LEVEL012
   6
CONTINUOUS
  62
3
  10
 1003.95
  20
 471.644
  30
0.0
  11
 1005.96
  21
 471.579
  31
0.0
   0
LINE
   8
LEVEL012
   6
CONTINUOUS
  62
3
  10
 1007.96
  20
 471.515
  30
0.0
  11
 1009.97
  21
 471.450
  31
0.0
   0
LINE
   8
LEVEL012
   6
CONTINUOUS
  62
3
  10
 1011.97
  20
 471.386
  30
0.0
  11
 1013.98
  21
 471.321
  31
0.0
   0
LINE
   8
LEVEL012
   6
CONTINUOUS
  62
3
  10
 1015.98
  20
 471.257
  30
0.0
  11
 1017.99
  21
 471.193
  31
0.0
   0
LINE
   8
LEVEL012
   6
CONTINUOUS
  62
3
  10
 1020.00
  20
 471.048
  30
0.0
  11
 1021.99
  21
 471.307
  31
0.0
   0
LINE
   8
LEVEL012
   6
CONTINUOUS
  62
3
  10
 1023.98
  20
 471.566
  30
0.0
  11
 1025.97
  21
 471.824
  31
0.0
   0
LINE
   8
LEVEL012
   6
CONTINUOUS
  62
3
  10
 1017.40
  20
 484.483
  30
0.0
  11
 1018.06
  21
 469.690
  31
0.0
   0
LINE
   8
LEVEL012
   6
CONTINUOUS
  62
3
  10
 1018.06
  20
 469.690
  30
0.0
  11
 1020.06
  21
 469.625
  31
0.0
   0
LINE
   8
LEVEL012
   6
CONTINUOUS
  62
3
  10
 1020.06
  20
 469.625
  30
0.0
  11
 1019.39
  21
 484.572
  31
0.0
   0
LINE
   8
LEVEL012
   6
CONTINUOUS
  62
3
  10
 1021.39
  20
 484.661
  30
0.0
  11
 1022.05
  21
 469.803
  31
0.0
   0
LINE
   8
LEVEL012
   6
CONTINUOUS
  62
3
  10
 1022.05
  20
 469.803
  30
0.0
  11
 1024.05
  21
 470.062
  31
0.0
   0
LINE
   8
LEVEL012
   6
CONTINUOUS
  62
3
  10
 1024.05
  20
 470.062
  30
0.0
  11
 1023.39
  21
 484.750
  31
0.0
   0
LINE
   8
LEVEL003
   6
DASHDOT
  62
1
  10
 492.942
  20
 461.048
  30
0.0
  11
 1071.44
  21
 486.897
  31
0.0
   0
LINE
   8
LEVEL003
   6
CONTINUOUS
  62
7
  10
 954.938
  20
 470.931
  30
0.0
  11
 957.562
  21
 473.801
  31
0.0
   0
LINE
   8
LEVEL003
   6
CONTINUOUS
  62
7
  10
 957.562
  20
 473.801
  30
0.0
  11
 977.792
  21
 474.705
  31
0.0
   0
LINE
   8
LEVEL001
   6
CONTINUOUS
  62
7
  10
 401.084
  20
 411.006
  30
0.0
  11
 409.076
  21
 411.363
  31
0.0
   0
ARC
   8
LEVEL001
   6
CONTINUOUS
  62
7
  10
 412.120
  20
 410.456
  30
0.0
  40
 3.00000
  50
 144.671
  51
 182.558
   0
ARC
   8
LEVEL001
   6
CONTINUOUS
  62
7
  10
 398.134
  20
 409.831
  30
0.0
  40
 3.00000
  50
 2.55848
  51
 40.4461
   0
LINE
   8
LEVEL001
   6
CONTINUOUS
  62
7
  10
 401.169
  20
 409.115
  30
0.0
  11
 401.131
  21
 409.965
  31
0.0
   0
LINE
   8
LEVEL001
   6
CONTINUOUS
  62
7
  10
 409.123
  20
 410.322
  30
0.0
  11
 409.161
  21
 409.472
  31
0.0
   0
ARC
   8
LEVEL001
   6
CONTINUOUS
  62
7
  10
 336.975
  20
 431.164
  30
0.0
  40
 1.00000
  50
 272.195
  51
 2.19457
   0
ARC
   8
LEVEL001
   6
CONTINUOUS
  62
7
  10
 370.950
  20
 432.466
  30
0.0
  40
 1.00000
  50
 182.195
  51
 272.195
   0
LINE
   8
LEVEL012
   6
CONTINUOUS
  62
7
  10
 1049.92
  20
 473.423
  30
0.0
  11
 1048.81
  21
 498.399
  31
0.0
   0
LINE
   8
LEVEL012
   6
CONTINUOUS
  62
7
  10
 1048.81
  20
 498.399
  30
0.0
  11
 1058.75
  21
 499.844
  31
0.0
   0
LINE
   8
LEVEL012
   6
CONTINUOUS
  62
7
  10
 1058.75
  20
 499.844
  30
0.0
  11
 1059.96
  21
 472.871
  31
0.0
   0
LINE
   8
LEVEL012
   6
CONTINUOUS
  62
7
  10
 1059.96
  20
 472.871
  30
0.0
  11
 1049.92
  21
 473.423
  31
0.0
   0
ARC
   8
LEVEL012
   6
CONTINUOUS
  62
7
  10
 1030.51
  20
 485.068
  30
0.0
  40
 31.8750
  50
 337.501
  51
 27.6161
   0
LINE
   8
LEVEL012
   6
CONTINUOUS
  62
3
  10
 1026.04
  20
 470.320
  30
0.0
  11
 1024.74
  21
 499.359
  31
0.0
   0
LINE
   8
LEVEL012
   6
CONTINUOUS
  62
3
  10
 1024.74
  20
 499.359
  30
0.0
  11
 1026.74
  21
 499.279
  31
0.0
   0
LINE
   8
LEVEL012
   6
CONTINUOUS
  62
3
  10
 1026.74
  20
 499.279
  30
0.0
  11
 1028.03
  21
 470.579
  31
0.0
   0
LINE
   8
LEVEL012
   6
CONTINUOUS
  62
3
  10
 1028.03
  20
 470.579
  30
0.0
  11
 1026.04
  21
 470.320
  31
0.0
   0
LINE
   8
LEVEL012
   6
CONTINUOUS
  62
3
  10
 1030.02
  20
 470.837
  30
0.0
  11
 1028.75
  21
 499.199
  31
0.0
   0
LINE
   8
LEVEL012
   6
CONTINUOUS
  62
3
  10
 1028.75
  20
 499.199
  30
0.0
  11
 1030.76
  21
 499.119
  31
0.0
   0
LINE
   8
LEVEL012
   6
CONTINUOUS
  62
3
  10
 1030.76
  20
 499.119
  30
0.0
  11
 1032.01
  21
 471.096
  31
0.0
   0
LINE
   8
LEVEL012
   6
CONTINUOUS
  62
3
  10
 1032.01
  20
 471.096
  30
0.0
  11
 1030.02
  21
 470.837
  31
0.0
   0
LINE
   8
LEVEL012
   6
CONTINUOUS
  62
3
  10
 1034.00
  20
 471.355
  30
0.0
  11
 1032.76
  21
 499.039
  31
0.0
   0
LINE
   8
LEVEL012
   6
CONTINUOUS
  62
3
  10
 1032.76
  20
 499.039
  30
0.0
  11
 1034.77
  21
 498.959
  31
0.0
   0
LINE
   8
LEVEL012
   6
CONTINUOUS
  62
3
  10
 1034.77
  20
 498.959
  30
0.0
  11
 1035.99
  21
 471.613
  31
0.0
   0
LINE
   8
LEVEL012
   6
CONTINUOUS
  62
3
  10
 1035.99
  20
 471.613
  30
0.0
  11
 1034.00
  21
 471.355
  31
0.0
   0
LINE
   8
LEVEL012
   6
CONTINUOUS
  62
3
  10
 1037.98
  20
 471.872
  30
0.0
  11
 1036.77
  21
 498.879
  31
0.0
   0
LINE
   8
LEVEL012
   6
CONTINUOUS
  62
3
  10
 1036.77
  20
 498.879
  30
0.0
  11
 1038.78
  21
 498.799
  31
0.0
   0
LINE
   8
LEVEL012
   6
CONTINUOUS
  62
3
  10
 1038.78
  20
 498.799
  30
0.0
  11
 1039.97
  21
 472.130
  31
0.0
   0
LINE
   8
LEVEL012
   6
CONTINUOUS
  62
3
  10
 1039.97
  20
 472.130
  30
0.0
  11
 1037.98
  21
 471.872
  31
0.0
   0
LINE
   8
LEVEL012
   6
CONTINUOUS
  62
3
  10
 1041.96
  20
 472.389
  30
0.0
  11
 1040.78
  21
 498.719
  31
0.0
   0
LINE
   8
LEVEL012
   6
CONTINUOUS
  62
3
  10
 1040.78
  20
 498.719
  30
0.0
  11
 1042.79
  21
 498.639
  31
0.0
   0
LINE
   8
LEVEL012
   6
CONTINUOUS
  62
3
  10
 1042.79
  20
 498.639
  30
0.0
  11
 1043.95
  21
 472.648
  31
0.0
   0
LINE
   8
LEVEL012
   6
CONTINUOUS
  62
3
  10
 1043.95
  20
 472.648
  30
0.0
  11
 1041.96
  21
 472.389
  31
0.0
   0
LINE
   8
LEVEL012
   6
CONTINUOUS
  62
3
  10
 1045.94
  20
 472.906
  30
0.0
  11
 1044.79
  21
 498.559
  31
0.0
   0
LINE
   8
LEVEL012
   6
CONTINUOUS
  62
3
  10
 1044.79
  20
 498.559
  30
0.0
  11
 1046.80
  21
 498.479
  31
0.0
   0
LINE
   8
LEVEL012
   6
CONTINUOUS
  62
3
  10
 1046.80
  20
 498.479
  30
0.0
  11
 1047.93
  21
 473.165
  31
0.0
   0
LINE
   8
LEVEL012
   6
CONTINUOUS
  62
3
  10
 1047.93
  20
 473.165
  30
0.0
  11
 1045.94
  21
 472.906
  31
0.0
   0
LINE
   8
LEVEL012
   6
CONTINUOUS
  62
3
  10
 1026.81
  20
 497.775
  30
0.0
  11
 1028.82
  21
 497.695
  31
0.0
   0
LINE
   8
LEVEL012
   6
CONTINUOUS
  62
3
  10
 1030.82
  20
 497.615
  30
0.0
  11
 1032.83
  21
 497.535
  31
0.0
   0
LINE
   8
LEVEL012
   6
CONTINUOUS
  62
3
  10
 1034.83
  20
 497.455
  30
0.0
  11
 1036.84
  21
 497.375
  31
0.0
   0
LINE
   8
LEVEL012
   6
CONTINUOUS
  62
3
  10
 1038.84
  20
 497.295
  30
0.0
  11
 1040.85
  21
 497.215
  31
0.0
   0
LINE
   8
LEVEL012
   6
CONTINUOUS
  62
3
  10
 1042.86
  20
 497.135
  30
0.0
  11
 1044.86
  21
 497.055
  31
0.0
   0
LINE
   8
LEVEL012
   6
CONTINUOUS
  62
3
  10
 1046.87
  20
 496.975
  30
0.0
  11
 1048.87
  21
 496.895
  31
0.0
   0
LINE
   8
LEVEL012
   6
CONTINUOUS
  62
3
  10
 1035.92
  20
 473.117
  30
0.0
  11
 1037.91
  21
 473.376
  31
0.0
   0
LINE
   8
LEVEL012
   6
CONTINUOUS
  62
3
  10
 1039.90
  20
 473.634
  30
0.0
  11
 1041.89
  21
 473.893
  31
0.0
   0
LINE
   8
LEVEL012
   6
CONTINUOUS
  62
3
  10
 1043.88
  20
 474.152
  30
0.0
  11
 1045.87
  21
 474.410
  31
0.0
   0
LINE
   8
LEVEL012
   6
CONTINUOUS
  62
3
  10
 1047.86
  20
 474.669
  30
0.0
  11
 1049.85
  21
 474.927
  31
0.0
   0
LINE
   8
LEVEL012
   6
CONTINUOUS
  62
3
  10
 1027.96
  20
 472.083
  30
0.0
  11
 1029.95
  21
 472.341
  31
0.0
   0
LINE
   8
LEVEL012
   6
CONTINUOUS
  62
3
  10
 1031.94
  20
 472.600
  30
0.0
  11
 1033.93
  21
 472.859
  31
0.0
   0
LINE
   8
LEVEL003
   6
CONTINUOUS
  62
7
  10
 964.378
  20
 490.122
  30
0.0
  11
 977.078
  21
 490.689
  31
0.0
   0
LINE
   8
LEVEL003
   6
CONTINUOUS
  62
7
  10
 953.978
  20
 492.410
  30
0.0
  11
 956.848
  21
 489.785
  31
0.0
   0
LINE
   8
LEVEL003
   6
CONTINUOUS
  62
7
  10
 956.848
  20
 489.785
  30
0.0
  11
 961.181
  21
 489.979
  31
0.0
   0
LINE
   8
LEVEL003
   6
CONTINUOUS
  62
7
  10
 964.990
  20
 474.133
  30
0.0
  11
 967.003
  21
 421.599
  31
0.0
   0
LINE
   8
LEVEL001
   6
CONTINUOUS
  62
7
  10
 961.793
  20
 473.990
  30
0.0
  11
 963.806
  21
 421.477
  31
0.0
   0
LINE
   8
LEVEL001
   6
CONTINUOUS
  62
7
  10
 958.233
  20
 423.259
  30
0.0
  11
 962.650
  21
 423.428
  31
0.0
   0
LINE
   8
LEVEL001
   6
CONTINUOUS
  62
7
  10
 962.650
  20
 423.428
  30
0.0
  11
 963.191
  21
 424.455
  31
0.0
   0
LINE
   8
LEVEL001
   6
CONTINUOUS
  62
7
  10
 963.191
  20
 424.455
  30
0.0
  11
 962.942
  21
 430.950
  31
0.0
   0
LINE
   8
LEVEL001
   6
CONTINUOUS
  62
7
  10
 962.942
  20
 430.950
  30
0.0
  11
 962.693
  21
 437.446
  31
0.0
   0
LINE
   8
LEVEL001
   6
CONTINUOUS
  62
7
  10
 962.693
  20
 437.446
  30
0.0
  11
 962.075
  21
 438.428
  31
0.0
   0
LINE
   8
LEVEL001
   6
CONTINUOUS
  62
7
  10
 962.075
  20
 438.428
  30
0.0
  11
 957.659
  21
 438.259
  31
0.0
   0
ARC
   8
LEVEL001
   6
CONTINUOUS
  62
7
  10
 950.532
  20
 430.475
  30
0.0
  40
 12.4194
  50
 344.607
  51
 19.7825
   0
ARC
   8
LEVEL001
   6
CONTINUOUS
  62
7
  10
 955.908
  20
 437.186
  30
0.0
  40
 6.79029
  50
 338.330
  51
 2.19455
   0
ARC
   8
LEVEL001
   6
CONTINUOUS
  62
7
  10
 956.406
  20
 424.195
  30
0.0
  40
 6.79029
  50
 2.19459
  51
 26.0595
   0
LINE
   8
LEVEL001
   6
CONTINUOUS
  62
7
  10
 957.802
  20
 434.509
  30
0.0
  11
 962.219
  21
 434.678
  31
0.0
   0
LINE
   8
LEVEL001
   6
CONTINUOUS
  62
7
  10
 958.090
  20
 427.009
  30
0.0
  11
 962.506
  21
 427.178
  31
0.0
   0
LINE
   8
LEVEL003
   6
CONTINUOUS
  62
7
  10
 962.741
  20
 436.197
  30
0.0
  11
 963.241
  21
 436.216
  31
0.0
   0
LINE
   8
LEVEL003
   6
CONTINUOUS
  62
7
  10
 963.143
  20
 425.704
  30
0.0
  11
 963.643
  21
 425.723
  31
0.0
   0
LINE
   8
LEVEL003
   6
CONTINUOUS
  62
7
  10
 960.545
  20
 302.885
  30
0.0
  11
 955.360
  21
 438.171
  31
0.0
   0
LINE
   8
LEVEL001
   6
DASHDOT
  62
1
  10
 376.501
  20
 366.446
  30
0.0
  11
 985.810
  21
 389.796
  31
0.0
   0
LINE
   8
LEVEL003
   6
CONTINUOUS
  62
7
  10
 845.934
  20
 441.978
  30
0.0
  11
 868.917
  21
 442.859
  31
0.0
   0
LINE
   8
LEVEL001
   6
CONTINUOUS
  62
7
  10
 865.508
  20
 443.238
  30
0.0
  11
 864.920
  21
 442.705
  31
0.0
   0
LINE
   8
LEVEL001
   6
CONTINUOUS
  62
7
  10
 849.304
  20
 442.617
  30
0.0
  11
 849.931
  21
 442.131
  31
0.0
   0
LINE
   8
LEVEL001
   6
CONTINUOUS
  62
7
  10
 844.973
  20
 440.940
  30
0.0
  11
 869.955
  21
 441.898
  31
0.0
   0
LINE
   8
LEVEL003
   6
CONTINUOUS
  62
7
  10
 452.415
  20
 421.894
  30
0.0
  11
 954.546
  21
 441.136
  31
0.0
   0
LINE
   8
LEVEL003
   6
CONTINUOUS
  62
7
  10
 968.282
  20
 396.058
  30
0.0
  11
 978.203
  21
 396.438
  31
0.0
   0
ARC
   8
LEVEL003
   6
CONTINUOUS
  62
7
  10
 956.628
  20
 388.678
  30
0.0
  40
 22.9282
  50
 344.607
  51
 19.7825
   0
ARC
   8
LEVEL003
   6
CONTINUOUS
  62
7
  10
 966.553
  20
 401.067
  30
0.0
  40
 12.5359
  50
 338.330
  51
 2.19455
   0
ARC
   8
LEVEL003
   6
CONTINUOUS
  62
7
  10
 967.473
  20
 377.084
  30
0.0
  40
 12.5359
  50
 2.19459
  51
 26.0595
   0
LINE
   8
LEVEL003
   6
CONTINUOUS
  62
7
  10
 451.830
  20
 418.870
  30
0.0
  11
 455.736
  21
 316.944
  31
0.0
   0
LINE
   8
LEVEL001
   6
CONTINUOUS
  62
7
  10
 449.532
  20
 418.781
  30
0.0
  11
 453.438
  21
 316.856
  31
0.0
   0
LINE
   8
LEVEL001
   6
CONTINUOUS
  62
7
  10
 370.988
  20
 431.467
  30
0.0
  11
 372.987
  21
 431.544
  31
0.0
   0
LINE
   8
LEVEL001
   6
CONTINUOUS
  62
7
  10
 372.987
  20
 431.544
  30
0.0
  11
 374.025
  21
 430.583
  31
0.0
   0
LINE
   8
LEVEL001
   6
CONTINUOUS
  62
7
  10
 369.909
  20
 433.529
  30
0.0
  11
 369.951
  21
 432.428
  31
0.0
   0
LINE
   8
LEVEL001
   6
CONTINUOUS
  62
7
  10
 337.940
  20
 432.100
  30
0.0
  11
 337.974
  21
 431.203
  31
0.0
   0
ARC
   8
LEVEL001
   6
CONTINUOUS
  62
7
  10
 324.934
  20
 432.020
  30
0.0
  40
 25.0000
  50
 139.786
  51
 182.195
   0
LINE
   8
LEVEL001
   6
CONTINUOUS
  62
7
  10
 301.555
  20
 389.240
  30
0.0
  11
 299.952
  21
 431.063
  31
0.0
   0
LINE
   8
LEVEL001
   6
CONTINUOUS
  62
7
  10
 319.481
  20
 441.661
  30
0.0
  11
 318.030
  21
 433.788
  31
0.0
   0
ARC
   8
LEVEL001
   6
CONTINUOUS
  62
7
  10
 316.730
  20
 437.767
  30
0.0
  40
 2.00000
  50
 349.559
  51
 13.8496
   0
LINE
   8
LEVEL001
   6
CONTINUOUS
  62
7
  10
 318.670
  20
 438.285
  30
0.0
  11
 312.644
  21
 438.054
  31
0.0
   0
ARC
   8
LEVEL001
   6
CONTINUOUS
  62
7
  10
 324.914
  20
 432.520
  30
0.0
  40
 4.00000
  50
 139.786
  51
 272.195
   0
LINE
   8
LEVEL001
   6
CONTINUOUS
  62
7
  10
 321.917
  20
 435.169
  30
0.0
  11
 328.544
  21
 442.666
  31
0.0
   0
LINE
   8
LEVEL001
   6
CONTINUOUS
  62
7
  10
 312.641
  20
 443.683
  30
0.0
  11
 311.054
  21
 435.074
  31
0.0
   0
LINE
   8
LEVEL001
   6
CONTINUOUS
  62
7
  10
 313.583
  20
 442.911
  30
0.0
  11
 312.091
  21
 434.814
  31
0.0
   0
ARC
   8
LEVEL001
   6
CONTINUOUS
  62
7
  10
 324.914
  20
 432.520
  30
0.0
  40
 14.0936
  50
 169.858
  51
 272.195
   0
ARC
   8
LEVEL001
   6
CONTINUOUS
  62
7
  10
 324.914
  20
 432.520
  30
0.0
  40
 13.0000
  50
 169.858
  51
 272.195
   0
ARC
   8
LEVEL001
   6
CONTINUOUS
  62
7
  10
 324.914
  20
 432.520
  30
0.0
  40
 7.00000
  50
 169.559
  51
 272.195
   0
LINE
   8
LEVEL003
   6
CONTINUOUS
  62
7
  10
 328.527
  20
 429.656
  30
0.0
  11
 327.566
  21
 428.618
  31
0.0
   0
LINE
   8
LEVEL001
   6
CONTINUOUS
  62
7
  10
 327.566
  20
 428.618
  30
0.0
  11
 325.068
  21
 428.522
  31
0.0
   0
LINE
   8
LEVEL003
   6
CONTINUOUS
  62
7
  10
 328.527
  20
 429.656
  30
0.0
  11
 379.489
  21
 431.609
  31
0.0
   0
ARC
   8
LEVEL001
   6
CONTINUOUS
  62
7
  10
 329.939
  20
 428.709
  30
0.0
  40
 3.00000
  50
 272.195
  51
 2.19457
   0
LINE
   8
LEVEL001
   6
CONTINUOUS
  62
7
  10
 325.412
  20
 419.529
  30
0.0
  11
 330.284
  21
 419.716
  31
0.0
   0
ARC
   8
LEVEL001
   6
CONTINUOUS
  62
7
  10
 330.441
  20
 415.625
  30
0.0
  40
 3.00000
  50
 47.1946
  51
 92.1946
   0
ARC
   8
LEVEL001
   6
CONTINUOUS
  62
7
  10
 330.399
  20
 416.718
  30
0.0
  40
 3.00000
  50
 47.1946
  51
 92.1946
   0
ARC
   8
LEVEL001
   6
CONTINUOUS
  62
7
  10
 325.605
  20
 427.542
  30
0.0
  40
 2.00000
  50
 272.195
  51
 2.19457
   0
LINE
   8
LEVEL001
   6
CONTINUOUS
  62
7
  10
 325.182
  20
 425.525
  30
0.0
  11
 330.054
  21
 425.711
  31
0.0
   0
LINE
   8
LEVEL001
   6
CONTINUOUS
  62
7
  10
 379.026
  20
 417.581
  30
0.0
  11
 331.061
  21
 415.743
  31
0.0
   0
ARC
   8
LEVEL001
   6
CONTINUOUS
  62
7
  10
 325.928
  20
 415.452
  30
0.0
  40
 3.00000
  50
 33.2322
  51
 92.1946
   0
LINE
   8
LEVEL001
   6
CONTINUOUS
  62
7
  10
 325.454
  20
 418.436
  30
0.0
  11
 330.326
  21
 418.623
  31
0.0
   0
LINE
   8
LEVEL001
   6
CONTINUOUS
  62
7
  10
 330.118
  20
 414.233
  30
0.0
  11
 331.217
  21
 385.575
  31
0.0
   0
ARC
   8
LEVEL001
   6
CONTINUOUS
  62
7
  10
 327.121
  20
 414.118
  30
0.0
  40
 3.00000
  50
 2.19457
  51
 50.3843
   0
ARC
   8
LEVEL001
   6
CONTINUOUS
  62
7
  10
 330.946
  20
 418.740
  30
0.0
  40
 3.00000
  50
 213.232
  51
 230.384
   0
LINE
   8
LEVEL003
   6
CONTINUOUS
  62
7
  10
 379.489
  20
 431.609
  30
0.0
  11
 380.527
  21
 430.648
  31
0.0
   0
LINE
   8
LEVEL001
   6
CONTINUOUS
  62
7
  10
 380.527
  20
 430.648
  30
0.0
  11
 380.948
  21
 419.656
  31
0.0
   0
ARC
   8
LEVEL001
   6
CONTINUOUS
  62
7
  10
 381.081
  20
 416.194
  30
0.0
  40
 2.00000
  50
 122.195
  51
 182.195
   0
ARC
   8
LEVEL001
   6
CONTINUOUS
  62
7
  10
 378.950
  20
 419.579
  30
0.0
  40
 2.00000
  50
 302.195
  51
 2.19457
   0
LINE
   8
LEVEL001
   6
CONTINUOUS
  62
7
  10
 325.146
  20
 322.013
  30
0.0
  11
 324.684
  21
 334.070
  31
0.0
   0
ARC
   8
LEVEL001
   6
CONTINUOUS
  62
7
  10
 320.687
  20
 333.917
  30
0.0
  40
 4.00000
  50
 2.19457
  51
 92.1946
   0
ARC
   8
LEVEL001
   6
CONTINUOUS
  62
7
  10
 331.535
  20
 364.216
  30
0.0
  40
 28.7500
  50
 246.290
  51
 254.172
   0
LINE
   8
LEVEL001
   6
DASHDOT
  62
1
  10
 345.857
  20
 347.259
  30
0.0
  11
 379.569
  21
 348.551
  31
0.0
   0
LINE
   8
LEVEL001
   6
DASHDOT
  62
1
  10
 350.007
  20
 352.238
  30
0.0
  11
 350.401
  21
 341.945
  31
0.0
   0
LINE
   8
LEVEL001
   6
DASHDOT
  62
1
  10
 292.507
  20
 362.727
  30
0.0
  11
 337.979
  21
 364.470
  31
0.0
   0
LINE
   8
LEVEL001
   6
CONTINUOUS
  62
7
  10
 300.549
  20
 337.148
  30
0.0
  11
 320.534
  21
 337.914
  31
0.0
   0
ARC
   8
LEVEL001
   6
CONTINUOUS
  62
7
  10
 297.557
  20
 389.087
  30
0.0
  40
 4.00000
  50
 286.519
  51
 2.19457
   0
LINE
   8
LEVEL001
   6
DOT
  62
3
  10
 300.726
  20
 355.589
  30
0.0
  11
 299.877
  21
 354.673
  31
0.0
   0
LINE
   8
LEVEL001
   6
DOT
  62
3
  10
 299.877
  20
 354.673
  30
0.0
  11
 314.853
  21
 355.581
  31
0.0
   0
LINE
   8
LEVEL001
   6
DOT
  62
3
  10
 299.239
  20
 371.322
  30
0.0
  11
 314.241
  21
 371.563
  31
0.0
   0
LINE
   8
LEVEL001
   6
DOT
  62
3
  10
 314.274
  20
 370.683
  30
0.0
  11
 300.156
  21
 370.473
  31
0.0
   0
LINE
   8
LEVEL001
   6
DOT
  62
3
  10
 300.156
  20
 370.473
  30
0.0
  11
 300.726
  21
 355.589
  31
0.0
   0
LINE
   8
LEVEL001
   6
DOT
  62
3
  10
 300.726
  20
 355.589
  30
0.0
  11
 314.819
  21
 356.461
  31
0.0
   0
ARC
   8
LEVEL001
   6
CONTINUOUS
  62
7
  10
 327.220
  20
 385.422
  30
0.0
  40
 4.00000
  50
 272.195
  51
 2.19457
   0
LINE
   8
LEVEL001
   6
CONTINUOUS
  62
7
  10
 298.894
  20
 380.334
  30
0.0
  11
 327.373
  21
 381.425
  31
0.0
   0
LINE
   8
LEVEL001
   6
CONTINUOUS
  62
7
  10
 345.998
  20
 362.642
  30
0.0
  11
 334.517
  21
 370.908
  31
0.0
   0
LINE
   8
LEVEL001
   6
CONTINUOUS
  62
7
  10
 345.998
  20
 362.642
  30
0.0
  11
 355.415
  21
 352.085
  31
0.0
   0
LINE
   8
LEVEL001
   6
CONTINUOUS
  62
7
  10
 334.620
  20
 350.010
  30
0.0
  11
 346.101
  21
 341.744
  31
0.0
   0
LINE
   8
LEVEL001
   6
CONTINUOUS
  62
7
  10
 334.620
  20
 350.010
  30
0.0
  11
 325.203
  21
 360.567
  31
0.0
   0
ARC
   8
LEVEL001
   6
CONTINUOUS
  62
7
  10
 330.427
  20
 365.227
  30
0.0
  40
 7.00000
  50
 54.2472
  51
 221.735
   0
ARC
   8
LEVEL001
   6
CONTINUOUS
  62
7
  10
 350.191
  20
 347.425
  30
0.0
  40
 7.00000
  50
 234.247
  51
 41.7346
   0
CIRCLE
   8
LEVEL001
   6
CONTINUOUS
  62
7
  10
 350.892
  20
 407.496
  30
0.0
  40
 3.99984
   0
LINE
   8
LEVEL001
   6
CONTINUOUS
  62
7
  10
 335.912
  20
 389.417
  30
0.0
  11
 336.733
  21
 386.283
  31
0.0
   0
LINE
   8
LEVEL001
   6
CONTINUOUS
  62
7
  10
 336.733
  20
 386.283
  30
0.0
  11
 336.968
  21
 385.748
  31
0.0
   0
LINE
   8
LEVEL001
   6
CONTINUOUS
  62
7
  10
 336.968
  20
 385.748
  30
0.0
  11
 337.385
  21
 385.233
  31
0.0
   0
LINE
   8
LEVEL001
   6
CONTINUOUS
  62
7
  10
 337.385
  20
 385.233
  30
0.0
  11
 337.979
  21
 384.748
  31
0.0
   0
LINE
   8
LEVEL001
   6
CONTINUOUS
  62
7
  10
 337.979
  20
 384.748
  30
0.0
  11
 338.739
  21
 384.300
  31
0.0
   0
LINE
   8
LEVEL001
   6
CONTINUOUS
  62
7
  10
 338.739
  20
 384.300
  30
0.0
  11
 339.655
  21
 383.895
  31
0.0
   0
LINE
   8
LEVEL001
   6
CONTINUOUS
  62
7
  10
 339.655
  20
 383.895
  30
0.0
  11
 340.711
  21
 383.540
  31
0.0
   0
LINE
   8
LEVEL001
   6
CONTINUOUS
  62
7
  10
 340.711
  20
 383.540
  30
0.0
  11
 341.891
  21
 383.241
  31
0.0
   0
LINE
   8
LEVEL001
   6
CONTINUOUS
  62
7
  10
 341.891
  20
 383.241
  30
0.0
  11
 343.178
  21
 383.002
  31
0.0
   0
LINE
   8
LEVEL001
   6
CONTINUOUS
  62
7
  10
 343.178
  20
 383.002
  30
0.0
  11
 344.549
  21
 382.827
  31
0.0
   0
LINE
   8
LEVEL001
   6
CONTINUOUS
  62
7
  10
 344.549
  20
 382.827
  30
0.0
  11
 345.986
  21
 382.718
  31
0.0
   0
LINE
   8
LEVEL001
   6
CONTINUOUS
  62
7
  10
 345.986
  20
 382.718
  30
0.0
  11
 347.464
  21
 382.677
  31
0.0
   0
LINE
   8
LEVEL001
   6
CONTINUOUS
  62
7
  10
 347.464
  20
 382.677
  30
0.0
  11
 348.961
  21
 382.706
  31
0.0
   0
LINE
   8
LEVEL001
   6
CONTINUOUS
  62
7
  10
 348.961
  20
 382.706
  30
0.0
  11
 350.453
  21
 382.803
  31
0.0
   0
LINE
   8
LEVEL001
   6
CONTINUOUS
  62
7
  10
 350.453
  20
 382.803
  30
0.0
  11
 351.918
  21
 382.967
  31
0.0
   0
LINE
   8
LEVEL001
   6
CONTINUOUS
  62
7
  10
 351.918
  20
 382.967
  30
0.0
  11
 353.332
  21
 383.196
  31
0.0
   0
LINE
   8
LEVEL001
   6
CONTINUOUS
  62
7
  10
 353.332
  20
 383.196
  30
0.0
  11
 354.673
  21
 383.485
  31
0.0
   0
LINE
   8
LEVEL001
   6
CONTINUOUS
  62
7
  10
 354.673
  20
 383.485
  30
0.0
  11
 355.921
  21
 383.831
  31
0.0
   0
LINE
   8
LEVEL001
   6
CONTINUOUS
  62
7
  10
 355.921
  20
 383.831
  30
0.0
  11
 355.947
  21
 383.839
  31
0.0
   0
LINE
   8
LEVEL001
   6
CONTINUOUS
  62
7
  10
 336.814
  20
 383.129
  30
0.0
  11
 337.174
  21
 373.748
  31
0.0
   0
LINE
   8
LEVEL001
   6
CONTINUOUS
  62
7
  10
 348.407
  20
 322.993
  30
0.0
  11
 341.485
  21
 336.465
  31
0.0
   0
ARC
   8
LEVEL001
   6
CONTINUOUS
  62
7
  10
 338.642
  20
 335.433
  30
0.0
  40
 3.00000
  50
 27.1946
  51
 93.4356
   0
LINE
   8
LEVEL001
   6
DASHDOT
  62
1
  10
 333.739
  20
 386.524
  30
0.0
  11
 393.717
  21
 388.822
  31
0.0
   0
LINE
   8
LEVEL001
   6
CONTINUOUS
  62
7
  10
 350.103
  20
 349.733
  30
0.0
  11
 352.146
  21
 348.655
  31
0.0
   0
LINE
   8
LEVEL001
   6
CONTINUOUS
  62
7
  10
 352.146
  20
 348.655
  30
0.0
  11
 352.234
  21
 346.348
  31
0.0
   0
LINE
   8
LEVEL001
   6
CONTINUOUS
  62
7
  10
 352.234
  20
 346.348
  30
0.0
  11
 350.280
  21
 345.117
  31
0.0
   0
LINE
   8
LEVEL001
   6
CONTINUOUS
  62
7
  10
 350.280
  20
 345.117
  30
0.0
  11
 348.237
  21
 346.195
  31
0.0
   0
LINE
   8
LEVEL001
   6
CONTINUOUS
  62
7
  10
 348.237
  20
 346.195
  30
0.0
  11
 348.149
  21
 348.502
  31
0.0
   0
LINE
   8
LEVEL001
   6
CONTINUOUS
  62
7
  10
 348.149
  20
 348.502
  30
0.0
  11
 350.103
  21
 349.733
  31
0.0
   0
CIRCLE
   8
LEVEL001
   6
CONTINUOUS
  62
7
  10
 350.191
  20
 347.425
  30
0.0
  40
 4.00000
   0
CIRCLE
   8
LEVEL001
   6
CONTINUOUS
  62
3
  10
 350.191
  20
 347.425
  30
0.0
  40
 3.37500
   0
LINE
   8
LEVEL003
   6
DASHDOT
  62
1
  10
 330.914
  20
 380.412
  30
0.0
  11
 332.116
  21
 349.041
  31
0.0
   0
LINE
   8
LEVEL001
   6
DASHDOT
  62
1
  10
 347.993
  20
 404.805
  30
0.0
  11
 351.357
  21
 316.998
  31
0.0
   0
LINE
   8
LEVEL001
   6
CONTINUOUS
  62
7
  10
 356.297
  20
 397.017
  30
0.0
  11
 356.220
  21
 397.388
  31
0.0
   0
LINE
   8
LEVEL001
   6
CONTINUOUS
  62
7
  10
 356.220
  20
 397.388
  30
0.0
  11
 356.020
  21
 397.748
  31
0.0
   0
LINE
   8
LEVEL001
   6
CONTINUOUS
  62
7
  10
 356.020
  20
 397.748
  30
0.0
  11
 355.699
  21
 398.092
  31
0.0
   0
LINE
   8
LEVEL001
   6
CONTINUOUS
  62
7
  10
 355.699
  20
 398.092
  30
0.0
  11
 355.263
  21
 398.415
  31
0.0
   0
LINE
   8
LEVEL001
   6
CONTINUOUS
  62
7
  10
 355.263
  20
 398.415
  30
0.0
  11
 354.719
  21
 398.711
  31
0.0
   0
LINE
   8
LEVEL001
   6
CONTINUOUS
  62
7
  10
 354.719
  20
 398.711
  30
0.0
  11
 354.074
  21
 398.976
  31
0.0
   0
LINE
   8
LEVEL001
   6
CONTINUOUS
  62
7
  10
 354.074
  20
 398.976
  30
0.0
  11
 353.339
  21
 399.205
  31
0.0
   0
LINE
   8
LEVEL001
   6
CONTINUOUS
  62
7
  10
 353.339
  20
 399.205
  30
0.0
  11
 352.525
  21
 399.396
  31
0.0
   0
LINE
   8
LEVEL001
   6
CONTINUOUS
  62
7
  10
 352.525
  20
 399.396
  30
0.0
  11
 351.646
  21
 399.544
  31
0.0
   0
LINE
   8
LEVEL001
   6
CONTINUOUS
  62
7
  10
 351.646
  20
 399.544
  30
0.0
  11
 350.715
  21
 399.649
  31
0.0
   0
LINE
   8
LEVEL001
   6
CONTINUOUS
  62
7
  10
 350.715
  20
 399.649
  30
0.0
  11
 349.745
  21
 399.707
  31
0.0
   0
LINE
   8
LEVEL001
   6
CONTINUOUS
  62
7
  10
 349.745
  20
 399.707
  30
0.0
  11
 348.754
  21
 399.719
  31
0.0
   0
LINE
   8
LEVEL001
   6
CONTINUOUS
  62
7
  10
 348.754
  20
 399.719
  30
0.0
  11
 347.755
  21
 399.684
  31
0.0
   0
LINE
   8
LEVEL001
   6
CONTINUOUS
  62
7
  10
 347.755
  20
 399.684
  30
0.0
  11
 346.765
  21
 399.602
  31
0.0
   0
LINE
   8
LEVEL001
   6
CONTINUOUS
  62
7
  10
 346.765
  20
 399.602
  30
0.0
  11
 345.799
  21
 399.476
  31
0.0
   0
LINE
   8
LEVEL001
   6
CONTINUOUS
  62
7
  10
 345.799
  20
 399.476
  30
0.0
  11
 344.872
  21
 399.306
  31
0.0
   0
LINE
   8
LEVEL001
   6
CONTINUOUS
  62
7
  10
 344.872
  20
 399.306
  30
0.0
  11
 343.998
  21
 399.095
  31
0.0
   0
LINE
   8
LEVEL001
   6
CONTINUOUS
  62
7
  10
 343.998
  20
 399.095
  30
0.0
  11
 343.192
  21
 398.848
  31
0.0
   0
LINE
   8
LEVEL001
   6
CONTINUOUS
  62
7
  10
 343.192
  20
 398.848
  30
0.0
  11
 342.465
  21
 398.567
  31
0.0
   0
LINE
   8
LEVEL001
   6
CONTINUOUS
  62
7
  10
 342.465
  20
 398.567
  30
0.0
  11
 341.830
  21
 398.257
  31
0.0
   0
LINE
   8
LEVEL001
   6
CONTINUOUS
  62
7
  10
 341.830
  20
 398.257
  30
0.0
  11
 341.295
  21
 397.923
  31
0.0
   0
LINE
   8
LEVEL001
   6
CONTINUOUS
  62
7
  10
 341.295
  20
 397.923
  30
0.0
  11
 340.870
  21
 397.570
  31
0.0
   0
LINE
   8
LEVEL001
   6
CONTINUOUS
  62
7
  10
 340.870
  20
 397.570
  30
0.0
  11
 340.561
  21
 397.204
  31
0.0
   0
LINE
   8
LEVEL001
   6
CONTINUOUS
  62
7
  10
 340.561
  20
 397.204
  30
0.0
  11
 340.372
  21
 396.830
  31
0.0
   0
LINE
   8
LEVEL001
   6
CONTINUOUS
  62
7
  10
 340.372
  20
 396.830
  30
0.0
  11
 340.308
  21
 396.454
  31
0.0
   0
LINE
   8
LEVEL001
   6
CONTINUOUS
  62
7
  10
 340.308
  20
 396.454
  30
0.0
  11
 340.368
  21
 396.082
  31
0.0
   0
LINE
   8
LEVEL001
   6
CONTINUOUS
  62
7
  10
 340.368
  20
 396.082
  30
0.0
  11
 340.552
  21
 395.720
  31
0.0
   0
LINE
   8
LEVEL001
   6
CONTINUOUS
  62
7
  10
 340.552
  20
 395.720
  30
0.0
  11
 340.857
  21
 395.373
  31
0.0
   0
LINE
   8
LEVEL001
   6
CONTINUOUS
  62
7
  10
 340.857
  20
 395.373
  30
0.0
  11
 341.278
  21
 395.047
  31
0.0
   0
LINE
   8
LEVEL001
   6
CONTINUOUS
  62
7
  10
 341.278
  20
 395.047
  30
0.0
  11
 341.809
  21
 394.747
  31
0.0
   0
LINE
   8
LEVEL001
   6
CONTINUOUS
  62
7
  10
 341.809
  20
 394.747
  30
0.0
  11
 342.441
  21
 394.478
  31
0.0
   0
LINE
   8
LEVEL001
   6
CONTINUOUS
  62
7
  10
 342.441
  20
 394.478
  30
0.0
  11
 343.164
  21
 394.244
  31
0.0
   0
LINE
   8
LEVEL001
   6
CONTINUOUS
  62
7
  10
 343.164
  20
 394.244
  30
0.0
  11
 343.968
  21
 394.048
  31
0.0
   0
LINE
   8
LEVEL001
   6
CONTINUOUS
  62
7
  10
 343.968
  20
 394.048
  30
0.0
  11
 344.839
  21
 393.893
  31
0.0
   0
LINE
   8
LEVEL001
   6
CONTINUOUS
  62
7
  10
 344.839
  20
 393.893
  30
0.0
  11
 345.765
  21
 393.783
  31
0.0
   0
LINE
   8
LEVEL001
   6
CONTINUOUS
  62
7
  10
 345.765
  20
 393.783
  30
0.0
  11
 346.730
  21
 393.718
  31
0.0
   0
LINE
   8
LEVEL001
   6
CONTINUOUS
  62
7
  10
 346.730
  20
 393.718
  30
0.0
  11
 347.719
  21
 393.700
  31
0.0
   0
LINE
   8
LEVEL001
   6
CONTINUOUS
  62
7
  10
 347.719
  20
 393.700
  30
0.0
  11
 348.718
  21
 393.729
  31
0.0
   0
LINE
   8
LEVEL001
   6
CONTINUOUS
  62
7
  10
 348.718
  20
 393.729
  30
0.0
  11
 349.710
  21
 393.805
  31
0.0
   0
LINE
   8
LEVEL001
   6
CONTINUOUS
  62
7
  10
 349.710
  20
 393.805
  30
0.0
  11
 350.680
  21
 393.926
  31
0.0
   0
LINE
   8
LEVEL001
   6
CONTINUOUS
  62
7
  10
 350.680
  20
 393.926
  30
0.0
  11
 351.614
  21
 394.090
  31
0.0
   0
LINE
   8
LEVEL001
   6
CONTINUOUS
  62
7
  10
 351.614
  20
 394.090
  30
0.0
  11
 352.495
  21
 394.295
  31
0.0
   0
LINE
   8
LEVEL001
   6
CONTINUOUS
  62
7
  10
 352.495
  20
 394.295
  30
0.0
  11
 353.311
  21
 394.538
  31
0.0
   0
LINE
   8
LEVEL001
   6
CONTINUOUS
  62
7
  10
 353.311
  20
 394.538
  30
0.0
  11
 354.049
  21
 394.815
  31
0.0
   0
LINE
   8
LEVEL001
   6
CONTINUOUS
  62
7
  10
 354.049
  20
 394.815
  30
0.0
  11
 354.697
  21
 395.121
  31
0.0
   0
LINE
   8
LEVEL001
   6
CONTINUOUS
  62
7
  10
 354.697
  20
 395.121
  30
0.0
  11
 355.246
  21
 395.452
  31
0.0
   0
LINE
   8
LEVEL001
   6
CONTINUOUS
  62
7
  10
 355.246
  20
 395.452
  30
0.0
  11
 355.686
  21
 395.803
  31
0.0
   0
LINE
   8
LEVEL001
   6
CONTINUOUS
  62
7
  10
 355.686
  20
 395.803
  30
0.0
  11
 356.011
  21
 396.168
  31
0.0
   0
LINE
   8
LEVEL001
   6
CONTINUOUS
  62
7
  10
 356.011
  20
 396.168
  30
0.0
  11
 356.215
  21
 396.541
  31
0.0
   0
LINE
   8
LEVEL001
   6
CONTINUOUS
  62
7
  10
 356.215
  20
 396.541
  30
0.0
  11
 356.296
  21
 396.917
  31
0.0
   0
LINE
   8
LEVEL001
   6
CONTINUOUS
  62
7
  10
 356.296
  20
 396.917
  30
0.0
  11
 356.297
  21
 397.017
  31
0.0
   0
LINE
   8
LEVEL001
   6
CONTINUOUS
  62
7
  10
 340.171
  20
 386.942
  30
0.0
  11
 339.830
  21
 395.827
  31
0.0
   0
LINE
   8
LEVEL001
   6
CONTINUOUS
  62
7
  10
 345.360
  20
 398.431
  30
0.0
  11
 351.105
  21
 398.652
  31
0.0
   0
LINE
   8
LEVEL001
   6
CONTINUOUS
  62
7
  10
 351.105
  20
 398.652
  30
0.0
  11
 354.049
  21
 396.930
  31
0.0
   0
LINE
   8
LEVEL001
   6
CONTINUOUS
  62
7
  10
 354.049
  20
 396.930
  30
0.0
  11
 351.246
  21
 394.989
  31
0.0
   0
LINE
   8
LEVEL001
   6
CONTINUOUS
  62
7
  10
 351.246
  20
 394.989
  30
0.0
  11
 345.500
  21
 394.769
  31
0.0
   0
LINE
   8
LEVEL001
   6
CONTINUOUS
  62
7
  10
 345.500
  20
 394.769
  30
0.0
  11
 342.557
  21
 396.490
  31
0.0
   0
LINE
   8
LEVEL001
   6
CONTINUOUS
  62
7
  10
 342.557
  20
 396.490
  30
0.0
  11
 345.360
  21
 398.431
  31
0.0
   0
LINE
   8
LEVEL001
   6
CONTINUOUS
  62
7
  10
 340.171
  20
 386.942
  30
0.0
  11
 340.252
  21
 386.548
  31
0.0
   0
LINE
   8
LEVEL001
   6
CONTINUOUS
  62
7
  10
 340.252
  20
 386.548
  30
0.0
  11
 340.465
  21
 386.165
  31
0.0
   0
LINE
   8
LEVEL001
   6
CONTINUOUS
  62
7
  10
 340.465
  20
 386.165
  30
0.0
  11
 340.806
  21
 385.800
  31
0.0
   0
LINE
   8
LEVEL001
   6
CONTINUOUS
  62
7
  10
 340.806
  20
 385.800
  30
0.0
  11
 341.269
  21
 385.457
  31
0.0
   0
LINE
   8
LEVEL001
   6
CONTINUOUS
  62
7
  10
 341.269
  20
 385.457
  30
0.0
  11
 341.848
  21
 385.142
  31
0.0
   0
LINE
   8
LEVEL001
   6
CONTINUOUS
  62
7
  10
 341.848
  20
 385.142
  30
0.0
  11
 342.533
  21
 384.861
  31
0.0
   0
LINE
   8
LEVEL001
   6
CONTINUOUS
  62
7
  10
 342.533
  20
 384.861
  30
0.0
  11
 343.314
  21
 384.617
  31
0.0
   0
LINE
   8
LEVEL001
   6
CONTINUOUS
  62
7
  10
 343.314
  20
 384.617
  30
0.0
  11
 344.178
  21
 384.415
  31
0.0
   0
LINE
   8
LEVEL001
   6
CONTINUOUS
  62
7
  10
 344.178
  20
 384.415
  30
0.0
  11
 345.112
  21
 384.257
  31
0.0
   0
LINE
   8
LEVEL001
   6
CONTINUOUS
  62
7
  10
 345.112
  20
 384.257
  30
0.0
  11
 346.102
  21
 384.146
  31
0.0
   0
LINE
   8
LEVEL001
   6
CONTINUOUS
  62
7
  10
 346.102
  20
 384.146
  30
0.0
  11
 347.132
  21
 384.084
  31
0.0
   0
LINE
   8
LEVEL001
   6
CONTINUOUS
  62
7
  10
 347.132
  20
 384.084
  30
0.0
  11
 348.185
  21
 384.071
  31
0.0
   0
LINE
   8
LEVEL001
   6
CONTINUOUS
  62
7
  10
 348.185
  20
 384.071
  30
0.0
  11
 349.247
  21
 384.108
  31
0.0
   0
LINE
   8
LEVEL001
   6
CONTINUOUS
  62
7
  10
 349.247
  20
 384.108
  30
0.0
  11
 350.299
  21
 384.195
  31
0.0
   0
LINE
   8
LEVEL001
   6
CONTINUOUS
  62
7
  10
 350.299
  20
 384.195
  30
0.0
  11
 351.325
  21
 384.330
  31
0.0
   0
LINE
   8
LEVEL001
   6
CONTINUOUS
  62
7
  10
 351.325
  20
 384.330
  30
0.0
  11
 352.310
  21
 384.510
  31
0.0
   0
LINE
   8
LEVEL001
   6
CONTINUOUS
  62
7
  10
 352.310
  20
 384.510
  30
0.0
  11
 353.238
  21
 384.734
  31
0.0
   0
LINE
   8
LEVEL001
   6
CONTINUOUS
  62
7
  10
 353.238
  20
 384.734
  30
0.0
  11
 354.095
  21
 384.997
  31
0.0
   0
LINE
   8
LEVEL001
   6
CONTINUOUS
  62
7
  10
 354.095
  20
 384.997
  30
0.0
  11
 354.867
  21
 385.295
  31
0.0
   0
LINE
   8
LEVEL001
   6
CONTINUOUS
  62
7
  10
 354.867
  20
 385.295
  30
0.0
  11
 355.542
  21
 385.624
  31
0.0
   0
LINE
   8
LEVEL001
   6
CONTINUOUS
  62
7
  10
 355.542
  20
 385.624
  30
0.0
  11
 356.110
  21
 385.979
  31
0.0
   0
LINE
   8
LEVEL001
   6
CONTINUOUS
  62
7
  10
 356.110
  20
 385.979
  30
0.0
  11
 356.562
  21
 386.354
  31
0.0
   0
LINE
   8
LEVEL001
   6
CONTINUOUS
  62
7
  10
 356.562
  20
 386.354
  30
0.0
  11
 356.890
  21
 386.744
  31
0.0
   0
LINE
   8
LEVEL001
   6
CONTINUOUS
  62
7
  10
 356.890
  20
 386.744
  30
0.0
  11
 357.091
  21
 387.141
  31
0.0
   0
LINE
   8
LEVEL001
   6
CONTINUOUS
  62
7
  10
 357.091
  20
 387.141
  30
0.0
  11
 357.159
  21
 387.541
  31
0.0
   0
LINE
   8
LEVEL001
   6
CONTINUOUS
  62
7
  10
 357.159
  20
 387.541
  30
0.0
  11
 357.158
  21
 387.593
  31
0.0
   0
LINE
   8
LEVEL001
   6
CONTINUOUS
  62
7
  10
 340.282
  20
 396.913
  30
0.0
  11
 340.734
  21
 397.426
  31
0.0
   0
LINE
   8
LEVEL001
   6
CONTINUOUS
  62
7
  10
 340.282
  20
 396.913
  30
0.0
  11
 340.004
  21
 396.520
  31
0.0
   0
LINE
   8
LEVEL001
   6
CONTINUOUS
  62
7
  10
 340.004
  20
 396.520
  30
0.0
  11
 339.855
  21
 396.121
  31
0.0
   0
LINE
   8
LEVEL001
   6
CONTINUOUS
  62
7
  10
 339.855
  20
 396.121
  30
0.0
  11
 339.839
  21
 395.723
  31
0.0
   0
LINE
   8
LEVEL001
   6
CONTINUOUS
  62
7
  10
 339.839
  20
 395.723
  30
0.0
  11
 339.955
  21
 395.331
  31
0.0
   0
LINE
   8
LEVEL001
   6
CONTINUOUS
  62
7
  10
 339.955
  20
 395.331
  30
0.0
  11
 340.202
  21
 394.952
  31
0.0
   0
LINE
   8
LEVEL001
   6
CONTINUOUS
  62
7
  10
 340.202
  20
 394.952
  30
0.0
  11
 340.575
  21
 394.592
  31
0.0
   0
LINE
   8
LEVEL001
   6
CONTINUOUS
  62
7
  10
 340.575
  20
 394.592
  30
0.0
  11
 341.070
  21
 394.256
  31
0.0
   0
LINE
   8
LEVEL001
   6
CONTINUOUS
  62
7
  10
 341.070
  20
 394.256
  30
0.0
  11
 341.677
  21
 393.950
  31
0.0
   0
LINE
   8
LEVEL001
   6
CONTINUOUS
  62
7
  10
 341.677
  20
 393.950
  30
0.0
  11
 342.389
  21
 393.678
  31
0.0
   0
LINE
   8
LEVEL001
   6
CONTINUOUS
  62
7
  10
 342.389
  20
 393.678
  30
0.0
  11
 343.193
  21
 393.444
  31
0.0
   0
LINE
   8
LEVEL001
   6
CONTINUOUS
  62
7
  10
 343.193
  20
 393.444
  30
0.0
  11
 344.077
  21
 393.253
  31
0.0
   0
LINE
   8
LEVEL001
   6
CONTINUOUS
  62
7
  10
 344.077
  20
 393.253
  30
0.0
  11
 345.027
  21
 393.107
  31
0.0
   0
LINE
   8
LEVEL001
   6
CONTINUOUS
  62
7
  10
 345.027
  20
 393.107
  30
0.0
  11
 346.029
  21
 393.009
  31
0.0
   0
LINE
   8
LEVEL001
   6
CONTINUOUS
  62
7
  10
 346.029
  20
 393.009
  30
0.0
  11
 347.066
  21
 392.960
  31
0.0
   0
LINE
   8
LEVEL001
   6
CONTINUOUS
  62
7
  10
 347.066
  20
 392.960
  30
0.0
  11
 348.124
  21
 392.961
  31
0.0
   0
LINE
   8
LEVEL001
   6
CONTINUOUS
  62
7
  10
 348.124
  20
 392.961
  30
0.0
  11
 349.184
  21
 393.011
  31
0.0
   0
LINE
   8
LEVEL001
   6
CONTINUOUS
  62
7
  10
 349.184
  20
 393.011
  30
0.0
  11
 350.231
  21
 393.110
  31
0.0
   0
LINE
   8
LEVEL001
   6
CONTINUOUS
  62
7
  10
 350.231
  20
 393.110
  30
0.0
  11
 351.248
  21
 393.257
  31
0.0
   0
LINE
   8
LEVEL001
   6
CONTINUOUS
  62
7
  10
 351.248
  20
 393.257
  30
0.0
  11
 352.220
  21
 393.449
  31
0.0
   0
LINE
   8
LEVEL001
   6
CONTINUOUS
  62
7
  10
 352.220
  20
 393.449
  30
0.0
  11
 353.130
  21
 393.684
  31
0.0
   0
LINE
   8
LEVEL001
   6
CONTINUOUS
  62
7
  10
 353.130
  20
 393.684
  30
0.0
  11
 353.966
  21
 393.956
  31
0.0
   0
LINE
   8
LEVEL001
   6
CONTINUOUS
  62
7
  10
 353.966
  20
 393.956
  30
0.0
  11
 354.714
  21
 394.263
  31
0.0
   0
LINE
   8
LEVEL001
   6
CONTINUOUS
  62
7
  10
 354.714
  20
 394.263
  30
0.0
  11
 355.362
  21
 394.600
  31
0.0
   0
LINE
   8
LEVEL001
   6
CONTINUOUS
  62
7
  10
 355.362
  20
 394.600
  30
0.0
  11
 355.900
  21
 394.961
  31
0.0
   0
LINE
   8
LEVEL001
   6
CONTINUOUS
  62
7
  10
 355.900
  20
 394.961
  30
0.0
  11
 356.320
  21
 395.340
  31
0.0
   0
LINE
   8
LEVEL001
   6
CONTINUOUS
  62
7
  10
 356.320
  20
 395.340
  30
0.0
  11
 356.615
  21
 395.732
  31
0.0
   0
LINE
   8
LEVEL001
   6
CONTINUOUS
  62
7
  10
 356.615
  20
 395.732
  30
0.0
  11
 356.781
  21
 396.131
  31
0.0
   0
LINE
   8
LEVEL001
   6
CONTINUOUS
  62
7
  10
 356.781
  20
 396.131
  30
0.0
  11
 356.815
  21
 396.530
  31
0.0
   0
LINE
   8
LEVEL001
   6
CONTINUOUS
  62
7
  10
 356.815
  20
 396.530
  30
0.0
  11
 356.716
  21
 396.923
  31
0.0
   0
LINE
   8
LEVEL001
   6
CONTINUOUS
  62
7
  10
 356.716
  20
 396.923
  30
0.0
  11
 356.487
  21
 397.304
  31
0.0
   0
LINE
   8
LEVEL001
   6
CONTINUOUS
  62
7
  10
 356.487
  20
 397.304
  30
0.0
  11
 356.285
  21
 397.527
  31
0.0
   0
LINE
   8
LEVEL001
   6
CONTINUOUS
  62
7
  10
 338.971
  20
 394.439
  30
0.0
  11
 339.893
  21
 394.187
  31
0.0
   0
LINE
   8
LEVEL001
   6
CONTINUOUS
  62
7
  10
 354.861
  20
 398.642
  30
0.0
  11
 359.534
  21
 398.821
  31
0.0
   0
LINE
   8
LEVEL001
   6
CONTINUOUS
  62
7
  10
 359.534
  20
 398.821
  30
0.0
  11
 366.536
  21
 412.099
  31
0.0
   0
LINE
   8
LEVEL001
   6
CONTINUOUS
  62
7
  10
 366.536
  20
 412.099
  30
0.0
  11
 359.541
  21
 411.830
  31
0.0
   0
LINE
   8
LEVEL001
   6
CONTINUOUS
  62
7
  10
 359.541
  20
 411.830
  30
0.0
  11
 353.886
  21
 401.106
  31
0.0
   0
LINE
   8
LEVEL001
   6
CONTINUOUS
  62
7
  10
 353.886
  20
 401.106
  30
0.0
  11
 343.393
  21
 400.704
  31
0.0
   0
LINE
   8
LEVEL001
   6
CONTINUOUS
  62
7
  10
 343.393
  20
 400.704
  30
0.0
  11
 342.204
  21
 398.448
  31
0.0
   0
LINE
   8
LEVEL003
   6
CONTINUOUS
  62
7
  10
 298.707
  20
 385.212
  30
0.0
  11
 300.549
  21
 337.148
  31
0.0
   0
LINE
   8
LEVEL001
   6
DOT
  62
3
  10
 299.239
  20
 371.322
  30
0.0
  11
 300.156
  21
 370.473
  31
0.0
   0
ARC
   8
LEVEL001
   6
CONTINUOUS
  62
7
  10
 361.579
  20
 365.806
  30
0.0
  40
 19.0000
  50
 77.7048
  51
 108.355
   0
LINE
   8
LEVEL001
   6
CONTINUOUS
  62
7
  10
 365.422
  20
 384.264
  30
0.0
  11
 366.671
  21
 384.002
  31
0.0
   0
LINE
   8
LEVEL001
   6
CONTINUOUS
  62
7
  10
 366.671
  20
 384.002
  30
0.0
  11
 368.013
  21
 383.803
  31
0.0
   0
LINE
   8
LEVEL001
   6
CONTINUOUS
  62
7
  10
 368.013
  20
 383.803
  30
0.0
  11
 369.428
  21
 383.669
  31
0.0
   0
LINE
   8
LEVEL001
   6
CONTINUOUS
  62
7
  10
 369.428
  20
 383.669
  30
0.0
  11
 370.894
  21
 383.603
  31
0.0
   0
LINE
   8
LEVEL001
   6
CONTINUOUS
  62
7
  10
 370.894
  20
 383.603
  30
0.0
  11
 372.386
  21
 383.606
  31
0.0
   0
LINE
   8
LEVEL001
   6
CONTINUOUS
  62
7
  10
 372.386
  20
 383.606
  30
0.0
  11
 373.883
  21
 383.678
  31
0.0
   0
LINE
   8
LEVEL001
   6
CONTINUOUS
  62
7
  10
 373.883
  20
 383.678
  30
0.0
  11
 375.361
  21
 383.818
  31
0.0
   0
LINE
   8
LEVEL001
   6
CONTINUOUS
  62
7
  10
 375.361
  20
 383.818
  30
0.0
  11
 376.796
  21
 384.022
  31
0.0
   0
LINE
   8
LEVEL001
   6
CONTINUOUS
  62
7
  10
 376.796
  20
 384.022
  30
0.0
  11
 378.167
  21
 384.290
  31
0.0
   0
LINE
   8
LEVEL001
   6
CONTINUOUS
  62
7
  10
 378.167
  20
 384.290
  30
0.0
  11
 379.452
  21
 384.615
  31
0.0
   0
LINE
   8
LEVEL001
   6
CONTINUOUS
  62
7
  10
 379.452
  20
 384.615
  30
0.0
  11
 380.630
  21
 384.993
  31
0.0
   0
LINE
   8
LEVEL001
   6
CONTINUOUS
  62
7
  10
 380.630
  20
 384.993
  30
0.0
  11
 381.685
  21
 385.419
  31
0.0
   0
LINE
   8
LEVEL001
   6
CONTINUOUS
  62
7
  10
 381.685
  20
 385.419
  30
0.0
  11
 382.598
  21
 385.885
  31
0.0
   0
LINE
   8
LEVEL001
   6
CONTINUOUS
  62
7
  10
 382.598
  20
 385.885
  30
0.0
  11
 383.356
  21
 386.384
  31
0.0
   0
LINE
   8
LEVEL001
   6
CONTINUOUS
  62
7
  10
 383.356
  20
 386.384
  30
0.0
  11
 383.947
  21
 386.909
  31
0.0
   0
LINE
   8
LEVEL001
   6
CONTINUOUS
  62
7
  10
 383.947
  20
 386.909
  30
0.0
  11
 384.362
  21
 387.451
  31
0.0
   0
LINE
   8
LEVEL001
   6
CONTINUOUS
  62
7
  10
 384.362
  20
 387.451
  30
0.0
  11
 384.594
  21
 388.002
  31
0.0
   0
LINE
   8
LEVEL001
   6
CONTINUOUS
  62
7
  10
 384.594
  20
 388.002
  30
0.0
  11
 384.619
  21
 388.118
  31
0.0
   0
LINE
   8
LEVEL001
   6
DASHDOT
  62
1
  10
 371.975
  20
 405.724
  30
0.0
  11
 375.304
  21
 318.854
  31
0.0
   0
LINE
   8
LEVEL001
   6
CONTINUOUS
  62
7
  10
 356.818
  20
 396.478
  30
0.0
  11
 357.158
  21
 387.593
  31
0.0
   0
LINE
   8
LEVEL001
   6
CONTINUOUS
  62
7
  10
 380.314
  20
 397.026
  30
0.0
  11
 380.237
  21
 397.397
  31
0.0
   0
LINE
   8
LEVEL001
   6
CONTINUOUS
  62
7
  10
 380.237
  20
 397.397
  30
0.0
  11
 380.037
  21
 397.757
  31
0.0
   0
LINE
   8
LEVEL001
   6
CONTINUOUS
  62
7
  10
 380.037
  20
 397.757
  30
0.0
  11
 379.717
  21
 398.101
  31
0.0
   0
LINE
   8
LEVEL001
   6
CONTINUOUS
  62
7
  10
 379.717
  20
 398.101
  30
0.0
  11
 379.281
  21
 398.424
  31
0.0
   0
LINE
   8
LEVEL001
   6
CONTINUOUS
  62
7
  10
 379.281
  20
 398.424
  30
0.0
  11
 378.736
  21
 398.720
  31
0.0
   0
LINE
   8
LEVEL001
   6
CONTINUOUS
  62
7
  10
 378.736
  20
 398.720
  30
0.0
  11
 378.091
  21
 398.985
  31
0.0
   0
LINE
   8
LEVEL001
   6
CONTINUOUS
  62
7
  10
 378.091
  20
 398.985
  30
0.0
  11
 377.356
  21
 399.214
  31
0.0
   0
LINE
   8
LEVEL001
   6
CONTINUOUS
  62
7
  10
 377.356
  20
 399.214
  30
0.0
  11
 376.543
  21
 399.405
  31
0.0
   0
LINE
   8
LEVEL001
   6
CONTINUOUS
  62
7
  10
 376.543
  20
 399.405
  30
0.0
  11
 375.663
  21
 399.553
  31
0.0
   0
LINE
   8
LEVEL001
   6
CONTINUOUS
  62
7
  10
 375.663
  20
 399.553
  30
0.0
  11
 374.732
  21
 399.658
  31
0.0
   0
LINE
   8
LEVEL001
   6
CONTINUOUS
  62
7
  10
 374.732
  20
 399.658
  30
0.0
  11
 373.763
  21
 399.716
  31
0.0
   0
LINE
   8
LEVEL001
   6
CONTINUOUS
  62
7
  10
 373.763
  20
 399.716
  30
0.0
  11
 372.771
  21
 399.728
  31
0.0
   0
LINE
   8
LEVEL001
   6
CONTINUOUS
  62
7
  10
 372.771
  20
 399.728
  30
0.0
  11
 371.772
  21
 399.693
  31
0.0
   0
LINE
   8
LEVEL001
   6
CONTINUOUS
  62
7
  10
 371.772
  20
 399.693
  30
0.0
  11
 370.782
  21
 399.611
  31
0.0
   0
LINE
   8
LEVEL001
   6
CONTINUOUS
  62
7
  10
 370.782
  20
 399.611
  30
0.0
  11
 369.816
  21
 399.485
  31
0.0
   0
LINE
   8
LEVEL001
   6
CONTINUOUS
  62
7
  10
 369.816
  20
 399.485
  30
0.0
  11
 368.889
  21
 399.315
  31
0.0
   0
LINE
   8
LEVEL001
   6
CONTINUOUS
  62
7
  10
 368.889
  20
 399.315
  30
0.0
  11
 368.015
  21
 399.105
  31
0.0
   0
LINE
   8
LEVEL001
   6
CONTINUOUS
  62
7
  10
 368.015
  20
 399.105
  30
0.0
  11
 367.209
  21
 398.857
  31
0.0
   0
LINE
   8
LEVEL001
   6
CONTINUOUS
  62
7
  10
 367.209
  20
 398.857
  30
0.0
  11
 366.482
  21
 398.576
  31
0.0
   0
LINE
   8
LEVEL001
   6
CONTINUOUS
  62
7
  10
 366.482
  20
 398.576
  30
0.0
  11
 365.847
  21
 398.266
  31
0.0
   0
LINE
   8
LEVEL001
   6
CONTINUOUS
  62
7
  10
 365.847
  20
 398.266
  30
0.0
  11
 365.312
  21
 397.932
  31
0.0
   0
LINE
   8
LEVEL001
   6
CONTINUOUS
  62
7
  10
 365.312
  20
 397.932
  30
0.0
  11
 364.887
  21
 397.579
  31
0.0
   0
LINE
   8
LEVEL001
   6
CONTINUOUS
  62
7
  10
 364.887
  20
 397.579
  30
0.0
  11
 364.578
  21
 397.213
  31
0.0
   0
LINE
   8
LEVEL001
   6
CONTINUOUS
  62
7
  10
 364.578
  20
 397.213
  30
0.0
  11
 364.390
  21
 396.839
  31
0.0
   0
LINE
   8
LEVEL001
   6
CONTINUOUS
  62
7
  10
 364.390
  20
 396.839
  30
0.0
  11
 364.325
  21
 396.463
  31
0.0
   0
LINE
   8
LEVEL001
   6
CONTINUOUS
  62
7
  10
 364.325
  20
 396.463
  30
0.0
  11
 364.385
  21
 396.091
  31
0.0
   0
LINE
   8
LEVEL001
   6
CONTINUOUS
  62
7
  10
 364.385
  20
 396.091
  30
0.0
  11
 364.569
  21
 395.729
  31
0.0
   0
LINE
   8
LEVEL001
   6
CONTINUOUS
  62
7
  10
 364.569
  20
 395.729
  30
0.0
  11
 364.874
  21
 395.382
  31
0.0
   0
LINE
   8
LEVEL001
   6
CONTINUOUS
  62
7
  10
 364.874
  20
 395.382
  30
0.0
  11
 365.295
  21
 395.056
  31
0.0
   0
LINE
   8
LEVEL001
   6
CONTINUOUS
  62
7
  10
 365.295
  20
 395.056
  30
0.0
  11
 365.826
  21
 394.756
  31
0.0
   0
LINE
   8
LEVEL001
   6
CONTINUOUS
  62
7
  10
 365.826
  20
 394.756
  30
0.0
  11
 366.458
  21
 394.487
  31
0.0
   0
LINE
   8
LEVEL001
   6
CONTINUOUS
  62
7
  10
 366.458
  20
 394.487
  30
0.0
  11
 367.182
  21
 394.253
  31
0.0
   0
LINE
   8
LEVEL001
   6
CONTINUOUS
  62
7
  10
 367.182
  20
 394.253
  30
0.0
  11
 367.985
  21
 394.057
  31
0.0
   0
LINE
   8
LEVEL001
   6
CONTINUOUS
  62
7
  10
 367.985
  20
 394.057
  30
0.0
  11
 368.857
  21
 393.903
  31
0.0
   0
LINE
   8
LEVEL001
   6
CONTINUOUS
  62
7
  10
 368.857
  20
 393.903
  30
0.0
  11
 369.782
  21
 393.792
  31
0.0
   0
LINE
   8
LEVEL001
   6
CONTINUOUS
  62
7
  10
 369.782
  20
 393.792
  30
0.0
  11
 370.747
  21
 393.727
  31
0.0
   0
LINE
   8
LEVEL001
   6
CONTINUOUS
  62
7
  10
 370.747
  20
 393.727
  30
0.0
  11
 371.737
  21
 393.709
  31
0.0
   0
LINE
   8
LEVEL001
   6
CONTINUOUS
  62
7
  10
 371.737
  20
 393.709
  30
0.0
  11
 372.735
  21
 393.738
  31
0.0
   0
LINE
   8
LEVEL001
   6
CONTINUOUS
  62
7
  10
 372.735
  20
 393.738
  30
0.0
  11
 373.727
  21
 393.814
  31
0.0
   0
LINE
   8
LEVEL001
   6
CONTINUOUS
  62
7
  10
 373.727
  20
 393.814
  30
0.0
  11
 374.698
  21
 393.935
  31
0.0
   0
LINE
   8
LEVEL001
   6
CONTINUOUS
  62
7
  10
 374.698
  20
 393.935
  30
0.0
  11
 375.631
  21
 394.099
  31
0.0
   0
LINE
   8
LEVEL001
   6
CONTINUOUS
  62
7
  10
 375.631
  20
 394.099
  30
0.0
  11
 376.512
  21
 394.304
  31
0.0
   0
LINE
   8
LEVEL001
   6
CONTINUOUS
  62
7
  10
 376.512
  20
 394.304
  30
0.0
  11
 377.328
  21
 394.547
  31
0.0
   0
LINE
   8
LEVEL001
   6
CONTINUOUS
  62
7
  10
 377.328
  20
 394.547
  30
0.0
  11
 378.066
  21
 394.824
  31
0.0
   0
LINE
   8
LEVEL001
   6
CONTINUOUS
  62
7
  10
 378.066
  20
 394.824
  30
0.0
  11
 378.714
  21
 395.130
  31
0.0
   0
LINE
   8
LEVEL001
   6
CONTINUOUS
  62
7
  10
 378.714
  20
 395.130
  30
0.0
  11
 379.263
  21
 395.461
  31
0.0
   0
LINE
   8
LEVEL001
   6
CONTINUOUS
  62
7
  10
 379.263
  20
 395.461
  30
0.0
  11
 379.703
  21
 395.812
  31
0.0
   0
LINE
   8
LEVEL001
   6
CONTINUOUS
  62
7
  10
 379.703
  20
 395.812
  30
0.0
  11
 380.028
  21
 396.177
  31
0.0
   0
LINE
   8
LEVEL001
   6
CONTINUOUS
  62
7
  10
 380.028
  20
 396.177
  30
0.0
  11
 380.232
  21
 396.550
  31
0.0
   0
LINE
   8
LEVEL001
   6
CONTINUOUS
  62
7
  10
 380.232
  20
 396.550
  30
0.0
  11
 380.314
  21
 396.926
  31
0.0
   0
LINE
   8
LEVEL001
   6
CONTINUOUS
  62
7
  10
 380.314
  20
 396.926
  30
0.0
  11
 380.314
  21
 397.026
  31
0.0
   0
LINE
   8
LEVEL001
   6
CONTINUOUS
  62
7
  10
 364.188
  20
 386.951
  30
0.0
  11
 363.848
  21
 395.836
  31
0.0
   0
LINE
   8
LEVEL001
   6
CONTINUOUS
  62
7
  10
 369.377
  20
 398.440
  30
0.0
  11
 375.123
  21
 398.661
  31
0.0
   0
LINE
   8
LEVEL001
   6
CONTINUOUS
  62
7
  10
 375.123
  20
 398.661
  30
0.0
  11
 378.066
  21
 396.940
  31
0.0
   0
LINE
   8
LEVEL001
   6
CONTINUOUS
  62
7
  10
 378.066
  20
 396.940
  30
0.0
  11
 375.263
  21
 394.998
  31
0.0
   0
LINE
   8
LEVEL001
   6
CONTINUOUS
  62
7
  10
 375.263
  20
 394.998
  30
0.0
  11
 369.517
  21
 394.778
  31
0.0
   0
LINE
   8
LEVEL001
   6
CONTINUOUS
  62
7
  10
 369.517
  20
 394.778
  30
0.0
  11
 366.574
  21
 396.499
  31
0.0
   0
LINE
   8
LEVEL001
   6
CONTINUOUS
  62
7
  10
 366.574
  20
 396.499
  30
0.0
  11
 369.377
  21
 398.440
  31
0.0
   0
LINE
   8
LEVEL001
   6
CONTINUOUS
  62
7
  10
 364.188
  20
 386.951
  30
0.0
  11
 364.270
  21
 386.557
  31
0.0
   0
LINE
   8
LEVEL001
   6
CONTINUOUS
  62
7
  10
 364.270
  20
 386.557
  30
0.0
  11
 364.482
  21
 386.174
  31
0.0
   0
LINE
   8
LEVEL001
   6
CONTINUOUS
  62
7
  10
 364.482
  20
 386.174
  30
0.0
  11
 364.823
  21
 385.809
  31
0.0
   0
LINE
   8
LEVEL001
   6
CONTINUOUS
  62
7
  10
 364.823
  20
 385.809
  30
0.0
  11
 365.286
  21
 385.466
  31
0.0
   0
LINE
   8
LEVEL001
   6
CONTINUOUS
  62
7
  10
 365.286
  20
 385.466
  30
0.0
  11
 365.865
  21
 385.151
  31
0.0
   0
LINE
   8
LEVEL001
   6
CONTINUOUS
  62
7
  10
 365.865
  20
 385.151
  30
0.0
  11
 366.550
  21
 384.870
  31
0.0
   0
LINE
   8
LEVEL001
   6
CONTINUOUS
  62
7
  10
 366.550
  20
 384.870
  30
0.0
  11
 367.331
  21
 384.626
  31
0.0
   0
LINE
   8
LEVEL001
   6
CONTINUOUS
  62
7
  10
 367.331
  20
 384.626
  30
0.0
  11
 368.195
  21
 384.424
  31
0.0
   0
LINE
   8
LEVEL001
   6
CONTINUOUS
  62
7
  10
 368.195
  20
 384.424
  30
0.0
  11
 369.130
  21
 384.266
  31
0.0
   0
LINE
   8
LEVEL001
   6
CONTINUOUS
  62
7
  10
 369.130
  20
 384.266
  30
0.0
  11
 370.119
  21
 384.155
  31
0.0
   0
LINE
   8
LEVEL001
   6
CONTINUOUS
  62
7
  10
 370.119
  20
 384.155
  30
0.0
  11
 371.149
  21
 384.093
  31
0.0
   0
LINE
   8
LEVEL001
   6
CONTINUOUS
  62
7
  10
 371.149
  20
 384.093
  30
0.0
  11
 372.203
  21
 384.080
  31
0.0
   0
LINE
   8
LEVEL001
   6
CONTINUOUS
  62
7
  10
 372.203
  20
 384.080
  30
0.0
  11
 373.264
  21
 384.117
  31
0.0
   0
LINE
   8
LEVEL001
   6
CONTINUOUS
  62
7
  10
 373.264
  20
 384.117
  30
0.0
  11
 374.316
  21
 384.204
  31
0.0
   0
LINE
   8
LEVEL001
   6
CONTINUOUS
  62
7
  10
 374.316
  20
 384.204
  30
0.0
  11
 375.342
  21
 384.339
  31
0.0
   0
LINE
   8
LEVEL001
   6
CONTINUOUS
  62
7
  10
 375.342
  20
 384.339
  30
0.0
  11
 376.327
  21
 384.519
  31
0.0
   0
LINE
   8
LEVEL001
   6
CONTINUOUS
  62
7
  10
 376.327
  20
 384.519
  30
0.0
  11
 377.256
  21
 384.743
  31
0.0
   0
LINE
   8
LEVEL001
   6
CONTINUOUS
  62
7
  10
 377.256
  20
 384.743
  30
0.0
  11
 378.112
  21
 385.006
  31
0.0
   0
LINE
   8
LEVEL001
   6
CONTINUOUS
  62
7
  10
 378.112
  20
 385.006
  30
0.0
  11
 378.884
  21
 385.304
  31
0.0
   0
LINE
   8
LEVEL001
   6
CONTINUOUS
  62
7
  10
 378.884
  20
 385.304
  30
0.0
  11
 379.560
  21
 385.634
  31
0.0
   0
LINE
   8
LEVEL001
   6
CONTINUOUS
  62
7
  10
 379.560
  20
 385.634
  30
0.0
  11
 380.127
  21
 385.988
  31
0.0
   0
LINE
   8
LEVEL001
   6
CONTINUOUS
  62
7
  10
 380.127
  20
 385.988
  30
0.0
  11
 380.579
  21
 386.363
  31
0.0
   0
LINE
   8
LEVEL001
   6
CONTINUOUS
  62
7
  10
 380.579
  20
 386.363
  30
0.0
  11
 380.908
  21
 386.753
  31
0.0
   0
LINE
   8
LEVEL001
   6
CONTINUOUS
  62
7
  10
 380.908
  20
 386.753
  30
0.0
  11
 381.108
  21
 387.150
  31
0.0
   0
LINE
   8
LEVEL001
   6
CONTINUOUS
  62
7
  10
 381.108
  20
 387.150
  30
0.0
  11
 381.176
  21
 387.550
  31
0.0
   0
LINE
   8
LEVEL001
   6
CONTINUOUS
  62
7
  10
 381.176
  20
 387.550
  30
0.0
  11
 381.176
  21
 387.602
  31
0.0
   0
LINE
   8
LEVEL001
   6
CONTINUOUS
  62
7
  10
 364.299
  20
 396.923
  30
0.0
  11
 364.751
  21
 397.436
  31
0.0
   0
LINE
   8
LEVEL001
   6
CONTINUOUS
  62
7
  10
 364.299
  20
 396.923
  30
0.0
  11
 364.021
  21
 396.529
  31
0.0
   0
LINE
   8
LEVEL001
   6
CONTINUOUS
  62
7
  10
 364.021
  20
 396.529
  30
0.0
  11
 363.872
  21
 396.130
  31
0.0
   0
LINE
   8
LEVEL001
   6
CONTINUOUS
  62
7
  10
 363.872
  20
 396.130
  30
0.0
  11
 363.856
  21
 395.732
  31
0.0
   0
LINE
   8
LEVEL001
   6
CONTINUOUS
  62
7
  10
 363.856
  20
 395.732
  30
0.0
  11
 363.972
  21
 395.340
  31
0.0
   0
LINE
   8
LEVEL001
   6
CONTINUOUS
  62
7
  10
 363.972
  20
 395.340
  30
0.0
  11
 364.219
  21
 394.961
  31
0.0
   0
LINE
   8
LEVEL001
   6
CONTINUOUS
  62
7
  10
 364.219
  20
 394.961
  30
0.0
  11
 364.593
  21
 394.601
  31
0.0
   0
LINE
   8
LEVEL001
   6
CONTINUOUS
  62
7
  10
 364.593
  20
 394.601
  30
0.0
  11
 365.087
  21
 394.265
  31
0.0
   0
LINE
   8
LEVEL001
   6
CONTINUOUS
  62
7
  10
 365.087
  20
 394.265
  30
0.0
  11
 365.695
  21
 393.959
  31
0.0
   0
LINE
   8
LEVEL001
   6
CONTINUOUS
  62
7
  10
 365.695
  20
 393.959
  30
0.0
  11
 366.406
  21
 393.687
  31
0.0
   0
LINE
   8
LEVEL001
   6
CONTINUOUS
  62
7
  10
 366.406
  20
 393.687
  30
0.0
  11
 367.210
  21
 393.453
  31
0.0
   0
LINE
   8
LEVEL001
   6
CONTINUOUS
  62
7
  10
 367.210
  20
 393.453
  30
0.0
  11
 368.094
  21
 393.262
  31
0.0
   0
LINE
   8
LEVEL001
   6
CONTINUOUS
  62
7
  10
 368.094
  20
 393.262
  30
0.0
  11
 369.044
  21
 393.117
  31
0.0
   0
LINE
   8
LEVEL001
   6
CONTINUOUS
  62
7
  10
 369.044
  20
 393.117
  30
0.0
  11
 370.046
  21
 393.018
  31
0.0
   0
LINE
   8
LEVEL001
   6
CONTINUOUS
  62
7
  10
 370.046
  20
 393.018
  30
0.0
  11
 371.084
  21
 392.969
  31
0.0
   0
LINE
   8
LEVEL001
   6
CONTINUOUS
  62
7
  10
 371.084
  20
 392.969
  30
0.0
  11
 372.141
  21
 392.970
  31
0.0
   0
LINE
   8
LEVEL001
   6
CONTINUOUS
  62
7
  10
 372.141
  20
 392.970
  30
0.0
  11
 373.201
  21
 393.020
  31
0.0
   0
LINE
   8
LEVEL001
   6
CONTINUOUS
  62
7
  10
 373.201
  20
 393.020
  30
0.0
  11
 374.248
  21
 393.119
  31
0.0
   0
LINE
   8
LEVEL001
   6
CONTINUOUS
  62
7
  10
 374.248
  20
 393.119
  30
0.0
  11
 375.265
  21
 393.266
  31
0.0
   0
LINE
   8
LEVEL001
   6
CONTINUOUS
  62
7
  10
 375.265
  20
 393.266
  30
0.0
  11
 376.237
  21
 393.458
  31
0.0
   0
LINE
   8
LEVEL001
   6
CONTINUOUS
  62
7
  10
 376.237
  20
 393.458
  30
0.0
  11
 377.148
  21
 393.693
  31
0.0
   0
LINE
   8
LEVEL001
   6
CONTINUOUS
  62
7
  10
 377.148
  20
 393.693
  30
0.0
  11
 377.983
  21
 393.965
  31
0.0
   0
LINE
   8
LEVEL001
   6
CONTINUOUS
  62
7
  10
 377.983
  20
 393.965
  30
0.0
  11
 378.731
  21
 394.272
  31
0.0
   0
LINE
   8
LEVEL001
   6
CONTINUOUS
  62
7
  10
 378.731
  20
 394.272
  30
0.0
  11
 379.379
  21
 394.609
  31
0.0
   0
LINE
   8
LEVEL001
   6
CONTINUOUS
  62
7
  10
 379.379
  20
 394.609
  30
0.0
  11
 379.917
  21
 394.970
  31
0.0
   0
LINE
   8
LEVEL001
   6
CONTINUOUS
  62
7
  10
 379.917
  20
 394.970
  30
0.0
  11
 380.337
  21
 395.349
  31
0.0
   0
LINE
   8
LEVEL001
   6
CONTINUOUS
  62
7
  10
 380.337
  20
 395.349
  30
0.0
  11
 380.632
  21
 395.741
  31
0.0
   0
LINE
   8
LEVEL001
   6
CONTINUOUS
  62
7
  10
 380.632
  20
 395.741
  30
0.0
  11
 380.798
  21
 396.140
  31
0.0
   0
LINE
   8
LEVEL001
   6
CONTINUOUS
  62
7
  10
 380.798
  20
 396.140
  30
0.0
  11
 380.832
  21
 396.539
  31
0.0
   0
LINE
   8
LEVEL001
   6
CONTINUOUS
  62
7
  10
 380.832
  20
 396.539
  30
0.0
  11
 380.733
  21
 396.932
  31
0.0
   0
LINE
   8
LEVEL001
   6
CONTINUOUS
  62
7
  10
 380.733
  20
 396.932
  30
0.0
  11
 380.504
  21
 397.313
  31
0.0
   0
LINE
   8
LEVEL001
   6
CONTINUOUS
  62
7
  10
 380.504
  20
 397.313
  30
0.0
  11
 380.302
  21
 397.536
  31
0.0
   0
LINE
   8
LEVEL001
   6
CONTINUOUS
  62
7
  10
 356.958
  20
 392.831
  30
0.0
  11
 359.987
  21
 393.086
  31
0.0
   0
LINE
   8
LEVEL001
   6
CONTINUOUS
  62
7
  10
 359.987
  20
 393.086
  30
0.0
  11
 362.941
  21
 393.475
  31
0.0
   0
LINE
   8
LEVEL001
   6
CONTINUOUS
  62
7
  10
 362.941
  20
 393.475
  30
0.0
  11
 363.932
  21
 393.639
  31
0.0
   0
LINE
   8
LEVEL001
   6
CONTINUOUS
  62
7
  10
 355.795
  20
 398.004
  30
0.0
  11
 356.285
  21
 397.527
  31
0.0
   0
ARC
   8
LEVEL001
   6
CONTINUOUS
  62
7
  10
 384.195
  20
 413.275
  30
0.0
  40
 5.00000
  50
 182.195
  51
 272.195
   0
LINE
   8
LEVEL001
   6
CONTINUOUS
  62
7
  10
 379.082
  20
 416.118
  30
0.0
  11
 379.198
  21
 413.084
  31
0.0
   0
LINE
   8
LEVEL001
   6
CONTINUOUS
  62
7
  10
 384.386
  20
 408.279
  30
0.0
  11
 391.881
  21
 408.566
  31
0.0
   0
LINE
   8
LEVEL001
   6
CONTINUOUS
  62
7
  10
 379.581
  20
 403.091
  30
0.0
  11
 379.598
  21
 402.667
  31
0.0
   0
ARC
   8
LEVEL001
   6
CONTINUOUS
  62
7
  10
 384.578
  20
 403.283
  30
0.0
  40
 5.00000
  50
 125.150
  51
 182.195
   0
LINE
   8
LEVEL001
   6
CONTINUOUS
  62
7
  10
 386.304
  20
 397.407
  30
0.0
  11
 384.619
  21
 388.118
  31
0.0
   0
LINE
   8
LEVEL001
   6
CONTINUOUS
  62
7
  10
 386.181
  20
 386.747
  30
0.0
  11
 379.648
  21
 379.305
  31
0.0
   0
LINE
   8
LEVEL001
   6
CONTINUOUS
  62
7
  10
 386.304
  20
 397.407
  30
0.0
  11
 386.000
  21
 405.339
  31
0.0
   0
LINE
   8
LEVEL001
   6
DASHDOT
  62
1
  10
 387.849
  20
 384.517
  30
0.0
  11
 378.358
  21
 315.278
  31
0.0
   0
LINE
   8
LEVEL001
   6
CONTINUOUS
  62
7
  10
 380.835
  20
 396.487
  30
0.0
  11
 381.176
  21
 387.602
  31
0.0
   0
LINE
   8
LEVEL001
   6
CONTINUOUS
  62
7
  10
 379.812
  20
 398.013
  30
0.0
  11
 380.302
  21
 397.536
  31
0.0
   0
LINE
   8
LEVEL001
   6
CONTINUOUS
  62
7
  10
 377.786
  20
 399.088
  30
0.0
  11
 378.763
  21
 400.184
  31
0.0
   0
LINE
   8
LEVEL001
   6
CONTINUOUS
  62
7
  10
 378.763
  20
 400.184
  30
0.0
  11
 379.370
  21
 401.304
  31
0.0
   0
LINE
   8
LEVEL001
   6
CONTINUOUS
  62
7
  10
 379.370
  20
 401.304
  30
0.0
  11
 379.598
  21
 402.431
  31
0.0
   0
LINE
   8
LEVEL001
   6
CONTINUOUS
  62
7
  10
 379.598
  20
 402.431
  30
0.0
  11
 379.598
  21
 402.667
  31
0.0
   0
LINE
   8
LEVEL001
   6
CONTINUOUS
  62
7
  10
 395.051
  20
 325.827
  30
0.0
  11
 391.881
  21
 408.566
  31
0.0
   0
LINE
   8
LEVEL001
   6
CONTINUOUS
  62
7
  10
 390.371
  20
 378.065
  30
0.0
  11
 390.389
  21
 378.388
  31
0.0
   0
LINE
   8
LEVEL001
   6
CONTINUOUS
  62
7
  10
 390.389
  20
 378.388
  30
0.0
  11
 390.354
  21
 378.713
  31
0.0
   0
LINE
   8
LEVEL001
   6
CONTINUOUS
  62
7
  10
 390.354
  20
 378.713
  30
0.0
  11
 390.268
  21
 379.035
  31
0.0
   0
LINE
   8
LEVEL001
   6
CONTINUOUS
  62
7
  10
 390.268
  20
 379.035
  30
0.0
  11
 390.130
  21
 379.349
  31
0.0
   0
LINE
   8
LEVEL001
   6
CONTINUOUS
  62
7
  10
 390.130
  20
 379.349
  30
0.0
  11
 389.945
  21
 379.650
  31
0.0
   0
LINE
   8
LEVEL001
   6
CONTINUOUS
  62
7
  10
 389.945
  20
 379.650
  30
0.0
  11
 389.714
  21
 379.934
  31
0.0
   0
LINE
   8
LEVEL001
   6
CONTINUOUS
  62
7
  10
 389.714
  20
 379.934
  30
0.0
  11
 389.440
  21
 380.195
  31
0.0
   0
LINE
   8
LEVEL001
   6
CONTINUOUS
  62
7
  10
 389.440
  20
 380.195
  30
0.0
  11
 389.130
  21
 380.431
  31
0.0
   0
LINE
   8
LEVEL001
   6
CONTINUOUS
  62
7
  10
 389.130
  20
 380.431
  30
0.0
  11
 388.786
  21
 380.636
  31
0.0
   0
LINE
   8
LEVEL001
   6
CONTINUOUS
  62
7
  10
 388.786
  20
 380.636
  30
0.0
  11
 388.415
  21
 380.809
  31
0.0
   0
LINE
   8
LEVEL001
   6
CONTINUOUS
  62
7
  10
 388.415
  20
 380.809
  30
0.0
  11
 388.023
  21
 380.946
  31
0.0
   0
LINE
   8
LEVEL001
   6
CONTINUOUS
  62
7
  10
 388.023
  20
 380.946
  30
0.0
  11
 387.614
  21
 381.046
  31
0.0
   0
LINE
   8
LEVEL001
   6
CONTINUOUS
  62
7
  10
 387.614
  20
 381.046
  30
0.0
  11
 387.197
  21
 381.106
  31
0.0
   0
LINE
   8
LEVEL001
   6
CONTINUOUS
  62
7
  10
 387.197
  20
 381.106
  30
0.0
  11
 386.777
  21
 381.125
  31
0.0
   0
LINE
   8
LEVEL001
   6
CONTINUOUS
  62
7
  10
 386.777
  20
 381.125
  30
0.0
  11
 386.361
  21
 381.104
  31
0.0
   0
LINE
   8
LEVEL001
   6
CONTINUOUS
  62
7
  10
 386.361
  20
 381.104
  30
0.0
  11
 385.955
  21
 381.043
  31
0.0
   0
LINE
   8
LEVEL001
   6
CONTINUOUS
  62
7
  10
 385.955
  20
 381.043
  30
0.0
  11
 385.566
  21
 380.942
  31
0.0
   0
LINE
   8
LEVEL001
   6
CONTINUOUS
  62
7
  10
 385.566
  20
 380.942
  30
0.0
  11
 385.200
  21
 380.804
  31
0.0
   0
LINE
   8
LEVEL001
   6
CONTINUOUS
  62
7
  10
 385.200
  20
 380.804
  30
0.0
  11
 384.863
  21
 380.630
  31
0.0
   0
LINE
   8
LEVEL001
   6
CONTINUOUS
  62
7
  10
 384.863
  20
 380.630
  30
0.0
  11
 384.559
  21
 380.423
  31
0.0
   0
LINE
   8
LEVEL001
   6
CONTINUOUS
  62
7
  10
 384.559
  20
 380.423
  30
0.0
  11
 384.294
  21
 380.187
  31
0.0
   0
LINE
   8
LEVEL001
   6
CONTINUOUS
  62
7
  10
 384.294
  20
 380.187
  30
0.0
  11
 384.071
  21
 379.924
  31
0.0
   0
LINE
   8
LEVEL001
   6
CONTINUOUS
  62
7
  10
 384.071
  20
 379.924
  30
0.0
  11
 383.894
  21
 379.640
  31
0.0
   0
LINE
   8
LEVEL001
   6
CONTINUOUS
  62
7
  10
 383.894
  20
 379.640
  30
0.0
  11
 383.767
  21
 379.338
  31
0.0
   0
LINE
   8
LEVEL001
   6
CONTINUOUS
  62
7
  10
 383.767
  20
 379.338
  30
0.0
  11
 383.690
  21
 379.024
  31
0.0
   0
LINE
   8
LEVEL001
   6
CONTINUOUS
  62
7
  10
 383.690
  20
 379.024
  30
0.0
  11
 383.666
  21
 378.702
  31
0.0
   0
LINE
   8
LEVEL001
   6
CONTINUOUS
  62
7
  10
 383.666
  20
 378.702
  30
0.0
  11
 383.693
  21
 378.377
  31
0.0
   0
LINE
   8
LEVEL001
   6
CONTINUOUS
  62
7
  10
 383.693
  20
 378.377
  30
0.0
  11
 383.773
  21
 378.054
  31
0.0
   0
LINE
   8
LEVEL001
   6
CONTINUOUS
  62
7
  10
 383.773
  20
 378.054
  30
0.0
  11
 383.904
  21
 377.738
  31
0.0
   0
LINE
   8
LEVEL001
   6
CONTINUOUS
  62
7
  10
 383.904
  20
 377.738
  30
0.0
  11
 384.083
  21
 377.435
  31
0.0
   0
LINE
   8
LEVEL001
   6
CONTINUOUS
  62
7
  10
 384.083
  20
 377.435
  30
0.0
  11
 384.309
  21
 377.149
  31
0.0
   0
LINE
   8
LEVEL001
   6
CONTINUOUS
  62
7
  10
 384.309
  20
 377.149
  30
0.0
  11
 384.576
  21
 376.884
  31
0.0
   0
LINE
   8
LEVEL001
   6
CONTINUOUS
  62
7
  10
 384.576
  20
 376.884
  30
0.0
  11
 384.882
  21
 376.645
  31
0.0
   0
LINE
   8
LEVEL001
   6
CONTINUOUS
  62
7
  10
 384.882
  20
 376.645
  30
0.0
  11
 385.222
  21
 376.435
  31
0.0
   0
LINE
   8
LEVEL001
   6
CONTINUOUS
  62
7
  10
 385.222
  20
 376.435
  30
0.0
  11
 385.589
  21
 376.258
  31
0.0
   0
LINE
   8
LEVEL001
   6
CONTINUOUS
  62
7
  10
 385.589
  20
 376.258
  30
0.0
  11
 385.980
  21
 376.116
  31
0.0
   0
LINE
   8
LEVEL001
   6
CONTINUOUS
  62
7
  10
 385.980
  20
 376.116
  30
0.0
  11
 386.386
  21
 376.011
  31
0.0
   0
LINE
   8
LEVEL001
   6
CONTINUOUS
  62
7
  10
 386.386
  20
 376.011
  30
0.0
  11
 386.802
  21
 375.946
  31
0.0
   0
LINE
   8
LEVEL001
   6
CONTINUOUS
  62
7
  10
 386.802
  20
 375.946
  30
0.0
  11
 387.222
  21
 375.921
  31
0.0
   0
LINE
   8
LEVEL001
   6
CONTINUOUS
  62
7
  10
 387.222
  20
 375.921
  30
0.0
  11
 387.639
  21
 375.937
  31
0.0
   0
LINE
   8
LEVEL001
   6
CONTINUOUS
  62
7
  10
 387.639
  20
 375.937
  30
0.0
  11
 388.047
  21
 375.993
  31
0.0
   0
LINE
   8
LEVEL001
   6
CONTINUOUS
  62
7
  10
 388.047
  20
 375.993
  30
0.0
  11
 388.438
  21
 376.088
  31
0.0
   0
LINE
   8
LEVEL001
   6
CONTINUOUS
  62
7
  10
 388.438
  20
 376.088
  30
0.0
  11
 388.808
  21
 376.222
  31
0.0
   0
LINE
   8
LEVEL001
   6
CONTINUOUS
  62
7
  10
 388.808
  20
 376.222
  30
0.0
  11
 389.149
  21
 376.391
  31
0.0
   0
LINE
   8
LEVEL001
   6
CONTINUOUS
  62
7
  10
 389.149
  20
 376.391
  30
0.0
  11
 389.458
  21
 376.594
  31
0.0
   0
LINE
   8
LEVEL001
   6
CONTINUOUS
  62
7
  10
 389.458
  20
 376.594
  30
0.0
  11
 389.729
  21
 376.826
  31
0.0
   0
LINE
   8
LEVEL001
   6
CONTINUOUS
  62
7
  10
 389.729
  20
 376.826
  30
0.0
  11
 389.957
  21
 377.086
  31
0.0
   0
LINE
   8
LEVEL001
   6
CONTINUOUS
  62
7
  10
 389.957
  20
 377.086
  30
0.0
  11
 390.140
  21
 377.367
  31
0.0
   0
LINE
   8
LEVEL001
   6
CONTINUOUS
  62
7
  10
 390.140
  20
 377.367
  30
0.0
  11
 390.274
  21
 377.667
  31
0.0
   0
LINE
   8
LEVEL001
   6
CONTINUOUS
  62
7
  10
 390.274
  20
 377.667
  30
0.0
  11
 390.358
  21
 377.980
  31
0.0
   0
LINE
   8
LEVEL001
   6
CONTINUOUS
  62
7
  10
 390.358
  20
 377.980
  30
0.0
  11
 390.371
  21
 378.065
  31
0.0
   0
LINE
   8
LEVEL001
   6
CONTINUOUS
  62
7
  10
 380.418
  20
 375.560
  30
0.0
  11
 380.974
  21
 375.003
  31
0.0
   0
LINE
   8
LEVEL001
   6
CONTINUOUS
  62
7
  10
 380.974
  20
 375.003
  30
0.0
  11
 381.609
  21
 374.498
  31
0.0
   0
LINE
   8
LEVEL001
   6
CONTINUOUS
  62
7
  10
 381.609
  20
 374.498
  30
0.0
  11
 382.314
  21
 374.054
  31
0.0
   0
LINE
   8
LEVEL001
   6
CONTINUOUS
  62
7
  10
 382.314
  20
 374.054
  30
0.0
  11
 383.076
  21
 373.676
  31
0.0
   0
LINE
   8
LEVEL001
   6
CONTINUOUS
  62
7
  10
 383.076
  20
 373.676
  30
0.0
  11
 383.884
  21
 373.372
  31
0.0
   0
LINE
   8
LEVEL001
   6
CONTINUOUS
  62
7
  10
 383.884
  20
 373.372
  30
0.0
  11
 384.726
  21
 373.145
  31
0.0
   0
LINE
   8
LEVEL001
   6
CONTINUOUS
  62
7
  10
 384.726
  20
 373.145
  30
0.0
  11
 385.588
  21
 372.999
  31
0.0
   0
LINE
   8
LEVEL001
   6
CONTINUOUS
  62
7
  10
 385.588
  20
 372.999
  30
0.0
  11
 386.457
  21
 372.937
  31
0.0
   0
LINE
   8
LEVEL001
   6
CONTINUOUS
  62
7
  10
 386.457
  20
 372.937
  30
0.0
  11
 387.320
  21
 372.960
  31
0.0
   0
LINE
   8
LEVEL001
   6
CONTINUOUS
  62
7
  10
 387.320
  20
 372.960
  30
0.0
  11
 388.162
  21
 373.066
  31
0.0
   0
LINE
   8
LEVEL001
   6
CONTINUOUS
  62
7
  10
 388.162
  20
 373.066
  30
0.0
  11
 388.971
  21
 373.255
  31
0.0
   0
LINE
   8
LEVEL001
   6
CONTINUOUS
  62
7
  10
 388.971
  20
 373.255
  30
0.0
  11
 389.735
  21
 373.524
  31
0.0
   0
LINE
   8
LEVEL001
   6
CONTINUOUS
  62
7
  10
 389.735
  20
 373.524
  30
0.0
  11
 390.441
  21
 373.868
  31
0.0
   0
LINE
   8
LEVEL001
   6
CONTINUOUS
  62
7
  10
 390.441
  20
 373.868
  30
0.0
  11
 390.488
  21
 373.895
  31
0.0
   0
LINE
   8
LEVEL001
   6
CONTINUOUS
  62
7
  10
 381.206
  20
 366.907
  30
0.0
  11
 379.419
  21
 376.252
  31
0.0
   0
LINE
   8
LEVEL001
   6
CONTINUOUS
  62
7
  10
 386.780
  20
 366.023
  30
0.0
  11
 392.471
  21
 376.351
  31
0.0
   0
ARC
   8
LEVEL001
   6
CONTINUOUS
  62
7
  10
 376.472
  20
 375.688
  30
0.0
  40
 3.00000
  50
 10.8313
  51
 97.1217
   0
LINE
   8
LEVEL001
   6
CONTINUOUS
  62
3
  10
 390.991
  20
 377.980
  30
0.0
  11
 391.012
  21
 378.363
  31
0.0
   0
LINE
   8
LEVEL001
   6
CONTINUOUS
  62
3
  10
 391.012
  20
 378.363
  30
0.0
  11
 390.970
  21
 378.748
  31
0.0
   0
LINE
   8
LEVEL001
   6
CONTINUOUS
  62
3
  10
 390.970
  20
 378.748
  30
0.0
  11
 390.868
  21
 379.129
  31
0.0
   0
LINE
   8
LEVEL001
   6
CONTINUOUS
  62
3
  10
 390.868
  20
 379.129
  30
0.0
  11
 390.705
  21
 379.502
  31
0.0
   0
LINE
   8
LEVEL001
   6
CONTINUOUS
  62
3
  10
 390.705
  20
 379.502
  30
0.0
  11
 390.485
  21
 379.859
  31
0.0
   0
LINE
   8
LEVEL001
   6
CONTINUOUS
  62
3
  10
 390.485
  20
 379.859
  30
0.0
  11
 390.211
  21
 380.195
  31
0.0
   0
LINE
   8
LEVEL001
   6
CONTINUOUS
  62
3
  10
 390.211
  20
 380.195
  30
0.0
  11
 389.887
  21
 380.505
  31
0.0
   0
LINE
   8
LEVEL001
   6
CONTINUOUS
  62
3
  10
 389.887
  20
 380.505
  30
0.0
  11
 389.519
  21
 380.784
  31
0.0
   0
LINE
   8
LEVEL001
   6
CONTINUOUS
  62
3
  10
 389.519
  20
 380.784
  30
0.0
  11
 389.112
  21
 381.028
  31
0.0
   0
LINE
   8
LEVEL001
   6
CONTINUOUS
  62
3
  10
 389.112
  20
 381.028
  30
0.0
  11
 388.672
  21
 381.233
  31
0.0
   0
LINE
   8
LEVEL001
   6
CONTINUOUS
  62
3
  10
 388.672
  20
 381.233
  30
0.0
  11
 388.207
  21
 381.395
  31
0.0
   0
LINE
   8
LEVEL001
   6
CONTINUOUS
  62
3
  10
 388.207
  20
 381.395
  30
0.0
  11
 387.723
  21
 381.513
  31
0.0
   0
LINE
   8
LEVEL001
   6
CONTINUOUS
  62
3
  10
 387.723
  20
 381.513
  30
0.0
  11
 387.228
  21
 381.584
  31
0.0
   0
LINE
   8
LEVEL001
   6
CONTINUOUS
  62
3
  10
 387.228
  20
 381.584
  30
0.0
  11
 386.731
  21
 381.607
  31
0.0
   0
LINE
   8
LEVEL001
   6
CONTINUOUS
  62
3
  10
 386.731
  20
 381.607
  30
0.0
  11
 386.238
  21
 381.582
  31
0.0
   0
LINE
   8
LEVEL001
   6
CONTINUOUS
  62
3
  10
 386.238
  20
 381.582
  30
0.0
  11
 385.757
  21
 381.510
  31
0.0
   0
LINE
   8
LEVEL001
   6
CONTINUOUS
  62
3
  10
 385.757
  20
 381.510
  30
0.0
  11
 385.296
  21
 381.390
  31
0.0
   0
LINE
   8
LEVEL001
   6
CONTINUOUS
  62
3
  10
 385.296
  20
 381.390
  30
0.0
  11
 384.862
  21
 381.226
  31
0.0
   0
LINE
   8
LEVEL001
   6
CONTINUOUS
  62
3
  10
 384.862
  20
 381.226
  30
0.0
  11
 384.462
  21
 381.020
  31
0.0
   0
LINE
   8
LEVEL001
   6
CONTINUOUS
  62
3
  10
 384.462
  20
 381.020
  30
0.0
  11
 384.102
  21
 380.775
  31
0.0
   0
LINE
   8
LEVEL001
   6
CONTINUOUS
  62
3
  10
 384.102
  20
 380.775
  30
0.0
  11
 383.787
  21
 380.495
  31
0.0
   0
LINE
   8
LEVEL001
   6
CONTINUOUS
  62
3
  10
 383.787
  20
 380.495
  30
0.0
  11
 383.523
  21
 380.184
  31
0.0
   0
LINE
   8
LEVEL001
   6
CONTINUOUS
  62
3
  10
 383.523
  20
 380.184
  30
0.0
  11
 383.314
  21
 379.847
  31
0.0
   0
LINE
   8
LEVEL001
   6
CONTINUOUS
  62
3
  10
 383.314
  20
 379.847
  30
0.0
  11
 383.163
  21
 379.489
  31
0.0
   0
LINE
   8
LEVEL001
   6
CONTINUOUS
  62
3
  10
 383.163
  20
 379.489
  30
0.0
  11
 383.072
  21
 379.117
  31
0.0
   0
LINE
   8
LEVEL001
   6
CONTINUOUS
  62
3
  10
 383.072
  20
 379.117
  30
0.0
  11
 383.043
  21
 378.735
  31
0.0
   0
LINE
   8
LEVEL001
   6
CONTINUOUS
  62
3
  10
 383.043
  20
 378.735
  30
0.0
  11
 383.076
  21
 378.349
  31
0.0
   0
LINE
   8
LEVEL001
   6
CONTINUOUS
  62
3
  10
 383.076
  20
 378.349
  30
0.0
  11
 383.171
  21
 377.967
  31
0.0
   0
LINE
   8
LEVEL001
   6
CONTINUOUS
  62
3
  10
 383.171
  20
 377.967
  30
0.0
  11
 383.325
  21
 377.593
  31
0.0
   0
LINE
   8
LEVEL001
   6
CONTINUOUS
  62
3
  10
 383.325
  20
 377.593
  30
0.0
  11
 383.538
  21
 377.234
  31
0.0
   0
LINE
   8
LEVEL001
   6
CONTINUOUS
  62
3
  10
 383.538
  20
 377.234
  30
0.0
  11
 383.805
  21
 376.894
  31
0.0
   0
LINE
   8
LEVEL001
   6
CONTINUOUS
  62
3
  10
 383.805
  20
 376.894
  30
0.0
  11
 384.122
  21
 376.581
  31
0.0
   0
LINE
   8
LEVEL001
   6
CONTINUOUS
  62
3
  10
 384.122
  20
 376.581
  30
0.0
  11
 384.485
  21
 376.297
  31
0.0
   0
LINE
   8
LEVEL001
   6
CONTINUOUS
  62
3
  10
 384.485
  20
 376.297
  30
0.0
  11
 384.887
  21
 376.048
  31
0.0
   0
LINE
   8
LEVEL001
   6
CONTINUOUS
  62
3
  10
 384.887
  20
 376.048
  30
0.0
  11
 385.323
  21
 375.838
  31
0.0
   0
LINE
   8
LEVEL001
   6
CONTINUOUS
  62
3
  10
 385.323
  20
 375.838
  30
0.0
  11
 385.785
  21
 375.670
  31
0.0
   0
LINE
   8
LEVEL001
   6
CONTINUOUS
  62
3
  10
 385.785
  20
 375.670
  30
0.0
  11
 386.267
  21
 375.546
  31
0.0
   0
LINE
   8
LEVEL001
   6
CONTINUOUS
  62
3
  10
 386.267
  20
 375.546
  30
0.0
  11
 386.761
  21
 375.469
  31
0.0
   0
LINE
   8
LEVEL001
   6
CONTINUOUS
  62
3
  10
 386.761
  20
 375.469
  30
0.0
  11
 387.259
  21
 375.439
  31
0.0
   0
LINE
   8
LEVEL001
   6
CONTINUOUS
  62
3
  10
 387.259
  20
 375.439
  30
0.0
  11
 387.753
  21
 375.458
  31
0.0
   0
LINE
   8
LEVEL001
   6
CONTINUOUS
  62
3
  10
 387.753
  20
 375.458
  30
0.0
  11
 388.236
  21
 375.524
  31
0.0
   0
LINE
   8
LEVEL001
   6
CONTINUOUS
  62
3
  10
 388.236
  20
 375.524
  30
0.0
  11
 388.700
  21
 375.637
  31
0.0
   0
LINE
   8
LEVEL001
   6
CONTINUOUS
  62
3
  10
 388.700
  20
 375.637
  30
0.0
  11
 389.137
  21
 375.795
  31
0.0
   0
LINE
   8
LEVEL001
   6
CONTINUOUS
  62
3
  10
 389.137
  20
 375.795
  30
0.0
  11
 389.542
  21
 375.996
  31
0.0
   0
LINE
   8
LEVEL001
   6
CONTINUOUS
  62
3
  10
 389.542
  20
 375.996
  30
0.0
  11
 389.908
  21
 376.236
  31
0.0
   0
LINE
   8
LEVEL001
   6
CONTINUOUS
  62
3
  10
 389.908
  20
 376.236
  30
0.0
  11
 390.229
  21
 376.512
  31
0.0
   0
LINE
   8
LEVEL001
   6
CONTINUOUS
  62
3
  10
 390.229
  20
 376.512
  30
0.0
  11
 390.500
  21
 376.819
  31
0.0
   0
LINE
   8
LEVEL001
   6
CONTINUOUS
  62
3
  10
 390.500
  20
 376.819
  30
0.0
  11
 390.716
  21
 377.153
  31
0.0
   0
LINE
   8
LEVEL001
   6
CONTINUOUS
  62
3
  10
 390.716
  20
 377.153
  30
0.0
  11
 390.876
  21
 377.508
  31
0.0
   0
LINE
   8
LEVEL001
   6
CONTINUOUS
  62
3
  10
 390.876
  20
 377.508
  30
0.0
  11
 390.975
  21
 377.879
  31
0.0
   0
LINE
   8
LEVEL001
   6
CONTINUOUS
  62
3
  10
 390.975
  20
 377.879
  30
0.0
  11
 390.991
  21
 377.980
  31
0.0
   0
LINE
   8
LEVEL001
   6
DASHDOT
  62
1
  10
 381.451
  20
 379.287
  30
0.0
  11
 392.464
  21
 377.778
  31
0.0
   0
LINE
   8
LEVEL003
   6
CONTINUOUS
  62
7
  10
 384.740
  20
 378.837
  30
0.0
  11
 386.061
  21
 379.971
  31
0.0
   0
LINE
   8
LEVEL003
   6
CONTINUOUS
  62
7
  10
 386.061
  20
 379.971
  30
0.0
  11
 388.349
  21
 379.658
  31
0.0
   0
LINE
   8
LEVEL003
   6
CONTINUOUS
  62
7
  10
 388.349
  20
 379.658
  30
0.0
  11
 389.316
  21
 378.209
  31
0.0
   0
LINE
   8
LEVEL003
   6
CONTINUOUS
  62
7
  10
 389.316
  20
 378.209
  30
0.0
  11
 387.995
  21
 377.075
  31
0.0
   0
LINE
   8
LEVEL003
   6
CONTINUOUS
  62
7
  10
 387.995
  20
 377.075
  30
0.0
  11
 385.707
  21
 377.388
  31
0.0
   0
LINE
   8
LEVEL003
   6
CONTINUOUS
  62
7
  10
 385.707
  20
 377.388
  30
0.0
  11
 384.740
  21
 378.837
  31
0.0
   0
LINE
   8
LEVEL001
   6
DASHDOT
  62
1
  10
 373.990
  20
 352.247
  30
0.0
  11
 374.384
  21
 341.954
  31
0.0
   0
LINE
   8
LEVEL001
   6
CONTINUOUS
  62
7
  10
 373.906
  20
 355.339
  30
0.0
  11
 372.907
  21
 355.301
  31
0.0
   0
ARC
   8
LEVEL001
   6
CONTINUOUS
  62
7
  10
 374.174
  20
 348.344
  30
0.0
  40
 7.00000
  50
 272.195
  51
 92.1950
   0
ARC
   8
LEVEL001
   6
CONTINUOUS
  62
7
  10
 373.175
  20
 348.306
  30
0.0
  40
 7.00000
  50
 92.1950
  51
 272.195
   0
ARC
   8
LEVEL001
   6
CONTINUOUS
  62
7
  10
 362.648
  20
 337.914
  30
0.0
  40
 19.0000
  50
 77.7048
  51
 108.355
   0
LINE
   8
LEVEL001
   6
CONTINUOUS
  62
7
  10
 364.807
  20
 353.335
  30
0.0
  11
 365.057
  21
 346.805
  31
0.0
   0
LINE
   8
LEVEL001
   6
CONTINUOUS
  62
7
  10
 366.491
  20
 356.372
  30
0.0
  11
 367.740
  21
 356.110
  31
0.0
   0
LINE
   8
LEVEL001
   6
CONTINUOUS
  62
7
  10
 367.740
  20
 356.110
  30
0.0
  11
 369.082
  21
 355.911
  31
0.0
   0
LINE
   8
LEVEL001
   6
CONTINUOUS
  62
7
  10
 369.082
  20
 355.911
  30
0.0
  11
 370.497
  21
 355.777
  31
0.0
   0
LINE
   8
LEVEL001
   6
CONTINUOUS
  62
7
  10
 370.497
  20
 355.777
  30
0.0
  11
 371.962
  21
 355.711
  31
0.0
   0
LINE
   8
LEVEL001
   6
CONTINUOUS
  62
7
  10
 371.962
  20
 355.711
  30
0.0
  11
 373.455
  21
 355.714
  31
0.0
   0
LINE
   8
LEVEL001
   6
CONTINUOUS
  62
7
  10
 373.455
  20
 355.714
  30
0.0
  11
 374.952
  21
 355.786
  31
0.0
   0
LINE
   8
LEVEL001
   6
CONTINUOUS
  62
7
  10
 374.952
  20
 355.786
  30
0.0
  11
 376.430
  21
 355.925
  31
0.0
   0
LINE
   8
LEVEL001
   6
CONTINUOUS
  62
7
  10
 376.430
  20
 355.925
  30
0.0
  11
 377.865
  21
 356.130
  31
0.0
   0
LINE
   8
LEVEL001
   6
CONTINUOUS
  62
7
  10
 377.865
  20
 356.130
  30
0.0
  11
 379.236
  21
 356.398
  31
0.0
   0
LINE
   8
LEVEL001
   6
CONTINUOUS
  62
7
  10
 379.236
  20
 356.398
  30
0.0
  11
 380.521
  21
 356.723
  31
0.0
   0
LINE
   8
LEVEL001
   6
CONTINUOUS
  62
7
  10
 380.521
  20
 356.723
  30
0.0
  11
 381.699
  21
 357.101
  31
0.0
   0
LINE
   8
LEVEL001
   6
CONTINUOUS
  62
7
  10
 381.699
  20
 357.101
  30
0.0
  11
 382.753
  21
 357.527
  31
0.0
   0
LINE
   8
LEVEL001
   6
CONTINUOUS
  62
7
  10
 382.753
  20
 357.527
  30
0.0
  11
 383.667
  21
 357.993
  31
0.0
   0
LINE
   8
LEVEL001
   6
CONTINUOUS
  62
7
  10
 383.667
  20
 357.993
  30
0.0
  11
 384.425
  21
 358.492
  31
0.0
   0
LINE
   8
LEVEL001
   6
CONTINUOUS
  62
7
  10
 384.425
  20
 358.492
  30
0.0
  11
 385.016
  21
 359.017
  31
0.0
   0
LINE
   8
LEVEL001
   6
CONTINUOUS
  62
7
  10
 385.016
  20
 359.017
  30
0.0
  11
 385.431
  21
 359.559
  31
0.0
   0
LINE
   8
LEVEL001
   6
CONTINUOUS
  62
7
  10
 385.431
  20
 359.559
  30
0.0
  11
 385.663
  21
 360.110
  31
0.0
   0
LINE
   8
LEVEL001
   6
CONTINUOUS
  62
7
  10
 385.663
  20
 360.110
  30
0.0
  11
 385.688
  21
 360.226
  31
0.0
   0
LINE
   8
LEVEL001
   6
CONTINUOUS
  62
7
  10
 373.443
  20
 341.311
  30
0.0
  11
 374.442
  21
 341.349
  31
0.0
   0
ARC
   8
LEVEL001
   6
CONTINUOUS
  62
7
  10
 362.625
  20
 336.352
  30
0.0
  40
 3.00000
  50
 27.1946
  51
 157.195
   0
ARC
   8
LEVEL001
   6
CONTINUOUS
  62
7
  10
 386.607
  20
 337.271
  30
0.0
  40
 3.00000
  50
 93.5983
  51
 157.195
   0
LINE
   8
LEVEL001
   6
CONTINUOUS
  62
7
  10
 388.949
  20
 328.395
  30
0.0
  11
 387.881
  21
 356.253
  31
0.0
   0
LINE
   8
LEVEL001
   6
CONTINUOUS
  62
7
  10
 383.601
  20
 351.534
  30
0.0
  11
 383.879
  21
 344.271
  31
0.0
   0
ARC
   8
LEVEL001
   6
CONTINUOUS
  62
7
  10
 384.153
  20
 367.471
  30
0.0
  40
 3.00000
  50
 190.605
  51
 329.931
   0
LINE
   8
LEVEL001
   6
CONTINUOUS
  62
7
  10
 374.085
  20
 350.652
  30
0.0
  11
 376.128
  21
 349.575
  31
0.0
   0
LINE
   8
LEVEL001
   6
CONTINUOUS
  62
7
  10
 376.128
  20
 349.575
  30
0.0
  11
 376.217
  21
 347.267
  31
0.0
   0
LINE
   8
LEVEL001
   6
CONTINUOUS
  62
7
  10
 376.217
  20
 347.267
  30
0.0
  11
 374.262
  21
 346.036
  31
0.0
   0
LINE
   8
LEVEL001
   6
CONTINUOUS
  62
7
  10
 374.262
  20
 346.036
  30
0.0
  11
 372.220
  21
 347.114
  31
0.0
   0
LINE
   8
LEVEL001
   6
CONTINUOUS
  62
7
  10
 372.220
  20
 347.114
  30
0.0
  11
 372.131
  21
 349.421
  31
0.0
   0
LINE
   8
LEVEL001
   6
CONTINUOUS
  62
7
  10
 372.131
  20
 349.421
  30
0.0
  11
 374.085
  21
 350.652
  31
0.0
   0
CIRCLE
   8
LEVEL001
   6
CONTINUOUS
  62
7
  10
 374.174
  20
 348.344
  30
0.0
  40
 4.00000
   0
CIRCLE
   8
LEVEL001
   6
CONTINUOUS
  62
3
  10
 374.174
  20
 348.344
  30
0.0
  40
 3.37500
   0
LINE
   8
LEVEL001
   6
CONTINUOUS
  62
7
  10
 339.655
  20
 308.993
  30
0.0
  11
 389.619
  21
 310.908
  31
0.0
   0
LINE
   8
LEVEL001
   6
CONTINUOUS
  62
7
  10
 389.619
  20
 310.908
  30
0.0
  11
 389.963
  21
 301.915
  31
0.0
   0
LINE
   8
LEVEL001
   6
CONTINUOUS
  62
7
  10
 389.963
  20
 301.915
  30
0.0
  11
 340.000
  21
 300.000
  31
0.0
   0
LINE
   8
LEVEL001
   6
CONTINUOUS
  62
7
  10
 340.000
  20
 300.000
  30
0.0
  11
 339.655
  21
 308.993
  31
0.0
   0
ARC
   8
LEVEL001
   6
CONTINUOUS
  62
7
  10
 335.369
  20
 316.400
  30
0.0
  40
 4.00000
  50
 2.19457
  51
 92.1946
   0
ARC
   8
LEVEL001
   6
CONTINUOUS
  62
7
  10
 393.214
  20
 321.554
  30
0.0
  40
 4.00000
  50
 92.1946
  51
 182.195
   0
ARC
   8
LEVEL001
   6
CONTINUOUS
  62
7
  10
 327.145
  20
 322.090
  30
0.0
  40
 2.00000
  50
 182.195
  51
 272.195
   0
LINE
   8
LEVEL001
   6
CONTINUOUS
  62
7
  10
 335.215
  20
 320.398
  30
0.0
  11
 327.221
  21
 320.091
  31
0.0
   0
LINE
   8
LEVEL001
   6
CONTINUOUS
  62
7
  10
 393.061
  20
 325.551
  30
0.0
  11
 395.059
  21
 325.627
  31
0.0
   0
LINE
   8
LEVEL001
   6
CONTINUOUS
  62
7
  10
 389.217
  20
 321.400
  30
0.0
  11
 389.619
  21
 310.908
  31
0.0
   0
ARC
   8
LEVEL001
   6
CONTINUOUS
  62
7
  10
 375.058
  20
 325.283
  30
0.0
  40
 3.00000
  50
 207.195
  51
 337.195
   0
ARC
   8
LEVEL001
   6
CONTINUOUS
  62
7
  10
 351.075
  20
 324.364
  30
0.0
  40
 3.00000
  50
 207.195
  51
 337.195
   0
LINE
   8
LEVEL001
   6
CONTINUOUS
  62
7
  10
 353.841
  20
 323.202
  30
0.0
  11
 359.859
  21
 337.515
  31
0.0
   0
LINE
   8
LEVEL001
   6
CONTINUOUS
  62
7
  10
 372.389
  20
 323.912
  30
0.0
  11
 365.293
  21
 337.723
  31
0.0
   0
LINE
   8
LEVEL001
   6
CONTINUOUS
  62
7
  10
 377.823
  20
 324.121
  30
0.0
  11
 383.841
  21
 338.434
  31
0.0
   0
ARC
   8
LEVEL001
   6
CONTINUOUS
  62
7
  10
 336.168
  20
 321.644
  30
0.0
  40
 3.00000
  50
 2.19457
  51
 92.1946
   0
LINE
   8
LEVEL001
   6
CONTINUOUS
  62
7
  10
 327.060
  20
 324.297
  30
0.0
  11
 336.053
  21
 324.642
  31
0.0
   0
LINE
   8
LEVEL001
   6
CONTINUOUS
  62
7
  10
 339.166
  20
 321.759
  30
0.0
  11
 339.655
  21
 308.993
  31
0.0
   0
POINT
   8
LEVEL001
  62
7
  10
 340.000
  20
 300.000
  30
0.0
   0
LINE
   8
LEVEL001
   6
CONTINUOUS
  62
7
  10
 359.114
  20
 353.117
  30
0.0
  11
 359.364
  21
 346.586
  31
0.0
   0
LINE
   8
LEVEL001
   6
CONTINUOUS
  62
7
  10
 355.003
  20
 355.424
  30
0.0
  11
 356.306
  21
 355.739
  31
0.0
   0
LINE
   8
LEVEL001
   6
CONTINUOUS
  62
7
  10
 356.306
  20
 355.739
  30
0.0
  11
 357.015
  21
 355.947
  31
0.0
   0
CIRCLE
   8
LEVEL001
   6
CONTINUOUS
  62
7
  10
 324.110
  20
 453.504
  30
0.0
  40
 5.00000
   0
ARC
   8
LEVEL001
   6
CONTINUOUS
  62
7
  10
 324.110
  20
 453.504
  30
0.0
  40
 10.0000
  50
 71.7863
  51
 152.558
   0
ARC
   8
LEVEL001
   6
CONTINUOUS
  62
7
  10
 340.033
  20
 433.195
  30
0.0
  40
 40.0000
  50
 92.5585
  51
 154.173
   0
CIRCLE
   8
LEVEL001
   6
CONTINUOUS
  62
7
  10
 324.110
  20
 453.504
  30
0.0
  40
 4.00000
   0
LINE
   8
LEVEL001
   6
CONTINUOUS
  62
7
  10
 346.239
  20
 473.512
  30
0.0
  11
 346.194
  21
 474.511
  31
0.0
   0
LINE
   8
LEVEL001
   6
CONTINUOUS
  62
7
  10
 346.194
  20
 474.511
  30
0.0
  11
 490.051
  21
 480.939
  31
0.0
   0
LINE
   8
LEVEL001
   6
DASHDOT
  62
1
  10
 308.151
  20
 452.791
  30
0.0
  11
 492.942
  21
 461.048
  31
0.0
   0
ARC
   8
LEVEL011
   6
CONTINUOUS
  62
7
  10
 318.641
  20
 450.457
  30
0.0
  40
 2.00000
  50
 92.5585
  51
 145.689
   0
ARC
   8
LEVEL011
   6
CONTINUOUS
  62
7
  10
 317.238
  20
 458.674
  30
0.0
  40
 2.00000
  50
 233.689
  51
 323.047
   0
ARC
   8
LEVEL011
   6
CONTINUOUS
  62
7
  10
 318.641
  20
 450.457
  30
0.0
  40
 3.60000
  50
 92.5585
  51
 145.689
   0
ARC
   8
LEVEL011
   6
CONTINUOUS
  62
7
  10
 317.238
  20
 458.674
  30
0.0
  40
 3.60000
  50
 233.690
  51
 323.046
   0
LINE
   8
LEVEL011
   6
CONTINUOUS
  62
7
  10
 318.480
  20
 454.053
  30
0.0
  11
 319.144
  21
 454.083
  31
0.0
   0
LINE
   8
LEVEL011
   6
CONTINUOUS
  62
7
  10
 318.551
  20
 452.455
  30
0.0
  11
 319.215
  21
 452.485
  31
0.0
   0
ARC
   8
LEVEL011
   6
CONTINUOUS
  62
7
  10
 324.110
  20
 453.504
  30
0.0
  40
 6.59982
  50
 42.0700
  51
 143.047
   0
ARC
   8
LEVEL011
   6
CONTINUOUS
  62
7
  10
 330.494
  20
 459.266
  30
0.0
  40
 2.00000
  50
 222.070
  51
 316.321
   0
ARC
   8
LEVEL011
   6
CONTINUOUS
  62
7
  10
 313.685
  20
 453.839
  30
0.0
  40
 4.00000
  50
 53.6893
  51
 325.689
   0
ARC
   8
LEVEL011
   6
CONTINUOUS
  62
7
  10
 313.685
  20
 453.839
  30
0.0
  40
 2.40000
  50
 53.6900
  51
 325.689
   0
LINE
   8
LEVEL001
   6
CONTINUOUS
  62
7
  10
 315.235
  20
 458.113
  30
0.0
  11
 314.981
  21
 457.623
  31
0.0
   0
LINE
   8
LEVEL001
   6
CONTINUOUS
  62
7
  10
 314.230
  20
 456.176
  30
0.0
  11
 312.087
  21
 452.049
  31
0.0
   0
LINE
   8
LEVEL001
   6
CONTINUOUS
  62
7
  10
 311.335
  20
 450.602
  30
0.0
  11
 309.182
  21
 446.456
  31
0.0
   0
LINE
   8
LEVEL001
   6
DASHDOT
  62
1
  10
 323.529
  20
 466.500
  30
0.0
  11
 324.851
  21
 436.935
  31
0.0
   0
LINE
   8
LEVEL011
   6
CONTINUOUS
  62
7
  10
 335.881
  20
 459.695
  30
0.0
  11
 333.098
  21
 456.780
  31
0.0
   0
LINE
   8
LEVEL011
   6
CONTINUOUS
  62
7
  10
 334.724
  20
 460.800
  30
0.0
  11
 335.881
  21
 459.695
  31
0.0
   0
LINE
   8
LEVEL011
   6
CONTINUOUS
  62
7
  10
 334.724
  20
 460.800
  30
0.0
  11
 331.941
  21
 457.885
  31
0.0
   0
LINE
   8
LEVEL011
   6
CONTINUOUS
  62
7
  10
 337.361
  20
 454.897
  30
0.0
  11
 337.433
  21
 453.299
  31
0.0
   0
ARC
   8
LEVEL011
   6
CONTINUOUS
  62
7
  10
 330.494
  20
 459.266
  30
0.0
  40
 3.60000
  50
 222.071
  51
 316.319
   0
LINE
   8
LEVEL011
   6
CONTINUOUS
  62
7
  10
 329.005
  20
 454.524
  30
0.0
  11
 337.361
  21
 454.897
  31
0.0
   0
LINE
   8
LEVEL011
   6
CONTINUOUS
  62
7
  10
 329.077
  20
 452.925
  30
0.0
  11
 337.433
  21
 453.299
  31
0.0
   0
LINE
   8
LEVEL001
   6
CONTINUOUS
  62
7
  10
 304.028
  20
 450.621
  30
0.0
  11
 314.611
  21
 442.069
  31
0.0
   0
LINE
   8
LEVEL001
   6
CONTINUOUS
  62
7
  10
 314.611
  20
 442.069
  30
0.0
  11
 339.911
  21
 443.199
  31
0.0
   0
LINE
   8
LEVEL001
   6
CONTINUOUS
  62
7
  10
 327.236
  20
 463.003
  30
0.0
  11
 334.535
  21
 460.601
  31
0.0
   0
LINE
   8
LEVEL001
   6
CONTINUOUS
  62
7
  10
 335.141
  20
 460.402
  30
0.0
  11
 356.698
  21
 453.309
  31
0.0
   0
LINE
   8
LEVEL001
   6
CONTINUOUS
  62
7
  10
 338.247
  20
 473.155
  30
0.0
  11
 386.199
  21
 475.297
  31
0.0
   0
LINE
   8
LEVEL001
   6
DASHDOT
  62
1
  10
 311.974
  20
 443.117
  30
0.0
  11
 452.507
  21
 563.392
  31
0.0
   0
LINE
   8
LEVEL001
   6
DASHDOT
  62
1
  10
 352.928
  20
 459.944
  30
0.0
  11
 354.732
  21
 400.690
  31
0.0
   0
LINE
   8
LEVEL001
   6
CONTINUOUS
  62
7
  10
 344.103
  20
 438.482
  30
0.0
  11
 344.290
  21
 431.239
  31
0.0
   0
CIRCLE
   8
LEVEL001
   6
CONTINUOUS
  62
7
  10
 353.572
  20
 443.810
  30
0.0
  40
 5.00000
   0
LINE
   8
LEVEL001
   6
DASHDOT
  62
1
  10
 343.202
  20
 443.346
  30
0.0
  11
 364.861
  21
 444.314
  31
0.0
   0
ARC
   8
LEVEL001
   6
CONTINUOUS
  62
7
  10
 340.045
  20
 440.202
  30
0.0
  40
 3.00000
  50
 14.9321
  51
 92.5585
   0
ARC
   8
LEVEL001
   6
CONTINUOUS
  62
7
  10
 353.572
  20
 443.810
  30
0.0
  40
 11.0000
  50
 194.932
  51
 272.558
   0
LINE
   8
LEVEL001
   6
CONTINUOUS
  62
7
  10
 363.562
  20
 444.256
  30
0.0
  11
 364.053
  21
 433.267
  31
0.0
   0
ARC
   8
LEVEL001
   6
CONTINUOUS
  62
7
  10
 353.572
  20
 443.810
  30
0.0
  40
 10.0000
  50
 2.55848
  51
 71.7862
   0
CIRCLE
   8
LEVEL001
   6
CONTINUOUS
  62
7
  10
 353.572
  20
 443.810
  30
0.0
  40
 4.00000
   0
ARC
   8
LEVEL001
   6
CONTINUOUS
  62
7
  10
 384.122
  20
 429.159
  30
0.0
  40
 5.00000
  50
 21.9458
  51
 92.5584
   0
LINE
   8
LEVEL001
   6
CONTINUOUS
  62
7
  10
 354.063
  20
 432.821
  30
0.0
  11
 383.899
  21
 434.154
  31
0.0
   0
ARC
   8
LEVEL001
   6
CONTINUOUS
  62
7
  10
 453.688
  20
 457.188
  30
0.0
  40
 70.0000
  50
 201.946
  51
 220.718
   0
ARC
   8
LEVEL001
   6
CONTINUOUS
  62
7
  10
 425.805
  20
 436.527
  30
0.0
  40
 5.00000
  50
 92.5585
  51
 167.570
   0
LINE
   8
LEVEL001
   6
CONTINUOUS
  62
7
  10
 425.582
  20
 441.522
  30
0.0
  11
 483.688
  21
 444.118
  31
0.0
   0
LINE
   8
LEVEL001
   6
CONTINUOUS
  62
7
  10
 483.688
  20
 444.118
  30
0.0
  11
 483.733
  21
 443.119
  31
0.0
   0
LINE
   8
LEVEL001
   6
CONTINUOUS
  62
7
  10
 483.733
  20
 443.119
  30
0.0
  11
 491.725
  21
 443.476
  31
0.0
   0
ARC
   8
LEVEL001
   6
CONTINUOUS
  62
7
  10
 352.563
  20
 452.670
  30
0.0
  40
 70.0000
  50
 324.399
  51
 347.570
   0
LINE
   8
LEVEL001
   6
CONTINUOUS
  62
7
  10
 411.305
  20
 449.581
  30
0.0
  11
 419.182
  21
 442.490
  31
0.0
   0
LINE
   8
LEVEL001
   6
CONTINUOUS
  62
7
  10
 410.608
  20
 465.188
  30
0.0
  11
 417.821
  21
 472.954
  31
0.0
   0
LINE
   8
LEVEL001
   6
CONTINUOUS
  62
7
  10
 417.124
  20
 477.680
  30
0.0
  11
 418.167
  21
 476.726
  31
0.0
   0
LINE
   8
LEVEL001
   6
CONTINUOUS
  62
7
  10
 479.107
  20
 479.449
  30
0.0
  11
 418.167
  21
 476.726
  31
0.0
   0
ARC
   8
LEVEL001
   6
CONTINUOUS
  62
7
  10
 479.240
  20
 476.452
  30
0.0
  40
 3.00000
  50
 2.55848
  51
 92.5585
   0
POINT
   8
LEVEL001
  62
7
  10
 482.104
  20
 479.583
  30
0.0
   0
LINE
   8
LEVEL001
   6
CONTINUOUS
  62
7
  10
 483.688
  20
 444.118
  30
0.0
  11
 482.237
  21
 476.586
  31
0.0
   0
ARC
   8
LEVEL001
   6
CONTINUOUS
  62
7
  10
 490.140
  20
 478.941
  30
0.0
  40
 2.00000
  50
 2.55848
  51
 92.5585
   0
LINE
   8
LEVEL001
   6
CONTINUOUS
  62
7
  10
 492.138
  20
 479.030
  30
0.0
  11
 493.634
  21
 445.564
  31
0.0
   0
ARC
   8
LEVEL001
   6
CONTINUOUS
  62
7
  10
 491.636
  20
 445.474
  30
0.0
  40
 2.00000
  50
 272.558
  51
 2.55848
   0
LINE
   8
LEVEL001
   6
DASHDOT
  62
1
  10
 359.394
  20
 510.522
  30
0.0
  11
 359.293
  21
 509.112
  31
0.0
   0
ARC
   8
LEVEL001
   6
DASHDOT
  62
1
  10
 414.699
  20
 502.735
  30
0.0
  40
 5.00000
  50
 130.559
  51
 205.570
   0
ARC
   8
LEVEL001
   6
DASHDOT
  62
1
  10
 347.045
  20
 470.364
  30
0.0
  40
 70.0000
  50
 16.9703
  51
 25.5704
   0
LINE
   8
LEVEL001
   6
DASHDOT
  62
1
  10
 329.230
  20
 482.894
  30
0.0
  11
 328.580
  21
 483.654
  31
0.0
   0
LINE
   8
LEVEL001
   6
DASHDOT
  62
1
  10
 328.580
  20
 483.654
  30
0.0
  11
 437.983
  21
 577.286
  31
0.0
   0
LINE
   8
LEVEL001
   6
DASHDOT
  62
1
  10
 411.448
  20
 506.534
  30
0.0
  11
 455.638
  21
 544.354
  31
0.0
   0
LINE
   8
LEVEL001
   6
DASHDOT
  62
1
  10
 455.638
  20
 544.354
  30
0.0
  11
 456.288
  21
 543.594
  31
0.0
   0
LINE
   8
LEVEL001
   6
DASHDOT
  62
1
  10
 456.288
  20
 543.594
  30
0.0
  11
 462.366
  21
 548.796
  31
0.0
   0
LINE
   8
LEVEL001
   6
DASHDOT
  62
1
  10
 395.236
  20
 504.096
  30
0.0
  11
 405.809
  21
 503.357
  31
0.0
   0
LINE
   8
LEVEL001
   6
DASHDOT
  62
1
  10
 385.078
  20
 515.964
  30
0.0
  11
 385.981
  21
 526.525
  31
0.0
   0
LINE
   8
LEVEL001
   6
DASHDOT
  62
1
  10
 323.152
  20
 477.693
  30
0.0
  11
 359.620
  21
 508.903
  31
0.0
   0
LINE
   8
LEVEL001
   6
DASHDOT
  62
1
  10
 367.549
  20
 524.245
  30
0.0
  11
 394.256
  21
 493.040
  31
0.0
   0
ARC
   8
LEVEL003
   6
CONTINUOUS
  62
3
  10
 324.110
  20
 453.504
  30
0.0
  40
 186.457
  50
 2.55848
  51
 40.5585
   0
LINE
   8
LEVEL003
   6
CONTINUOUS
  62
3
  10
 510.381
  20
 461.827
  30
0.0
  11
 511.700
  21
 473.941
  31
0.0
   0
LINE
   8
LEVEL003
   6
CONTINUOUS
  62
3
  10
 510.381
  20
 461.827
  30
0.0
  11
 507.477
  21
 473.661
  31
0.0
   0
LINE
   8
LEVEL003
   6
CONTINUOUS
  62
3
  10
 465.770
  20
 574.743
  30
0.0
  11
 471.738
  21
 564.120
  31
0.0
   0
LINE
   8
LEVEL003
   6
CONTINUOUS
  62
3
  10
 465.770
  20
 574.743
  30
0.0
  11
 475.012
  21
 566.802
  31
0.0
   0
TEXT
   8
LEVEL003
  62
3
  10
 447.635
  20
 500.850
  30
0.0
  40
 16.0000
   1
約38%%d
   7
STANDARD
  72
2
  11
 495.635
  21
 511.517
  31
0.0
  73
2
   0
LINE
   8
LEVEL001
   6
DASHDOT
  62
1
  10
 401.893
  20
 482.505
  30
0.0
  11
 405.219
  21
 408.079
  31
0.0
   0
LINE
   8
LEVEL001
   6
DASHDOT
  62
1
  10
 430.276
  20
 569.374
  30
0.0
  11
 383.932
  21
 529.710
  31
0.0
   0
LINE
   8
LEVEL001
   6
DASHDOT
  62
1
  10
 382.522
  20
 529.820
  30
0.0
  11
 383.932
  21
 529.710
  31
0.0
   0
POINT
   8
LEVEL001
  62
7
  10
 432.555
  20
 571.325
  30
0.0
   0
ARC
   8
LEVEL001
   6
DASHDOT
  62
1
  10
 461.066
  20
 550.315
  30
0.0
  40
 2.00000
  50
 310.558
  51
 40.5585
   0
ARC
   8
LEVEL001
   6
DASHDOT
  62
1
  10
 439.283
  20
 575.767
  30
0.0
  40
 2.00000
  50
 40.5585
  51
 130.558
   0
ARC
   8
LEVEL001
   6
DASHDOT
  62
1
  10
 432.226
  20
 567.095
  30
0.0
  40
 3.00000
  50
 40.5585
  51
 130.558
   0
LINE
   8
LEVEL001
   6
DASHDOT
  62
1
  10
 440.803
  20
 577.067
  30
0.0
  11
 462.585
  21
 551.616
  31
0.0
   0
LINE
   8
LEVEL001
   6
DASHDOT
  62
1
  10
 455.638
  20
 544.354
  30
0.0
  11
 434.506
  21
 569.046
  31
0.0
   0
LINE
   8
LEVEL001
   6
DASHDOT
  62
1
  10
 445.517
  20
 571.559
  30
0.0
  11
 468.181
  21
 590.956
  31
0.0
   0
LINE
   8
LEVEL003
   6
DASHDOT
  62
1
  10
 452.507
  20
 563.392
  30
0.0
  11
 475.171
  21
 582.789
  31
0.0
   0
LINE
   8
LEVEL001
   6
DASHDOT
  62
1
  10
 459.497
  20
 555.225
  30
0.0
  11
 482.161
  21
 574.622
  31
0.0
   0
LINE
   8
LEVEL001
   6
DASHDOT
  62
1
  10
 359.000
  20
 829.133
  30
0.0
  11
 359.000
  21
 769.782
  31
0.0
   0
LINE
   8
LEVEL001
   6
DASHDOT
  62
1
  10
 352.000
  20
 797.457
  30
0.0
  11
 352.000
  21
 748.722
  31
0.0
   0
LINE
   8
LEVEL001
   6
DASHDOT
  62
1
  10
 334.000
  20
 770.000
  30
0.0
  11
 334.000
  21
 894.801
  31
0.0
   0
LINE
   8
LEVEL001
   6
DASHDOT
  62
1
  10
 399.327
  20
 822.000
  30
0.0
  11
 300.300
  21
 822.000
  31
0.0
   0
ARC
   8
LEVEL003
   6
CONTINUOUS
  62
7
  10
 339.750
  20
 842.392
  30
0.0
  40
 16.6080
  50
 69.7438
  51
 110.256
   0
ARC
   8
LEVEL003
   6
CONTINUOUS
  62
7
  10
 328.250
  20
 842.392
  30
0.0
  40
 16.6080
  50
 69.7438
  51
 110.256
   0
LINE
   8
LEVEL001
   6
CONTINUOUS
  62
7
  10
 321.792
  20
 867.592
  30
0.0
  11
 329.000
  21
 867.592
  31
0.0
   0
LINE
   8
LEVEL001
   6
CONTINUOUS
  62
7
  10
 339.000
  20
 867.592
  30
0.0
  11
 346.208
  21
 867.592
  31
0.0
   0
ARC
   8
LEVEL001
   6
CONTINUOUS
  62
7
  10
 316.415
  20
 874.592
  30
0.0
  40
 3.00000
  50
 8.53108
  51
 89.9986
   0
LINE
   8
LEVEL001
   6
CONTINUOUS
  62
7
  10
 309.143
  20
 878.592
  30
0.0
  11
 309.143
  21
 886.817
  31
0.0
   0
ARC
   8
LEVEL001
   6
CONTINUOUS
  62
7
  10
 310.143
  20
 878.592
  30
0.0
  40
 1.00000
  50
 180.000
  51
 270.000
   0
LINE
   8
LEVEL001
   6
CONTINUOUS
  62
7
  10
 310.143
  20
 877.592
  30
0.0
  11
 334.000
  21
 877.592
  31
0.0
   0
ARC
   8
LEVEL010
   6
CONTINUOUS
  62
7
  10
 321.526
  20
 878.592
  30
0.0
  40
 1.00000
  50
 180.000
  51
 270.000
   0
ARC
   8
LEVEL010
   6
CONTINUOUS
  62
7
  10
 322.526
  20
 886.793
  30
0.0
  40
 2.00000
  50
 90.0000
  51
 180.000
   0
ARC
   8
LEVEL010
   6
CONTINUOUS
  62
7
  10
 319.526
  20
 878.592
  30
0.0
  40
 1.00000
  50
 270.000
  51
0.0
   0
ARC
   8
LEVEL010
   6
CONTINUOUS
  62
7
  10
 318.526
  20
 886.793
  30
0.0
  40
 2.00000
  50
0.0
  51
 90.0000
   0
LINE
   8
LEVEL010
   6
CONTINUOUS
  62
7
  10
 320.526
  20
 878.592
  30
0.0
  11
 320.526
  21
 886.793
  31
0.0
   0
LINE
   8
LEVEL010
   6
CONTINUOUS
  62
7
  10
 330.500
  20
 878.592
  30
0.0
  11
 330.500
  21
 886.793
  31
0.0
   0
ARC
   8
LEVEL001
   6
CONTINUOUS
  62
7
  10
 351.582
  20
 874.592
  30
0.0
  40
 3.00000
  50
 89.9990
  51
 171.469
   0
ARC
   8
LEVEL001
   6
CONTINUOUS
  62
7
  10
 357.855
  20
 878.592
  30
0.0
  40
 1.00000
  50
 270.000
  51
 0.820736E-9
   0
LINE
   8
LEVEL001
   6
CONTINUOUS
  62
7
  10
 358.855
  20
 878.592
  30
0.0
  11
 358.855
  21
 886.817
  31
0.0
   0
LINE
   8
LEVEL001
   6
CONTINUOUS
  62
7
  10
 334.000
  20
 877.592
  30
0.0
  11
 357.855
  21
 877.592
  31
0.0
   0
ARC
   8
LEVEL010
   6
CONTINUOUS
  62
7
  10
 346.474
  20
 878.592
  30
0.0
  40
 1.00000
  50
 270.000
  51
0.0
   0
ARC
   8
LEVEL010
   6
CONTINUOUS
  62
7
  10
 345.474
  20
 886.793
  30
0.0
  40
 2.00000
  50
0.0
  51
 90.0000
   0
ARC
   8
LEVEL010
   6
CONTINUOUS
  62
7
  10
 348.474
  20
 878.592
  30
0.0
  40
 1.00000
  50
 180.000
  51
 270.000
   0
ARC
   8
LEVEL010
   6
CONTINUOUS
  62
7
  10
 349.474
  20
 886.793
  30
0.0
  40
 2.00000
  50
 90.0000
  51
 180.000
   0
LINE
   8
LEVEL010
   6
CONTINUOUS
  62
7
  10
 347.474
  20
 878.592
  30
0.0
  11
 347.474
  21
 886.793
  31
0.0
   0
LINE
   8
LEVEL010
   6
CONTINUOUS
  62
7
  10
 337.500
  20
 878.592
  30
0.0
  11
 337.500
  21
 886.793
  31
0.0
   0
ARC
   8
LEVEL001
   6
CONTINUOUS
  62
7
  10
 345.776
  20
 869.592
  30
0.0
  40
 2.00000
  50
 270.001
  51
 351.469
   0
LINE
   8
LEVEL001
   6
CONTINUOUS
  62
7
  10
 347.754
  20
 869.296
  30
0.0
  11
 348.615
  21
 875.038
  31
0.0
   0
LINE
   8
LEVEL001
   6
CONTINUOUS
  62
7
  10
 334.000
  20
 867.592
  30
0.0
  11
 345.776
  21
 867.592
  31
0.0
   0
ARC
   8
LEVEL001
   6
CONTINUOUS
  62
7
  10
 322.221
  20
 869.592
  30
0.0
  40
 2.00000
  50
 188.531
  51
 270.001
   0
LINE
   8
LEVEL001
   6
CONTINUOUS
  62
7
  10
 320.243
  20
 869.296
  30
0.0
  11
 319.382
  21
 875.038
  31
0.0
   0
LINE
   8
LEVEL001
   6
CONTINUOUS
  62
7
  10
 322.221
  20
 867.592
  30
0.0
  11
 334.000
  21
 867.592
  31
0.0
   0
LINE
   8
LEVEL001
   6
CONTINUOUS
  62
7
  10
 327.649
  20
 867.592
  30
0.0
  11
 327.649
  21
 859.000
  31
0.0
   0
LINE
   8
LEVEL001
   6
CONTINUOUS
  62
7
  10
 340.349
  20
 867.592
  30
0.0
  11
 340.349
  21
 859.000
  31
0.0
   0
LINE
   8
LEVEL003
   6
CONTINUOUS
  62
7
  10
 334.000
  20
 851.500
  30
0.0
  11
 334.000
  21
 857.973
  31
0.0
   0
LINE
   8
LEVEL003
   6
CONTINUOUS
  62
7
  10
 345.500
  20
 851.500
  30
0.0
  11
 345.500
  21
 859.000
  31
0.0
   0
LINE
   8
LEVEL003
   6
CONTINUOUS
  62
7
  10
 345.500
  20
 859.000
  30
0.0
  11
 322.500
  21
 859.000
  31
0.0
   0
LINE
   8
LEVEL003
   6
CONTINUOUS
  62
7
  10
 322.500
  20
 859.000
  30
0.0
  11
 322.500
  21
 851.500
  31
0.0
   0
LINE
   8
LEVEL001
   6
DOT
  62
3
  10
 302.000
  20
 808.331
  30
0.0
  11
 302.884
  21
 807.447
  31
0.0
   0
LINE
   8
LEVEL001
   6
DOT
  62
3
  10
 302.884
  20
 792.553
  30
0.0
  11
 302.000
  21
 791.669
  31
0.0
   0
LINE
   8
LEVEL001
   6
DOT
  62
3
  10
 302.000
  20
 808.331
  30
0.0
  11
 313.166
  21
 808.082
  31
0.0
   0
LINE
   8
LEVEL001
   6
DOT
  62
3
  10
 313.166
  20
 807.206
  30
0.0
  11
 302.884
  21
 807.447
  31
0.0
   0
LINE
   8
LEVEL001
   6
DOT
  62
3
  10
 302.884
  20
 807.447
  30
0.0
  11
 302.884
  21
 792.553
  31
0.0
   0
LINE
   8
LEVEL001
   6
DOT
  62
3
  10
 302.884
  20
 792.553
  30
0.0
  11
 313.166
  21
 792.794
  31
0.0
   0
LINE
   8
LEVEL001
   6
DOT
  62
3
  10
 302.000
  20
 791.669
  30
0.0
  11
 313.166
  21
 791.918
  31
0.0
   0
LINE
   8
LEVEL001
   6
CONTINUOUS
  62
7
  10
 302.000
  20
 760.500
  30
0.0
  11
 302.000
  21
 826.500
  31
0.0
   0
ARC
   8
LEVEL001
   6
CONTINUOUS
  62
7
  10
 307.000
  20
 801.500
  30
0.0
  40
 2.00000
  50
 90.0000
  51
 180.000
   0
LINE
   8
LEVEL001
   6
CONTINUOUS
  62
7
  10
 305.000
  20
 801.500
  30
0.0
  11
 305.000
  21
 798.500
  31
0.0
   0
ARC
   8
LEVEL001
   6
CONTINUOUS
  62
7
  10
 307.000
  20
 798.500
  30
0.0
  40
 2.00000
  50
 180.000
  51
 270.000
   0
LINE
   8
LEVEL001
   6
CONTINUOUS
  62
7
  10
 305.055
  20
 851.209
  30
0.0
  11
 303.327
  21
 826.500
  31
0.0
   0
ARC
   8
LEVEL001
   6
CONTINUOUS
  62
7
  10
 357.167
  20
 753.000
  30
0.0
  40
 2.00000
  50
 270.000
  51
 355.000
   0
ARC
   8
LEVEL001
   6
CONTINUOUS
  62
7
  10
 327.785
  20
 753.000
  30
0.0
  40
 2.00000
  50
 185.000
  51
 270.000
   0
LINE
   8
LEVEL001
   6
CONTINUOUS
  62
7
  10
 302.000
  20
 760.500
  30
0.0
  11
 325.122
  21
 760.500
  31
0.0
   0
ARC
   8
LEVEL001
   6
CONTINUOUS
  62
7
  10
 321.935
  20
 762.500
  30
0.0
  40
 3.00000
  50
 5.00000
  51
 90.0000
   0
LINE
   8
LEVEL001
   6
CONTINUOUS
  62
7
  10
 325.793
  20
 752.826
  30
0.0
  11
 324.924
  21
 762.761
  31
0.0
   0
LINE
   8
LEVEL001
   6
CONTINUOUS
  62
7
  10
 302.000
  20
 826.500
  30
0.0
  11
 305.542
  21
 826.500
  31
0.0
   0
ARC
   8
LEVEL001
   6
CONTINUOUS
  62
7
  10
 305.542
  20
 829.500
  30
0.0
  40
 3.00000
  50
 270.000
  51
 356.000
   0
ARC
   8
LEVEL001
   6
CONTINUOUS
  62
7
  10
 311.325
  20
 808.500
  30
0.0
  40
 5.00000
  50
 270.000
  51
 355.000
   0
ARC
   8
LEVEL001
   6
CONTINUOUS
  62
7
  10
 311.325
  20
 791.500
  30
0.0
  40
 5.00000
  50
 5.00000
  51
 90.0000
   0
ARC
   8
LEVEL001
   6
CONTINUOUS
  62
7
  10
 315.252
  20
 791.500
  30
0.0
  40
 5.00000
  50
 5.19443
  51
 90.0000
   0
ARC
   8
LEVEL001
   6
CONTINUOUS
  62
7
  10
 315.252
  20
 808.500
  30
0.0
  40
 5.00000
  50
 270.000
  51
 354.806
   0
ARC
   8
LEVEL001
   6
CONTINUOUS
  62
7
  10
 363.897
  20
 750.461
  30
0.0
  40
 5.00000
  50
 43.1339
  51
 136.375
   0
ARC
   8
LEVEL001
   6
CONTINUOUS
  62
7
  10
 369.833
  20
 754.000
  30
0.0
  40
 2.00000
  50
 192.063
  51
 270.000
   0
LINE
   8
LEVEL001
   6
CONTINUOUS
  62
7
  10
 370.250
  20
 752.000
  30
0.0
  11
 369.833
  21
 752.000
  31
0.0
   0
LINE
   8
LEVEL001
   6
CONTINUOUS
  62
7
  10
 382.898
  20
 750.685
  30
0.0
  11
 383.373
  21
 750.214
  31
0.0
   0
LINE
   8
LEVEL001
   6
CONTINUOUS
  62
7
  10
 383.373
  20
 750.214
  30
0.0
  11
 383.936
  21
 749.783
  31
0.0
   0
LINE
   8
LEVEL001
   6
CONTINUOUS
  62
7
  10
 383.936
  20
 749.783
  30
0.0
  11
 384.578
  21
 749.402
  31
0.0
   0
LINE
   8
LEVEL001
   6
CONTINUOUS
  62
7
  10
 384.578
  20
 749.402
  30
0.0
  11
 385.289
  21
 749.075
  31
0.0
   0
LINE
   8
LEVEL001
   6
CONTINUOUS
  62
7
  10
 385.289
  20
 749.075
  30
0.0
  11
 386.058
  21
 748.807
  31
0.0
   0
LINE
   8
LEVEL001
   6
CONTINUOUS
  62
7
  10
 386.058
  20
 748.807
  30
0.0
  11
 386.873
  21
 748.603
  31
0.0
   0
LINE
   8
LEVEL001
   6
CONTINUOUS
  62
7
  10
 386.873
  20
 748.603
  30
0.0
  11
 387.721
  21
 748.466
  31
0.0
   0
LINE
   8
LEVEL001
   6
CONTINUOUS
  62
7
  10
 387.721
  20
 748.466
  30
0.0
  11
 388.589
  21
 748.398
  31
0.0
   0
LINE
   8
LEVEL001
   6
CONTINUOUS
  62
7
  10
 388.589
  20
 748.398
  30
0.0
  11
 389.464
  21
 748.400
  31
0.0
   0
LINE
   8
LEVEL001
   6
CONTINUOUS
  62
7
  10
 389.464
  20
 748.400
  30
0.0
  11
 390.331
  21
 748.473
  31
0.0
   0
LINE
   8
LEVEL001
   6
CONTINUOUS
  62
7
  10
 390.331
  20
 748.473
  30
0.0
  11
 391.177
  21
 748.614
  31
0.0
   0
LINE
   8
LEVEL001
   6
CONTINUOUS
  62
7
  10
 391.177
  20
 748.614
  30
0.0
  11
 391.990
  21
 748.821
  31
0.0
   0
LINE
   8
LEVEL001
   6
CONTINUOUS
  62
7
  10
 391.990
  20
 748.821
  30
0.0
  11
 392.755
  21
 749.093
  31
0.0
   0
LINE
   8
LEVEL001
   6
CONTINUOUS
  62
7
  10
 392.755
  20
 749.093
  30
0.0
  11
 393.463
  21
 749.423
  31
0.0
   0
LINE
   8
LEVEL001
   6
CONTINUOUS
  62
7
  10
 393.463
  20
 749.423
  30
0.0
  11
 394.100
  21
 749.808
  31
0.0
   0
LINE
   8
LEVEL001
   6
CONTINUOUS
  62
7
  10
 394.100
  20
 749.808
  30
0.0
  11
 394.658
  21
 750.241
  31
0.0
   0
LINE
   8
LEVEL001
   6
CONTINUOUS
  62
7
  10
 394.658
  20
 750.241
  30
0.0
  11
 395.128
  21
 750.715
  31
0.0
   0
LINE
   8
LEVEL001
   6
CONTINUOUS
  62
7
  10
 395.128
  20
 750.715
  30
0.0
  11
 395.502
  21
 751.223
  31
0.0
   0
LINE
   8
LEVEL001
   6
CONTINUOUS
  62
7
  10
 395.502
  20
 751.223
  30
0.0
  11
 395.774
  21
 751.757
  31
0.0
   0
LINE
   8
LEVEL001
   6
CONTINUOUS
  62
7
  10
 395.774
  20
 751.757
  30
0.0
  11
 395.936
  21
 752.283
  31
0.0
   0
ARC
   8
LEVEL001
   6
CONTINUOUS
  62
7
  10
 380.864
  20
 748.385
  30
0.0
  40
 3.00000
  50
 48.5191
  51
 108.435
   0
LINE
   8
LEVEL001
   6
CONTINUOUS
  62
7
  10
 307.000
  20
 803.500
  30
0.0
  11
 315.252
  21
 803.500
  31
0.0
   0
LINE
   8
LEVEL001
   6
CONTINUOUS
  62
7
  10
 307.000
  20
 796.500
  30
0.0
  11
 315.252
  21
 796.500
  31
0.0
   0
ARC
   8
LEVEL001
   6
CONTINUOUS
  62
7
  10
 308.048
  20
 851.000
  30
0.0
  40
 3.00000
  50
 170.406
  51
 176.000
   0
ARC
   8
LEVEL001
   6
CONTINUOUS
  62
7
  10
 359.952
  20
 851.000
  30
0.0
  40
 3.00000
  50
 4.00000
  51
 9.59407
   0
LINE
   8
LEVEL001
   6
CONTINUOUS
  62
7
  10
 362.945
  20
 851.209
  30
0.0
  11
 363.470
  21
 843.707
  31
0.0
   0
LINE
   8
LEVEL001
   6
CONTINUOUS
  62
7
  10
 391.124
  20
 841.500
  30
0.0
  11
 396.000
  21
 841.500
  31
0.0
   0
LINE
   8
LEVEL001
   6
CONTINUOUS
  62
7
  10
 320.364
  20
 809.500
  30
0.0
  11
 320.232
  21
 808.047
  31
0.0
   0
LINE
   8
LEVEL001
   6
CONTINUOUS
  62
7
  10
 320.232
  20
 791.953
  30
0.0
  11
 320.364
  21
 790.500
  31
0.0
   0
LINE
   8
LEVEL001
   6
CONTINUOUS
  62
7
  10
 393.961
  20
 753.557
  30
0.0
  11
 393.886
  21
 753.870
  31
0.0
   0
LINE
   8
LEVEL001
   6
CONTINUOUS
  62
7
  10
 393.886
  20
 753.870
  30
0.0
  11
 393.749
  21
 754.169
  31
0.0
   0
LINE
   8
LEVEL001
   6
CONTINUOUS
  62
7
  10
 393.749
  20
 754.169
  30
0.0
  11
 393.555
  21
 754.451
  31
0.0
   0
LINE
   8
LEVEL001
   6
CONTINUOUS
  62
7
  10
 393.555
  20
 754.451
  30
0.0
  11
 393.305
  21
 754.709
  31
0.0
   0
LINE
   8
LEVEL001
   6
CONTINUOUS
  62
7
  10
 393.305
  20
 754.709
  30
0.0
  11
 393.003
  21
 754.941
  31
0.0
   0
LINE
   8
LEVEL001
   6
CONTINUOUS
  62
7
  10
 393.003
  20
 754.941
  30
0.0
  11
 392.654
  21
 755.143
  31
0.0
   0
LINE
   8
LEVEL001
   6
CONTINUOUS
  62
7
  10
 392.654
  20
 755.143
  30
0.0
  11
 392.264
  21
 755.311
  31
0.0
   0
LINE
   8
LEVEL001
   6
CONTINUOUS
  62
7
  10
 392.264
  20
 755.311
  30
0.0
  11
 391.839
  21
 755.443
  31
0.0
   0
LINE
   8
LEVEL001
   6
CONTINUOUS
  62
7
  10
 391.839
  20
 755.443
  30
0.0
  11
 391.385
  21
 755.537
  31
0.0
   0
LINE
   8
LEVEL001
   6
CONTINUOUS
  62
7
  10
 391.385
  20
 755.537
  30
0.0
  11
 390.909
  21
 755.592
  31
0.0
   0
LINE
   8
LEVEL001
   6
CONTINUOUS
  62
7
  10
 390.909
  20
 755.592
  30
0.0
  11
 390.420
  21
 755.606
  31
0.0
   0
LINE
   8
LEVEL001
   6
CONTINUOUS
  62
7
  10
 390.420
  20
 755.606
  30
0.0
  11
 389.923
  21
 755.579
  31
0.0
   0
LINE
   8
LEVEL001
   6
CONTINUOUS
  62
7
  10
 389.923
  20
 755.579
  30
0.0
  11
 389.428
  21
 755.512
  31
0.0
   0
LINE
   8
LEVEL001
   6
CONTINUOUS
  62
7
  10
 389.428
  20
 755.512
  30
0.0
  11
 388.942
  21
 755.406
  31
0.0
   0
LINE
   8
LEVEL001
   6
CONTINUOUS
  62
7
  10
 388.942
  20
 755.406
  30
0.0
  11
 388.472
  21
 755.262
  31
0.0
   0
LINE
   8
LEVEL001
   6
CONTINUOUS
  62
7
  10
 388.472
  20
 755.262
  30
0.0
  11
 388.026
  21
 755.084
  31
0.0
   0
LINE
   8
LEVEL001
   6
CONTINUOUS
  62
7
  10
 388.026
  20
 755.084
  30
0.0
  11
 387.611
  21
 754.872
  31
0.0
   0
LINE
   8
LEVEL001
   6
CONTINUOUS
  62
7
  10
 387.611
  20
 754.872
  30
0.0
  11
 387.233
  21
 754.631
  31
0.0
   0
LINE
   8
LEVEL001
   6
CONTINUOUS
  62
7
  10
 387.233
  20
 754.631
  30
0.0
  11
 386.899
  21
 754.365
  31
0.0
   0
LINE
   8
LEVEL001
   6
CONTINUOUS
  62
7
  10
 386.899
  20
 754.365
  30
0.0
  11
 386.612
  21
 754.078
  31
0.0
   0
LINE
   8
LEVEL001
   6
CONTINUOUS
  62
7
  10
 386.612
  20
 754.078
  30
0.0
  11
 386.379
  21
 753.774
  31
0.0
   0
LINE
   8
LEVEL001
   6
CONTINUOUS
  62
7
  10
 386.379
  20
 753.774
  30
0.0
  11
 386.202
  21
 753.457
  31
0.0
   0
LINE
   8
LEVEL001
   6
CONTINUOUS
  62
7
  10
 386.202
  20
 753.457
  30
0.0
  11
 386.085
  21
 753.134
  31
0.0
   0
LINE
   8
LEVEL001
   6
CONTINUOUS
  62
7
  10
 386.085
  20
 753.134
  30
0.0
  11
 386.028
  21
 752.808
  31
0.0
   0
LINE
   8
LEVEL001
   6
CONTINUOUS
  62
7
  10
 386.028
  20
 752.808
  30
0.0
  11
 386.034
  21
 752.486
  31
0.0
   0
LINE
   8
LEVEL001
   6
CONTINUOUS
  62
7
  10
 386.034
  20
 752.486
  30
0.0
  11
 386.101
  21
 752.171
  31
0.0
   0
LINE
   8
LEVEL001
   6
CONTINUOUS
  62
7
  10
 386.101
  20
 752.171
  30
0.0
  11
 386.229
  21
 751.869
  31
0.0
   0
LINE
   8
LEVEL001
   6
CONTINUOUS
  62
7
  10
 386.229
  20
 751.869
  30
0.0
  11
 386.416
  21
 751.586
  31
0.0
   0
LINE
   8
LEVEL001
   6
CONTINUOUS
  62
7
  10
 386.416
  20
 751.586
  30
0.0
  11
 386.659
  21
 751.324
  31
0.0
   0
LINE
   8
LEVEL001
   6
CONTINUOUS
  62
7
  10
 386.659
  20
 751.324
  30
0.0
  11
 386.954
  21
 751.088
  31
0.0
   0
LINE
   8
LEVEL001
   6
CONTINUOUS
  62
7
  10
 386.954
  20
 751.088
  30
0.0
  11
 387.297
  21
 750.882
  31
0.0
   0
LINE
   8
LEVEL001
   6
CONTINUOUS
  62
7
  10
 387.297
  20
 750.882
  30
0.0
  11
 387.682
  21
 750.709
  31
0.0
   0
LINE
   8
LEVEL001
   6
CONTINUOUS
  62
7
  10
 387.682
  20
 750.709
  30
0.0
  11
 388.103
  21
 750.572
  31
0.0
   0
LINE
   8
LEVEL001
   6
CONTINUOUS
  62
7
  10
 388.103
  20
 750.572
  30
0.0
  11
 388.553
  21
 750.473
  31
0.0
   0
LINE
   8
LEVEL001
   6
CONTINUOUS
  62
7
  10
 388.553
  20
 750.473
  30
0.0
  11
 389.026
  21
 750.413
  31
0.0
   0
LINE
   8
LEVEL001
   6
CONTINUOUS
  62
7
  10
 389.026
  20
 750.413
  30
0.0
  11
 389.515
  21
 750.394
  31
0.0
   0
LINE
   8
LEVEL001
   6
CONTINUOUS
  62
7
  10
 389.515
  20
 750.394
  30
0.0
  11
 390.011
  21
 750.415
  31
0.0
   0
LINE
   8
LEVEL001
   6
CONTINUOUS
  62
7
  10
 390.011
  20
 750.415
  30
0.0
  11
 390.507
  21
 750.477
  31
0.0
   0
LINE
   8
LEVEL001
   6
CONTINUOUS
  62
7
  10
 390.507
  20
 750.477
  30
0.0
  11
 390.994
  21
 750.578
  31
0.0
   0
LINE
   8
LEVEL001
   6
CONTINUOUS
  62
7
  10
 390.994
  20
 750.578
  30
0.0
  11
 391.467
  21
 750.716
  31
0.0
   0
LINE
   8
LEVEL001
   6
CONTINUOUS
  62
7
  10
 391.467
  20
 750.716
  30
0.0
  11
 391.916
  21
 750.891
  31
0.0
   0
LINE
   8
LEVEL001
   6
CONTINUOUS
  62
7
  10
 391.916
  20
 750.891
  30
0.0
  11
 392.336
  21
 751.098
  31
0.0
   0
LINE
   8
LEVEL001
   6
CONTINUOUS
  62
7
  10
 392.336
  20
 751.098
  30
0.0
  11
 392.719
  21
 751.335
  31
0.0
   0
LINE
   8
LEVEL001
   6
CONTINUOUS
  62
7
  10
 392.719
  20
 751.335
  30
0.0
  11
 393.060
  21
 751.598
  31
0.0
   0
LINE
   8
LEVEL001
   6
CONTINUOUS
  62
7
  10
 393.060
  20
 751.598
  30
0.0
  11
 393.352
  21
 751.883
  31
0.0
   0
LINE
   8
LEVEL001
   6
CONTINUOUS
  62
7
  10
 393.352
  20
 751.883
  30
0.0
  11
 393.593
  21
 752.185
  31
0.0
   0
LINE
   8
LEVEL001
   6
CONTINUOUS
  62
7
  10
 393.593
  20
 752.185
  30
0.0
  11
 393.778
  21
 752.500
  31
0.0
   0
LINE
   8
LEVEL001
   6
CONTINUOUS
  62
7
  10
 393.778
  20
 752.500
  30
0.0
  11
 393.903
  21
 752.823
  31
0.0
   0
LINE
   8
LEVEL001
   6
CONTINUOUS
  62
7
  10
 393.903
  20
 752.823
  30
0.0
  11
 393.968
  21
 753.149
  31
0.0
   0
LINE
   8
LEVEL001
   6
CONTINUOUS
  62
7
  10
 393.968
  20
 753.149
  30
0.0
  11
 393.971
  21
 753.472
  31
0.0
   0
LINE
   8
LEVEL001
   6
CONTINUOUS
  62
7
  10
 393.971
  20
 753.472
  30
0.0
  11
 393.961
  21
 753.557
  31
0.0
   0
LINE
   8
LEVEL001
   6
CONTINUOUS
  62
3
  10
 393.342
  20
 753.470
  30
0.0
  11
 393.278
  21
 753.734
  31
0.0
   0
LINE
   8
LEVEL001
   6
CONTINUOUS
  62
3
  10
 393.278
  20
 753.734
  30
0.0
  11
 393.164
  21
 753.987
  31
0.0
   0
LINE
   8
LEVEL001
   6
CONTINUOUS
  62
3
  10
 393.164
  20
 753.987
  30
0.0
  11
 392.999
  21
 754.224
  31
0.0
   0
LINE
   8
LEVEL001
   6
CONTINUOUS
  62
3
  10
 392.999
  20
 754.224
  30
0.0
  11
 392.788
  21
 754.442
  31
0.0
   0
LINE
   8
LEVEL001
   6
CONTINUOUS
  62
3
  10
 392.788
  20
 754.442
  30
0.0
  11
 392.534
  21
 754.638
  31
0.0
   0
LINE
   8
LEVEL001
   6
CONTINUOUS
  62
3
  10
 392.534
  20
 754.638
  30
0.0
  11
 392.240
  21
 754.808
  31
0.0
   0
LINE
   8
LEVEL001
   6
CONTINUOUS
  62
3
  10
 392.240
  20
 754.808
  30
0.0
  11
 391.911
  21
 754.950
  31
0.0
   0
LINE
   8
LEVEL001
   6
CONTINUOUS
  62
3
  10
 391.911
  20
 754.950
  30
0.0
  11
 391.552
  21
 755.062
  31
0.0
   0
LINE
   8
LEVEL001
   6
CONTINUOUS
  62
3
  10
 391.552
  20
 755.062
  30
0.0
  11
 391.169
  21
 755.141
  31
0.0
   0
LINE
   8
LEVEL001
   6
CONTINUOUS
  62
3
  10
 391.169
  20
 755.141
  30
0.0
  11
 390.767
  21
 755.187
  31
0.0
   0
LINE
   8
LEVEL001
   6
CONTINUOUS
  62
3
  10
 390.767
  20
 755.187
  30
0.0
  11
 390.354
  21
 755.199
  31
0.0
   0
LINE
   8
LEVEL001
   6
CONTINUOUS
  62
3
  10
 390.354
  20
 755.199
  30
0.0
  11
 389.935
  21
 755.176
  31
0.0
   0
LINE
   8
LEVEL001
   6
CONTINUOUS
  62
3
  10
 389.935
  20
 755.176
  30
0.0
  11
 389.517
  21
 755.120
  31
0.0
   0
LINE
   8
LEVEL001
   6
CONTINUOUS
  62
3
  10
 389.517
  20
 755.120
  30
0.0
  11
 389.107
  21
 755.030
  31
0.0
   0
LINE
   8
LEVEL001
   6
CONTINUOUS
  62
3
  10
 389.107
  20
 755.030
  30
0.0
  11
 388.711
  21
 754.909
  31
0.0
   0
LINE
   8
LEVEL001
   6
CONTINUOUS
  62
3
  10
 388.711
  20
 754.909
  30
0.0
  11
 388.335
  21
 754.758
  31
0.0
   0
LINE
   8
LEVEL001
   6
CONTINUOUS
  62
3
  10
 388.335
  20
 754.758
  30
0.0
  11
 387.984
  21
 754.580
  31
0.0
   0
LINE
   8
LEVEL001
   6
CONTINUOUS
  62
3
  10
 387.984
  20
 754.580
  30
0.0
  11
 387.666
  21
 754.376
  31
0.0
   0
LINE
   8
LEVEL001
   6
CONTINUOUS
  62
3
  10
 387.666
  20
 754.376
  30
0.0
  11
 387.383
  21
 754.152
  31
0.0
   0
LINE
   8
LEVEL001
   6
CONTINUOUS
  62
3
  10
 387.383
  20
 754.152
  30
0.0
  11
 387.142
  21
 753.909
  31
0.0
   0
LINE
   8
LEVEL001
   6
CONTINUOUS
  62
3
  10
 387.142
  20
 753.909
  30
0.0
  11
 386.945
  21
 753.653
  31
0.0
   0
LINE
   8
LEVEL001
   6
CONTINUOUS
  62
3
  10
 386.945
  20
 753.653
  30
0.0
  11
 386.796
  21
 753.386
  31
0.0
   0
LINE
   8
LEVEL001
   6
CONTINUOUS
  62
3
  10
 386.796
  20
 753.386
  30
0.0
  11
 386.696
  21
 753.113
  31
0.0
   0
LINE
   8
LEVEL001
   6
CONTINUOUS
  62
3
  10
 386.696
  20
 753.113
  30
0.0
  11
 386.649
  21
 752.838
  31
0.0
   0
LINE
   8
LEVEL001
   6
CONTINUOUS
  62
3
  10
 386.649
  20
 752.838
  30
0.0
  11
 386.653
  21
 752.566
  31
0.0
   0
LINE
   8
LEVEL001
   6
CONTINUOUS
  62
3
  10
 386.653
  20
 752.566
  30
0.0
  11
 386.710
  21
 752.301
  31
0.0
   0
LINE
   8
LEVEL001
   6
CONTINUOUS
  62
3
  10
 386.710
  20
 752.301
  30
0.0
  11
 386.818
  21
 752.046
  31
0.0
   0
LINE
   8
LEVEL001
   6
CONTINUOUS
  62
3
  10
 386.818
  20
 752.046
  30
0.0
  11
 386.976
  21
 751.807
  31
0.0
   0
LINE
   8
LEVEL001
   6
CONTINUOUS
  62
3
  10
 386.976
  20
 751.807
  30
0.0
  11
 387.181
  21
 751.586
  31
0.0
   0
LINE
   8
LEVEL001
   6
CONTINUOUS
  62
3
  10
 387.181
  20
 751.586
  30
0.0
  11
 387.430
  21
 751.387
  31
0.0
   0
LINE
   8
LEVEL001
   6
CONTINUOUS
  62
3
  10
 387.430
  20
 751.387
  30
0.0
  11
 387.719
  21
 751.213
  31
0.0
   0
LINE
   8
LEVEL001
   6
CONTINUOUS
  62
3
  10
 387.719
  20
 751.213
  30
0.0
  11
 388.044
  21
 751.067
  31
0.0
   0
LINE
   8
LEVEL001
   6
CONTINUOUS
  62
3
  10
 388.044
  20
 751.067
  30
0.0
  11
 388.399
  21
 750.951
  31
0.0
   0
LINE
   8
LEVEL001
   6
CONTINUOUS
  62
3
  10
 388.399
  20
 750.951
  30
0.0
  11
 388.779
  21
 750.868
  31
0.0
   0
LINE
   8
LEVEL001
   6
CONTINUOUS
  62
3
  10
 388.779
  20
 750.868
  30
0.0
  11
 389.179
  21
 750.817
  31
0.0
   0
LINE
   8
LEVEL001
   6
CONTINUOUS
  62
3
  10
 389.179
  20
 750.817
  30
0.0
  11
 389.591
  21
 750.801
  31
0.0
   0
LINE
   8
LEVEL001
   6
CONTINUOUS
  62
3
  10
 389.591
  20
 750.801
  30
0.0
  11
 390.009
  21
 750.819
  31
0.0
   0
LINE
   8
LEVEL001
   6
CONTINUOUS
  62
3
  10
 390.009
  20
 750.819
  30
0.0
  11
 390.427
  21
 750.871
  31
0.0
   0
LINE
   8
LEVEL001
   6
CONTINUOUS
  62
3
  10
 390.427
  20
 750.871
  30
0.0
  11
 390.839
  21
 750.956
  31
0.0
   0
LINE
   8
LEVEL001
   6
CONTINUOUS
  62
3
  10
 390.839
  20
 750.956
  30
0.0
  11
 391.238
  21
 751.073
  31
0.0
   0
LINE
   8
LEVEL001
   6
CONTINUOUS
  62
3
  10
 391.238
  20
 751.073
  30
0.0
  11
 391.617
  21
 751.220
  31
0.0
   0
LINE
   8
LEVEL001
   6
CONTINUOUS
  62
3
  10
 391.617
  20
 751.220
  30
0.0
  11
 391.971
  21
 751.395
  31
0.0
   0
LINE
   8
LEVEL001
   6
CONTINUOUS
  62
3
  10
 391.971
  20
 751.395
  30
0.0
  11
 392.294
  21
 751.595
  31
0.0
   0
LINE
   8
LEVEL001
   6
CONTINUOUS
  62
3
  10
 392.294
  20
 751.595
  30
0.0
  11
 392.582
  21
 751.817
  31
0.0
   0
LINE
   8
LEVEL001
   6
CONTINUOUS
  62
3
  10
 392.582
  20
 751.817
  30
0.0
  11
 392.829
  21
 752.058
  31
0.0
   0
LINE
   8
LEVEL001
   6
CONTINUOUS
  62
3
  10
 392.829
  20
 752.058
  30
0.0
  11
 393.032
  21
 752.313
  31
0.0
   0
LINE
   8
LEVEL001
   6
CONTINUOUS
  62
3
  10
 393.032
  20
 752.313
  30
0.0
  11
 393.187
  21
 752.578
  31
0.0
   0
LINE
   8
LEVEL001
   6
CONTINUOUS
  62
3
  10
 393.187
  20
 752.578
  30
0.0
  11
 393.293
  21
 752.851
  31
0.0
   0
LINE
   8
LEVEL001
   6
CONTINUOUS
  62
3
  10
 393.293
  20
 752.851
  30
0.0
  11
 393.348
  21
 753.125
  31
0.0
   0
LINE
   8
LEVEL001
   6
CONTINUOUS
  62
3
  10
 393.348
  20
 753.125
  30
0.0
  11
 393.350
  21
 753.398
  31
0.0
   0
LINE
   8
LEVEL001
   6
CONTINUOUS
  62
3
  10
 393.350
  20
 753.398
  30
0.0
  11
 393.342
  21
 753.470
  31
0.0
   0
LINE
   8
LEVEL001
   6
DASHDOT
  62
1
  10
 384.426
  20
 752.217
  30
0.0
  11
 395.434
  21
 753.764
  31
0.0
   0
LINE
   8
LEVEL003
   6
CONTINUOUS
  62
7
  10
 387.713
  20
 752.679
  30
0.0
  11
 388.675
  21
 754.130
  31
0.0
   0
LINE
   8
LEVEL003
   6
CONTINUOUS
  62
7
  10
 388.675
  20
 754.130
  30
0.0
  11
 390.962
  21
 754.452
  31
0.0
   0
LINE
   8
LEVEL003
   6
CONTINUOUS
  62
7
  10
 390.962
  20
 754.452
  30
0.0
  11
 392.287
  21
 753.321
  31
0.0
   0
LINE
   8
LEVEL003
   6
CONTINUOUS
  62
7
  10
 392.287
  20
 753.321
  30
0.0
  11
 391.325
  21
 751.870
  31
0.0
   0
LINE
   8
LEVEL003
   6
CONTINUOUS
  62
7
  10
 391.325
  20
 751.870
  30
0.0
  11
 389.038
  21
 751.548
  31
0.0
   0
LINE
   8
LEVEL003
   6
CONTINUOUS
  62
7
  10
 389.038
  20
 751.548
  30
0.0
  11
 387.713
  21
 752.679
  31
0.0
   0
LINE
   8
LEVEL001
   6
DASHDOT
  62
1
  10
 389.328
  20
 757.779
  30
0.0
  11
 390.625
  21
 748.556
  31
0.0
   0
ARC
   8
LEVEL001
   6
CONTINUOUS
  62
7
  10
 311.143
  20
 886.817
  30
0.0
  40
 2.00000
  50
 98.8840
  51
 180.000
   0
LINE
   8
LEVEL001
   6
CONTINUOUS
  62
7
  10
 316.707
  20
 889.592
  30
0.0
  11
 351.290
  21
 889.592
  31
0.0
   0
ARC
   8
LEVEL001
   6
CONTINUOUS
  62
7
  10
 333.999
  20
 740.593
  30
0.0
  40
 150.000
  50
 96.6196
  51
 98.8839
   0
LINE
   8
LEVEL010
   6
CONTINUOUS
  62
7
  10
 330.500
  20
 889.592
  30
0.0
  11
 322.329
  21
 888.783
  31
0.0
   0
LINE
   8
LEVEL010
   6
CONTINUOUS
  62
7
  10
 318.526
  20
 888.793
  30
0.0
  11
 313.025
  21
 888.793
  31
0.0
   0
ARC
   8
LEVEL001
   6
CONTINUOUS
  62
7
  10
 334.000
  20
 740.592
  30
0.0
  40
 150.000
  50
 80.9510
  51
 99.0490
   0
ARC
   8
LEVEL001
   6
CONTINUOUS
  62
7
  10
 333.999
  20
 740.592
  30
0.0
  40
 150.000
  50
 81.1161
  51
 83.3804
   0
LINE
   8
LEVEL010
   6
CONTINUOUS
  62
7
  10
 349.474
  20
 888.793
  30
0.0
  11
 354.975
  21
 888.793
  31
0.0
   0
LINE
   8
LEVEL010
   6
CONTINUOUS
  62
7
  10
 337.500
  20
 889.592
  30
0.0
  11
 345.671
  21
 888.783
  31
0.0
   0
ARC
   8
LEVEL001
   6
CONTINUOUS
  62
7
  10
 356.855
  20
 886.817
  30
0.0
  40
 2.00000
  50
0.0
  51
 81.1169
   0
LINE
   8
LEVEL001
   6
CONTINUOUS
  62
7
  10
 354.000
  20
 818.750
  30
0.0
  11
 355.000
  21
 819.750
  31
0.0
   0
LINE
   8
LEVEL001
   6
CONTINUOUS
  62
7
  10
 355.000
  20
 819.750
  30
0.0
  11
 363.000
  21
 819.750
  31
0.0
   0
LINE
   8
LEVEL001
   6
CONTINUOUS
  62
7
  10
 354.000
  20
 818.750
  30
0.0
  11
 364.000
  21
 818.750
  31
0.0
   0
LINE
   8
LEVEL001
   6
CONTINUOUS
  62
7
  10
 364.000
  20
 818.750
  30
0.0
  11
 363.000
  21
 819.750
  31
0.0
   0
LINE
   8
LEVEL001
   6
CONTINUOUS
  62
7
  10
 354.000
  20
 781.250
  30
0.0
  11
 355.000
  21
 780.250
  31
0.0
   0
LINE
   8
LEVEL001
   6
CONTINUOUS
  62
7
  10
 355.000
  20
 780.250
  30
0.0
  11
 363.000
  21
 780.250
  31
0.0
   0
LINE
   8
LEVEL001
   6
CONTINUOUS
  62
7
  10
 354.000
  20
 781.250
  30
0.0
  11
 364.000
  21
 781.250
  31
0.0
   0
LINE
   8
LEVEL001
   6
CONTINUOUS
  62
7
  10
 364.000
  20
 781.250
  30
0.0
  11
 364.000
  21
 781.500
  31
0.0
   0
LINE
   8
LEVEL001
   6
CONTINUOUS
  62
7
  10
 364.000
  20
 781.250
  30
0.0
  11
 363.000
  21
 780.250
  31
0.0
   0
LINE
   8
LEVEL001
   6
CONTINUOUS
  62
7
  10
 354.000
  20
 781.250
  30
0.0
  11
 354.000
  21
 781.500
  31
0.0
   0
LINE
   8
LEVEL001
   6
CONTINUOUS
  62
7
  10
 340.081
  20
 820.200
  30
0.0
  11
 339.923
  21
 818.393
  31
0.0
   0
LINE
   8
LEVEL001
   6
CONTINUOUS
  62
7
  10
 340.046
  20
 760.754
  30
0.0
  11
 338.695
  21
 776.195
  31
0.0
   0
LINE
   8
LEVEL001
   6
CONTINUOUS
  62
7
  10
 354.000
  20
 818.750
  30
0.0
  11
 354.000
  21
 818.500
  31
0.0
   0
LINE
   8
LEVEL001
   6
CONTINUOUS
  62
7
  10
 364.000
  20
 818.750
  30
0.0
  11
 364.000
  21
 818.500
  31
0.0
   0
ARC
   8
LEVEL001
   6
CONTINUOUS
  62
7
  10
 359.000
  20
 800.000
  30
0.0
  40
 20.0000
  50
 260.931
  51
 279.069
   0
ARC
   8
LEVEL001
   6
CONTINUOUS
  62
7
  10
 359.000
  20
 800.000
  30
0.0
  40
 20.0000
  50
 80.9313
  51
 99.0687
   0
ARC
   8
LEVEL001
   6
CONTINUOUS
  62
7
  10
 359.000
  20
 800.000
  30
0.0
  40
 26.5000
  50
 224.276
  51
 229.664
   0
LINE
   8
LEVEL001
   6
CONTINUOUS
  62
7
  10
 316.306
  20
 791.936
  30
0.0
  11
 316.431
  21
 790.500
  31
0.0
   0
LINE
   8
LEVEL001
   6
CONTINUOUS
  62
7
  10
 316.306
  20
 808.064
  30
0.0
  11
 316.431
  21
 809.500
  31
0.0
   0
ARC
   8
LEVEL001
   6
CONTINUOUS
  62
7
  10
 359.000
  20
 800.000
  30
0.0
  40
 20.0000
  50
 102.108
  51
 112.332
   0
ARC
   8
LEVEL001
   6
CONTINUOUS
  62
7
  10
 359.000
  20
 800.000
  30
0.0
  40
 20.0000
  50
 247.668
  51
 257.892
   0
ARC
   8
LEVEL001
   6
CONTINUOUS
  62
7
  10
 359.000
  20
 800.000
  30
0.0
  40
 26.5000
  50
 130.336
  51
 135.724
   0
LINE
   8
LEVEL001
   6
CONTINUOUS
  62
7
  10
 390.000
  20
 832.509
  30
0.0
  11
 390.000
  21
 816.500
  31
0.0
   0
LINE
   8
LEVEL001
   6
CONTINUOUS
  62
7
  10
 389.890
  20
 783.500
  30
0.0
  11
 387.962
  21
 760.916
  31
0.0
   0
ARC
   8
LEVEL001
   6
CONTINUOUS
  62
7
  10
 359.000
  20
 800.000
  30
0.0
  40
 20.0000
  50
 282.107
  51
 292.332
   0
ARC
   8
LEVEL001
   6
CONTINUOUS
  62
7
  10
 359.000
  20
 800.000
  30
0.0
  40
 20.0000
  50
 67.6684
  51
 77.8932
   0
LINE
   8
LEVEL001
   6
CONTINUOUS
  62
7
  10
 396.000
  20
 816.500
  30
0.0
  11
 396.000
  21
 841.500
  31
0.0
   0
LINE
   8
LEVEL001
   6
CONTINUOUS
  62
7
  10
 396.000
  20
 783.500
  30
0.0
  11
 396.000
  21
 752.283
  31
0.0
   0
ARC
   8
LEVEL001
   6
CONTINUOUS
  62
7
  10
 316.385
  20
 821.000
  30
0.0
  40
 0.800000
  50
 90.0000
  51
 270.000
   0
LINE
   8
LEVEL001
   6
CONTINUOUS
  62
7
  10
 316.385
  20
 820.200
  30
0.0
  11
 343.297
  21
 820.200
  31
0.0
   0
LINE
   8
LEVEL001
   6
DASHDOT
  62
1
  10
 314.842
  20
 821.000
  30
0.0
  11
 344.214
  21
 821.000
  31
0.0
   0
LINE
   8
LEVEL001
   6
CONTINUOUS
  62
7
  10
 325.000
  20
 820.200
  30
0.0
  11
 325.000
  21
 818.500
  31
0.0
   0
LINE
   8
LEVEL010
   6
CONTINUOUS
  62
7
  10
 314.772
  20
 818.500
  30
0.0
  11
 369.000
  21
 818.500
  31
0.0
   0
ARC
   8
LEVEL010
   6
CONTINUOUS
  62
7
  10
 312.772
  20
 818.500
  30
0.0
  40
 2.00000
  50
 270.000
  51
 0.462478E-9
   0
ARC
   8
LEVEL010
   6
CONTINUOUS
  62
7
  10
 311.809
  20
 814.500
  30
0.0
  40
 2.00000
  50
 90.0000
  51
 180.000
   0
LINE
   8
LEVEL010
   6
CONTINUOUS
  62
7
  10
 489.000
  20
 816.500
  30
0.0
  11
 311.809
  21
 816.500
  31
0.0
   0
LINE
   8
LEVEL010
   6
CONTINUOUS
  62
7
  10
 309.809
  20
 814.500
  30
0.0
  11
 309.809
  21
 809.500
  31
0.0
   0
LINE
   8
LEVEL001
   6
CONTINUOUS
  62
7
  10
 325.000
  20
 823.500
  30
0.0
  11
 326.000
  21
 824.500
  31
0.0
   0
LINE
   8
LEVEL001
   6
CONTINUOUS
  62
7
  10
 326.000
  20
 824.500
  30
0.0
  11
 334.000
  21
 824.500
  31
0.0
   0
LINE
   8
LEVEL001
   6
CONTINUOUS
  62
7
  10
 325.000
  20
 823.500
  30
0.0
  11
 335.000
  21
 823.500
  31
0.0
   0
LINE
   8
LEVEL001
   6
CONTINUOUS
  62
7
  10
 316.385
  20
 821.800
  30
0.0
  11
 343.297
  21
 821.800
  31
0.0
   0
LINE
   8
LEVEL001
   6
CONTINUOUS
  62
7
  10
 325.000
  20
 823.500
  30
0.0
  11
 325.000
  21
 821.800
  31
0.0
   0
LINE
   8
LEVEL001
   6
CONTINUOUS
  62
7
  10
 335.000
  20
 821.800
  30
0.0
  11
 335.000
  21
 823.500
  31
0.0
   0
LINE
   8
LEVEL001
   6
CONTINUOUS
  62
7
  10
 335.000
  20
 818.500
  30
0.0
  11
 335.000
  21
 820.200
  31
0.0
   0
LINE
   8
LEVEL001
   6
CONTINUOUS
  62
7
  10
 334.000
  20
 824.500
  30
0.0
  11
 335.000
  21
 823.500
  31
0.0
   0
LINE
   8
LEVEL001
   6
CONTINUOUS
  62
7
  10
 343.297
  20
 821.800
  30
0.0
  11
 343.297
  21
 820.200
  31
0.0
   0
ARC
   8
LEVEL001
   6
CONTINUOUS
  62
7
  10
 341.114
  20
 821.000
  30
0.0
  40
 0.800000
  50
 270.000
  51
 90.0000
   0
LINE
   8
LEVEL001
   6
CONTINUOUS
  62
7
  10
 325.000
  20
 776.500
  30
0.0
  11
 326.000
  21
 775.500
  31
0.0
   0
LINE
   8
LEVEL001
   6
CONTINUOUS
  62
7
  10
 326.000
  20
 775.500
  30
0.0
  11
 334.000
  21
 775.500
  31
0.0
   0
LINE
   8
LEVEL001
   6
CONTINUOUS
  62
7
  10
 325.000
  20
 776.500
  30
0.0
  11
 335.000
  21
 776.500
  31
0.0
   0
LINE
   8
LEVEL001
   6
CONTINUOUS
  62
7
  10
 316.385
  20
 778.200
  30
0.0
  11
 343.297
  21
 778.200
  31
0.0
   0
LINE
   8
LEVEL001
   6
CONTINUOUS
  62
7
  10
 316.385
  20
 779.800
  30
0.0
  11
 343.297
  21
 779.800
  31
0.0
   0
LINE
   8
LEVEL001
   6
CONTINUOUS
  62
7
  10
 325.000
  20
 776.500
  30
0.0
  11
 325.000
  21
 778.200
  31
0.0
   0
LINE
   8
LEVEL001
   6
CONTINUOUS
  62
7
  10
 325.000
  20
 779.800
  30
0.0
  11
 325.000
  21
 781.500
  31
0.0
   0
LINE
   8
LEVEL001
   6
CONTINUOUS
  62
7
  10
 334.000
  20
 775.500
  30
0.0
  11
 335.000
  21
 776.500
  31
0.0
   0
LINE
   8
LEVEL010
   6
CONTINUOUS
  62
7
  10
 314.772
  20
 781.500
  30
0.0
  11
 369.000
  21
 781.500
  31
0.0
   0
LINE
   8
LEVEL010
   6
CONTINUOUS
  62
7
  10
 489.000
  20
 783.500
  30
0.0
  11
 311.809
  21
 783.500
  31
0.0
   0
ARC
   8
LEVEL010
   6
CONTINUOUS
  62
7
  10
 328.000
  20
 807.500
  30
0.0
  40
 2.00000
  50
0.0
  51
 90.0000
   0
LINE
   8
LEVEL001
   6
CONTINUOUS
  62
7
  10
 309.809
  20
 809.500
  30
0.0
  11
 328.000
  21
 809.500
  31
0.0
   0
ARC
   8
LEVEL010
   6
CONTINUOUS
  62
7
  10
 328.000
  20
 792.500
  30
0.0
  40
 2.00000
  50
 270.000
  51
0.0
   0
LINE
   8
LEVEL010
   6
CONTINUOUS
  62
7
  10
 330.000
  20
 792.500
  30
0.0
  11
 330.000
  21
 807.500
  31
0.0
   0
LINE
   8
LEVEL001
   6
CONTINUOUS
  62
7
  10
 309.809
  20
 790.500
  30
0.0
  11
 328.000
  21
 790.500
  31
0.0
   0
LINE
   8
LEVEL001
   6
DASHDOT
  62
1
  10
 314.842
  20
 779.000
  30
0.0
  11
 344.214
  21
 779.000
  31
0.0
   0
ARC
   8
LEVEL001
   6
CONTINUOUS
  62
7
  10
 316.385
  20
 779.000
  30
0.0
  40
 0.800000
  50
 90.0000
  51
 270.000
   0
ARC
   8
LEVEL010
   6
CONTINUOUS
  62
7
  10
 312.772
  20
 781.500
  30
0.0
  40
 2.00000
  50
0.0
  51
 90.0000
   0
ARC
   8
LEVEL010
   6
CONTINUOUS
  62
7
  10
 311.809
  20
 785.500
  30
0.0
  40
 2.00000
  50
 180.000
  51
 270.000
   0
LINE
   8
LEVEL010
   6
CONTINUOUS
  62
7
  10
 309.809
  20
 790.500
  30
0.0
  11
 309.809
  21
 785.500
  31
0.0
   0
LINE
   8
LEVEL001
   6
CONTINUOUS
  62
7
  10
 335.000
  20
 778.200
  30
0.0
  11
 335.000
  21
 776.500
  31
0.0
   0
LINE
   8
LEVEL001
   6
CONTINUOUS
  62
7
  10
 335.000
  20
 781.500
  30
0.0
  11
 335.000
  21
 779.800
  31
0.0
   0
LINE
   8
LEVEL001
   6
CONTINUOUS
  62
7
  10
 343.297
  20
 778.200
  30
0.0
  11
 343.297
  21
 779.800
  31
0.0
   0
ARC
   8
LEVEL001
   6
CONTINUOUS
  62
7
  10
 341.114
  20
 779.000
  30
0.0
  40
 0.800000
  50
 270.000
  51
 90.0000
   0
ARC
   8
LEVEL010
   6
CONTINUOUS
  62
7
  10
 371.000
  20
 818.500
  30
0.0
  40
 2.00000
  50
 180.000
  51
 270.000
   0
LINE
   8
LEVEL001
   6
CONTINUOUS
  62
7
  10
 380.402
  20
 810.000
  30
0.0
  11
 381.000
  21
 810.000
  31
0.0
   0
LINE
   8
LEVEL001
   6
CONTINUOUS
  62
7
  10
 380.402
  20
 790.000
  30
0.0
  11
 381.000
  21
 790.000
  31
0.0
   0
LINE
   8
LEVEL010
   6
CONTINUOUS
  62
7
  10
 357.958
  20
 794.091
  30
0.0
  11
 396.952
  21
 787.215
  31
0.0
   0
LINE
   8
LEVEL010
   6
CONTINUOUS
  62
7
  10
 357.958
  20
 805.909
  30
0.0
  11
 396.952
  21
 812.785
  31
0.0
   0
ARC
   8
LEVEL010
   6
CONTINUOUS
  62
7
  10
 359.000
  20
 800.000
  30
0.0
  40
 6.00000
  50
 100.002
  51
 259.998
   0
CIRCLE
   8
LEVEL010
   6
CONTINUOUS
  62
7
  10
 409.000
  20
 800.000
  30
0.0
  40
 11.0000
   0
ARC
   8
LEVEL010
   6
CONTINUOUS
  62
7
  10
 395.215
  20
 822.633
  30
0.0
  40
 10.0000
  50
 279.999
  51
 301.343
   0
ARC
   8
LEVEL010
   6
CONTINUOUS
  62
7
  10
 395.215
  20
 777.367
  30
0.0
  40
 10.0000
  50
 58.6556
  51
 79.9993
   0
ARC
   8
LEVEL010
   6
CONTINUOUS
  62
7
  10
 431.500
  20
 786.000
  30
0.0
  40
 10.0000
  50
 89.9998
  51
 148.109
   0
ARC
   8
LEVEL010
   6
CONTINUOUS
  62
7
  10
 431.500
  20
 814.000
  30
0.0
  40
 10.0000
  50
 211.891
  51
 270.000
   0
ARC
   8
LEVEL010
   6
CONTINUOUS
  62
7
  10
 409.000
  20
 800.000
  30
0.0
  40
 16.5000
  50
 238.656
  51
 328.109
   0
ARC
   8
LEVEL010
   6
CONTINUOUS
  62
7
  10
 409.000
  20
 800.000
  30
0.0
  40
 16.5000
  50
 31.8909
  51
 121.344
   0
ARC
   8
LEVEL010
   6
CONTINUOUS
  62
7
  10
 371.000
  20
 781.500
  30
0.0
  40
 2.00000
  50
 90.0000
  51
 180.000
   0
LINE
   8
LEVEL010
   6
CONTINUOUS
  62
7
  10
 431.500
  20
 804.000
  30
0.0
  11
 494.000
  21
 804.000
  31
0.0
   0
LINE
   8
LEVEL010
   6
CONTINUOUS
  62
7
  10
 431.500
  20
 796.000
  30
0.0
  11
 494.000
  21
 796.000
  31
0.0
   0
ARC
   8
LEVEL010
   6
CONTINUOUS
  62
7
  10
 497.000
  20
 815.500
  30
0.0
  40
 2.00000
  50
0.0
  51
 90.0000
   0
LINE
   8
LEVEL010
   6
CONTINUOUS
  62
7
  10
 497.000
  20
 817.500
  30
0.0
  11
 489.000
  21
 817.500
  31
0.0
   0
LINE
   8
LEVEL010
   6
CONTINUOUS
  62
7
  10
 489.000
  20
 817.500
  30
0.0
  11
 489.000
  21
 804.000
  31
0.0
   0
ARC
   8
LEVEL010
   6
CONTINUOUS
  62
7
  10
 497.000
  20
 784.500
  30
0.0
  40
 2.00000
  50
 270.000
  51
0.0
   0
LINE
   8
LEVEL010
   6
CONTINUOUS
  62
7
  10
 489.000
  20
 796.000
  30
0.0
  11
 489.000
  21
 782.500
  31
0.0
   0
LINE
   8
LEVEL010
   6
CONTINUOUS
  62
7
  10
 489.000
  20
 782.500
  30
0.0
  11
 497.000
  21
 782.500
  31
0.0
   0
LINE
   8
LEVEL010
   6
CONTINUOUS
  62
7
  10
 499.000
  20
 784.500
  30
0.0
  11
 499.000
  21
 815.500
  31
0.0
   0
LINE
   8
LEVEL010
   6
DASHDOT
  62
1
  10
 409.000
  20
 785.000
  30
0.0
  11
 409.000
  21
 815.000
  31
0.0
   0
LINE
   8
LEVEL001
   6
DASHDOT
  62
1
  10
 330.000
  20
 829.133
  30
0.0
  11
 330.000
  21
 769.782
  31
0.0
   0
ARC
   8
LEVEL001
   6
CONTINUOUS
  62
7
  10
 359.000
  20
 800.000
  30
0.0
  40
 26.5000
  50
 38.5093
  51
 126.341
   0
ARC
   8
LEVEL001
   6
CONTINUOUS
  62
7
  10
 359.000
  20
 800.000
  30
0.0
  40
 25.5000
  50
 40.3202
  51
 133.490
   0
ARC
   8
LEVEL001
   6
CONTINUOUS
  62
7
  10
 359.000
  20
 800.000
  30
0.0
  40
 25.5000
  50
 226.510
  51
 319.680
   0
ARC
   8
LEVEL001
   6
CONTINUOUS
  62
7
  10
 359.000
  20
 800.000
  30
0.0
  40
 26.5000
  50
 233.659
  51
 321.491
   0
LINE
   8
LEVEL003
   6
CONTINUOUS
  62
7
  10
 360.000
  20
 758.078
  30
0.0
  11
 359.938
  21
 759.006
  31
0.0
   0
LINE
   8
LEVEL003
   6
CONTINUOUS
  62
7
  10
 359.938
  20
 759.006
  30
0.0
  11
 359.751
  21
 759.919
  31
0.0
   0
LINE
   8
LEVEL003
   6
CONTINUOUS
  62
7
  10
 359.751
  20
 759.919
  30
0.0
  11
 359.444
  21
 760.804
  31
0.0
   0
LINE
   8
LEVEL003
   6
CONTINUOUS
  62
7
  10
 359.444
  20
 760.804
  30
0.0
  11
 359.021
  21
 761.646
  31
0.0
   0
LINE
   8
LEVEL003
   6
CONTINUOUS
  62
7
  10
 359.021
  20
 761.646
  30
0.0
  11
 358.488
  21
 762.433
  31
0.0
   0
LINE
   8
LEVEL003
   6
CONTINUOUS
  62
7
  10
 358.488
  20
 762.433
  30
0.0
  11
 357.854
  21
 763.151
  31
0.0
   0
LINE
   8
LEVEL003
   6
CONTINUOUS
  62
7
  10
 357.854
  20
 763.151
  30
0.0
  11
 357.128
  21
 763.791
  31
0.0
   0
LINE
   8
LEVEL003
   6
CONTINUOUS
  62
7
  10
 357.128
  20
 763.791
  30
0.0
  11
 356.322
  21
 764.341
  31
0.0
   0
LINE
   8
LEVEL003
   6
CONTINUOUS
  62
7
  10
 356.322
  20
 764.341
  30
0.0
  11
 355.449
  21
 764.794
  31
0.0
   0
LINE
   8
LEVEL003
   6
CONTINUOUS
  62
7
  10
 355.449
  20
 764.794
  30
0.0
  11
 354.523
  21
 765.141
  31
0.0
   0
LINE
   8
LEVEL003
   6
CONTINUOUS
  62
7
  10
 354.523
  20
 765.141
  30
0.0
  11
 353.556
  21
 765.379
  31
0.0
   0
LINE
   8
LEVEL003
   6
CONTINUOUS
  62
7
  10
 353.556
  20
 765.379
  30
0.0
  11
 352.566
  21
 765.503
  31
0.0
   0
LINE
   8
LEVEL003
   6
CONTINUOUS
  62
7
  10
 352.566
  20
 765.503
  30
0.0
  11
 351.567
  21
 765.510
  31
0.0
   0
LINE
   8
LEVEL003
   6
CONTINUOUS
  62
7
  10
 351.567
  20
 765.510
  30
0.0
  11
 350.574
  21
 765.402
  31
0.0
   0
LINE
   8
LEVEL003
   6
CONTINUOUS
  62
7
  10
 350.574
  20
 765.402
  30
0.0
  11
 349.604
  21
 765.179
  31
0.0
   0
LINE
   8
LEVEL003
   6
CONTINUOUS
  62
7
  10
 349.604
  20
 765.179
  30
0.0
  11
 348.671
  21
 764.846
  31
0.0
   0
LINE
   8
LEVEL003
   6
CONTINUOUS
  62
7
  10
 348.671
  20
 764.846
  30
0.0
  11
 347.790
  21
 764.407
  31
0.0
   0
LINE
   8
LEVEL003
   6
CONTINUOUS
  62
7
  10
 347.790
  20
 764.407
  30
0.0
  11
 346.975
  21
 763.869
  31
0.0
   0
LINE
   8
LEVEL003
   6
CONTINUOUS
  62
7
  10
 346.975
  20
 763.869
  30
0.0
  11
 346.238
  21
 763.241
  31
0.0
   0
LINE
   8
LEVEL003
   6
CONTINUOUS
  62
7
  10
 346.238
  20
 763.241
  30
0.0
  11
 345.591
  21
 762.532
  31
0.0
   0
LINE
   8
LEVEL003
   6
CONTINUOUS
  62
7
  10
 345.591
  20
 762.532
  30
0.0
  11
 345.044
  21
 761.754
  31
0.0
   0
LINE
   8
LEVEL003
   6
CONTINUOUS
  62
7
  10
 345.044
  20
 761.754
  30
0.0
  11
 344.606
  21
 760.919
  31
0.0
   0
LINE
   8
LEVEL003
   6
CONTINUOUS
  62
7
  10
 344.606
  20
 760.919
  30
0.0
  11
 344.283
  21
 760.039
  31
0.0
   0
LINE
   8
LEVEL003
   6
CONTINUOUS
  62
7
  10
 344.283
  20
 760.039
  30
0.0
  11
 344.080
  21
 759.128
  31
0.0
   0
LINE
   8
LEVEL003
   6
CONTINUOUS
  62
7
  10
 344.080
  20
 759.128
  30
0.0
  11
 344.001
  21
 758.201
  31
0.0
   0
LINE
   8
LEVEL003
   6
CONTINUOUS
  62
7
  10
 344.001
  20
 758.201
  30
0.0
  11
 344.047
  21
 757.272
  31
0.0
   0
LINE
   8
LEVEL003
   6
CONTINUOUS
  62
7
  10
 344.047
  20
 757.272
  30
0.0
  11
 344.217
  21
 756.356
  31
0.0
   0
LINE
   8
LEVEL003
   6
CONTINUOUS
  62
7
  10
 344.217
  20
 756.356
  30
0.0
  11
 344.508
  21
 755.467
  31
0.0
   0
LINE
   8
LEVEL003
   6
CONTINUOUS
  62
7
  10
 344.508
  20
 755.467
  30
0.0
  11
 344.917
  21
 754.618
  31
0.0
   0
LINE
   8
LEVEL003
   6
CONTINUOUS
  62
7
  10
 344.917
  20
 754.618
  30
0.0
  11
 345.436
  21
 753.823
  31
0.0
   0
LINE
   8
LEVEL003
   6
CONTINUOUS
  62
7
  10
 345.436
  20
 753.823
  30
0.0
  11
 346.057
  21
 753.095
  31
0.0
   0
LINE
   8
LEVEL003
   6
CONTINUOUS
  62
7
  10
 346.057
  20
 753.095
  30
0.0
  11
 346.771
  21
 752.445
  31
0.0
   0
LINE
   8
LEVEL003
   6
CONTINUOUS
  62
7
  10
 346.771
  20
 752.445
  30
0.0
  11
 347.566
  21
 751.882
  31
0.0
   0
LINE
   8
LEVEL003
   6
CONTINUOUS
  62
7
  10
 347.566
  20
 751.882
  30
0.0
  11
 348.431
  21
 751.416
  31
0.0
   0
LINE
   8
LEVEL003
   6
CONTINUOUS
  62
7
  10
 348.431
  20
 751.416
  30
0.0
  11
 349.352
  21
 751.054
  31
0.0
   0
LINE
   8
LEVEL003
   6
CONTINUOUS
  62
7
  10
 349.352
  20
 751.054
  30
0.0
  11
 350.314
  21
 750.802
  31
0.0
   0
LINE
   8
LEVEL003
   6
CONTINUOUS
  62
7
  10
 350.314
  20
 750.802
  30
0.0
  11
 351.302
  21
 750.663
  31
0.0
   0
LINE
   8
LEVEL003
   6
CONTINUOUS
  62
7
  10
 351.302
  20
 750.663
  30
0.0
  11
 352.301
  21
 750.640
  31
0.0
   0
LINE
   8
LEVEL003
   6
CONTINUOUS
  62
7
  10
 352.301
  20
 750.640
  30
0.0
  11
 353.295
  21
 750.733
  31
0.0
   0
LINE
   8
LEVEL003
   6
CONTINUOUS
  62
7
  10
 353.295
  20
 750.733
  30
0.0
  11
 354.269
  21
 750.940
  31
0.0
   0
LINE
   8
LEVEL003
   6
CONTINUOUS
  62
7
  10
 354.269
  20
 750.940
  30
0.0
  11
 355.208
  21
 751.259
  31
0.0
   0
LINE
   8
LEVEL003
   6
CONTINUOUS
  62
7
  10
 355.208
  20
 751.259
  30
0.0
  11
 356.097
  21
 751.684
  31
0.0
   0
LINE
   8
LEVEL003
   6
CONTINUOUS
  62
7
  10
 356.097
  20
 751.684
  30
0.0
  11
 356.921
  21
 752.210
  31
0.0
   0
LINE
   8
LEVEL003
   6
CONTINUOUS
  62
7
  10
 356.921
  20
 752.210
  30
0.0
  11
 357.669
  21
 752.826
  31
0.0
   0
LINE
   8
LEVEL003
   6
CONTINUOUS
  62
7
  10
 357.669
  20
 752.826
  30
0.0
  11
 358.329
  21
 753.525
  31
0.0
   0
LINE
   8
LEVEL003
   6
CONTINUOUS
  62
7
  10
 358.329
  20
 753.525
  30
0.0
  11
 358.890
  21
 754.295
  31
0.0
   0
LINE
   8
LEVEL003
   6
CONTINUOUS
  62
7
  10
 358.890
  20
 754.295
  30
0.0
  11
 359.343
  21
 755.123
  31
0.0
   0
LINE
   8
LEVEL003
   6
CONTINUOUS
  62
7
  10
 359.343
  20
 755.123
  30
0.0
  11
 359.681
  21
 755.998
  31
0.0
   0
LINE
   8
LEVEL003
   6
CONTINUOUS
  62
7
  10
 359.681
  20
 755.998
  30
0.0
  11
 359.900
  21
 756.905
  31
0.0
   0
LINE
   8
LEVEL003
   6
CONTINUOUS
  62
7
  10
 359.900
  20
 756.905
  30
0.0
  11
 359.996
  21
 757.831
  31
0.0
   0
LINE
   8
LEVEL003
   6
CONTINUOUS
  62
7
  10
 359.996
  20
 757.831
  30
0.0
  11
 360.000
  21
 758.078
  31
0.0
   0
LINE
   8
LEVEL003
   6
CONTINUOUS
  62
7
  10
 360.500
  20
 758.298
  30
0.0
  11
 360.434
  21
 759.284
  31
0.0
   0
LINE
   8
LEVEL003
   6
CONTINUOUS
  62
7
  10
 360.434
  20
 759.284
  30
0.0
  11
 360.236
  21
 760.254
  31
0.0
   0
LINE
   8
LEVEL003
   6
CONTINUOUS
  62
7
  10
 360.236
  20
 760.254
  30
0.0
  11
 359.909
  21
 761.194
  31
0.0
   0
LINE
   8
LEVEL003
   6
CONTINUOUS
  62
7
  10
 359.909
  20
 761.194
  30
0.0
  11
 359.459
  21
 762.089
  31
0.0
   0
LINE
   8
LEVEL003
   6
CONTINUOUS
  62
7
  10
 359.459
  20
 762.089
  30
0.0
  11
 358.893
  21
 762.925
  31
0.0
   0
LINE
   8
LEVEL003
   6
CONTINUOUS
  62
7
  10
 358.893
  20
 762.925
  30
0.0
  11
 358.219
  21
 763.688
  31
0.0
   0
LINE
   8
LEVEL003
   6
CONTINUOUS
  62
7
  10
 358.219
  20
 763.688
  30
0.0
  11
 357.448
  21
 764.368
  31
0.0
   0
LINE
   8
LEVEL003
   6
CONTINUOUS
  62
7
  10
 357.448
  20
 764.368
  30
0.0
  11
 356.593
  21
 764.953
  31
0.0
   0
LINE
   8
LEVEL003
   6
CONTINUOUS
  62
7
  10
 356.593
  20
 764.953
  30
0.0
  11
 355.665
  21
 765.433
  31
0.0
   0
LINE
   8
LEVEL003
   6
CONTINUOUS
  62
7
  10
 355.665
  20
 765.433
  30
0.0
  11
 354.680
  21
 765.803
  31
0.0
   0
LINE
   8
LEVEL003
   6
CONTINUOUS
  62
7
  10
 354.680
  20
 765.803
  30
0.0
  11
 353.654
  21
 766.055
  31
0.0
   0
LINE
   8
LEVEL003
   6
CONTINUOUS
  62
7
  10
 353.654
  20
 766.055
  30
0.0
  11
 352.601
  21
 766.186
  31
0.0
   0
LINE
   8
LEVEL003
   6
CONTINUOUS
  62
7
  10
 352.601
  20
 766.186
  30
0.0
  11
 351.539
  21
 766.195
  31
0.0
   0
LINE
   8
LEVEL003
   6
CONTINUOUS
  62
7
  10
 351.539
  20
 766.195
  30
0.0
  11
 350.485
  21
 766.080
  31
0.0
   0
LINE
   8
LEVEL003
   6
CONTINUOUS
  62
7
  10
 350.485
  20
 766.080
  30
0.0
  11
 349.454
  21
 765.843
  31
0.0
   0
LINE
   8
LEVEL003
   6
CONTINUOUS
  62
7
  10
 349.454
  20
 765.843
  30
0.0
  11
 348.463
  21
 765.489
  31
0.0
   0
LINE
   8
LEVEL003
   6
CONTINUOUS
  62
7
  10
 348.463
  20
 765.489
  30
0.0
  11
 347.527
  21
 765.023
  31
0.0
   0
LINE
   8
LEVEL003
   6
CONTINUOUS
  62
7
  10
 347.527
  20
 765.023
  30
0.0
  11
 346.661
  21
 764.451
  31
0.0
   0
LINE
   8
LEVEL003
   6
CONTINUOUS
  62
7
  10
 346.661
  20
 764.451
  30
0.0
  11
 345.878
  21
 763.784
  31
0.0
   0
LINE
   8
LEVEL003
   6
CONTINUOUS
  62
7
  10
 345.878
  20
 763.784
  30
0.0
  11
 345.190
  21
 763.031
  31
0.0
   0
LINE
   8
LEVEL003
   6
CONTINUOUS
  62
7
  10
 345.190
  20
 763.031
  30
0.0
  11
 344.609
  21
 762.204
  31
0.0
   0
LINE
   8
LEVEL003
   6
CONTINUOUS
  62
7
  10
 344.609
  20
 762.204
  30
0.0
  11
 344.143
  21
 761.316
  31
0.0
   0
LINE
   8
LEVEL003
   6
CONTINUOUS
  62
7
  10
 344.143
  20
 761.316
  30
0.0
  11
 343.800
  21
 760.381
  31
0.0
   0
LINE
   8
LEVEL003
   6
CONTINUOUS
  62
7
  10
 343.800
  20
 760.381
  30
0.0
  11
 343.585
  21
 759.414
  31
0.0
   0
LINE
   8
LEVEL003
   6
CONTINUOUS
  62
7
  10
 343.585
  20
 759.414
  30
0.0
  11
 343.501
  21
 758.429
  31
0.0
   0
LINE
   8
LEVEL003
   6
CONTINUOUS
  62
7
  10
 343.501
  20
 758.429
  30
0.0
  11
 343.550
  21
 757.442
  31
0.0
   0
LINE
   8
LEVEL003
   6
CONTINUOUS
  62
7
  10
 343.550
  20
 757.442
  30
0.0
  11
 343.730
  21
 756.469
  31
0.0
   0
LINE
   8
LEVEL003
   6
CONTINUOUS
  62
7
  10
 343.730
  20
 756.469
  30
0.0
  11
 344.040
  21
 755.524
  31
0.0
   0
LINE
   8
LEVEL003
   6
CONTINUOUS
  62
7
  10
 344.040
  20
 755.524
  30
0.0
  11
 344.474
  21
 754.622
  31
0.0
   0
LINE
   8
LEVEL003
   6
CONTINUOUS
  62
7
  10
 344.474
  20
 754.622
  30
0.0
  11
 345.025
  21
 753.777
  31
0.0
   0
LINE
   8
LEVEL003
   6
CONTINUOUS
  62
7
  10
 345.025
  20
 753.777
  30
0.0
  11
 345.685
  21
 753.004
  31
0.0
   0
LINE
   8
LEVEL003
   6
CONTINUOUS
  62
7
  10
 345.685
  20
 753.004
  30
0.0
  11
 346.444
  21
 752.313
  31
0.0
   0
LINE
   8
LEVEL003
   6
CONTINUOUS
  62
7
  10
 346.444
  20
 752.313
  30
0.0
  11
 347.289
  21
 751.715
  31
0.0
   0
LINE
   8
LEVEL003
   6
CONTINUOUS
  62
7
  10
 347.289
  20
 751.715
  30
0.0
  11
 348.208
  21
 751.220
  31
0.0
   0
LINE
   8
LEVEL003
   6
CONTINUOUS
  62
7
  10
 348.208
  20
 751.220
  30
0.0
  11
 349.186
  21
 750.835
  31
0.0
   0
LINE
   8
LEVEL003
   6
CONTINUOUS
  62
7
  10
 349.186
  20
 750.835
  30
0.0
  11
 350.208
  21
 750.567
  31
0.0
   0
LINE
   8
LEVEL003
   6
CONTINUOUS
  62
7
  10
 350.208
  20
 750.567
  30
0.0
  11
 351.258
  21
 750.419
  31
0.0
   0
LINE
   8
LEVEL003
   6
CONTINUOUS
  62
7
  10
 351.258
  20
 750.419
  30
0.0
  11
 352.320
  21
 750.395
  31
0.0
   0
LINE
   8
LEVEL003
   6
CONTINUOUS
  62
7
  10
 352.320
  20
 750.395
  30
0.0
  11
 353.376
  21
 750.493
  31
0.0
   0
LINE
   8
LEVEL003
   6
CONTINUOUS
  62
7
  10
 353.376
  20
 750.493
  30
0.0
  11
 354.411
  21
 750.714
  31
0.0
   0
LINE
   8
LEVEL003
   6
CONTINUOUS
  62
7
  10
 354.411
  20
 750.714
  30
0.0
  11
 355.409
  21
 751.053
  31
0.0
   0
LINE
   8
LEVEL003
   6
CONTINUOUS
  62
7
  10
 355.409
  20
 751.053
  30
0.0
  11
 356.353
  21
 751.505
  31
0.0
   0
LINE
   8
LEVEL003
   6
CONTINUOUS
  62
7
  10
 356.353
  20
 751.505
  30
0.0
  11
 357.229
  21
 752.063
  31
0.0
   0
LINE
   8
LEVEL003
   6
CONTINUOUS
  62
7
  10
 357.229
  20
 752.063
  30
0.0
  11
 358.024
  21
 752.718
  31
0.0
   0
LINE
   8
LEVEL003
   6
CONTINUOUS
  62
7
  10
 358.024
  20
 752.718
  30
0.0
  11
 358.724
  21
 753.460
  31
0.0
   0
LINE
   8
LEVEL003
   6
CONTINUOUS
  62
7
  10
 358.724
  20
 753.460
  30
0.0
  11
 359.320
  21
 754.278
  31
0.0
   0
LINE
   8
LEVEL003
   6
CONTINUOUS
  62
7
  10
 359.320
  20
 754.278
  30
0.0
  11
 359.802
  21
 755.158
  31
0.0
   0
LINE
   8
LEVEL003
   6
CONTINUOUS
  62
7
  10
 359.802
  20
 755.158
  30
0.0
  11
 360.161
  21
 756.088
  31
0.0
   0
LINE
   8
LEVEL003
   6
CONTINUOUS
  62
7
  10
 360.161
  20
 756.088
  30
0.0
  11
 360.394
  21
 757.052
  31
0.0
   0
LINE
   8
LEVEL003
   6
CONTINUOUS
  62
7
  10
 360.394
  20
 757.052
  30
0.0
  11
 360.495
  21
 758.035
  31
0.0
   0
LINE
   8
LEVEL003
   6
CONTINUOUS
  62
7
  10
 360.495
  20
 758.035
  30
0.0
  11
 360.500
  21
 758.298
  31
0.0
   0
LINE
   8
LEVEL003
   6
CONTINUOUS
  62
7
  10
 343.500
  20
 762.476
  30
0.0
  11
 343.500
  21
 758.298
  31
0.0
   0
LINE
   8
LEVEL003
   6
CONTINUOUS
  62
7
  10
 360.500
  20
 762.476
  30
0.0
  11
 360.500
  21
 758.298
  31
0.0
   0
LINE
   8
LEVEL003
   6
CONTINUOUS
  62
7
  10
 360.500
  20
 762.476
  30
0.0
  11
 360.434
  21
 763.462
  31
0.0
   0
LINE
   8
LEVEL003
   6
CONTINUOUS
  62
7
  10
 360.434
  20
 763.462
  30
0.0
  11
 360.236
  21
 764.432
  31
0.0
   0
LINE
   8
LEVEL003
   6
CONTINUOUS
  62
7
  10
 360.236
  20
 764.432
  30
0.0
  11
 359.909
  21
 765.373
  31
0.0
   0
LINE
   8
LEVEL003
   6
CONTINUOUS
  62
7
  10
 359.909
  20
 765.373
  30
0.0
  11
 359.459
  21
 766.267
  31
0.0
   0
LINE
   8
LEVEL003
   6
CONTINUOUS
  62
7
  10
 359.459
  20
 766.267
  30
0.0
  11
 358.893
  21
 767.103
  31
0.0
   0
LINE
   8
LEVEL003
   6
CONTINUOUS
  62
7
  10
 358.893
  20
 767.103
  30
0.0
  11
 358.219
  21
 767.867
  31
0.0
   0
LINE
   8
LEVEL003
   6
CONTINUOUS
  62
7
  10
 358.219
  20
 767.867
  30
0.0
  11
 357.448
  21
 768.546
  31
0.0
   0
LINE
   8
LEVEL003
   6
CONTINUOUS
  62
7
  10
 357.448
  20
 768.546
  30
0.0
  11
 356.593
  21
 769.131
  31
0.0
   0
LINE
   8
LEVEL003
   6
CONTINUOUS
  62
7
  10
 356.593
  20
 769.131
  30
0.0
  11
 355.665
  21
 769.611
  31
0.0
   0
LINE
   8
LEVEL003
   6
CONTINUOUS
  62
7
  10
 355.665
  20
 769.611
  30
0.0
  11
 354.680
  21
 769.981
  31
0.0
   0
LINE
   8
LEVEL003
   6
CONTINUOUS
  62
7
  10
 354.680
  20
 769.981
  30
0.0
  11
 353.654
  21
 770.233
  31
0.0
   0
LINE
   8
LEVEL003
   6
CONTINUOUS
  62
7
  10
 353.654
  20
 770.233
  30
0.0
  11
 352.601
  21
 770.365
  31
0.0
   0
LINE
   8
LEVEL003
   6
CONTINUOUS
  62
7
  10
 352.601
  20
 770.365
  30
0.0
  11
 351.539
  21
 770.373
  31
0.0
   0
LINE
   8
LEVEL003
   6
CONTINUOUS
  62
7
  10
 351.539
  20
 770.373
  30
0.0
  11
 350.485
  21
 770.258
  31
0.0
   0
LINE
   8
LEVEL003
   6
CONTINUOUS
  62
7
  10
 350.485
  20
 770.258
  30
0.0
  11
 349.454
  21
 770.021
  31
0.0
   0
LINE
   8
LEVEL003
   6
CONTINUOUS
  62
7
  10
 349.454
  20
 770.021
  30
0.0
  11
 348.463
  21
 769.667
  31
0.0
   0
LINE
   8
LEVEL003
   6
CONTINUOUS
  62
7
  10
 348.463
  20
 769.667
  30
0.0
  11
 347.527
  21
 769.201
  31
0.0
   0
LINE
   8
LEVEL003
   6
CONTINUOUS
  62
7
  10
 347.527
  20
 769.201
  30
0.0
  11
 346.661
  21
 768.629
  31
0.0
   0
LINE
   8
LEVEL003
   6
CONTINUOUS
  62
7
  10
 346.661
  20
 768.629
  30
0.0
  11
 345.878
  21
 767.962
  31
0.0
   0
LINE
   8
LEVEL003
   6
CONTINUOUS
  62
7
  10
 345.878
  20
 767.962
  30
0.0
  11
 345.190
  21
 767.209
  31
0.0
   0
LINE
   8
LEVEL003
   6
CONTINUOUS
  62
7
  10
 345.190
  20
 767.209
  30
0.0
  11
 344.609
  21
 766.382
  31
0.0
   0
LINE
   8
LEVEL003
   6
CONTINUOUS
  62
7
  10
 344.609
  20
 766.382
  30
0.0
  11
 344.143
  21
 765.494
  31
0.0
   0
LINE
   8
LEVEL003
   6
CONTINUOUS
  62
7
  10
 344.143
  20
 765.494
  30
0.0
  11
 343.800
  21
 764.559
  31
0.0
   0
LINE
   8
LEVEL003
   6
CONTINUOUS
  62
7
  10
 343.800
  20
 764.559
  30
0.0
  11
 343.585
  21
 763.592
  31
0.0
   0
LINE
   8
LEVEL003
   6
CONTINUOUS
  62
7
  10
 343.585
  20
 763.592
  30
0.0
  11
 343.501
  21
 762.607
  31
0.0
   0
LINE
   8
LEVEL003
   6
CONTINUOUS
  62
7
  10
 343.501
  20
 762.607
  30
0.0
  11
 343.500
  21
 762.476
  31
0.0
   0
LINE
   8
LEVEL001
   6
CONTINUOUS
  62
7
  10
 360.500
  20
 758.405
  30
0.0
  11
 360.889
  21
 759.418
  31
0.0
   0
LINE
   8
LEVEL001
   6
CONTINUOUS
  62
7
  10
 360.889
  20
 759.418
  30
0.0
  11
 361.138
  21
 760.467
  31
0.0
   0
LINE
   8
LEVEL001
   6
CONTINUOUS
  62
7
  10
 361.138
  20
 760.467
  30
0.0
  11
 361.246
  21
 761.538
  31
0.0
   0
LINE
   8
LEVEL001
   6
CONTINUOUS
  62
7
  10
 361.246
  20
 761.538
  30
0.0
  11
 361.209
  21
 762.612
  31
0.0
   0
LINE
   8
LEVEL001
   6
CONTINUOUS
  62
7
  10
 361.209
  20
 762.612
  30
0.0
  11
 361.028
  21
 763.674
  31
0.0
   0
LINE
   8
LEVEL001
   6
CONTINUOUS
  62
7
  10
 361.028
  20
 763.674
  30
0.0
  11
 360.706
  21
 764.707
  31
0.0
   0
LINE
   8
LEVEL001
   6
CONTINUOUS
  62
7
  10
 360.706
  20
 764.707
  30
0.0
  11
 360.249
  21
 765.694
  31
0.0
   0
LINE
   8
LEVEL001
   6
CONTINUOUS
  62
7
  10
 360.249
  20
 765.694
  30
0.0
  11
 359.663
  21
 766.621
  31
0.0
   0
LINE
   8
LEVEL001
   6
CONTINUOUS
  62
7
  10
 359.663
  20
 766.621
  30
0.0
  11
 358.957
  21
 767.472
  31
0.0
   0
LINE
   8
LEVEL001
   6
CONTINUOUS
  62
7
  10
 358.957
  20
 767.472
  30
0.0
  11
 358.143
  21
 768.235
  31
0.0
   0
LINE
   8
LEVEL001
   6
CONTINUOUS
  62
7
  10
 358.143
  20
 768.235
  30
0.0
  11
 357.233
  21
 768.897
  31
0.0
   0
LINE
   8
LEVEL001
   6
CONTINUOUS
  62
7
  10
 357.233
  20
 768.897
  30
0.0
  11
 356.241
  21
 769.449
  31
0.0
   0
LINE
   8
LEVEL001
   6
CONTINUOUS
  62
7
  10
 356.241
  20
 769.449
  30
0.0
  11
 355.183
  21
 769.881
  31
0.0
   0
LINE
   8
LEVEL001
   6
CONTINUOUS
  62
7
  10
 355.183
  20
 769.881
  30
0.0
  11
 354.075
  21
 770.187
  31
0.0
   0
LINE
   8
LEVEL001
   6
CONTINUOUS
  62
7
  10
 354.075
  20
 770.187
  30
0.0
  11
 352.935
  21
 770.362
  31
0.0
   0
LINE
   8
LEVEL001
   6
CONTINUOUS
  62
7
  10
 352.935
  20
 770.362
  30
0.0
  11
 351.780
  21
 770.404
  31
0.0
   0
LINE
   8
LEVEL001
   6
CONTINUOUS
  62
7
  10
 351.780
  20
 770.404
  30
0.0
  11
 350.629
  21
 770.311
  31
0.0
   0
LINE
   8
LEVEL001
   6
CONTINUOUS
  62
7
  10
 350.629
  20
 770.311
  30
0.0
  11
 349.499
  21
 770.086
  31
0.0
   0
LINE
   8
LEVEL001
   6
CONTINUOUS
  62
7
  10
 349.499
  20
 770.086
  30
0.0
  11
 348.409
  21
 769.731
  31
0.0
   0
LINE
   8
LEVEL001
   6
CONTINUOUS
  62
7
  10
 348.409
  20
 769.731
  30
0.0
  11
 347.374
  21
 769.253
  31
0.0
   0
LINE
   8
LEVEL001
   6
CONTINUOUS
  62
7
  10
 347.374
  20
 769.253
  30
0.0
  11
 346.411
  21
 768.658
  31
0.0
   0
LINE
   8
LEVEL001
   6
CONTINUOUS
  62
7
  10
 346.411
  20
 768.658
  30
0.0
  11
 345.536
  21
 767.956
  31
0.0
   0
LINE
   8
LEVEL001
   6
CONTINUOUS
  62
7
  10
 345.536
  20
 767.956
  30
0.0
  11
 344.761
  21
 767.158
  31
0.0
   0
LINE
   8
LEVEL001
   6
CONTINUOUS
  62
7
  10
 344.761
  20
 767.158
  30
0.0
  11
 344.100
  21
 766.277
  31
0.0
   0
LINE
   8
LEVEL001
   6
CONTINUOUS
  62
7
  10
 344.100
  20
 766.277
  30
0.0
  11
 343.562
  21
 765.325
  31
0.0
   0
LINE
   8
LEVEL001
   6
CONTINUOUS
  62
7
  10
 343.562
  20
 765.325
  30
0.0
  11
 343.155
  21
 764.319
  31
0.0
   0
LINE
   8
LEVEL001
   6
CONTINUOUS
  62
7
  10
 343.155
  20
 764.319
  30
0.0
  11
 342.887
  21
 763.273
  31
0.0
   0
LINE
   8
LEVEL001
   6
CONTINUOUS
  62
7
  10
 342.887
  20
 763.273
  30
0.0
  11
 342.760
  21
 762.205
  31
0.0
   0
LINE
   8
LEVEL001
   6
CONTINUOUS
  62
7
  10
 342.760
  20
 762.205
  30
0.0
  11
 342.778
  21
 761.130
  31
0.0
   0
LINE
   8
LEVEL001
   6
CONTINUOUS
  62
7
  10
 342.778
  20
 761.130
  30
0.0
  11
 342.940
  21
 760.065
  31
0.0
   0
LINE
   8
LEVEL001
   6
CONTINUOUS
  62
7
  10
 342.940
  20
 760.065
  30
0.0
  11
 343.243
  21
 759.028
  31
0.0
   0
LINE
   8
LEVEL001
   6
CONTINUOUS
  62
7
  10
 343.243
  20
 759.028
  30
0.0
  11
 343.500
  21
 758.405
  31
0.0
   0
LINE
   8
LEVEL001
   6
CONTINUOUS
  62
7
  10
 340.053
  20
 760.755
  30
0.0
  11
 340.286
  21
 759.377
  31
0.0
   0
LINE
   8
LEVEL001
   6
CONTINUOUS
  62
7
  10
 340.286
  20
 759.377
  30
0.0
  11
 340.702
  21
 758.037
  31
0.0
   0
LINE
   8
LEVEL001
   6
CONTINUOUS
  62
7
  10
 340.702
  20
 758.037
  30
0.0
  11
 341.294
  21
 756.756
  31
0.0
   0
LINE
   8
LEVEL001
   6
CONTINUOUS
  62
7
  10
 341.294
  20
 756.756
  30
0.0
  11
 342.054
  21
 755.553
  31
0.0
   0
LINE
   8
LEVEL001
   6
CONTINUOUS
  62
7
  10
 342.054
  20
 755.553
  30
0.0
  11
 342.968
  21
 754.448
  31
0.0
   0
LINE
   8
LEVEL001
   6
CONTINUOUS
  62
7
  10
 342.968
  20
 754.448
  30
0.0
  11
 344.024
  21
 753.458
  31
0.0
   0
LINE
   8
LEVEL001
   6
CONTINUOUS
  62
7
  10
 344.024
  20
 753.458
  30
0.0
  11
 345.204
  21
 752.598
  31
0.0
   0
LINE
   8
LEVEL001
   6
CONTINUOUS
  62
7
  10
 345.204
  20
 752.598
  30
0.0
  11
 346.490
  21
 751.881
  31
0.0
   0
LINE
   8
LEVEL001
   6
CONTINUOUS
  62
7
  10
 346.490
  20
 751.881
  30
0.0
  11
 347.862
  21
 751.320
  31
0.0
   0
LINE
   8
LEVEL001
   6
CONTINUOUS
  62
7
  10
 347.862
  20
 751.320
  30
0.0
  11
 348.292
  21
 751.181
  31
0.0
   0
LINE
   8
LEVEL001
   6
CONTINUOUS
  62
7
  10
 355.708
  20
 751.181
  30
0.0
  11
 357.102
  21
 751.694
  31
0.0
   0
LINE
   8
LEVEL001
   6
CONTINUOUS
  62
7
  10
 357.102
  20
 751.694
  30
0.0
  11
 358.417
  21
 752.365
  31
0.0
   0
LINE
   8
LEVEL001
   6
CONTINUOUS
  62
7
  10
 358.417
  20
 752.365
  30
0.0
  11
 359.631
  21
 753.183
  31
0.0
   0
LINE
   8
LEVEL001
   6
CONTINUOUS
  62
7
  10
 359.631
  20
 753.183
  30
0.0
  11
 360.382
  21
 753.811
  31
0.0
   0
LINE
   8
LEVEL001
   6
CONTINUOUS
  62
7
  10
 357.167
  20
 751.000
  30
0.0
  11
 355.276
  21
 751.000
  31
0.0
   0
LINE
   8
LEVEL001
   6
CONTINUOUS
  62
7
  10
 348.724
  20
 751.000
  30
0.0
  11
 327.785
  21
 751.000
  31
0.0
   0
LINE
   8
LEVEL003
   6
CONTINUOUS
  62
7
  10
 384.000
  20
 758.078
  30
0.0
  11
 383.938
  21
 759.006
  31
0.0
   0
LINE
   8
LEVEL003
   6
CONTINUOUS
  62
7
  10
 383.938
  20
 759.006
  30
0.0
  11
 383.751
  21
 759.919
  31
0.0
   0
LINE
   8
LEVEL003
   6
CONTINUOUS
  62
7
  10
 383.751
  20
 759.919
  30
0.0
  11
 383.444
  21
 760.804
  31
0.0
   0
LINE
   8
LEVEL003
   6
CONTINUOUS
  62
7
  10
 383.444
  20
 760.804
  30
0.0
  11
 383.021
  21
 761.646
  31
0.0
   0
LINE
   8
LEVEL003
   6
CONTINUOUS
  62
7
  10
 383.021
  20
 761.646
  30
0.0
  11
 382.488
  21
 762.433
  31
0.0
   0
LINE
   8
LEVEL003
   6
CONTINUOUS
  62
7
  10
 382.488
  20
 762.433
  30
0.0
  11
 381.854
  21
 763.151
  31
0.0
   0
LINE
   8
LEVEL003
   6
CONTINUOUS
  62
7
  10
 381.854
  20
 763.151
  30
0.0
  11
 381.128
  21
 763.791
  31
0.0
   0
LINE
   8
LEVEL003
   6
CONTINUOUS
  62
7
  10
 381.128
  20
 763.791
  30
0.0
  11
 380.322
  21
 764.341
  31
0.0
   0
LINE
   8
LEVEL003
   6
CONTINUOUS
  62
7
  10
 380.322
  20
 764.341
  30
0.0
  11
 379.449
  21
 764.794
  31
0.0
   0
LINE
   8
LEVEL003
   6
CONTINUOUS
  62
7
  10
 379.449
  20
 764.794
  30
0.0
  11
 378.523
  21
 765.141
  31
0.0
   0
LINE
   8
LEVEL003
   6
CONTINUOUS
  62
7
  10
 378.523
  20
 765.141
  30
0.0
  11
 377.556
  21
 765.379
  31
0.0
   0
LINE
   8
LEVEL003
   6
CONTINUOUS
  62
7
  10
 377.556
  20
 765.379
  30
0.0
  11
 376.566
  21
 765.503
  31
0.0
   0
LINE
   8
LEVEL003
   6
CONTINUOUS
  62
7
  10
 376.566
  20
 765.503
  30
0.0
  11
 375.567
  21
 765.510
  31
0.0
   0
LINE
   8
LEVEL003
   6
CONTINUOUS
  62
7
  10
 375.567
  20
 765.510
  30
0.0
  11
 374.574
  21
 765.402
  31
0.0
   0
LINE
   8
LEVEL003
   6
CONTINUOUS
  62
7
  10
 374.574
  20
 765.402
  30
0.0
  11
 373.604
  21
 765.179
  31
0.0
   0
LINE
   8
LEVEL003
   6
CONTINUOUS
  62
7
  10
 373.604
  20
 765.179
  30
0.0
  11
 372.671
  21
 764.846
  31
0.0
   0
LINE
   8
LEVEL003
   6
CONTINUOUS
  62
7
  10
 372.671
  20
 764.846
  30
0.0
  11
 371.790
  21
 764.407
  31
0.0
   0
LINE
   8
LEVEL003
   6
CONTINUOUS
  62
7
  10
 371.790
  20
 764.407
  30
0.0
  11
 370.975
  21
 763.869
  31
0.0
   0
LINE
   8
LEVEL003
   6
CONTINUOUS
  62
7
  10
 370.975
  20
 763.869
  30
0.0
  11
 370.238
  21
 763.241
  31
0.0
   0
LINE
   8
LEVEL003
   6
CONTINUOUS
  62
7
  10
 370.238
  20
 763.241
  30
0.0
  11
 369.591
  21
 762.532
  31
0.0
   0
LINE
   8
LEVEL003
   6
CONTINUOUS
  62
7
  10
 369.591
  20
 762.532
  30
0.0
  11
 369.044
  21
 761.754
  31
0.0
   0
LINE
   8
LEVEL003
   6
CONTINUOUS
  62
7
  10
 369.044
  20
 761.754
  30
0.0
  11
 368.606
  21
 760.919
  31
0.0
   0
LINE
   8
LEVEL003
   6
CONTINUOUS
  62
7
  10
 368.606
  20
 760.919
  30
0.0
  11
 368.283
  21
 760.039
  31
0.0
   0
LINE
   8
LEVEL003
   6
CONTINUOUS
  62
7
  10
 368.283
  20
 760.039
  30
0.0
  11
 368.080
  21
 759.128
  31
0.0
   0
LINE
   8
LEVEL003
   6
CONTINUOUS
  62
7
  10
 368.080
  20
 759.128
  30
0.0
  11
 368.001
  21
 758.201
  31
0.0
   0
LINE
   8
LEVEL003
   6
CONTINUOUS
  62
7
  10
 368.001
  20
 758.201
  30
0.0
  11
 368.047
  21
 757.272
  31
0.0
   0
LINE
   8
LEVEL003
   6
CONTINUOUS
  62
7
  10
 368.047
  20
 757.272
  30
0.0
  11
 368.217
  21
 756.356
  31
0.0
   0
LINE
   8
LEVEL003
   6
CONTINUOUS
  62
7
  10
 368.217
  20
 756.356
  30
0.0
  11
 368.508
  21
 755.467
  31
0.0
   0
LINE
   8
LEVEL003
   6
CONTINUOUS
  62
7
  10
 368.508
  20
 755.467
  30
0.0
  11
 368.917
  21
 754.618
  31
0.0
   0
LINE
   8
LEVEL003
   6
CONTINUOUS
  62
7
  10
 368.917
  20
 754.618
  30
0.0
  11
 369.436
  21
 753.823
  31
0.0
   0
LINE
   8
LEVEL003
   6
CONTINUOUS
  62
7
  10
 369.436
  20
 753.823
  30
0.0
  11
 370.057
  21
 753.095
  31
0.0
   0
LINE
   8
LEVEL003
   6
CONTINUOUS
  62
7
  10
 370.057
  20
 753.095
  30
0.0
  11
 370.771
  21
 752.445
  31
0.0
   0
LINE
   8
LEVEL003
   6
CONTINUOUS
  62
7
  10
 370.771
  20
 752.445
  30
0.0
  11
 371.566
  21
 751.882
  31
0.0
   0
LINE
   8
LEVEL003
   6
CONTINUOUS
  62
7
  10
 371.566
  20
 751.882
  30
0.0
  11
 372.431
  21
 751.416
  31
0.0
   0
LINE
   8
LEVEL003
   6
CONTINUOUS
  62
7
  10
 372.431
  20
 751.416
  30
0.0
  11
 373.352
  21
 751.054
  31
0.0
   0
LINE
   8
LEVEL003
   6
CONTINUOUS
  62
7
  10
 373.352
  20
 751.054
  30
0.0
  11
 374.314
  21
 750.802
  31
0.0
   0
LINE
   8
LEVEL003
   6
CONTINUOUS
  62
7
  10
 374.314
  20
 750.802
  30
0.0
  11
 375.302
  21
 750.663
  31
0.0
   0
LINE
   8
LEVEL003
   6
CONTINUOUS
  62
7
  10
 375.302
  20
 750.663
  30
0.0
  11
 376.301
  21
 750.640
  31
0.0
   0
LINE
   8
LEVEL003
   6
CONTINUOUS
  62
7
  10
 376.301
  20
 750.640
  30
0.0
  11
 377.295
  21
 750.733
  31
0.0
   0
LINE
   8
LEVEL003
   6
CONTINUOUS
  62
7
  10
 377.295
  20
 750.733
  30
0.0
  11
 378.269
  21
 750.940
  31
0.0
   0
LINE
   8
LEVEL003
   6
CONTINUOUS
  62
7
  10
 378.269
  20
 750.940
  30
0.0
  11
 379.208
  21
 751.259
  31
0.0
   0
LINE
   8
LEVEL003
   6
CONTINUOUS
  62
7
  10
 379.208
  20
 751.259
  30
0.0
  11
 380.097
  21
 751.684
  31
0.0
   0
LINE
   8
LEVEL003
   6
CONTINUOUS
  62
7
  10
 380.097
  20
 751.684
  30
0.0
  11
 380.921
  21
 752.210
  31
0.0
   0
LINE
   8
LEVEL003
   6
CONTINUOUS
  62
7
  10
 380.921
  20
 752.210
  30
0.0
  11
 381.669
  21
 752.826
  31
0.0
   0
LINE
   8
LEVEL003
   6
CONTINUOUS
  62
7
  10
 381.669
  20
 752.826
  30
0.0
  11
 382.329
  21
 753.525
  31
0.0
   0
LINE
   8
LEVEL003
   6
CONTINUOUS
  62
7
  10
 382.329
  20
 753.525
  30
0.0
  11
 382.890
  21
 754.295
  31
0.0
   0
LINE
   8
LEVEL003
   6
CONTINUOUS
  62
7
  10
 382.890
  20
 754.295
  30
0.0
  11
 383.343
  21
 755.123
  31
0.0
   0
LINE
   8
LEVEL003
   6
CONTINUOUS
  62
7
  10
 383.343
  20
 755.123
  30
0.0
  11
 383.681
  21
 755.998
  31
0.0
   0
LINE
   8
LEVEL003
   6
CONTINUOUS
  62
7
  10
 383.681
  20
 755.998
  30
0.0
  11
 383.900
  21
 756.905
  31
0.0
   0
LINE
   8
LEVEL003
   6
CONTINUOUS
  62
7
  10
 383.900
  20
 756.905
  30
0.0
  11
 383.996
  21
 757.831
  31
0.0
   0
LINE
   8
LEVEL003
   6
CONTINUOUS
  62
7
  10
 383.996
  20
 757.831
  30
0.0
  11
 384.000
  21
 758.078
  31
0.0
   0
LINE
   8
LEVEL003
   6
CONTINUOUS
  62
7
  10
 384.500
  20
 758.298
  30
0.0
  11
 384.434
  21
 759.284
  31
0.0
   0
LINE
   8
LEVEL003
   6
CONTINUOUS
  62
7
  10
 384.434
  20
 759.284
  30
0.0
  11
 384.236
  21
 760.254
  31
0.0
   0
LINE
   8
LEVEL003
   6
CONTINUOUS
  62
7
  10
 384.236
  20
 760.254
  30
0.0
  11
 383.909
  21
 761.194
  31
0.0
   0
LINE
   8
LEVEL003
   6
CONTINUOUS
  62
7
  10
 383.909
  20
 761.194
  30
0.0
  11
 383.459
  21
 762.089
  31
0.0
   0
LINE
   8
LEVEL003
   6
CONTINUOUS
  62
7
  10
 383.459
  20
 762.089
  30
0.0
  11
 382.893
  21
 762.925
  31
0.0
   0
LINE
   8
LEVEL003
   6
CONTINUOUS
  62
7
  10
 382.893
  20
 762.925
  30
0.0
  11
 382.219
  21
 763.688
  31
0.0
   0
LINE
   8
LEVEL003
   6
CONTINUOUS
  62
7
  10
 382.219
  20
 763.688
  30
0.0
  11
 381.448
  21
 764.368
  31
0.0
   0
LINE
   8
LEVEL003
   6
CONTINUOUS
  62
7
  10
 381.448
  20
 764.368
  30
0.0
  11
 380.593
  21
 764.953
  31
0.0
   0
LINE
   8
LEVEL003
   6
CONTINUOUS
  62
7
  10
 380.593
  20
 764.953
  30
0.0
  11
 379.665
  21
 765.433
  31
0.0
   0
LINE
   8
LEVEL003
   6
CONTINUOUS
  62
7
  10
 379.665
  20
 765.433
  30
0.0
  11
 378.680
  21
 765.803
  31
0.0
   0
LINE
   8
LEVEL003
   6
CONTINUOUS
  62
7
  10
 378.680
  20
 765.803
  30
0.0
  11
 377.654
  21
 766.055
  31
0.0
   0
LINE
   8
LEVEL003
   6
CONTINUOUS
  62
7
  10
 377.654
  20
 766.055
  30
0.0
  11
 376.601
  21
 766.186
  31
0.0
   0
LINE
   8
LEVEL003
   6
CONTINUOUS
  62
7
  10
 376.601
  20
 766.186
  30
0.0
  11
 375.539
  21
 766.195
  31
0.0
   0
LINE
   8
LEVEL003
   6
CONTINUOUS
  62
7
  10
 375.539
  20
 766.195
  30
0.0
  11
 374.485
  21
 766.080
  31
0.0
   0
LINE
   8
LEVEL003
   6
CONTINUOUS
  62
7
  10
 374.485
  20
 766.080
  30
0.0
  11
 373.454
  21
 765.843
  31
0.0
   0
LINE
   8
LEVEL003
   6
CONTINUOUS
  62
7
  10
 373.454
  20
 765.843
  30
0.0
  11
 372.463
  21
 765.489
  31
0.0
   0
LINE
   8
LEVEL003
   6
CONTINUOUS
  62
7
  10
 372.463
  20
 765.489
  30
0.0
  11
 371.527
  21
 765.023
  31
0.0
   0
LINE
   8
LEVEL003
   6
CONTINUOUS
  62
7
  10
 371.527
  20
 765.023
  30
0.0
  11
 370.661
  21
 764.451
  31
0.0
   0
LINE
   8
LEVEL003
   6
CONTINUOUS
  62
7
  10
 370.661
  20
 764.451
  30
0.0
  11
 369.878
  21
 763.784
  31
0.0
   0
LINE
   8
LEVEL003
   6
CONTINUOUS
  62
7
  10
 369.878
  20
 763.784
  30
0.0
  11
 369.190
  21
 763.031
  31
0.0
   0
LINE
   8
LEVEL003
   6
CONTINUOUS
  62
7
  10
 369.190
  20
 763.031
  30
0.0
  11
 368.609
  21
 762.204
  31
0.0
   0
LINE
   8
LEVEL003
   6
CONTINUOUS
  62
7
  10
 368.609
  20
 762.204
  30
0.0
  11
 368.143
  21
 761.316
  31
0.0
   0
LINE
   8
LEVEL003
   6
CONTINUOUS
  62
7
  10
 368.143
  20
 761.316
  30
0.0
  11
 367.800
  21
 760.381
  31
0.0
   0
LINE
   8
LEVEL003
   6
CONTINUOUS
  62
7
  10
 367.800
  20
 760.381
  30
0.0
  11
 367.585
  21
 759.414
  31
0.0
   0
LINE
   8
LEVEL003
   6
CONTINUOUS
  62
7
  10
 367.585
  20
 759.414
  30
0.0
  11
 367.501
  21
 758.429
  31
0.0
   0
LINE
   8
LEVEL003
   6
CONTINUOUS
  62
7
  10
 367.501
  20
 758.429
  30
0.0
  11
 367.550
  21
 757.442
  31
0.0
   0
LINE
   8
LEVEL003
   6
CONTINUOUS
  62
7
  10
 367.550
  20
 757.442
  30
0.0
  11
 367.730
  21
 756.469
  31
0.0
   0
LINE
   8
LEVEL003
   6
CONTINUOUS
  62
7
  10
 367.730
  20
 756.469
  30
0.0
  11
 368.040
  21
 755.524
  31
0.0
   0
LINE
   8
LEVEL003
   6
CONTINUOUS
  62
7
  10
 368.040
  20
 755.524
  30
0.0
  11
 368.474
  21
 754.622
  31
0.0
   0
LINE
   8
LEVEL003
   6
CONTINUOUS
  62
7
  10
 368.474
  20
 754.622
  30
0.0
  11
 369.025
  21
 753.777
  31
0.0
   0
LINE
   8
LEVEL003
   6
CONTINUOUS
  62
7
  10
 369.025
  20
 753.777
  30
0.0
  11
 369.685
  21
 753.004
  31
0.0
   0
LINE
   8
LEVEL003
   6
CONTINUOUS
  62
7
  10
 369.685
  20
 753.004
  30
0.0
  11
 370.444
  21
 752.313
  31
0.0
   0
LINE
   8
LEVEL003
   6
CONTINUOUS
  62
7
  10
 370.444
  20
 752.313
  30
0.0
  11
 371.289
  21
 751.715
  31
0.0
   0
LINE
   8
LEVEL003
   6
CONTINUOUS
  62
7
  10
 371.289
  20
 751.715
  30
0.0
  11
 372.208
  21
 751.220
  31
0.0
   0
LINE
   8
LEVEL003
   6
CONTINUOUS
  62
7
  10
 372.208
  20
 751.220
  30
0.0
  11
 373.186
  21
 750.835
  31
0.0
   0
LINE
   8
LEVEL003
   6
CONTINUOUS
  62
7
  10
 373.186
  20
 750.835
  30
0.0
  11
 374.208
  21
 750.567
  31
0.0
   0
LINE
   8
LEVEL003
   6
CONTINUOUS
  62
7
  10
 374.208
  20
 750.567
  30
0.0
  11
 375.258
  21
 750.419
  31
0.0
   0
LINE
   8
LEVEL003
   6
CONTINUOUS
  62
7
  10
 375.258
  20
 750.419
  30
0.0
  11
 376.320
  21
 750.395
  31
0.0
   0
LINE
   8
LEVEL003
   6
CONTINUOUS
  62
7
  10
 376.320
  20
 750.395
  30
0.0
  11
 377.376
  21
 750.493
  31
0.0
   0
LINE
   8
LEVEL003
   6
CONTINUOUS
  62
7
  10
 377.376
  20
 750.493
  30
0.0
  11
 378.411
  21
 750.714
  31
0.0
   0
LINE
   8
LEVEL003
   6
CONTINUOUS
  62
7
  10
 378.411
  20
 750.714
  30
0.0
  11
 379.409
  21
 751.053
  31
0.0
   0
LINE
   8
LEVEL003
   6
CONTINUOUS
  62
7
  10
 379.409
  20
 751.053
  30
0.0
  11
 380.353
  21
 751.505
  31
0.0
   0
LINE
   8
LEVEL003
   6
CONTINUOUS
  62
7
  10
 380.353
  20
 751.505
  30
0.0
  11
 381.229
  21
 752.063
  31
0.0
   0
LINE
   8
LEVEL003
   6
CONTINUOUS
  62
7
  10
 381.229
  20
 752.063
  30
0.0
  11
 382.024
  21
 752.718
  31
0.0
   0
LINE
   8
LEVEL003
   6
CONTINUOUS
  62
7
  10
 382.024
  20
 752.718
  30
0.0
  11
 382.724
  21
 753.460
  31
0.0
   0
LINE
   8
LEVEL003
   6
CONTINUOUS
  62
7
  10
 382.724
  20
 753.460
  30
0.0
  11
 383.320
  21
 754.278
  31
0.0
   0
LINE
   8
LEVEL003
   6
CONTINUOUS
  62
7
  10
 383.320
  20
 754.278
  30
0.0
  11
 383.802
  21
 755.158
  31
0.0
   0
LINE
   8
LEVEL003
   6
CONTINUOUS
  62
7
  10
 383.802
  20
 755.158
  30
0.0
  11
 384.161
  21
 756.088
  31
0.0
   0
LINE
   8
LEVEL003
   6
CONTINUOUS
  62
7
  10
 384.161
  20
 756.088
  30
0.0
  11
 384.394
  21
 757.052
  31
0.0
   0
LINE
   8
LEVEL003
   6
CONTINUOUS
  62
7
  10
 384.394
  20
 757.052
  30
0.0
  11
 384.495
  21
 758.035
  31
0.0
   0
LINE
   8
LEVEL003
   6
CONTINUOUS
  62
7
  10
 384.495
  20
 758.035
  30
0.0
  11
 384.500
  21
 758.298
  31
0.0
   0
LINE
   8
LEVEL003
   6
CONTINUOUS
  62
7
  10
 384.500
  20
 762.476
  30
0.0
  11
 384.434
  21
 763.462
  31
0.0
   0
LINE
   8
LEVEL003
   6
CONTINUOUS
  62
7
  10
 384.434
  20
 763.462
  30
0.0
  11
 384.236
  21
 764.432
  31
0.0
   0
LINE
   8
LEVEL003
   6
CONTINUOUS
  62
7
  10
 384.236
  20
 764.432
  30
0.0
  11
 383.909
  21
 765.373
  31
0.0
   0
LINE
   8
LEVEL003
   6
CONTINUOUS
  62
7
  10
 383.909
  20
 765.373
  30
0.0
  11
 383.459
  21
 766.267
  31
0.0
   0
LINE
   8
LEVEL003
   6
CONTINUOUS
  62
7
  10
 383.459
  20
 766.267
  30
0.0
  11
 382.893
  21
 767.103
  31
0.0
   0
LINE
   8
LEVEL003
   6
CONTINUOUS
  62
7
  10
 382.893
  20
 767.103
  30
0.0
  11
 382.219
  21
 767.867
  31
0.0
   0
LINE
   8
LEVEL003
   6
CONTINUOUS
  62
7
  10
 382.219
  20
 767.867
  30
0.0
  11
 381.448
  21
 768.546
  31
0.0
   0
LINE
   8
LEVEL003
   6
CONTINUOUS
  62
7
  10
 381.448
  20
 768.546
  30
0.0
  11
 380.593
  21
 769.131
  31
0.0
   0
LINE
   8
LEVEL003
   6
CONTINUOUS
  62
7
  10
 380.593
  20
 769.131
  30
0.0
  11
 379.665
  21
 769.611
  31
0.0
   0
LINE
   8
LEVEL003
   6
CONTINUOUS
  62
7
  10
 379.665
  20
 769.611
  30
0.0
  11
 378.680
  21
 769.981
  31
0.0
   0
LINE
   8
LEVEL003
   6
CONTINUOUS
  62
7
  10
 378.680
  20
 769.981
  30
0.0
  11
 377.654
  21
 770.233
  31
0.0
   0
LINE
   8
LEVEL003
   6
CONTINUOUS
  62
7
  10
 377.654
  20
 770.233
  30
0.0
  11
 376.601
  21
 770.365
  31
0.0
   0
LINE
   8
LEVEL003
   6
CONTINUOUS
  62
7
  10
 376.601
  20
 770.365
  30
0.0
  11
 375.539
  21
 770.373
  31
0.0
   0
LINE
   8
LEVEL003
   6
CONTINUOUS
  62
7
  10
 375.539
  20
 770.373
  30
0.0
  11
 374.485
  21
 770.258
  31
0.0
   0
LINE
   8
LEVEL003
   6
CONTINUOUS
  62
7
  10
 374.485
  20
 770.258
  30
0.0
  11
 373.454
  21
 770.021
  31
0.0
   0
LINE
   8
LEVEL003
   6
CONTINUOUS
  62
7
  10
 373.454
  20
 770.021
  30
0.0
  11
 372.463
  21
 769.667
  31
0.0
   0
LINE
   8
LEVEL003
   6
CONTINUOUS
  62
7
  10
 372.463
  20
 769.667
  30
0.0
  11
 371.527
  21
 769.201
  31
0.0
   0
LINE
   8
LEVEL003
   6
CONTINUOUS
  62
7
  10
 371.527
  20
 769.201
  30
0.0
  11
 370.661
  21
 768.629
  31
0.0
   0
LINE
   8
LEVEL003
   6
CONTINUOUS
  62
7
  10
 370.661
  20
 768.629
  30
0.0
  11
 369.878
  21
 767.962
  31
0.0
   0
LINE
   8
LEVEL003
   6
CONTINUOUS
  62
7
  10
 369.878
  20
 767.962
  30
0.0
  11
 369.190
  21
 767.209
  31
0.0
   0
LINE
   8
LEVEL003
   6
CONTINUOUS
  62
7
  10
 369.190
  20
 767.209
  30
0.0
  11
 368.609
  21
 766.382
  31
0.0
   0
LINE
   8
LEVEL003
   6
CONTINUOUS
  62
7
  10
 368.609
  20
 766.382
  30
0.0
  11
 368.143
  21
 765.494
  31
0.0
   0
LINE
   8
LEVEL003
   6
CONTINUOUS
  62
7
  10
 368.143
  20
 765.494
  30
0.0
  11
 367.800
  21
 764.559
  31
0.0
   0
LINE
   8
LEVEL003
   6
CONTINUOUS
  62
7
  10
 367.800
  20
 764.559
  30
0.0
  11
 367.585
  21
 763.592
  31
0.0
   0
LINE
   8
LEVEL003
   6
CONTINUOUS
  62
7
  10
 367.585
  20
 763.592
  30
0.0
  11
 367.501
  21
 762.607
  31
0.0
   0
LINE
   8
LEVEL003
   6
CONTINUOUS
  62
7
  10
 367.501
  20
 762.607
  30
0.0
  11
 367.500
  21
 762.476
  31
0.0
   0
LINE
   8
LEVEL001
   6
CONTINUOUS
  62
7
  10
 384.500
  20
 758.405
  30
0.0
  11
 384.889
  21
 759.418
  31
0.0
   0
LINE
   8
LEVEL001
   6
CONTINUOUS
  62
7
  10
 384.889
  20
 759.418
  30
0.0
  11
 385.138
  21
 760.467
  31
0.0
   0
LINE
   8
LEVEL001
   6
CONTINUOUS
  62
7
  10
 385.138
  20
 760.467
  30
0.0
  11
 385.246
  21
 761.538
  31
0.0
   0
LINE
   8
LEVEL001
   6
CONTINUOUS
  62
7
  10
 385.246
  20
 761.538
  30
0.0
  11
 385.209
  21
 762.612
  31
0.0
   0
LINE
   8
LEVEL001
   6
CONTINUOUS
  62
7
  10
 385.209
  20
 762.612
  30
0.0
  11
 385.028
  21
 763.674
  31
0.0
   0
LINE
   8
LEVEL001
   6
CONTINUOUS
  62
7
  10
 385.028
  20
 763.674
  30
0.0
  11
 384.706
  21
 764.707
  31
0.0
   0
LINE
   8
LEVEL001
   6
CONTINUOUS
  62
7
  10
 384.706
  20
 764.707
  30
0.0
  11
 384.249
  21
 765.694
  31
0.0
   0
LINE
   8
LEVEL001
   6
CONTINUOUS
  62
7
  10
 384.249
  20
 765.694
  30
0.0
  11
 383.663
  21
 766.621
  31
0.0
   0
LINE
   8
LEVEL001
   6
CONTINUOUS
  62
7
  10
 383.663
  20
 766.621
  30
0.0
  11
 382.957
  21
 767.472
  31
0.0
   0
LINE
   8
LEVEL001
   6
CONTINUOUS
  62
7
  10
 382.957
  20
 767.472
  30
0.0
  11
 382.143
  21
 768.235
  31
0.0
   0
LINE
   8
LEVEL001
   6
CONTINUOUS
  62
7
  10
 382.143
  20
 768.235
  30
0.0
  11
 381.233
  21
 768.897
  31
0.0
   0
LINE
   8
LEVEL001
   6
CONTINUOUS
  62
7
  10
 381.233
  20
 768.897
  30
0.0
  11
 380.241
  21
 769.449
  31
0.0
   0
LINE
   8
LEVEL001
   6
CONTINUOUS
  62
7
  10
 380.241
  20
 769.449
  30
0.0
  11
 379.183
  21
 769.881
  31
0.0
   0
LINE
   8
LEVEL001
   6
CONTINUOUS
  62
7
  10
 379.183
  20
 769.881
  30
0.0
  11
 378.075
  21
 770.187
  31
0.0
   0
LINE
   8
LEVEL001
   6
CONTINUOUS
  62
7
  10
 378.075
  20
 770.187
  30
0.0
  11
 376.935
  21
 770.362
  31
0.0
   0
LINE
   8
LEVEL001
   6
CONTINUOUS
  62
7
  10
 376.935
  20
 770.362
  30
0.0
  11
 375.780
  21
 770.404
  31
0.0
   0
LINE
   8
LEVEL001
   6
CONTINUOUS
  62
7
  10
 375.780
  20
 770.404
  30
0.0
  11
 374.629
  21
 770.311
  31
0.0
   0
LINE
   8
LEVEL001
   6
CONTINUOUS
  62
7
  10
 374.629
  20
 770.311
  30
0.0
  11
 373.499
  21
 770.086
  31
0.0
   0
LINE
   8
LEVEL001
   6
CONTINUOUS
  62
7
  10
 373.499
  20
 770.086
  30
0.0
  11
 372.409
  21
 769.731
  31
0.0
   0
LINE
   8
LEVEL001
   6
CONTINUOUS
  62
7
  10
 372.409
  20
 769.731
  30
0.0
  11
 371.374
  21
 769.253
  31
0.0
   0
LINE
   8
LEVEL001
   6
CONTINUOUS
  62
7
  10
 371.374
  20
 769.253
  30
0.0
  11
 370.411
  21
 768.658
  31
0.0
   0
LINE
   8
LEVEL001
   6
CONTINUOUS
  62
7
  10
 370.411
  20
 768.658
  30
0.0
  11
 369.536
  21
 767.956
  31
0.0
   0
LINE
   8
LEVEL001
   6
CONTINUOUS
  62
7
  10
 369.536
  20
 767.956
  30
0.0
  11
 368.761
  21
 767.158
  31
0.0
   0
LINE
   8
LEVEL001
   6
CONTINUOUS
  62
7
  10
 368.761
  20
 767.158
  30
0.0
  11
 368.100
  21
 766.277
  31
0.0
   0
LINE
   8
LEVEL001
   6
CONTINUOUS
  62
7
  10
 368.100
  20
 766.277
  30
0.0
  11
 367.562
  21
 765.325
  31
0.0
   0
LINE
   8
LEVEL001
   6
CONTINUOUS
  62
7
  10
 367.562
  20
 765.325
  30
0.0
  11
 367.155
  21
 764.319
  31
0.0
   0
LINE
   8
LEVEL001
   6
CONTINUOUS
  62
7
  10
 367.155
  20
 764.319
  30
0.0
  11
 366.887
  21
 763.273
  31
0.0
   0
LINE
   8
LEVEL001
   6
CONTINUOUS
  62
7
  10
 366.887
  20
 763.273
  30
0.0
  11
 366.760
  21
 762.205
  31
0.0
   0
LINE
   8
LEVEL001
   6
CONTINUOUS
  62
7
  10
 366.760
  20
 762.205
  30
0.0
  11
 366.778
  21
 761.130
  31
0.0
   0
LINE
   8
LEVEL001
   6
CONTINUOUS
  62
7
  10
 366.778
  20
 761.130
  30
0.0
  11
 366.940
  21
 760.065
  31
0.0
   0
LINE
   8
LEVEL001
   6
CONTINUOUS
  62
7
  10
 366.940
  20
 760.065
  30
0.0
  11
 367.243
  21
 759.028
  31
0.0
   0
LINE
   8
LEVEL001
   6
CONTINUOUS
  62
7
  10
 367.243
  20
 759.028
  30
0.0
  11
 367.500
  21
 758.405
  31
0.0
   0
LINE
   8
LEVEL003
   6
CONTINUOUS
  62
7
  10
 367.500
  20
 762.476
  30
0.0
  11
 367.500
  21
 758.298
  31
0.0
   0
LINE
   8
LEVEL003
   6
CONTINUOUS
  62
7
  10
 384.500
  20
 762.476
  30
0.0
  11
 384.500
  21
 758.298
  31
0.0
   0
LINE
   8
LEVEL001
   6
CONTINUOUS
  62
7
  10
 367.544
  20
 753.878
  30
0.0
  11
 368.672
  21
 752.959
  31
0.0
   0
LINE
   8
LEVEL001
   6
CONTINUOUS
  62
7
  10
 368.672
  20
 752.959
  30
0.0
  11
 369.914
  21
 752.178
  31
0.0
   0
LINE
   8
LEVEL001
   6
CONTINUOUS
  62
7
  10
 369.914
  20
 752.178
  30
0.0
  11
 371.251
  21
 751.547
  31
0.0
   0
LINE
   8
LEVEL001
   6
CONTINUOUS
  62
7
  10
 371.251
  20
 751.547
  30
0.0
  11
 372.292
  21
 751.181
  31
0.0
   0
LINE
   8
LEVEL001
   6
CONTINUOUS
  62
7
  10
 379.708
  20
 751.181
  30
0.0
  11
 381.102
  21
 751.694
  31
0.0
   0
LINE
   8
LEVEL001
   6
CONTINUOUS
  62
7
  10
 381.102
  20
 751.694
  30
0.0
  11
 382.417
  21
 752.365
  31
0.0
   0
LINE
   8
LEVEL001
   6
CONTINUOUS
  62
7
  10
 382.417
  20
 752.365
  30
0.0
  11
 383.631
  21
 753.183
  31
0.0
   0
LINE
   8
LEVEL001
   6
CONTINUOUS
  62
7
  10
 383.631
  20
 753.183
  30
0.0
  11
 384.726
  21
 754.135
  31
0.0
   0
LINE
   8
LEVEL001
   6
CONTINUOUS
  62
7
  10
 384.726
  20
 754.135
  30
0.0
  11
 385.685
  21
 755.207
  31
0.0
   0
LINE
   8
LEVEL001
   6
CONTINUOUS
  62
7
  10
 385.685
  20
 755.207
  30
0.0
  11
 386.493
  21
 756.382
  31
0.0
   0
LINE
   8
LEVEL001
   6
CONTINUOUS
  62
7
  10
 386.493
  20
 756.382
  30
0.0
  11
 387.137
  21
 757.642
  31
0.0
   0
LINE
   8
LEVEL001
   6
CONTINUOUS
  62
7
  10
 387.137
  20
 757.642
  30
0.0
  11
 387.607
  21
 758.966
  31
0.0
   0
LINE
   8
LEVEL001
   6
CONTINUOUS
  62
7
  10
 387.607
  20
 758.966
  30
0.0
  11
 387.896
  21
 760.335
  31
0.0
   0
LINE
   8
LEVEL001
   6
CONTINUOUS
  62
7
  10
 387.896
  20
 760.335
  30
0.0
  11
 387.947
  21
 760.755
  31
0.0
   0
LINE
   8
LEVEL001
   6
DASHDOT
  62
1
  10
 338.491
  20
 758.078
  30
0.0
  11
 391.278
  21
 758.078
  31
0.0
   0
LINE
   8
LEVEL003
   6
CONTINUOUS
  62
7
  10
 370.226
  20
 758.078
  30
0.0
  11
 373.113
  21
 762.730
  31
0.0
   0
LINE
   8
LEVEL003
   6
CONTINUOUS
  62
7
  10
 373.113
  20
 762.730
  30
0.0
  11
 378.887
  21
 762.730
  31
0.0
   0
LINE
   8
LEVEL003
   6
CONTINUOUS
  62
7
  10
 378.887
  20
 762.730
  30
0.0
  11
 381.774
  21
 758.078
  31
0.0
   0
LINE
   8
LEVEL003
   6
CONTINUOUS
  62
7
  10
 381.774
  20
 758.078
  30
0.0
  11
 378.887
  21
 753.426
  31
0.0
   0
LINE
   8
LEVEL003
   6
CONTINUOUS
  62
7
  10
 378.887
  20
 753.426
  30
0.0
  11
 373.113
  21
 753.426
  31
0.0
   0
LINE
   8
LEVEL003
   6
CONTINUOUS
  62
7
  10
 373.113
  20
 753.426
  30
0.0
  11
 370.226
  21
 758.078
  31
0.0
   0
LINE
   8
LEVEL003
   6
CONTINUOUS
  62
7
  10
 346.226
  20
 758.078
  30
0.0
  11
 349.113
  21
 762.730
  31
0.0
   0
LINE
   8
LEVEL003
   6
CONTINUOUS
  62
7
  10
 349.113
  20
 762.730
  30
0.0
  11
 354.887
  21
 762.730
  31
0.0
   0
LINE
   8
LEVEL003
   6
CONTINUOUS
  62
7
  10
 354.887
  20
 762.730
  30
0.0
  11
 357.774
  21
 758.078
  31
0.0
   0
LINE
   8
LEVEL003
   6
CONTINUOUS
  62
7
  10
 357.774
  20
 758.078
  30
0.0
  11
 354.887
  21
 753.426
  31
0.0
   0
LINE
   8
LEVEL003
   6
CONTINUOUS
  62
7
  10
 354.887
  20
 753.426
  30
0.0
  11
 349.113
  21
 753.426
  31
0.0
   0
LINE
   8
LEVEL003
   6
CONTINUOUS
  62
7
  10
 349.113
  20
 753.426
  30
0.0
  11
 346.226
  21
 758.078
  31
0.0
   0
LINE
   8
LEVEL003
   6
CONTINUOUS
  62
7
  10
 384.000
  20
 844.460
  30
0.0
  11
 384.000
  21
 842.750
  31
0.0
   0
LINE
   8
LEVEL003
   6
CONTINUOUS
  62
7
  10
 963.200
  20
 877.500
  30
0.0
  11
 1000.20
  21
 877.500
  31
0.0
   0
ARC
   8
LEVEL003
   6
CONTINUOUS
  62
7
  10
 963.200
  20
 874.500
  30
0.0
  40
 3.00000
  50
 90.0000
  51
 180.000
   0
LINE
   8
LEVEL003
   6
CONTINUOUS
  62
7
  10
 963.200
  20
 875.200
  30
0.0
  11
 1000.20
  21
 875.200
  31
0.0
   0
ARC
   8
LEVEL003
   6
CONTINUOUS
  62
7
  10
 963.200
  20
 874.500
  30
0.0
  40
 0.700000
  50
 90.0000
  51
 180.000
   0
LINE
   8
LEVEL003
   6
CONTINUOUS
  62
7
  10
 970.200
  20
 875.200
  30
0.0
  11
 970.200
  21
 877.500
  31
0.0
   0
LINE
   8
LEVEL003
   6
CONTINUOUS
  62
7
  10
 963.200
  20
 722.500
  30
0.0
  11
 1000.20
  21
 722.500
  31
0.0
   0
ARC
   8
LEVEL003
   6
CONTINUOUS
  62
7
  10
 963.200
  20
 725.500
  30
0.0
  40
 3.00000
  50
 180.000
  51
 270.000
   0
LINE
   8
LEVEL003
   6
CONTINUOUS
  62
7
  10
 1000.20
  20
 724.800
  30
0.0
  11
 963.200
  21
 724.800
  31
0.0
   0
ARC
   8
LEVEL003
   6
CONTINUOUS
  62
7
  10
 963.200
  20
 725.500
  30
0.0
  40
 0.700000
  50
 180.000
  51
 270.000
   0
LINE
   8
LEVEL003
   6
CONTINUOUS
  62
7
  10
 970.200
  20
 724.800
  30
0.0
  11
 970.200
  21
 722.500
  31
0.0
   0
LINE
   8
LEVEL003
   6
DASHDOT
  62
1
  10
 881.250
  20
 845.000
  30
0.0
  11
 843.750
  21
 845.000
  31
0.0
   0
LINE
   8
LEVEL003
   6
DASHDOT
  62
1
  10
 862.500
  20
 863.750
  30
0.0
  11
 862.500
  21
 826.250
  31
0.0
   0
LINE
   8
LEVEL003
   6
CONTINUOUS
  62
7
  10
 962.500
  20
 818.500
  30
0.0
  11
 966.500
  21
 818.500
  31
0.0
   0
LINE
   8
LEVEL003
   6
CONTINUOUS
  62
7
  10
 966.500
  20
 818.500
  30
0.0
  11
 967.500
  21
 817.500
  31
0.0
   0
LINE
   8
LEVEL003
   6
CONTINUOUS
  62
7
  10
 962.500
  20
 781.500
  30
0.0
  11
 966.500
  21
 781.500
  31
0.0
   0
LINE
   8
LEVEL003
   6
CONTINUOUS
  62
7
  10
 966.500
  20
 781.500
  30
0.0
  11
 967.500
  21
 782.500
  31
0.0
   0
LINE
   8
LEVEL001
   6
CONTINUOUS
  62
7
  10
 440.150
  20
 844.550
  30
0.0
  11
 441.707
  21
 842.993
  31
0.0
   0
ARC
   8
LEVEL001
   6
CONTINUOUS
  62
7
  10
 442.414
  20
 843.700
  30
0.0
  40
 1.00000
  50
 225.000
  51
 270.000
   0
LINE
   8
LEVEL001
   6
CONTINUOUS
  62
7
  10
 440.150
  20
 755.450
  30
0.0
  11
 441.707
  21
 757.007
  31
0.0
   0
ARC
   8
LEVEL001
   6
CONTINUOUS
  62
7
  10
 442.414
  20
 756.300
  30
0.0
  40
 1.00000
  50
 90.0000
  51
 135.000
   0
LINE
   8
LEVEL001
   6
CONTINUOUS
  62
7
  10
 435.250
  20
 844.550
  30
0.0
  11
 440.150
  21
 844.550
  31
0.0
   0
LINE
   8
LEVEL001
   6
CONTINUOUS
  62
7
  10
 431.586
  20
 841.300
  30
0.0
  11
 396.000
  21
 841.300
  31
0.0
   0
ARC
   8
LEVEL001
   6
CONTINUOUS
  62
7
  10
 431.586
  20
 842.300
  30
0.0
  40
 1.00000
  50
 270.000
  51
 315.000
   0
LINE
   8
LEVEL001
   6
CONTINUOUS
  62
7
  10
 432.293
  20
 841.593
  30
0.0
  11
 435.250
  21
 844.550
  31
0.0
   0
LINE
   8
LEVEL001
   6
CONTINUOUS
  62
7
  10
 431.586
  20
 758.700
  30
0.0
  11
 396.000
  21
 758.700
  31
0.0
   0
LINE
   8
LEVEL001
   6
CONTINUOUS
  62
7
  10
 435.250
  20
 755.450
  30
0.0
  11
 440.150
  21
 755.450
  31
0.0
   0
ARC
   8
LEVEL001
   6
CONTINUOUS
  62
7
  10
 431.586
  20
 757.700
  30
0.0
  40
 1.00000
  50
 45.0000
  51
 90.0000
   0
LINE
   8
LEVEL001
   6
CONTINUOUS
  62
7
  10
 432.293
  20
 758.407
  30
0.0
  11
 435.250
  21
 755.450
  31
0.0
   0
LINE
   8
LEVEL003
   6
CONTINUOUS
  62
7
  10
 454.000
  20
 875.000
  30
0.0
  11
 960.200
  21
 875.000
  31
0.0
   0
LINE
   8
LEVEL003
   6
CONTINUOUS
  62
7
  10
 454.000
  20
 725.000
  30
0.0
  11
 960.200
  21
 725.000
  31
0.0
   0
LINE
   8
LEVEL001
   6
CONTINUOUS
  62
7
  10
 454.000
  20
 875.000
  30
0.0
  11
 454.000
  21
 816.500
  31
0.0
   0
LINE
   8
LEVEL001
   6
CONTINUOUS
  62
7
  10
 454.000
  20
 783.500
  30
0.0
  11
 454.000
  21
 725.000
  31
0.0
   0
LINE
   8
LEVEL001
   6
CONTINUOUS
  62
7
  10
 432.000
  20
 841.300
  30
0.0
  11
 432.000
  21
 816.500
  31
0.0
   0
LINE
   8
LEVEL001
   6
CONTINUOUS
  62
7
  10
 435.250
  20
 816.500
  30
0.0
  11
 435.250
  21
 844.550
  31
0.0
   0
LINE
   8
LEVEL001
   6
CONTINUOUS
  62
7
  10
 440.150
  20
 844.550
  30
0.0
  11
 440.150
  21
 816.500
  31
0.0
   0
LINE
   8
LEVEL001
   6
CONTINUOUS
  62
7
  10
 442.000
  20
 842.700
  30
0.0
  11
 442.000
  21
 816.500
  31
0.0
   0
LINE
   8
LEVEL001
   6
CONTINUOUS
  62
7
  10
 432.000
  20
 783.500
  30
0.0
  11
 432.000
  21
 758.700
  31
0.0
   0
LINE
   8
LEVEL001
   6
CONTINUOUS
  62
7
  10
 435.250
  20
 755.450
  30
0.0
  11
 435.250
  21
 783.500
  31
0.0
   0
LINE
   8
LEVEL001
   6
CONTINUOUS
  62
7
  10
 440.150
  20
 783.500
  30
0.0
  11
 440.150
  21
 755.450
  31
0.0
   0
LINE
   8
LEVEL001
   6
CONTINUOUS
  62
7
  10
 442.000
  20
 783.500
  30
0.0
  11
 442.000
  21
 757.300
  31
0.0
   0
LINE
   8
LEVEL003
   6
CONTINUOUS
  62
7
  10
 966.500
  20
 818.500
  30
0.0
  11
 966.500
  21
 808.000
  31
0.0
   0
LINE
   8
LEVEL003
   6
CONTINUOUS
  62
7
  10
 966.500
  20
 792.000
  30
0.0
  11
 966.500
  21
 781.500
  31
0.0
   0
LINE
   8
LEVEL003
   6
CONTINUOUS
  62
7
  10
 968.000
  20
 818.429
  30
0.0
  11
 970.200
  21
 818.429
  31
0.0
   0
LINE
   8
LEVEL003
   6
CONTINUOUS
  62
7
  10
 970.200
  20
 818.429
  30
0.0
  11
 970.200
  21
 783.000
  31
0.0
   0
LINE
   8
LEVEL003
   6
CONTINUOUS
  62
7
  10
 970.200
  20
 789.186
  30
0.0
  11
 968.000
  21
 789.186
  31
0.0
   0
LINE
   8
LEVEL003
   6
CONTINUOUS
  62
7
  10
 970.200
  20
 783.000
  30
0.0
  11
 968.000
  21
 783.000
  31
0.0
   0
LINE
   8
LEVEL003
   6
CONTINUOUS
  62
7
  10
 968.000
  20
 818.429
  30
0.0
  11
 968.000
  21
 783.000
  31
0.0
   0
LINE
   8
LEVEL003
   6
CONTINUOUS
  62
7
  10
 967.500
  20
 817.500
  30
0.0
  11
 967.500
  21
 808.000
  31
0.0
   0
LINE
   8
LEVEL003
   6
CONTINUOUS
  62
7
  10
 967.500
  20
 792.000
  30
0.0
  11
 967.500
  21
 782.500
  31
0.0
   0
LINE
   8
LEVEL003
   6
CONTINUOUS
  62
7
  10
 966.500
  20
 789.000
  30
0.0
  11
 968.000
  21
 789.000
  31
0.0
   0
LINE
   8
LEVEL003
   6
CONTINUOUS
  62
7
  10
 970.200
  20
 789.000
  30
0.0
  11
 971.500
  21
 789.000
  31
0.0
   0
LINE
   8
LEVEL003
   6
CONTINUOUS
  62
7
  10
 967.500
  20
 811.000
  30
0.0
  11
 968.000
  21
 811.000
  31
0.0
   0
LINE
   8
LEVEL003
   6
CONTINUOUS
  62
7
  10
 970.200
  20
 811.000
  30
0.0
  11
 971.500
  21
 811.000
  31
0.0
   0
POINT
   8
LEVEL001
  62
7
  10
 340.000
  20
 800.000
  30
0.0
   0
LINE
   8
LEVEL003
   6
CONTINUOUS
  62
7
  10
 390.000
  20
 841.483
  30
0.0
  11
 390.000
  21
 860.000
  31
0.0
   0
LINE
   8
LEVEL003
   6
CONTINUOUS
  62
7
  10
 390.000
  20
 860.000
  30
0.0
  11
 340.349
  21
 860.000
  31
0.0
   0
LINE
   8
LEVEL003
   6
CONTINUOUS
  62
7
  10
 340.000
  20
 751.000
  30
0.0
  11
 340.000
  21
 715.000
  31
0.0
   0
LINE
   8
LEVEL003
   6
CONTINUOUS
  62
7
  10
 340.000
  20
 715.000
  30
0.0
  11
 390.000
  21
 715.000
  31
0.0
   0
LINE
   8
LEVEL003
   6
CONTINUOUS
  62
7
  10
 390.000
  20
 715.000
  30
0.0
  11
 390.000
  21
 748.437
  31
0.0
   0
LINE
   8
LEVEL014
   6
CONTINUOUS
  62
3
  10
 987.350
  20
 789.004
  30
0.0
  11
 989.350
  21
 788.851
  31
0.0
   0
LINE
   8
LEVEL014
   6
CONTINUOUS
  62
3
  10
 989.350
  20
 787.346
  30
0.0
  11
 989.350
  21
 812.654
  31
0.0
   0
LINE
   8
LEVEL014
   6
CONTINUOUS
  62
3
  10
 989.350
  20
 812.654
  30
0.0
  11
 991.350
  21
 812.808
  31
0.0
   0
LINE
   8
LEVEL014
   6
CONTINUOUS
  62
3
  10
 991.350
  20
 812.808
  30
0.0
  11
 991.350
  21
 787.192
  31
0.0
   0
LINE
   8
LEVEL014
   6
CONTINUOUS
  62
3
  10
 991.350
  20
 787.192
  30
0.0
  11
 989.350
  21
 787.346
  31
0.0
   0
LINE
   8
LEVEL014
   6
CONTINUOUS
  62
3
  10
 987.350
  20
 810.996
  30
0.0
  11
 989.350
  21
 811.149
  31
0.0
   0
LINE
   8
LEVEL014
   6
CONTINUOUS
  62
3
  10
 991.350
  20
 788.697
  30
0.0
  11
 993.350
  21
 788.543
  31
0.0
   0
LINE
   8
LEVEL014
   6
CONTINUOUS
  62
3
  10
 995.350
  20
 788.389
  30
0.0
  11
 997.350
  21
 788.235
  31
0.0
   0
LINE
   8
LEVEL014
   6
CONTINUOUS
  62
3
  10
 999.350
  20
 788.081
  30
0.0
  11
 1001.35
  21
 787.927
  31
0.0
   0
LINE
   8
LEVEL014
   6
CONTINUOUS
  62
3
  10
 1003.35
  20
 787.774
  30
0.0
  11
 1005.35
  21
 787.620
  31
0.0
   0
LINE
   8
LEVEL014
   6
CONTINUOUS
  62
3
  10
 1007.35
  20
 787.466
  30
0.0
  11
 1009.35
  21
 787.312
  31
0.0
   0
LINE
   8
LEVEL014
   6
CONTINUOUS
  62
3
  10
 1011.35
  20
 787.158
  30
0.0
  11
 1013.35
  21
 787.004
  31
0.0
   0
LINE
   8
LEVEL014
   6
CONTINUOUS
  62
3
  10
 993.350
  20
 787.038
  30
0.0
  11
 993.350
  21
 812.962
  31
0.0
   0
LINE
   8
LEVEL014
   6
CONTINUOUS
  62
3
  10
 993.350
  20
 812.962
  30
0.0
  11
 995.350
  21
 813.115
  31
0.0
   0
LINE
   8
LEVEL014
   6
CONTINUOUS
  62
3
  10
 995.350
  20
 813.115
  30
0.0
  11
 995.350
  21
 786.885
  31
0.0
   0
LINE
   8
LEVEL014
   6
CONTINUOUS
  62
3
  10
 995.350
  20
 786.885
  30
0.0
  11
 993.350
  21
 787.038
  31
0.0
   0
LINE
   8
LEVEL014
   6
CONTINUOUS
  62
3
  10
 997.350
  20
 786.731
  30
0.0
  11
 997.350
  21
 813.269
  31
0.0
   0
LINE
   8
LEVEL014
   6
CONTINUOUS
  62
3
  10
 997.350
  20
 813.269
  30
0.0
  11
 999.350
  21
 813.423
  31
0.0
   0
LINE
   8
LEVEL014
   6
CONTINUOUS
  62
3
  10
 999.350
  20
 813.423
  30
0.0
  11
 999.350
  21
 786.577
  31
0.0
   0
LINE
   8
LEVEL014
   6
CONTINUOUS
  62
3
  10
 999.350
  20
 786.577
  30
0.0
  11
 997.350
  21
 786.731
  31
0.0
   0
LINE
   8
LEVEL014
   6
CONTINUOUS
  62
3
  10
 1001.35
  20
 786.423
  30
0.0
  11
 1001.35
  21
 813.577
  31
0.0
   0
LINE
   8
LEVEL014
   6
CONTINUOUS
  62
3
  10
 1001.35
  20
 813.577
  30
0.0
  11
 1003.35
  21
 813.731
  31
0.0
   0
LINE
   8
LEVEL014
   6
CONTINUOUS
  62
3
  10
 1003.35
  20
 813.731
  30
0.0
  11
 1003.35
  21
 786.269
  31
0.0
   0
LINE
   8
LEVEL014
   6
CONTINUOUS
  62
3
  10
 1003.35
  20
 786.269
  30
0.0
  11
 1001.35
  21
 786.423
  31
0.0
   0
LINE
   8
LEVEL014
   6
CONTINUOUS
  62
3
  10
 1005.35
  20
 786.115
  30
0.0
  11
 1005.35
  21
 813.885
  31
0.0
   0
LINE
   8
LEVEL014
   6
CONTINUOUS
  62
3
  10
 1005.35
  20
 813.885
  30
0.0
  11
 1007.35
  21
 814.038
  31
0.0
   0
LINE
   8
LEVEL014
   6
CONTINUOUS
  62
3
  10
 1007.35
  20
 814.038
  30
0.0
  11
 1007.35
  21
 785.962
  31
0.0
   0
LINE
   8
LEVEL014
   6
CONTINUOUS
  62
3
  10
 1007.35
  20
 785.962
  30
0.0
  11
 1005.35
  21
 786.115
  31
0.0
   0
LINE
   8
LEVEL014
   6
CONTINUOUS
  62
3
  10
 1009.35
  20
 785.808
  30
0.0
  11
 1009.35
  21
 814.192
  31
0.0
   0
LINE
   8
LEVEL014
   6
CONTINUOUS
  62
3
  10
 1009.35
  20
 814.192
  30
0.0
  11
 1011.35
  21
 814.346
  31
0.0
   0
LINE
   8
LEVEL014
   6
CONTINUOUS
  62
3
  10
 1011.35
  20
 814.346
  30
0.0
  11
 1011.35
  21
 785.654
  31
0.0
   0
LINE
   8
LEVEL014
   6
CONTINUOUS
  62
3
  10
 1011.35
  20
 785.654
  30
0.0
  11
 1009.35
  21
 785.808
  31
0.0
   0
LINE
   8
LEVEL014
   6
CONTINUOUS
  62
3
  10
 1013.35
  20
 785.500
  30
0.0
  11
 1013.35
  21
 814.500
  31
0.0
   0
LINE
   8
LEVEL014
   6
CONTINUOUS
  62
3
  10
 1013.35
  20
 814.500
  30
0.0
  11
 1015.35
  21
 814.654
  31
0.0
   0
LINE
   8
LEVEL014
   6
CONTINUOUS
  62
3
  10
 1015.35
  20
 814.654
  30
0.0
  11
 1015.35
  21
 785.346
  31
0.0
   0
LINE
   8
LEVEL014
   6
CONTINUOUS
  62
3
  10
 1015.35
  20
 785.346
  30
0.0
  11
 1013.35
  21
 785.500
  31
0.0
   0
LINE
   8
LEVEL014
   6
CONTINUOUS
  62
3
  10
 991.350
  20
 811.303
  30
0.0
  11
 993.350
  21
 811.457
  31
0.0
   0
LINE
   8
LEVEL014
   6
CONTINUOUS
  62
3
  10
 995.350
  20
 811.611
  30
0.0
  11
 997.350
  21
 811.765
  31
0.0
   0
LINE
   8
LEVEL014
   6
CONTINUOUS
  62
3
  10
 999.350
  20
 811.919
  30
0.0
  11
 1001.35
  21
 812.073
  31
0.0
   0
LINE
   8
LEVEL014
   6
CONTINUOUS
  62
3
  10
 1003.35
  20
 812.226
  30
0.0
  11
 1005.35
  21
 812.380
  31
0.0
   0
LINE
   8
LEVEL014
   6
CONTINUOUS
  62
3
  10
 1007.35
  20
 812.534
  30
0.0
  11
 1009.35
  21
 812.688
  31
0.0
   0
LINE
   8
LEVEL014
   6
CONTINUOUS
  62
3
  10
 1011.35
  20
 812.842
  30
0.0
  11
 1013.35
  21
 812.996
  31
0.0
   0
LINE
   8
LEVEL014
   6
CONTINUOUS
  62
3
  10
 1035.35
  20
 787.819
  30
0.0
  11
 1037.35
  21
 787.988
  31
0.0
   0
LINE
   8
LEVEL014
   6
CONTINUOUS
  62
3
  10
 1039.35
  20
 788.158
  30
0.0
  11
 1041.35
  21
 788.327
  31
0.0
   0
LINE
   8
LEVEL014
   6
CONTINUOUS
  62
3
  10
 1043.35
  20
 788.497
  30
0.0
  11
 1045.35
  21
 788.666
  31
0.0
   0
LINE
   8
LEVEL014
   6
CONTINUOUS
  62
3
  10
 1047.35
  20
 788.836
  30
0.0
  11
 1049.35
  21
 789.005
  31
0.0
   0
LINE
   8
LEVEL014
   6
CONTINUOUS
  62
3
  10
 1015.35
  20
 786.851
  30
0.0
  11
 1017.35
  21
 786.697
  31
0.0
   0
LINE
   8
LEVEL014
   6
CONTINUOUS
  62
3
  10
 1019.35
  20
 786.463
  30
0.0
  11
 1021.35
  21
 786.633
  31
0.0
   0
LINE
   8
LEVEL014
   6
CONTINUOUS
  62
3
  10
 1023.35
  20
 786.802
  30
0.0
  11
 1025.35
  21
 786.971
  31
0.0
   0
LINE
   8
LEVEL014
   6
CONTINUOUS
  62
3
  10
 1027.35
  20
 787.141
  30
0.0
  11
 1029.35
  21
 787.310
  31
0.0
   0
LINE
   8
LEVEL014
   6
CONTINUOUS
  62
3
  10
 1031.35
  20
 787.480
  30
0.0
  11
 1033.35
  21
 787.649
  31
0.0
   0
LINE
   8
LEVEL014
   6
CONTINUOUS
  62
3
  10
 1025.35
  20
 785.466
  30
0.0
  11
 1025.35
  21
 814.534
  31
0.0
   0
LINE
   8
LEVEL014
   6
CONTINUOUS
  62
3
  10
 1025.35
  20
 814.534
  30
0.0
  11
 1027.35
  21
 814.364
  31
0.0
   0
LINE
   8
LEVEL014
   6
CONTINUOUS
  62
3
  10
 1027.35
  20
 814.364
  30
0.0
  11
 1027.35
  21
 785.636
  31
0.0
   0
LINE
   8
LEVEL014
   6
CONTINUOUS
  62
3
  10
 1027.35
  20
 785.636
  30
0.0
  11
 1025.35
  21
 785.466
  31
0.0
   0
LINE
   8
LEVEL014
   6
CONTINUOUS
  62
3
  10
 1029.35
  20
 785.805
  30
0.0
  11
 1029.35
  21
 814.195
  31
0.0
   0
LINE
   8
LEVEL014
   6
CONTINUOUS
  62
3
  10
 1029.35
  20
 814.195
  30
0.0
  11
 1031.35
  21
 814.025
  31
0.0
   0
LINE
   8
LEVEL014
   6
CONTINUOUS
  62
3
  10
 1031.35
  20
 814.025
  30
0.0
  11
 1031.35
  21
 785.975
  31
0.0
   0
LINE
   8
LEVEL014
   6
CONTINUOUS
  62
3
  10
 1031.35
  20
 785.975
  30
0.0
  11
 1029.35
  21
 785.805
  31
0.0
   0
LINE
   8
LEVEL014
   6
CONTINUOUS
  62
3
  10
 1033.35
  20
 786.144
  30
0.0
  11
 1033.35
  21
 813.856
  31
0.0
   0
LINE
   8
LEVEL014
   6
CONTINUOUS
  62
3
  10
 1033.35
  20
 813.856
  30
0.0
  11
 1035.35
  21
 813.686
  31
0.0
   0
LINE
   8
LEVEL014
   6
CONTINUOUS
  62
3
  10
 1035.35
  20
 813.686
  30
0.0
  11
 1035.35
  21
 786.314
  31
0.0
   0
LINE
   8
LEVEL014
   6
CONTINUOUS
  62
3
  10
 1035.35
  20
 786.314
  30
0.0
  11
 1033.35
  21
 786.144
  31
0.0
   0
LINE
   8
LEVEL014
   6
CONTINUOUS
  62
3
  10
 1037.35
  20
 786.483
  30
0.0
  11
 1037.35
  21
 813.517
  31
0.0
   0
LINE
   8
LEVEL014
   6
CONTINUOUS
  62
3
  10
 1037.35
  20
 813.517
  30
0.0
  11
 1039.35
  21
 813.347
  31
0.0
   0
LINE
   8
LEVEL014
   6
CONTINUOUS
  62
3
  10
 1039.35
  20
 813.347
  30
0.0
  11
 1039.35
  21
 786.653
  31
0.0
   0
LINE
   8
LEVEL014
   6
CONTINUOUS
  62
3
  10
 1039.35
  20
 786.653
  30
0.0
  11
 1037.35
  21
 786.483
  31
0.0
   0
LINE
   8
LEVEL014
   6
CONTINUOUS
  62
3
  10
 1041.35
  20
 786.822
  30
0.0
  11
 1041.35
  21
 813.178
  31
0.0
   0
LINE
   8
LEVEL014
   6
CONTINUOUS
  62
3
  10
 1041.35
  20
 813.178
  30
0.0
  11
 1043.35
  21
 813.008
  31
0.0
   0
LINE
   8
LEVEL014
   6
CONTINUOUS
  62
3
  10
 1043.35
  20
 813.008
  30
0.0
  11
 1043.35
  21
 786.992
  31
0.0
   0
LINE
   8
LEVEL014
   6
CONTINUOUS
  62
3
  10
 1043.35
  20
 786.992
  30
0.0
  11
 1041.35
  21
 786.822
  31
0.0
   0
LINE
   8
LEVEL014
   6
CONTINUOUS
  62
3
  10
 1045.35
  20
 787.161
  30
0.0
  11
 1045.35
  21
 812.839
  31
0.0
   0
LINE
   8
LEVEL014
   6
CONTINUOUS
  62
3
  10
 1045.35
  20
 812.839
  30
0.0
  11
 1047.35
  21
 812.669
  31
0.0
   0
LINE
   8
LEVEL014
   6
CONTINUOUS
  62
3
  10
 1047.35
  20
 812.669
  30
0.0
  11
 1047.35
  21
 787.331
  31
0.0
   0
LINE
   8
LEVEL014
   6
CONTINUOUS
  62
3
  10
 1047.35
  20
 787.331
  30
0.0
  11
 1045.35
  21
 787.161
  31
0.0
   0
LINE
   8
LEVEL014
   6
CONTINUOUS
  62
3
  10
 1015.35
  20
 813.149
  30
0.0
  11
 1017.35
  21
 813.303
  31
0.0
   0
LINE
   8
LEVEL014
   6
CONTINUOUS
  62
3
  10
 1019.35
  20
 813.537
  30
0.0
  11
 1021.35
  21
 813.367
  31
0.0
   0
LINE
   8
LEVEL014
   6
CONTINUOUS
  62
3
  10
 1023.35
  20
 813.198
  30
0.0
  11
 1025.35
  21
 813.029
  31
0.0
   0
LINE
   8
LEVEL014
   6
CONTINUOUS
  62
3
  10
 1027.35
  20
 812.859
  30
0.0
  11
 1029.35
  21
 812.690
  31
0.0
   0
LINE
   8
LEVEL014
   6
CONTINUOUS
  62
3
  10
 1031.35
  20
 812.520
  30
0.0
  11
 1033.35
  21
 812.351
  31
0.0
   0
LINE
   8
LEVEL014
   6
CONTINUOUS
  62
3
  10
 1035.35
  20
 812.181
  30
0.0
  11
 1037.35
  21
 812.012
  31
0.0
   0
LINE
   8
LEVEL014
   6
CONTINUOUS
  62
3
  10
 1039.35
  20
 811.842
  30
0.0
  11
 1041.35
  21
 811.673
  31
0.0
   0
LINE
   8
LEVEL014
   6
CONTINUOUS
  62
3
  10
 1043.35
  20
 811.503
  30
0.0
  11
 1045.35
  21
 811.334
  31
0.0
   0
LINE
   8
LEVEL014
   6
CONTINUOUS
  62
3
  10
 1047.35
  20
 811.164
  30
0.0
  11
 1049.35
  21
 810.995
  31
0.0
   0
LINE
   8
LEVEL014
   6
CONTINUOUS
  62
3
  10
 1017.35
  20
 800.000
  30
0.0
  11
 1017.35
  21
 814.808
  31
0.0
   0
LINE
   8
LEVEL014
   6
CONTINUOUS
  62
3
  10
 1017.35
  20
 814.808
  30
0.0
  11
 1019.35
  21
 814.962
  31
0.0
   0
LINE
   8
LEVEL014
   6
CONTINUOUS
  62
3
  10
 1019.35
  20
 814.962
  30
0.0
  11
 1019.35
  21
 800.000
  31
0.0
   0
LINE
   8
LEVEL014
   6
CONTINUOUS
  62
3
  10
 1021.35
  20
 800.000
  30
0.0
  11
 1021.35
  21
 814.873
  31
0.0
   0
LINE
   8
LEVEL014
   6
CONTINUOUS
  62
3
  10
 1021.35
  20
 814.873
  30
0.0
  11
 1023.35
  21
 814.703
  31
0.0
   0
LINE
   8
LEVEL014
   6
CONTINUOUS
  62
3
  10
 1023.35
  20
 814.703
  30
0.0
  11
 1023.35
  21
 800.000
  31
0.0
   0
LINE
   8
LEVEL014
   6
CONTINUOUS
  62
3
  10
 1017.35
  20
 800.000
  30
0.0
  11
 1017.35
  21
 785.192
  31
0.0
   0
LINE
   8
LEVEL014
   6
CONTINUOUS
  62
3
  10
 1017.35
  20
 785.192
  30
0.0
  11
 1019.35
  21
 785.038
  31
0.0
   0
LINE
   8
LEVEL014
   6
CONTINUOUS
  62
3
  10
 1019.35
  20
 785.038
  30
0.0
  11
 1019.35
  21
 800.000
  31
0.0
   0
LINE
   8
LEVEL014
   6
CONTINUOUS
  62
3
  10
 1021.35
  20
 800.000
  30
0.0
  11
 1021.35
  21
 785.127
  31
0.0
   0
LINE
   8
LEVEL014
   6
CONTINUOUS
  62
3
  10
 1021.35
  20
 785.127
  30
0.0
  11
 1023.35
  21
 785.297
  31
0.0
   0
LINE
   8
LEVEL014
   6
CONTINUOUS
  62
3
  10
 1023.35
  20
 785.297
  30
0.0
  11
 1023.35
  21
 800.000
  31
0.0
   0
ARC
   8
LEVEL014
   6
CONTINUOUS
  62
7
  10
 1030.48
  20
 800.000
  30
0.0
  40
 31.8750
  50
 334.942
  51
 25.0576
   0
LINE
   8
LEVEL014
   6
CONTINUOUS
  62
7
  10
 1049.35
  20
 787.500
  30
0.0
  11
 1049.35
  21
 812.500
  31
0.0
   0
LINE
   8
LEVEL014
   6
CONTINUOUS
  62
7
  10
 1049.35
  20
 812.500
  30
0.0
  11
 1059.35
  21
 813.500
  31
0.0
   0
LINE
   8
LEVEL014
   6
CONTINUOUS
  62
7
  10
 1059.35
  20
 813.500
  30
0.0
  11
 1059.35
  21
 786.500
  31
0.0
   0
LINE
   8
LEVEL014
   6
CONTINUOUS
  62
7
  10
 1059.35
  20
 786.500
  30
0.0
  11
 1049.35
  21
 787.500
  31
0.0
   0
LINE
   8
LEVEL014
   6
CONTINUOUS
  62
7
  10
 977.350
  20
 786.500
  30
0.0
  11
 977.350
  21
 813.500
  31
0.0
   0
LINE
   8
LEVEL014
   6
CONTINUOUS
  62
7
  10
 977.350
  20
 813.500
  30
0.0
  11
 987.350
  21
 812.500
  31
0.0
   0
LINE
   8
LEVEL014
   6
CONTINUOUS
  62
7
  10
 987.350
  20
 812.500
  30
0.0
  11
 987.350
  21
 787.500
  31
0.0
   0
LINE
   8
LEVEL014
   6
CONTINUOUS
  62
7
  10
 987.350
  20
 787.500
  30
0.0
  11
 977.350
  21
 786.500
  31
0.0
   0
LINE
   8
LEVEL003
   6
CONTINUOUS
  62
7
  10
 957.100
  20
 808.000
  30
0.0
  11
 957.100
  21
 792.000
  31
0.0
   0
LINE
   8
LEVEL003
   6
CONTINUOUS
  62
7
  10
 954.350
  20
 810.750
  30
0.0
  11
 954.350
  21
 789.250
  31
0.0
   0
LINE
   8
LEVEL003
   6
CONTINUOUS
  62
7
  10
 970.200
  20
 808.000
  30
0.0
  11
 977.350
  21
 808.000
  31
0.0
   0
LINE
   8
LEVEL003
   6
CONTINUOUS
  62
7
  10
 970.200
  20
 792.000
  30
0.0
  11
 977.350
  21
 792.000
  31
0.0
   0
LINE
   8
LEVEL003
   6
CONTINUOUS
  62
7
  10
 954.350
  20
 810.750
  30
0.0
  11
 957.100
  21
 808.000
  31
0.0
   0
LINE
   8
LEVEL003
   6
CONTINUOUS
  62
7
  10
 957.100
  20
 808.000
  30
0.0
  11
 968.000
  21
 808.000
  31
0.0
   0
LINE
   8
LEVEL003
   6
CONTINUOUS
  62
7
  10
 954.350
  20
 789.250
  30
0.0
  11
 957.100
  21
 792.000
  31
0.0
   0
LINE
   8
LEVEL003
   6
CONTINUOUS
  62
7
  10
 957.100
  20
 792.000
  30
0.0
  11
 968.000
  21
 792.000
  31
0.0
   0
LINE
   8
LEVEL003
   6
CONTINUOUS
  62
7
  10
 962.500
  20
 808.000
  30
0.0
  11
 962.500
  21
 874.500
  31
0.0
   0
LINE
   8
LEVEL003
   6
CONTINUOUS
  62
7
  10
 962.500
  20
 725.500
  30
0.0
  11
 962.500
  21
 792.000
  31
0.0
   0
LINE
   8
LEVEL003
   6
CONTINUOUS
  62
7
  10
 977.350
  20
 812.000
  30
0.0
  11
 971.500
  21
 812.000
  31
0.0
   0
LINE
   8
LEVEL003
   6
CONTINUOUS
  62
7
  10
 971.500
  20
 812.000
  30
0.0
  11
 971.500
  21
 808.000
  31
0.0
   0
LINE
   8
LEVEL003
   6
CONTINUOUS
  62
7
  10
 971.500
  20
 792.000
  30
0.0
  11
 971.500
  21
 788.000
  31
0.0
   0
LINE
   8
LEVEL003
   6
CONTINUOUS
  62
7
  10
 971.500
  20
 788.000
  30
0.0
  11
 977.350
  21
 788.000
  31
0.0
   0
LINE
   8
LEVEL003
   6
CONTINUOUS
  62
7
  10
 1000.20
  20
 812.073
  30
0.0
  11
 1000.20
  21
 877.500
  31
0.0
   0
LINE
   8
LEVEL003
   6
CONTINUOUS
  62
7
  10
 1000.20
  20
 722.500
  30
0.0
  11
 1000.20
  21
 787.927
  31
0.0
   0
TEXT
   8
LEVEL003
  62
3
  10
 423.816
  20
 929.541
  30
0.0
  40
 16.0000
   1
高圧安全弁
   7
STANDARD
   0
TEXT
   8
LEVEL003
  62
3
  10
 423.816
  20
 889.541
  30
0.0
  40
 16.0000
   1
アンロ－ドバルブ
   7
STANDARD
   0
TEXT
   8
LEVEL003
  62
3
  10
 434.275
  20
 699.010
  30
0.0
  40
 16.0000
   1
サクション＆デリベリ（低圧）
   7
STANDARD
   0
TEXT
   8
LEVEL003
  62
3
  10
 434.275
  20
 659.010
  30
0.0
  40
 16.0000
   1
サクション＆デリベリ（高圧）
   7
STANDARD
   0
LINE
   8
LEVEL003
   6
CONTINUOUS
  62
3
  10
 355.528
  20
 848.727
  30
0.0
  11
 414.927
  21
 927.804
  31
0.0
   0
LINE
   8
LEVEL003
   6
CONTINUOUS
  62
3
  10
 414.927
  20
 927.804
  30
0.0
  11
 504.937
  21
 927.804
  31
0.0
   0
LINE
   8
LEVEL003
   6
CONTINUOUS
  62
3
  10
 355.528
  20
 848.727
  30
0.0
  11
 364.427
  21
 857.051
  31
0.0
   0
LINE
   8
LEVEL003
   6
CONTINUOUS
  62
3
  10
 355.528
  20
 848.727
  30
0.0
  11
 361.044
  21
 859.592
  31
0.0
   0
LINE
   8
LEVEL003
   6
CONTINUOUS
  62
3
  10
 383.952
  20
 846.176
  30
0.0
  11
 419.665
  21
 888.448
  31
0.0
   0
LINE
   8
LEVEL003
   6
CONTINUOUS
  62
3
  10
 419.665
  20
 888.448
  30
0.0
  11
 552.311
  21
 888.448
  31
0.0
   0
LINE
   8
LEVEL003
   6
CONTINUOUS
  62
3
  10
 383.952
  20
 846.176
  30
0.0
  11
 393.313
  21
 853.977
  31
0.0
   0
LINE
   8
LEVEL003
   6
CONTINUOUS
  62
3
  10
 383.952
  20
 846.176
  30
0.0
  11
 390.080
  21
 856.708
  31
0.0
   0
LINE
   8
LEVEL003
   6
CONTINUOUS
  62
3
  10
 379.579
  20
 754.344
  30
0.0
  11
 435.699
  21
 696.767
  31
0.0
   0
LINE
   8
LEVEL003
   6
CONTINUOUS
  62
3
  10
 435.699
  20
 696.767
  30
0.0
  11
 655.196
  21
 696.767
  31
0.0
   0
LINE
   8
LEVEL003
   6
CONTINUOUS
  62
3
  10
 379.579
  20
 754.344
  30
0.0
  11
 386.440
  21
 744.274
  31
0.0
   0
LINE
   8
LEVEL003
   6
CONTINUOUS
  62
3
  10
 379.579
  20
 754.344
  30
0.0
  11
 389.471
  21
 747.228
  31
0.0
   0
LINE
   8
LEVEL003
   6
CONTINUOUS
  62
3
  10
 354.435
  20
 753.615
  30
0.0
  11
 433.512
  21
 655.953
  31
0.0
   0
LINE
   8
LEVEL003
   6
CONTINUOUS
  62
3
  10
 433.512
  20
 655.953
  30
0.0
  11
 656.046
  21
 655.953
  31
0.0
   0
LINE
   8
LEVEL003
   6
CONTINUOUS
  62
3
  10
 354.435
  20
 753.615
  30
0.0
  11
 360.342
  21
 742.958
  31
0.0
   0
LINE
   8
LEVEL003
   6
CONTINUOUS
  62
3
  10
 354.435
  20
 753.615
  30
0.0
  11
 363.631
  21
 745.621
  31
0.0
   0
LINE
   8
LEVEL003
   6
CONTINUOUS
  62
3
  10
 340.000
  20
 296.000
  30
0.0
  11
 340.000
  21
 252.000
  31
0.0
   0
LINE
   8
LEVEL003
   6
CONTINUOUS
  62
3
  10
 389.963
  20
 297.915
  30
0.0
  11
 389.963
  21
 252.000
  31
0.0
   0
LINE
   8
LEVEL003
   6
CONTINUOUS
  62
3
  10
 340.000
  20
 260.000
  30
0.0
  11
 389.963
  21
 260.000
  31
0.0
   0
LINE
   8
LEVEL003
   6
CONTINUOUS
  62
3
  10
 340.000
  20
 260.000
  30
0.0
  11
 352.000
  21
 257.884
  31
0.0
   0
LINE
   8
LEVEL003
   6
CONTINUOUS
  62
3
  10
 340.000
  20
 260.000
  30
0.0
  11
 352.000
  21
 262.116
  31
0.0
   0
LINE
   8
LEVEL003
   6
CONTINUOUS
  62
3
  10
 389.963
  20
 260.000
  30
0.0
  11
 377.963
  21
 262.116
  31
0.0
   0
LINE
   8
LEVEL003
   6
CONTINUOUS
  62
3
  10
 389.963
  20
 260.000
  30
0.0
  11
 377.963
  21
 257.884
  31
0.0
   0
TEXT
   8
LEVEL003
  62
3
  10
 356.982
  20
 263.200
  30
0.0
  40
 16.0000
   1
50
  41
 0.500000
   7
STANDARD
  72
1
  11
 364.982
  21
 263.200
  31
0.0
   0
LINE
   8
LEVEL003
   6
CONTINUOUS
  62
3
  10
 960.545
  20
 298.885
  30
0.0
  11
 960.545
  21
 252.000
  31
0.0
   0
LINE
   8
LEVEL003
   6
CONTINUOUS
  62
3
  10
 1000.67
  20
 296.299
  30
0.0
  11
 1000.67
  21
 252.000
  31
0.0
   0
LINE
   8
LEVEL003
   6
CONTINUOUS
  62
3
  10
 960.545
  20
 260.000
  30
0.0
  11
 1000.67
  21
 260.000
  31
0.0
   0
LINE
   8
LEVEL003
   6
CONTINUOUS
  62
3
  10
 960.545
  20
 260.000
  30
0.0
  11
 972.545
  21
 257.884
  31
0.0
   0
LINE
   8
LEVEL003
   6
CONTINUOUS
  62
3
  10
 960.545
  20
 260.000
  30
0.0
  11
 972.545
  21
 262.116
  31
0.0
   0
LINE
   8
LEVEL003
   6
CONTINUOUS
  62
3
  10
 1000.67
  20
 260.000
  30
0.0
  11
 988.673
  21
 262.116
  31
0.0
   0
LINE
   8
LEVEL003
   6
CONTINUOUS
  62
3
  10
 1000.67
  20
 260.000
  30
0.0
  11
 988.673
  21
 257.884
  31
0.0
   0
TEXT
   8
LEVEL003
  62
3
  10
 972.609
  20
 263.200
  30
0.0
  40
 16.0000
   1
40
  41
 0.500000
   7
STANDARD
  72
1
  11
 980.609
  21
 263.200
  31
0.0
   0
LINE
   8
LEVEL003
   6
CONTINUOUS
  62
3
  10
 1000.67
  20
 296.299
  30
0.0
  11
 1000.67
  21
 212.000
  31
0.0
   0
LINE
   8
LEVEL003
   6
CONTINUOUS
  62
3
  10
 340.000
  20
 296.000
  30
0.0
  11
 340.000
  21
 212.000
  31
0.0
   0
LINE
   8
LEVEL003
   6
CONTINUOUS
  62
3
  10
 1000.67
  20
 220.000
  30
0.0
  11
 340.000
  21
 220.000
  31
0.0
   0
LINE
   8
LEVEL003
   6
CONTINUOUS
  62
3
  10
 1000.67
  20
 220.000
  30
0.0
  11
 988.673
  21
 222.116
  31
0.0
   0
LINE
   8
LEVEL003
   6
CONTINUOUS
  62
3
  10
 1000.67
  20
 220.000
  30
0.0
  11
 988.673
  21
 217.884
  31
0.0
   0
LINE
   8
LEVEL003
   6
CONTINUOUS
  62
3
  10
 340.000
  20
 220.000
  30
0.0
  11
 352.000
  21
 217.884
  31
0.0
   0
LINE
   8
LEVEL003
   6
CONTINUOUS
  62
3
  10
 340.000
  20
 220.000
  30
0.0
  11
 352.000
  21
 222.116
  31
0.0
   0
TEXT
   8
LEVEL003
  62
3
  10
 650.337
  20
 223.200
  30
0.0
  40
 16.0000
   1
約660
   7
STANDARD
  72
1
  11
 670.337
  21
 223.200
  31
0.0
   0
LINE
   8
LEVEL003
   6
CONTINUOUS
  62
3
  10
 299.558
  20
 358.998
  30
0.0
  11
 299.558
  21
 172.000
  31
0.0
   0
LINE
   8
LEVEL003
   6
CONTINUOUS
  62
3
  10
 1062.35
  20
 482.491
  30
0.0
  11
 1062.35
  21
 172.000
  31
0.0
   0
LINE
   8
LEVEL003
   6
CONTINUOUS
  62
3
  10
 299.558
  20
 180.000
  30
0.0
  11
 1062.35
  21
 180.000
  31
0.0
   0
LINE
   8
LEVEL003
   6
CONTINUOUS
  62
3
  10
 299.558
  20
 180.000
  30
0.0
  11
 311.558
  21
 177.884
  31
0.0
   0
LINE
   8
LEVEL003
   6
CONTINUOUS
  62
3
  10
 299.558
  20
 180.000
  30
0.0
  11
 311.558
  21
 182.116
  31
0.0
   0
LINE
   8
LEVEL003
   6
CONTINUOUS
  62
3
  10
 1062.35
  20
 180.000
  30
0.0
  11
 1050.35
  21
 182.116
  31
0.0
   0
LINE
   8
LEVEL003
   6
CONTINUOUS
  62
3
  10
 1062.35
  20
 180.000
  30
0.0
  11
 1050.35
  21
 177.884
  31
0.0
   0
TEXT
   8
LEVEL003
  62
3
  10
 660.954
  20
 183.200
  30
0.0
  40
 16.0000
   1
約770
   7
STANDARD
  72
1
  11
 680.954
  21
 183.200
  31
0.0
   0
LINE
   8
LEVEL003
   6
CONTINUOUS
  62
3
  10
 1062.75
  20
 499.844
  30
0.0
  11
 1128.00
  21
 499.844
  31
0.0
   0
LINE
   8
LEVEL003
   6
CONTINUOUS
  62
3
  10
 1004.67
  20
 300.299
  30
0.0
  11
 1128.00
  21
 300.299
  31
0.0
   0
LINE
   8
LEVEL003
   6
CONTINUOUS
  62
3
  10
 1120.00
  20
 499.844
  30
0.0
  11
 1120.00
  21
 300.299
  31
0.0
   0
LINE
   8
LEVEL003
   6
CONTINUOUS
  62
3
  10
 1120.00
  20
 499.844
  30
0.0
  11
 1117.88
  21
 487.844
  31
0.0
   0
LINE
   8
LEVEL003
   6
CONTINUOUS
  62
3
  10
 1120.00
  20
 499.844
  30
0.0
  11
 1122.12
  21
 487.844
  31
0.0
   0
LINE
   8
LEVEL003
   6
CONTINUOUS
  62
3
  10
 1120.00
  20
 300.299
  30
0.0
  11
 1122.12
  21
 312.299
  31
0.0
   0
LINE
   8
LEVEL003
   6
CONTINUOUS
  62
3
  10
 1120.00
  20
 300.299
  30
0.0
  11
 1117.88
  21
 312.299
  31
0.0
   0
TEXT
   8
LEVEL003
  62
3
  10
 1116.80
  20
 380.072
  30
0.0
  40
 16.0000
   1
約200
  50
 90.0000
   7
STANDARD
  72
1
  11
 1116.80
  21
 400.072
  31
0.0
   0
LINE
   8
LEVEL003
   6
CONTINUOUS
  62
3
  10
 1004.20
  20
 877.500
  30
0.0
  11
 1128.00
  21
 877.500
  31
0.0
   0
LINE
   8
LEVEL003
   6
CONTINUOUS
  62
3
  10
 1004.20
  20
 722.500
  30
0.0
  11
 1128.00
  21
 722.500
  31
0.0
   0
LINE
   8
LEVEL003
   6
CONTINUOUS
  62
3
  10
 1120.00
  20
 877.500
  30
0.0
  11
 1120.00
  21
 722.500
  31
0.0
   0
LINE
   8
LEVEL003
   6
CONTINUOUS
  62
3
  10
 1120.00
  20
 877.500
  30
0.0
  11
 1117.88
  21
 865.500
  31
0.0
   0
LINE
   8
LEVEL003
   6
CONTINUOUS
  62
3
  10
 1120.00
  20
 877.500
  30
0.0
  11
 1122.12
  21
 865.500
  31
0.0
   0
LINE
   8
LEVEL003
   6
CONTINUOUS
  62
3
  10
 1120.00
  20
 722.500
  30
0.0
  11
 1122.12
  21
 734.500
  31
0.0
   0
LINE
   8
LEVEL003
   6
CONTINUOUS
  62
3
  10
 1120.00
  20
 722.500
  30
0.0
  11
 1117.88
  21
 734.500
  31
0.0
   0
TEXT
   8
LEVEL003
  62
3
  10
 1116.80
  20
 788.000
  30
0.0
  40
 16.0000
   1
155
  50
 90.0000
  41
 0.500000
   7
STANDARD
  72
1
  11
 1116.80
  21
 800.000
  31
0.0
   0
TEXT
   8
LEVEL003
  62
3
  10
 601.897
  20
 554.310
  30
0.0
  40
 16.0000
   1
ハンドル棒
   7
STANDARD
   0
TEXT
   8
LEVEL003
  62
3
  10
 641.897
  20
 514.310
  30
0.0
  40
 16.0000
   1
オイルタンク
   7
STANDARD
   0
LINE
   8
LEVEL003
   6
CONTINUOUS
  62
3
  10
 587.794
  20
 409.810
  30
0.0
  11
 637.908
  21
 513.617
  31
0.0
   0
LINE
   8
LEVEL003
   6
CONTINUOUS
  62
3
  10
 637.908
  20
 513.617
  30
0.0
  11
 743.147
  21
 513.617
  31
0.0
   0
LINE
   8
LEVEL003
   6
CONTINUOUS
  62
3
  10
 587.794
  20
 409.810
  30
0.0
  11
 594.917
  21
 419.697
  31
0.0
   0
LINE
   8
LEVEL003
   6
CONTINUOUS
  62
3
  10
 587.794
  20
 409.810
  30
0.0
  11
 591.106
  21
 421.536
  31
0.0
   0
LINE
   8
LEVEL003
   6
CONTINUOUS
  62
3
  10
 555.579
  20
 472.810
  30
0.0
  11
 599.249
  21
 555.139
  31
0.0
   0
LINE
   8
LEVEL003
   6
CONTINUOUS
  62
3
  10
 599.249
  20
 555.139
  30
0.0
  11
 693.749
  21
 555.139
  31
0.0
   0
LINE
   8
LEVEL003
   6
CONTINUOUS
  62
3
  10
 555.579
  20
 472.810
  30
0.0
  11
 563.071
  21
 482.419
  31
0.0
   0
LINE
   8
LEVEL003
   6
CONTINUOUS
  62
3
  10
 555.579
  20
 472.810
  30
0.0
  11
 559.332
  21
 484.402
  31
0.0
   0
LINE
   8
LEVEL003
   6
CONTINUOUS
  62
3
  10
 961.626
  20
 496.102
  30
0.0
  11
 939.653
  21
 543.303
  31
0.0
   0
LINE
   8
LEVEL003
   6
CONTINUOUS
  62
3
  10
 939.653
  20
 543.303
  30
0.0
  11
 860.713
  21
 543.303
  31
0.0
   0
LINE
   8
LEVEL003
   6
CONTINUOUS
  62
3
  10
 961.626
  20
 496.102
  30
0.0
  11
 958.480
  21
 507.874
  31
0.0
   0
LINE
   8
LEVEL003
   6
CONTINUOUS
  62
3
  10
 961.626
  20
 496.102
  30
0.0
  11
 954.643
  21
 506.088
  31
0.0
   0
TEXT
   8
LEVEL003
  62
3
  10
 877.262
  20
 546.026
  30
0.0
  40
 16.0000
   1
フック
   7
STANDARD
   0
LINE
   8
LEVEL001
   6
CONTINUOUS
  62
7
  10
 60.0000
  20
 300.000
  30
0.0
  11
 45.0000
  21
 300.000
  31
0.0
   0
ARC
   8
LEVEL001
   6
CONTINUOUS
  62
7
  10
 192.000
  20
 418.894
  30
0.0
  40
 3.00000
  50
 0.151988E-10
  51
 90.0000
   0
LINE
   8
LEVEL001
   6
CONTINUOUS
  62
7
  10
 195.000
  20
 438.136
  30
0.0
  11
 195.000
  21
 309.000
  31
0.0
   0
ARC
   8
LEVEL001
   6
CONTINUOUS
  62
7
  10
 192.000
  20
 438.136
  30
0.0
  40
 3.00000
  50
0.0
  51
 90.0000
   0
ARC
   8
LEVEL001
   6
CONTINUOUS
  62
7
  10
 48.0000
  20
 418.894
  30
0.0
  40
 3.00000
  50
 90.0000
  51
 180.000
   0
ARC
   8
LEVEL001
   6
CONTINUOUS
  62
7
  10
 48.0000
  20
 438.136
  30
0.0
  40
 3.00000
  50
 90.0000
  51
 180.000
   0
LINE
   8
LEVEL001
   6
CONTINUOUS
  62
7
  10
 48.0000
  20
 421.894
  30
0.0
  11
 93.5000
  21
 421.894
  31
0.0
   0
LINE
   8
LEVEL001
   6
CONTINUOUS
  62
7
  10
 146.500
  20
 421.894
  30
0.0
  11
 192.000
  21
 421.894
  31
0.0
   0
LINE
   8
LEVEL001
   6
CONTINUOUS
  62
7
  10
 139.750
  20
 441.136
  30
0.0
  11
 192.000
  21
 441.136
  31
0.0
   0
LINE
   8
LEVEL001
   6
CONTINUOUS
  62
7
  10
 45.0000
  20
 438.136
  30
0.0
  11
 45.0000
  21
 379.110
  31
0.0
   0
LINE
   8
LEVEL001
   6
CONTINUOUS
  62
7
  10
 45.0000
  20
 349.887
  30
0.0
  11
 45.0000
  21
 300.000
  31
0.0
   0
TEXT
   8
LEVEL003
  62
3
  10
 179.377
  20
 452.772
  30
0.0
  40
 16.0000
   1
Ｒｃ３／８
   7
STANDARD
   0
LINE
   8
LEVEL003
   6
CONTINUOUS
  62
3
  10
 124.463
  20
 371.535
  30
0.0
  11
 176.457
  21
 453.492
  31
0.0
   0
LINE
   8
LEVEL003
   6
CONTINUOUS
  62
3
  10
 176.457
  20
 453.492
  30
0.0
  11
 257.141
  21
 453.492
  31
0.0
   0
LINE
   8
LEVEL003
   6
CONTINUOUS
  62
3
  10
 124.463
  20
 371.535
  30
0.0
  11
 132.678
  21
 380.534
  31
0.0
   0
LINE
   8
LEVEL003
   6
CONTINUOUS
  62
3
  10
 124.463
  20
 371.535
  30
0.0
  11
 129.105
  21
 382.801
  31
0.0
   0
LINE
   8
LEVEL003
   6
CONTINUOUS
  62
3
  10
 700.602
  20
 875.000
  30
0.0
  11
 700.602
  21
 725.000
  31
0.0
   0
LINE
   8
LEVEL003
   6
CONTINUOUS
  62
3
  10
 700.602
  20
 875.000
  30
0.0
  11
 698.486
  21
 863.000
  31
0.0
   0
LINE
   8
LEVEL003
   6
CONTINUOUS
  62
3
  10
 700.602
  20
 875.000
  30
0.0
  11
 702.718
  21
 863.000
  31
0.0
   0
LINE
   8
LEVEL003
   6
CONTINUOUS
  62
3
  10
 700.602
  20
 725.000
  30
0.0
  11
 702.718
  21
 737.000
  31
0.0
   0
LINE
   8
LEVEL003
   6
CONTINUOUS
  62
3
  10
 700.602
  20
 725.000
  30
0.0
  11
 698.486
  21
 737.000
  31
0.0
   0
TEXT
   8
LEVEL003
  62
3
  10
 697.402
  20
 788.000
  30
0.0
  40
 16.0000
   1
150
  50
 90.0000
  41
 0.500000
   7
STANDARD
  72
1
  11
 697.402
  21
 800.000
  31
0.0
   0
LINE
   8
LEVEL001
   6
CONTINUOUS
  62
7
  10
 499.000
  20
 810.750
  30
0.0
  11
 677.542
  21
 810.750
  31
0.0
   0
LINE
   8
LEVEL001
   6
CONTINUOUS
  62
7
  10
 706.117
  20
 810.750
  30
0.0
  11
 954.350
  21
 810.750
  31
0.0
   0
LINE
   8
LEVEL001
   6
DASHDOT
  62
1
  10
 296.535
  20
 800.000
  30
0.0
  11
 677.542
  21
 800.000
  31
0.0
   0
LINE
   8
LEVEL001
   6
DASHDOT
  62
1
  10
 706.117
  20
 800.000
  30
0.0
  11
 1070.79
  21
 800.000
  31
0.0
   0
LINE
   8
LEVEL001
   6
CONTINUOUS
  62
7
  10
 499.000
  20
 789.250
  30
0.0
  11
 677.542
  21
 789.250
  31
0.0
   0
LINE
   8
LEVEL001
   6
CONTINUOUS
  62
7
  10
 706.117
  20
 789.250
  30
0.0
  11
 954.350
  21
 789.250
  31
0.0
   0
LINE
   8
LEVEL003
   6
CONTINUOUS
  62
7
  10
 967.057
  20
 394.081
  30
0.0
  11
 998.950
  21
 345.266
  31
0.0
   0
LINE
   8
LEVEL001
   6
CONTINUOUS
  62
7
  10
 959.363
  20
 393.786
  30
0.0
  11
 967.057
  21
 394.081
  31
0.0
   0
LINE
   8
LEVEL001
   6
CONTINUOUS
  62
7
  10
 959.363
  20
 393.786
  30
0.0
  11
 957.659
  21
 438.253
  31
0.0
   0
LINE
   8
LEVEL001
   6
CONTINUOUS
  62
7
  10
 962.843
  20
 407.429
  30
0.0
  11
 963.360
  21
 393.939
  31
0.0
   0
LINE
   8
LEVEL003
   6
CONTINUOUS
  62
7
  10
 964.359
  20
 393.978
  30
0.0
  11
 963.881
  21
 406.468
  31
0.0
   0
LINE
   8
LEVEL003
   6
CONTINUOUS
  62
7
  10
 968.439
  20
 391.966
  30
0.0
  11
 968.017
  21
 402.981
  31
0.0
   0
LINE
   8
LEVEL003
   6
CONTINUOUS
  62
7
  10
 974.666
  20
 382.436
  30
0.0
  11
 978.734
  21
 382.591
  31
0.0
   0
LINE
   8
LEVEL003
   6
CONTINUOUS
  62
7
  10
 968.017
  20
 402.981
  30
0.0
  11
 977.938
  21
 403.361
  31
0.0
   0
LINE
   8
LEVEL003
   6
CONTINUOUS
  62
7
  10
 977.938
  20
 403.361
  30
0.0
  11
 979.080
  21
 401.547
  31
0.0
   0
LINE
   8
LEVEL003
   6
CONTINUOUS
  62
7
  10
 979.080
  20
 401.547
  30
0.0
  11
 979.999
  21
 377.564
  31
0.0
   0
LINE
   8
LEVEL003
   6
CONTINUOUS
  62
7
  10
 979.999
  20
 377.564
  30
0.0
  11
 979.038
  21
 375.743
  31
0.0
   0
LINE
   8
LEVEL001
   6
CONTINUOUS
  62
7
  10
 430.985
  20
 413.117
  30
0.0
  11
 434.397
  21
 324.082
  31
0.0
   0
LINE
   8
LEVEL001
   6
CONTINUOUS
  62
7
  10
 439.293
  20
 324.270
  30
0.0
  11
 435.882
  21
 413.305
  31
0.0
   0
LINE
   8
LEVEL001
   6
CONTINUOUS
  62
7
  10
 427.862
  20
 409.745
  30
0.0
  11
 431.025
  21
 327.206
  31
0.0
   0
LINE
   8
LEVEL001
   6
CONTINUOUS
  62
7
  10
 437.801
  20
 411.527
  30
0.0
  11
 441.071
  21
 326.190
  31
0.0
   0
ARC
   8
LEVEL001
   6
CONTINUOUS
  62
7
  10
 408.162
  20
 409.427
  30
0.0
  40
 1.00000
  50
 336.304
  51
 2.55848
   0
ARC
   8
LEVEL001
   6
CONTINUOUS
  62
7
  10
 402.168
  20
 409.159
  30
0.0
  40
 1.00000
  50
 182.558
  51
 205.682
   0
CIRCLE
   8
LEVEL003
   6
CONTINUOUS
  62
7
  10
 862.500
  20
 845.000
  30
0.0
  40
 12.5000
   0
CIRCLE
   8
LEVEL003
   6
CONTINUOUS
  62
7
  10
 862.500
  20
 845.000
  30
0.0
  40
 11.5000
   0
CIRCLE
   8
LEVEL001
   6
CONTINUOUS
  62
7
  10
 862.500
  20
 845.000
  30
0.0
  40
 14.5000
   0
LINE
   8
LEVEL003
   6
CONTINUOUS
  62
3
  10
 859.303
  20
 856.047
  30
0.0
  11
 841.107
  21
 918.915
  31
0.0
   0
LINE
   8
LEVEL003
   6
CONTINUOUS
  62
3
  10
 841.107
  20
 918.915
  30
0.0
  11
 674.012
  21
 918.915
  31
0.0
   0
LINE
   8
LEVEL003
   6
CONTINUOUS
  62
3
  10
 859.303
  20
 856.047
  30
0.0
  11
 857.999
  21
 868.162
  31
0.0
   0
LINE
   8
LEVEL003
   6
CONTINUOUS
  62
3
  10
 859.303
  20
 856.047
  30
0.0
  11
 853.934
  21
 866.985
  31
0.0
   0
TEXT
   8
LEVEL003
  62
3
  10
 677.447
  20
 919.237
  30
0.0
  40
 16.0000
   1
エア抜きプラグ
   7
STANDARD
   0
TEXT
   8
LEVEL003
  62
3
  10
 677.447
  20
 897.904
  30
0.0
  40
 16.0000
   1
検油棒及び給油口兼用
   7
STANDARD
   0
LINE
   8
LEVEL003
   6
CONTINUOUS
  62
7
  10
 63.5000
  20
 442.422
  30
0.0
  11
 86.5000
  21
 442.422
  31
0.0
   0
LINE
   8
LEVEL003
   6
CONTINUOUS
  62
7
  10
 86.5000
  20
 442.422
  30
0.0
  11
 87.5000
  21
 441.422
  31
0.0
   0
LINE
   8
LEVEL003
   6
CONTINUOUS
  62
7
  10
 62.5000
  20
 441.422
  30
0.0
  11
 87.5000
  21
 441.422
  31
0.0
   0
LINE
   8
LEVEL003
   6
CONTINUOUS
  62
7
  10
 87.5000
  20
 439.422
  30
0.0
  11
 87.5000
  21
 441.422
  31
0.0
   0
LINE
   8
LEVEL003
   6
DASHDOT
  62
1
  10
 75.0000
  20
 458.519
  30
0.0
  11
 75.0000
  21
 427.422
  31
0.0
   0
LINE
   8
LEVEL001
   6
CONTINUOUS
  62
7
  10
 66.7500
  20
 443.815
  30
0.0
  11
 83.2500
  21
 443.815
  31
0.0
   0
ARC
   8
LEVEL001
   6
CONTINUOUS
  62
7
  10
 82.7864
  20
 443.315
  30
0.0
  40
 0.500000
  50
 310.000
  51
 90.0000
   0
LINE
   8
LEVEL050
   6
CONTINUOUS
  62
7
  10
 65.0000
  20
 445.565
  30
0.0
  11
 85.0000
  21
 445.565
  31
0.0
   0
LINE
   8
LEVEL050
   6
CONTINUOUS
  62
7
  10
 85.0000
  20
 445.565
  30
0.0
  11
 83.2500
  21
 443.815
  31
0.0
   0
LINE
   8
LEVEL001
   6
CONTINUOUS
  62
3
  10
 76.5000
  20
 453.315
  30
0.0
  11
 76.5000
  21
 445.565
  31
0.0
   0
LINE
   8
LEVEL001
   6
CONTINUOUS
  62
3
  10
 78.0000
  20
 453.315
  30
0.0
  11
 78.0000
  21
 445.565
  31
0.0
   0
LINE
   8
LEVEL001
   6
CONTINUOUS
  62
3
  10
 79.5000
  20
 453.315
  30
0.0
  11
 79.5000
  21
 445.565
  31
0.0
   0
LINE
   8
LEVEL001
   6
CONTINUOUS
  62
3
  10
 81.0000
  20
 453.315
  30
0.0
  11
 81.0000
  21
 445.565
  31
0.0
   0
LINE
   8
LEVEL001
   6
CONTINUOUS
  62
3
  10
 82.5000
  20
 453.315
  30
0.0
  11
 82.5000
  21
 445.565
  31
0.0
   0
LINE
   8
LEVEL001
   6
CONTINUOUS
  62
3
  10
 84.0000
  20
 452.815
  30
0.0
  11
 84.0000
  21
 445.565
  31
0.0
   0
LINE
   8
LEVEL050
   6
CONTINUOUS
  62
7
  10
 70.0000
  20
 455.815
  30
0.0
  11
 80.0000
  21
 455.815
  31
0.0
   0
ARC
   8
LEVEL050
   6
CONTINUOUS
  62
7
  10
 80.0000
  20
 450.815
  30
0.0
  40
 5.00000
  50
 0.911929E-11
  51
 90.0000
   0
LINE
   8
LEVEL050
   6
CONTINUOUS
  62
7
  10
 85.0000
  20
 445.565
  30
0.0
  11
 85.0000
  21
 450.815
  31
0.0
   0
LINE
   8
LEVEL001
   6
CONTINUOUS
  62
7
  10
 83.1078
  20
 442.932
  30
0.0
  11
 82.5000
  21
 442.422
  31
0.0
   0
ARC
   8
LEVEL050
   6
CONTINUOUS
  62
7
  10
 70.0000
  20
 450.815
  30
0.0
  40
 5.00000
  50
 90.0000
  51
 180.000
   0
LINE
   8
LEVEL001
   6
CONTINUOUS
  62
3
  10
 70.5000
  20
 453.315
  30
0.0
  11
 70.5000
  21
 445.565
  31
0.0
   0
LINE
   8
LEVEL001
   6
CONTINUOUS
  62
3
  10
 72.0000
  20
 453.315
  30
0.0
  11
 72.0000
  21
 445.565
  31
0.0
   0
LINE
   8
LEVEL001
   6
CONTINUOUS
  62
3
  10
 73.5000
  20
 453.315
  30
0.0
  11
 73.5000
  21
 445.565
  31
0.0
   0
LINE
   8
LEVEL003
   6
CONTINUOUS
  62
7
  10
 60.5000
  20
 437.422
  30
0.0
  11
 62.5000
  21
 439.422
  31
0.0
   0
LINE
   8
LEVEL003
   6
CONTINUOUS
  62
7
  10
 62.5000
  20
 439.422
  30
0.0
  11
 87.5000
  21
 439.422
  31
0.0
   0
LINE
   8
LEVEL003
   6
CONTINUOUS
  62
7
  10
 87.5000
  20
 439.422
  30
0.0
  11
 89.5000
  21
 437.422
  31
0.0
   0
LINE
   8
LEVEL003
   6
CONTINUOUS
  62
7
  10
 60.5000
  20
 437.422
  30
0.0
  11
 89.5000
  21
 437.422
  31
0.0
   0
LINE
   8
LEVEL003
   6
CONTINUOUS
  62
7
  10
 63.5000
  20
 442.422
  30
0.0
  11
 62.5000
  21
 441.422
  31
0.0
   0
LINE
   8
LEVEL003
   6
CONTINUOUS
  62
7
  10
 62.5000
  20
 439.422
  30
0.0
  11
 62.5000
  21
 441.422
  31
0.0
   0
ARC
   8
LEVEL001
   6
CONTINUOUS
  62
7
  10
 67.2136
  20
 443.315
  30
0.0
  40
 0.500000
  50
 90.0000
  51
 230.000
   0
LINE
   8
LEVEL050
   6
CONTINUOUS
  62
7
  10
 65.0000
  20
 445.565
  30
0.0
  11
 66.7500
  21
 443.815
  31
0.0
   0
LINE
   8
LEVEL001
   6
CONTINUOUS
  62
3
  10
 66.0000
  20
 452.815
  30
0.0
  11
 66.0000
  21
 445.565
  31
0.0
   0
LINE
   8
LEVEL001
   6
CONTINUOUS
  62
3
  10
 67.5000
  20
 453.315
  30
0.0
  11
 67.5000
  21
 445.565
  31
0.0
   0
LINE
   8
LEVEL001
   6
CONTINUOUS
  62
3
  10
 69.0000
  20
 453.315
  30
0.0
  11
 69.0000
  21
 445.565
  31
0.0
   0
LINE
   8
LEVEL050
   6
CONTINUOUS
  62
7
  10
 65.0000
  20
 445.565
  30
0.0
  11
 65.0000
  21
 450.815
  31
0.0
   0
LINE
   8
LEVEL001
   6
CONTINUOUS
  62
7
  10
 66.8922
  20
 442.932
  30
0.0
  11
 67.5000
  21
 442.422
  31
0.0
   0
LINE
   8
LEVEL001
   6
CONTINUOUS
  62
7
  10
 48.0000
  20
 441.136
  30
0.0
  11
 62.5000
  21
 441.136
  31
0.0
   0
LINE
   8
LEVEL001
   6
CONTINUOUS
  62
7
  10
 87.5000
  20
 441.136
  30
0.0
  11
 100.250
  21
 441.136
  31
0.0
   0
LINE
   8
LEVEL001
   6
CONTINUOUS
  62
7
  10
 843.128
  20
 436.867
  30
0.0
  11
 845.050
  21
 438.942
  31
0.0
   0
LINE
   8
LEVEL001
   6
CONTINUOUS
  62
7
  10
 845.050
  20
 438.942
  30
0.0
  11
 870.032
  21
 439.899
  31
0.0
   0
LINE
   8
LEVEL001
   6
CONTINUOUS
  62
7
  10
 870.032
  20
 439.899
  30
0.0
  11
 872.107
  21
 437.977
  31
0.0
   0
LINE
   8
LEVEL003
   6
CONTINUOUS
  62
7
  10
 845.050
  20
 438.942
  30
0.0
  11
 844.973
  21
 440.940
  31
0.0
   0
LINE
   8
LEVEL003
   6
CONTINUOUS
  62
7
  10
 870.032
  20
 439.899
  30
0.0
  11
 869.955
  21
 441.898
  31
0.0
   0
LINE
   8
LEVEL001
   6
DASHDOT
  62
1
  10
 352.000
  20
 853.476
  30
0.0
  11
 352.000
  21
 807.022
  31
0.0
   0
LINE
   8
LEVEL001
   6
DASHDOT
  62
1
  10
 376.000
  20
 855.390
  30
0.0
  11
 376.000
  21
 748.722
  31
0.0
   0
LINE
   8
LEVEL001
   6
CONTINUOUS
  62
7
  10
 361.962
  20
 842.572
  30
0.0
  11
 363.392
  21
 826.230
  31
0.0
   0
LINE
   8
LEVEL001
   6
DASHDOT
  62
1
  10
 361.051
  20
 837.000
  30
0.0
  11
 391.839
  21
 837.000
  31
0.0
   0
LINE
   8
LEVEL001
   6
CONTINUOUS
  62
7
  10
 342.038
  20
 842.572
  30
0.0
  11
 340.221
  21
 821.800
  31
0.0
   0
LINE
   8
LEVEL001
   6
CONTINUOUS
  62
7
  10
 385.500
  20
 837.466
  30
0.0
  11
 385.500
  21
 832.335
  31
0.0
   0
LINE
   8
LEVEL001
   6
CONTINUOUS
  62
7
  10
 385.500
  20
 832.335
  30
0.0
  11
 376.000
  21
 827.802
  31
0.0
   0
LINE
   8
LEVEL001
   6
CONTINUOUS
  62
7
  10
 376.000
  20
 827.802
  30
0.0
  11
 366.500
  21
 832.335
  31
0.0
   0
LINE
   8
LEVEL001
   6
CONTINUOUS
  62
7
  10
 366.500
  20
 832.335
  30
0.0
  11
 366.500
  21
 837.466
  31
0.0
   0
CIRCLE
   8
LEVEL001
   6
CONTINUOUS
  62
7
  10
 376.050
  20
 846.809
  30
0.0
  40
 7.50000
   0
LINE
   8
LEVEL001
   6
CONTINUOUS
  62
7
  10
 376.050
  20
 837.348
  30
0.0
  11
 367.550
  21
 841.901
  31
0.0
   0
LINE
   8
LEVEL001
   6
CONTINUOUS
  62
7
  10
 367.550
  20
 841.901
  30
0.0
  11
 367.550
  21
 851.182
  31
0.0
   0
LINE
   8
LEVEL001
   6
CONTINUOUS
  62
7
  10
 367.550
  20
 851.182
  30
0.0
  11
 376.050
  21
 855.794
  31
0.0
   0
LINE
   8
LEVEL001
   6
CONTINUOUS
  62
7
  10
 376.050
  20
 855.794
  30
0.0
  11
 384.550
  21
 851.182
  31
0.0
   0
LINE
   8
LEVEL001
   6
CONTINUOUS
  62
7
  10
 384.550
  20
 851.182
  30
0.0
  11
 384.550
  21
 841.901
  31
0.0
   0
LINE
   8
LEVEL001
   6
CONTINUOUS
  62
7
  10
 384.550
  20
 841.901
  30
0.0
  11
 376.050
  21
 837.348
  31
0.0
   0
LINE
   8
LEVEL001
   6
CONTINUOUS
  62
7
  10
 367.550
  20
 846.544
  30
0.0
  11
 367.616
  21
 845.548
  31
0.0
   0
LINE
   8
LEVEL001
   6
CONTINUOUS
  62
7
  10
 367.616
  20
 845.548
  30
0.0
  11
 367.814
  21
 844.568
  31
0.0
   0
LINE
   8
LEVEL001
   6
CONTINUOUS
  62
7
  10
 367.814
  20
 844.568
  30
0.0
  11
 368.141
  21
 843.619
  31
0.0
   0
LINE
   8
LEVEL001
   6
CONTINUOUS
  62
7
  10
 368.141
  20
 843.619
  30
0.0
  11
 368.590
  21
 842.715
  31
0.0
   0
LINE
   8
LEVEL001
   6
CONTINUOUS
  62
7
  10
 368.590
  20
 842.715
  30
0.0
  11
 369.157
  21
 841.871
  31
0.0
   0
LINE
   8
LEVEL001
   6
CONTINUOUS
  62
7
  10
 369.157
  20
 841.871
  30
0.0
  11
 369.831
  21
 841.100
  31
0.0
   0
LINE
   8
LEVEL001
   6
CONTINUOUS
  62
7
  10
 369.831
  20
 841.100
  30
0.0
  11
 370.601
  21
 840.414
  31
0.0
   0
LINE
   8
LEVEL001
   6
CONTINUOUS
  62
7
  10
 370.601
  20
 840.414
  30
0.0
  11
 371.457
  21
 839.823
  31
0.0
   0
LINE
   8
LEVEL001
   6
CONTINUOUS
  62
7
  10
 371.457
  20
 839.823
  30
0.0
  11
 372.385
  21
 839.338
  31
0.0
   0
LINE
   8
LEVEL001
   6
CONTINUOUS
  62
7
  10
 372.385
  20
 839.338
  30
0.0
  11
 373.370
  21
 838.964
  31
0.0
   0
LINE
   8
LEVEL001
   6
CONTINUOUS
  62
7
  10
 373.370
  20
 838.964
  30
0.0
  11
 374.396
  21
 838.710
  31
0.0
   0
LINE
   8
LEVEL001
   6
CONTINUOUS
  62
7
  10
 374.396
  20
 838.710
  30
0.0
  11
 375.449
  21
 838.577
  31
0.0
   0
LINE
   8
LEVEL001
   6
CONTINUOUS
  62
7
  10
 375.449
  20
 838.577
  30
0.0
  11
 376.510
  21
 838.569
  31
0.0
   0
LINE
   8
LEVEL001
   6
CONTINUOUS
  62
7
  10
 376.510
  20
 838.569
  30
0.0
  11
 377.565
  21
 838.685
  31
0.0
   0
LINE
   8
LEVEL001
   6
CONTINUOUS
  62
7
  10
 377.565
  20
 838.685
  30
0.0
  11
 378.596
  21
 838.924
  31
0.0
   0
LINE
   8
LEVEL001
   6
CONTINUOUS
  62
7
  10
 378.596
  20
 838.924
  30
0.0
  11
 379.587
  21
 839.281
  31
0.0
   0
LINE
   8
LEVEL001
   6
CONTINUOUS
  62
7
  10
 379.587
  20
 839.281
  30
0.0
  11
 380.523
  21
 839.752
  31
0.0
   0
LINE
   8
LEVEL001
   6
CONTINUOUS
  62
7
  10
 380.523
  20
 839.752
  30
0.0
  11
 381.389
  21
 840.330
  31
0.0
   0
LINE
   8
LEVEL001
   6
CONTINUOUS
  62
7
  10
 381.389
  20
 840.330
  30
0.0
  11
 382.172
  21
 841.004
  31
0.0
   0
LINE
   8
LEVEL001
   6
CONTINUOUS
  62
7
  10
 382.172
  20
 841.004
  30
0.0
  11
 382.860
  21
 841.764
  31
0.0
   0
LINE
   8
LEVEL001
   6
CONTINUOUS
  62
7
  10
 382.860
  20
 841.764
  30
0.0
  11
 383.441
  21
 842.599
  31
0.0
   0
LINE
   8
LEVEL001
   6
CONTINUOUS
  62
7
  10
 383.441
  20
 842.599
  30
0.0
  11
 383.906
  21
 843.496
  31
0.0
   0
LINE
   8
LEVEL001
   6
CONTINUOUS
  62
7
  10
 383.906
  20
 843.496
  30
0.0
  11
 384.250
  21
 844.440
  31
0.0
   0
LINE
   8
LEVEL001
   6
CONTINUOUS
  62
7
  10
 384.250
  20
 844.440
  30
0.0
  11
 384.465
  21
 845.417
  31
0.0
   0
LINE
   8
LEVEL001
   6
CONTINUOUS
  62
7
  10
 384.465
  20
 845.417
  30
0.0
  11
 384.549
  21
 846.412
  31
0.0
   0
LINE
   8
LEVEL001
   6
CONTINUOUS
  62
7
  10
 384.549
  20
 846.412
  30
0.0
  11
 384.500
  21
 847.409
  31
0.0
   0
LINE
   8
LEVEL001
   6
CONTINUOUS
  62
7
  10
 384.500
  20
 847.409
  30
0.0
  11
 384.319
  21
 848.392
  31
0.0
   0
LINE
   8
LEVEL001
   6
CONTINUOUS
  62
7
  10
 384.319
  20
 848.392
  30
0.0
  11
 384.010
  21
 849.346
  31
0.0
   0
LINE
   8
LEVEL001
   6
CONTINUOUS
  62
7
  10
 384.010
  20
 849.346
  30
0.0
  11
 383.576
  21
 850.257
  31
0.0
   0
LINE
   8
LEVEL001
   6
CONTINUOUS
  62
7
  10
 383.576
  20
 850.257
  30
0.0
  11
 383.025
  21
 851.110
  31
0.0
   0
LINE
   8
LEVEL001
   6
CONTINUOUS
  62
7
  10
 383.025
  20
 851.110
  30
0.0
  11
 382.364
  21
 851.891
  31
0.0
   0
LINE
   8
LEVEL001
   6
CONTINUOUS
  62
7
  10
 382.364
  20
 851.891
  30
0.0
  11
 381.606
  21
 852.589
  31
0.0
   0
LINE
   8
LEVEL001
   6
CONTINUOUS
  62
7
  10
 381.606
  20
 852.589
  30
0.0
  11
 380.760
  21
 853.193
  31
0.0
   0
LINE
   8
LEVEL001
   6
CONTINUOUS
  62
7
  10
 380.760
  20
 853.193
  30
0.0
  11
 379.842
  21
 853.693
  31
0.0
   0
LINE
   8
LEVEL001
   6
CONTINUOUS
  62
7
  10
 379.842
  20
 853.693
  30
0.0
  11
 378.864
  21
 854.081
  31
0.0
   0
LINE
   8
LEVEL001
   6
CONTINUOUS
  62
7
  10
 378.864
  20
 854.081
  30
0.0
  11
 377.842
  21
 854.352
  31
0.0
   0
LINE
   8
LEVEL001
   6
CONTINUOUS
  62
7
  10
 377.842
  20
 854.352
  30
0.0
  11
 376.792
  21
 854.501
  31
0.0
   0
LINE
   8
LEVEL001
   6
CONTINUOUS
  62
7
  10
 376.792
  20
 854.501
  30
0.0
  11
 375.730
  21
 854.526
  31
0.0
   0
LINE
   8
LEVEL001
   6
CONTINUOUS
  62
7
  10
 375.730
  20
 854.526
  30
0.0
  11
 374.674
  21
 854.426
  31
0.0
   0
LINE
   8
LEVEL001
   6
CONTINUOUS
  62
7
  10
 374.674
  20
 854.426
  30
0.0
  11
 373.639
  21
 854.204
  31
0.0
   0
LINE
   8
LEVEL001
   6
CONTINUOUS
  62
7
  10
 373.639
  20
 854.204
  30
0.0
  11
 372.641
  21
 853.861
  31
0.0
   0
LINE
   8
LEVEL001
   6
CONTINUOUS
  62
7
  10
 372.641
  20
 853.861
  30
0.0
  11
 371.697
  21
 853.405
  31
0.0
   0
LINE
   8
LEVEL001
   6
CONTINUOUS
  62
7
  10
 371.697
  20
 853.405
  30
0.0
  11
 370.821
  21
 852.841
  31
0.0
   0
LINE
   8
LEVEL001
   6
CONTINUOUS
  62
7
  10
 370.821
  20
 852.841
  30
0.0
  11
 370.026
  21
 852.180
  31
0.0
   0
LINE
   8
LEVEL001
   6
CONTINUOUS
  62
7
  10
 370.026
  20
 852.180
  30
0.0
  11
 369.325
  21
 851.430
  31
0.0
   0
LINE
   8
LEVEL001
   6
CONTINUOUS
  62
7
  10
 369.325
  20
 851.430
  30
0.0
  11
 368.730
  21
 850.604
  31
0.0
   0
LINE
   8
LEVEL001
   6
CONTINUOUS
  62
7
  10
 368.730
  20
 850.604
  30
0.0
  11
 368.248
  21
 849.715
  31
0.0
   0
LINE
   8
LEVEL001
   6
CONTINUOUS
  62
7
  10
 368.248
  20
 849.715
  30
0.0
  11
 367.888
  21
 848.776
  31
0.0
   0
LINE
   8
LEVEL001
   6
CONTINUOUS
  62
7
  10
 367.888
  20
 848.776
  30
0.0
  11
 367.656
  21
 847.803
  31
0.0
   0
LINE
   8
LEVEL001
   6
CONTINUOUS
  62
7
  10
 367.656
  20
 847.803
  30
0.0
  11
 367.555
  21
 846.809
  31
0.0
   0
LINE
   8
LEVEL001
   6
CONTINUOUS
  62
7
  10
 367.555
  20
 846.809
  30
0.0
  11
 367.550
  21
 846.544
  31
0.0
   0
LINE
   8
LEVEL001
   6
CONTINUOUS
  62
7
  10
 384.550
  20
 841.901
  30
0.0
  11
 384.550
  21
 839.058
  31
0.0
   0
LINE
   8
LEVEL001
   6
CONTINUOUS
  62
7
  10
 384.550
  20
 839.058
  30
0.0
  11
 376.050
  21
 834.447
  31
0.0
   0
LINE
   8
LEVEL001
   6
CONTINUOUS
  62
7
  10
 376.050
  20
 834.447
  30
0.0
  11
 367.550
  21
 839.058
  31
0.0
   0
LINE
   8
LEVEL001
   6
CONTINUOUS
  62
7
  10
 367.550
  20
 839.058
  30
0.0
  11
 367.550
  21
 841.901
  31
0.0
   0
LINE
   8
LEVEL001
   6
CONTINUOUS
  62
7
  10
 384.550
  20
 848.889
  30
0.0
  11
 385.500
  21
 848.435
  31
0.0
   0
LINE
   8
LEVEL001
   6
CONTINUOUS
  62
7
  10
 385.500
  20
 848.435
  30
0.0
  11
 385.500
  21
 837.466
  31
0.0
   0
LINE
   8
LEVEL001
   6
CONTINUOUS
  62
7
  10
 385.500
  20
 837.466
  30
0.0
  11
 376.000
  21
 832.933
  31
0.0
   0
LINE
   8
LEVEL001
   6
CONTINUOUS
  62
7
  10
 376.000
  20
 832.933
  30
0.0
  11
 366.500
  21
 837.466
  31
0.0
   0
LINE
   8
LEVEL001
   6
CONTINUOUS
  62
7
  10
 366.500
  20
 837.466
  30
0.0
  11
 366.500
  21
 848.435
  31
0.0
   0
LINE
   8
LEVEL001
   6
CONTINUOUS
  62
7
  10
 366.500
  20
 848.435
  30
0.0
  11
 367.550
  21
 848.936
  31
0.0
   0
LINE
   8
LEVEL001
   6
CONTINUOUS
  62
7
  10
 367.568
  20
 847.063
  30
0.0
  11
 367.088
  21
 846.043
  31
0.0
   0
LINE
   8
LEVEL001
   6
CONTINUOUS
  62
7
  10
 367.088
  20
 846.043
  30
0.0
  11
 366.747
  21
 844.974
  31
0.0
   0
LINE
   8
LEVEL001
   6
CONTINUOUS
  62
7
  10
 366.747
  20
 844.974
  30
0.0
  11
 366.551
  21
 843.875
  31
0.0
   0
LINE
   8
LEVEL001
   6
CONTINUOUS
  62
7
  10
 366.551
  20
 843.875
  30
0.0
  11
 366.502
  21
 842.760
  31
0.0
   0
LINE
   8
LEVEL001
   6
CONTINUOUS
  62
7
  10
 366.502
  20
 842.760
  30
0.0
  11
 366.602
  21
 841.649
  31
0.0
   0
LINE
   8
LEVEL001
   6
CONTINUOUS
  62
7
  10
 366.602
  20
 841.649
  30
0.0
  11
 366.848
  21
 840.558
  31
0.0
   0
LINE
   8
LEVEL001
   6
CONTINUOUS
  62
7
  10
 366.848
  20
 840.558
  30
0.0
  11
 367.236
  21
 839.505
  31
0.0
   0
LINE
   8
LEVEL001
   6
CONTINUOUS
  62
7
  10
 367.236
  20
 839.505
  30
0.0
  11
 367.762
  21
 838.505
  31
0.0
   0
LINE
   8
LEVEL001
   6
CONTINUOUS
  62
7
  10
 367.762
  20
 838.505
  30
0.0
  11
 368.416
  21
 837.574
  31
0.0
   0
LINE
   8
LEVEL001
   6
CONTINUOUS
  62
7
  10
 368.416
  20
 837.574
  30
0.0
  11
 369.189
  21
 836.728
  31
0.0
   0
LINE
   8
LEVEL001
   6
CONTINUOUS
  62
7
  10
 369.189
  20
 836.728
  30
0.0
  11
 370.067
  21
 835.978
  31
0.0
   0
LINE
   8
LEVEL001
   6
CONTINUOUS
  62
7
  10
 370.067
  20
 835.978
  30
0.0
  11
 371.039
  21
 835.338
  31
0.0
   0
LINE
   8
LEVEL001
   6
CONTINUOUS
  62
7
  10
 371.039
  20
 835.338
  30
0.0
  11
 372.087
  21
 834.816
  31
0.0
   0
LINE
   8
LEVEL001
   6
CONTINUOUS
  62
7
  10
 372.087
  20
 834.816
  30
0.0
  11
 373.197
  21
 834.421
  31
0.0
   0
LINE
   8
LEVEL001
   6
CONTINUOUS
  62
7
  10
 373.197
  20
 834.421
  30
0.0
  11
 374.351
  21
 834.159
  31
0.0
   0
LINE
   8
LEVEL001
   6
CONTINUOUS
  62
7
  10
 374.351
  20
 834.159
  30
0.0
  11
 375.530
  21
 834.034
  31
0.0
   0
LINE
   8
LEVEL001
   6
CONTINUOUS
  62
7
  10
 375.530
  20
 834.034
  30
0.0
  11
 376.717
  21
 834.049
  31
0.0
   0
LINE
   8
LEVEL001
   6
CONTINUOUS
  62
7
  10
 376.717
  20
 834.049
  30
0.0
  11
 377.892
  21
 834.202
  31
0.0
   0
LINE
   8
LEVEL001
   6
CONTINUOUS
  62
7
  10
 377.892
  20
 834.202
  30
0.0
  11
 379.038
  21
 834.492
  31
0.0
   0
LINE
   8
LEVEL001
   6
CONTINUOUS
  62
7
  10
 379.038
  20
 834.492
  30
0.0
  11
 380.137
  21
 834.914
  31
0.0
   0
LINE
   8
LEVEL001
   6
CONTINUOUS
  62
7
  10
 380.137
  20
 834.914
  30
0.0
  11
 381.171
  21
 835.462
  31
0.0
   0
LINE
   8
LEVEL001
   6
CONTINUOUS
  62
7
  10
 381.171
  20
 835.462
  30
0.0
  11
 382.124
  21
 836.126
  31
0.0
   0
LINE
   8
LEVEL001
   6
CONTINUOUS
  62
7
  10
 382.124
  20
 836.126
  30
0.0
  11
 382.982
  21
 836.897
  31
0.0
   0
LINE
   8
LEVEL001
   6
CONTINUOUS
  62
7
  10
 382.982
  20
 836.897
  30
0.0
  11
 383.730
  21
 837.762
  31
0.0
   0
LINE
   8
LEVEL001
   6
CONTINUOUS
  62
7
  10
 383.730
  20
 837.762
  30
0.0
  11
 384.358
  21
 838.708
  31
0.0
   0
LINE
   8
LEVEL001
   6
CONTINUOUS
  62
7
  10
 384.358
  20
 838.708
  30
0.0
  11
 384.856
  21
 839.720
  31
0.0
   0
LINE
   8
LEVEL001
   6
CONTINUOUS
  62
7
  10
 384.856
  20
 839.720
  30
0.0
  11
 385.216
  21
 840.783
  31
0.0
   0
LINE
   8
LEVEL001
   6
CONTINUOUS
  62
7
  10
 385.216
  20
 840.783
  30
0.0
  11
 385.431
  21
 841.880
  31
0.0
   0
LINE
   8
LEVEL001
   6
CONTINUOUS
  62
7
  10
 385.431
  20
 841.880
  30
0.0
  11
 385.500
  21
 842.993
  31
0.0
   0
LINE
   8
LEVEL001
   6
CONTINUOUS
  62
7
  10
 385.500
  20
 842.993
  30
0.0
  11
 385.420
  21
 844.105
  31
0.0
   0
LINE
   8
LEVEL001
   6
CONTINUOUS
  62
7
  10
 385.420
  20
 844.105
  30
0.0
  11
 385.193
  21
 845.200
  31
0.0
   0
LINE
   8
LEVEL001
   6
CONTINUOUS
  62
7
  10
 385.193
  20
 845.200
  30
0.0
  11
 384.823
  21
 846.260
  31
0.0
   0
LINE
   8
LEVEL001
   6
CONTINUOUS
  62
7
  10
 384.823
  20
 846.260
  30
0.0
  11
 384.563
  21
 846.817
  31
0.0
   0
CIRCLE
   8
LEVEL001
   6
CONTINUOUS
  62
7
  10
 352.050
  20
 845.387
  30
0.0
  40
 7.50000
   0
LINE
   8
LEVEL001
   6
CONTINUOUS
  62
7
  10
 352.050
  20
 835.926
  30
0.0
  11
 343.550
  21
 840.480
  31
0.0
   0
LINE
   8
LEVEL001
   6
CONTINUOUS
  62
7
  10
 343.550
  20
 840.480
  30
0.0
  11
 343.550
  21
 849.761
  31
0.0
   0
LINE
   8
LEVEL001
   6
CONTINUOUS
  62
7
  10
 343.550
  20
 849.761
  30
0.0
  11
 352.050
  21
 854.372
  31
0.0
   0
LINE
   8
LEVEL001
   6
CONTINUOUS
  62
7
  10
 352.050
  20
 854.372
  30
0.0
  11
 360.550
  21
 849.761
  31
0.0
   0
LINE
   8
LEVEL001
   6
CONTINUOUS
  62
7
  10
 360.550
  20
 849.761
  30
0.0
  11
 360.550
  21
 840.480
  31
0.0
   0
LINE
   8
LEVEL001
   6
CONTINUOUS
  62
7
  10
 360.550
  20
 840.480
  30
0.0
  11
 352.050
  21
 835.926
  31
0.0
   0
LINE
   8
LEVEL001
   6
CONTINUOUS
  62
7
  10
 343.550
  20
 845.123
  30
0.0
  11
 343.616
  21
 844.127
  31
0.0
   0
LINE
   8
LEVEL001
   6
CONTINUOUS
  62
7
  10
 343.616
  20
 844.127
  30
0.0
  11
 343.814
  21
 843.147
  31
0.0
   0
LINE
   8
LEVEL001
   6
CONTINUOUS
  62
7
  10
 343.814
  20
 843.147
  30
0.0
  11
 344.141
  21
 842.197
  31
0.0
   0
LINE
   8
LEVEL001
   6
CONTINUOUS
  62
7
  10
 344.141
  20
 842.197
  30
0.0
  11
 344.590
  21
 841.293
  31
0.0
   0
LINE
   8
LEVEL001
   6
CONTINUOUS
  62
7
  10
 344.590
  20
 841.293
  30
0.0
  11
 345.157
  21
 840.449
  31
0.0
   0
LINE
   8
LEVEL001
   6
CONTINUOUS
  62
7
  10
 345.157
  20
 840.449
  30
0.0
  11
 345.831
  21
 839.678
  31
0.0
   0
LINE
   8
LEVEL001
   6
CONTINUOUS
  62
7
  10
 345.831
  20
 839.678
  30
0.0
  11
 346.601
  21
 838.992
  31
0.0
   0
LINE
   8
LEVEL001
   6
CONTINUOUS
  62
7
  10
 346.601
  20
 838.992
  30
0.0
  11
 347.457
  21
 838.402
  31
0.0
   0
LINE
   8
LEVEL001
   6
CONTINUOUS
  62
7
  10
 347.457
  20
 838.402
  30
0.0
  11
 348.385
  21
 837.916
  31
0.0
   0
LINE
   8
LEVEL001
   6
CONTINUOUS
  62
7
  10
 348.385
  20
 837.916
  30
0.0
  11
 349.370
  21
 837.543
  31
0.0
   0
LINE
   8
LEVEL001
   6
CONTINUOUS
  62
7
  10
 349.370
  20
 837.543
  30
0.0
  11
 350.396
  21
 837.288
  31
0.0
   0
LINE
   8
LEVEL001
   6
CONTINUOUS
  62
7
  10
 350.396
  20
 837.288
  30
0.0
  11
 351.449
  21
 837.155
  31
0.0
   0
LINE
   8
LEVEL001
   6
CONTINUOUS
  62
7
  10
 351.449
  20
 837.155
  30
0.0
  11
 352.510
  21
 837.147
  31
0.0
   0
LINE
   8
LEVEL001
   6
CONTINUOUS
  62
7
  10
 352.510
  20
 837.147
  30
0.0
  11
 353.565
  21
 837.263
  31
0.0
   0
LINE
   8
LEVEL001
   6
CONTINUOUS
  62
7
  10
 353.565
  20
 837.263
  30
0.0
  11
 354.596
  21
 837.502
  31
0.0
   0
LINE
   8
LEVEL001
   6
CONTINUOUS
  62
7
  10
 354.596
  20
 837.502
  30
0.0
  11
 355.587
  21
 837.860
  31
0.0
   0
LINE
   8
LEVEL001
   6
CONTINUOUS
  62
7
  10
 355.587
  20
 837.860
  30
0.0
  11
 356.523
  21
 838.331
  31
0.0
   0
LINE
   8
LEVEL001
   6
CONTINUOUS
  62
7
  10
 356.523
  20
 838.331
  30
0.0
  11
 357.389
  21
 838.908
  31
0.0
   0
LINE
   8
LEVEL001
   6
CONTINUOUS
  62
7
  10
 357.389
  20
 838.908
  30
0.0
  11
 358.172
  21
 839.582
  31
0.0
   0
LINE
   8
LEVEL001
   6
CONTINUOUS
  62
7
  10
 358.172
  20
 839.582
  30
0.0
  11
 358.860
  21
 840.342
  31
0.0
   0
LINE
   8
LEVEL001
   6
CONTINUOUS
  62
7
  10
 358.860
  20
 840.342
  30
0.0
  11
 359.441
  21
 841.178
  31
0.0
   0
LINE
   8
LEVEL001
   6
CONTINUOUS
  62
7
  10
 359.441
  20
 841.178
  30
0.0
  11
 359.906
  21
 842.074
  31
0.0
   0
LINE
   8
LEVEL001
   6
CONTINUOUS
  62
7
  10
 359.906
  20
 842.074
  30
0.0
  11
 360.250
  21
 843.018
  31
0.0
   0
LINE
   8
LEVEL001
   6
CONTINUOUS
  62
7
  10
 360.250
  20
 843.018
  30
0.0
  11
 360.465
  21
 843.996
  31
0.0
   0
LINE
   8
LEVEL001
   6
CONTINUOUS
  62
7
  10
 360.465
  20
 843.996
  30
0.0
  11
 360.549
  21
 844.990
  31
0.0
   0
LINE
   8
LEVEL001
   6
CONTINUOUS
  62
7
  10
 360.549
  20
 844.990
  30
0.0
  11
 360.500
  21
 845.987
  31
0.0
   0
LINE
   8
LEVEL001
   6
CONTINUOUS
  62
7
  10
 360.500
  20
 845.987
  30
0.0
  11
 360.319
  21
 846.970
  31
0.0
   0
LINE
   8
LEVEL001
   6
CONTINUOUS
  62
7
  10
 360.319
  20
 846.970
  30
0.0
  11
 360.010
  21
 847.925
  31
0.0
   0
LINE
   8
LEVEL001
   6
CONTINUOUS
  62
7
  10
 360.010
  20
 847.925
  30
0.0
  11
 359.576
  21
 848.835
  31
0.0
   0
LINE
   8
LEVEL001
   6
CONTINUOUS
  62
7
  10
 359.576
  20
 848.835
  30
0.0
  11
 359.025
  21
 849.688
  31
0.0
   0
LINE
   8
LEVEL001
   6
CONTINUOUS
  62
7
  10
 359.025
  20
 849.688
  30
0.0
  11
 358.364
  21
 850.469
  31
0.0
   0
LINE
   8
LEVEL001
   6
CONTINUOUS
  62
7
  10
 358.364
  20
 850.469
  30
0.0
  11
 357.606
  21
 851.168
  31
0.0
   0
LINE
   8
LEVEL001
   6
CONTINUOUS
  62
7
  10
 357.606
  20
 851.168
  30
0.0
  11
 356.760
  21
 851.771
  31
0.0
   0
LINE
   8
LEVEL001
   6
CONTINUOUS
  62
7
  10
 356.760
  20
 851.771
  30
0.0
  11
 355.842
  21
 852.271
  31
0.0
   0
LINE
   8
LEVEL001
   6
CONTINUOUS
  62
7
  10
 355.842
  20
 852.271
  30
0.0
  11
 354.864
  21
 852.660
  31
0.0
   0
LINE
   8
LEVEL001
   6
CONTINUOUS
  62
7
  10
 354.864
  20
 852.660
  30
0.0
  11
 353.842
  21
 852.931
  31
0.0
   0
LINE
   8
LEVEL001
   6
CONTINUOUS
  62
7
  10
 353.842
  20
 852.931
  30
0.0
  11
 352.792
  21
 853.080
  31
0.0
   0
LINE
   8
LEVEL001
   6
CONTINUOUS
  62
7
  10
 352.792
  20
 853.080
  30
0.0
  11
 351.730
  21
 853.104
  31
0.0
   0
LINE
   8
LEVEL001
   6
CONTINUOUS
  62
7
  10
 351.730
  20
 853.104
  30
0.0
  11
 350.674
  21
 853.005
  31
0.0
   0
LINE
   8
LEVEL001
   6
CONTINUOUS
  62
7
  10
 350.674
  20
 853.005
  30
0.0
  11
 349.639
  21
 852.782
  31
0.0
   0
LINE
   8
LEVEL001
   6
CONTINUOUS
  62
7
  10
 349.639
  20
 852.782
  30
0.0
  11
 348.641
  21
 852.440
  31
0.0
   0
LINE
   8
LEVEL001
   6
CONTINUOUS
  62
7
  10
 348.641
  20
 852.440
  30
0.0
  11
 347.697
  21
 851.983
  31
0.0
   0
LINE
   8
LEVEL001
   6
CONTINUOUS
  62
7
  10
 347.697
  20
 851.983
  30
0.0
  11
 346.821
  21
 851.420
  31
0.0
   0
LINE
   8
LEVEL001
   6
CONTINUOUS
  62
7
  10
 346.821
  20
 851.420
  30
0.0
  11
 346.026
  21
 850.758
  31
0.0
   0
LINE
   8
LEVEL001
   6
CONTINUOUS
  62
7
  10
 346.026
  20
 850.758
  30
0.0
  11
 345.325
  21
 850.008
  31
0.0
   0
LINE
   8
LEVEL001
   6
CONTINUOUS
  62
7
  10
 345.325
  20
 850.008
  30
0.0
  11
 344.730
  21
 849.183
  31
0.0
   0
LINE
   8
LEVEL001
   6
CONTINUOUS
  62
7
  10
 344.730
  20
 849.183
  30
0.0
  11
 344.248
  21
 848.293
  31
0.0
   0
LINE
   8
LEVEL001
   6
CONTINUOUS
  62
7
  10
 344.248
  20
 848.293
  30
0.0
  11
 343.888
  21
 847.354
  31
0.0
   0
LINE
   8
LEVEL001
   6
CONTINUOUS
  62
7
  10
 343.888
  20
 847.354
  30
0.0
  11
 343.656
  21
 846.381
  31
0.0
   0
LINE
   8
LEVEL001
   6
CONTINUOUS
  62
7
  10
 343.656
  20
 846.381
  30
0.0
  11
 343.555
  21
 845.388
  31
0.0
   0
LINE
   8
LEVEL001
   6
CONTINUOUS
  62
7
  10
 343.555
  20
 845.388
  30
0.0
  11
 343.550
  21
 845.123
  31
0.0
   0
LINE
   8
LEVEL001
   6
CONTINUOUS
  62
7
  10
 360.550
  20
 840.480
  30
0.0
  11
 360.550
  21
 837.637
  31
0.0
   0
LINE
   8
LEVEL001
   6
CONTINUOUS
  62
7
  10
 360.550
  20
 837.637
  30
0.0
  11
 352.050
  21
 833.025
  31
0.0
   0
LINE
   8
LEVEL001
   6
CONTINUOUS
  62
7
  10
 352.050
  20
 833.025
  30
0.0
  11
 343.550
  21
 837.637
  31
0.0
   0
LINE
   8
LEVEL001
   6
CONTINUOUS
  62
7
  10
 343.550
  20
 837.637
  30
0.0
  11
 343.550
  21
 840.480
  31
0.0
   0
LINE
   8
LEVEL001
   6
CONTINUOUS
  62
7
  10
 341.768
  20
 839.485
  30
0.0
  11
 342.142
  21
 838.304
  31
0.0
   0
LINE
   8
LEVEL001
   6
CONTINUOUS
  62
7
  10
 342.142
  20
 838.304
  30
0.0
  11
 342.669
  21
 837.175
  31
0.0
   0
LINE
   8
LEVEL001
   6
CONTINUOUS
  62
7
  10
 342.669
  20
 837.175
  30
0.0
  11
 343.342
  21
 836.117
  31
0.0
   0
LINE
   8
LEVEL001
   6
CONTINUOUS
  62
7
  10
 343.342
  20
 836.117
  30
0.0
  11
 344.151
  21
 835.146
  31
0.0
   0
LINE
   8
LEVEL001
   6
CONTINUOUS
  62
7
  10
 344.151
  20
 835.146
  30
0.0
  11
 345.081
  21
 834.278
  31
0.0
   0
LINE
   8
LEVEL001
   6
CONTINUOUS
  62
7
  10
 345.081
  20
 834.278
  30
0.0
  11
 346.120
  21
 833.525
  31
0.0
   0
LINE
   8
LEVEL001
   6
CONTINUOUS
  62
7
  10
 346.120
  20
 833.525
  30
0.0
  11
 347.251
  21
 832.900
  31
0.0
   0
LINE
   8
LEVEL001
   6
CONTINUOUS
  62
7
  10
 347.251
  20
 832.900
  30
0.0
  11
 348.455
  21
 832.413
  31
0.0
   0
LINE
   8
LEVEL001
   6
CONTINUOUS
  62
7
  10
 348.455
  20
 832.413
  30
0.0
  11
 349.715
  21
 832.070
  31
0.0
   0
LINE
   8
LEVEL001
   6
CONTINUOUS
  62
7
  10
 349.715
  20
 832.070
  30
0.0
  11
 351.011
  21
 831.877
  31
0.0
   0
LINE
   8
LEVEL001
   6
CONTINUOUS
  62
7
  10
 351.011
  20
 831.877
  30
0.0
  11
 352.322
  21
 831.838
  31
0.0
   0
LINE
   8
LEVEL001
   6
CONTINUOUS
  62
7
  10
 352.322
  20
 831.838
  30
0.0
  11
 353.628
  21
 831.952
  31
0.0
   0
LINE
   8
LEVEL001
   6
CONTINUOUS
  62
7
  10
 353.628
  20
 831.952
  30
0.0
  11
 354.908
  21
 832.219
  31
0.0
   0
LINE
   8
LEVEL001
   6
CONTINUOUS
  62
7
  10
 354.908
  20
 832.219
  30
0.0
  11
 356.143
  21
 832.634
  31
0.0
   0
LINE
   8
LEVEL001
   6
CONTINUOUS
  62
7
  10
 356.143
  20
 832.634
  30
0.0
  11
 357.314
  21
 833.190
  31
0.0
   0
LINE
   8
LEVEL001
   6
CONTINUOUS
  62
7
  10
 357.314
  20
 833.190
  30
0.0
  11
 358.401
  21
 833.879
  31
0.0
   0
LINE
   8
LEVEL001
   6
CONTINUOUS
  62
7
  10
 358.401
  20
 833.879
  30
0.0
  11
 359.389
  21
 834.690
  31
0.0
   0
LINE
   8
LEVEL001
   6
CONTINUOUS
  62
7
  10
 359.389
  20
 834.690
  30
0.0
  11
 360.262
  21
 835.610
  31
0.0
   0
LINE
   8
LEVEL001
   6
CONTINUOUS
  62
7
  10
 360.262
  20
 835.610
  30
0.0
  11
 361.005
  21
 836.626
  31
0.0
   0
LINE
   8
LEVEL001
   6
CONTINUOUS
  62
7
  10
 361.005
  20
 836.626
  30
0.0
  11
 361.608
  21
 837.720
  31
0.0
   0
LINE
   8
LEVEL001
   6
CONTINUOUS
  62
7
  10
 361.608
  20
 837.720
  30
0.0
  11
 362.061
  21
 838.877
  31
0.0
   0
LINE
   8
LEVEL001
   6
CONTINUOUS
  62
7
  10
 362.061
  20
 838.877
  30
0.0
  11
 362.232
  21
 839.485
  31
0.0
   0
LINE
   8
LEVEL001
   6
CONTINUOUS
  62
7
  10
 366.500
  20
 845.339
  30
0.0
  11
 365.468
  21
 844.161
  31
0.0
   0
LINE
   8
LEVEL001
   6
CONTINUOUS
  62
7
  10
 365.468
  20
 844.161
  30
0.0
  11
 364.600
  21
 842.871
  31
0.0
   0
LINE
   8
LEVEL001
   6
CONTINUOUS
  62
7
  10
 364.600
  20
 842.871
  30
0.0
  11
 363.910
  21
 841.490
  31
0.0
   0
LINE
   8
LEVEL001
   6
CONTINUOUS
  62
7
  10
 363.910
  20
 841.490
  30
0.0
  11
 363.408
  21
 840.038
  31
0.0
   0
LINE
   8
LEVEL001
   6
CONTINUOUS
  62
7
  10
 363.408
  20
 840.038
  30
0.0
  11
 363.104
  21
 838.539
  31
0.0
   0
LINE
   8
LEVEL001
   6
CONTINUOUS
  62
7
  10
 363.104
  20
 838.539
  30
0.0
  11
 363.000
  21
 837.016
  31
0.0
   0
LINE
   8
LEVEL001
   6
CONTINUOUS
  62
7
  10
 363.000
  20
 837.016
  30
0.0
  11
 363.099
  21
 835.493
  31
0.0
   0
LINE
   8
LEVEL001
   6
CONTINUOUS
  62
7
  10
 363.099
  20
 835.493
  30
0.0
  11
 363.400
  21
 833.994
  31
0.0
   0
LINE
   8
LEVEL001
   6
CONTINUOUS
  62
7
  10
 363.400
  20
 833.994
  30
0.0
  11
 363.897
  21
 832.541
  31
0.0
   0
LINE
   8
LEVEL001
   6
CONTINUOUS
  62
7
  10
 363.897
  20
 832.541
  30
0.0
  11
 364.583
  21
 831.158
  31
0.0
   0
LINE
   8
LEVEL001
   6
CONTINUOUS
  62
7
  10
 364.583
  20
 831.158
  30
0.0
  11
 365.447
  21
 829.866
  31
0.0
   0
LINE
   8
LEVEL001
   6
CONTINUOUS
  62
7
  10
 365.447
  20
 829.866
  30
0.0
  11
 366.476
  21
 828.685
  31
0.0
   0
LINE
   8
LEVEL001
   6
CONTINUOUS
  62
7
  10
 366.476
  20
 828.685
  30
0.0
  11
 367.654
  21
 827.634
  31
0.0
   0
LINE
   8
LEVEL001
   6
CONTINUOUS
  62
7
  10
 367.654
  20
 827.634
  30
0.0
  11
 368.961
  21
 826.729
  31
0.0
   0
LINE
   8
LEVEL001
   6
CONTINUOUS
  62
7
  10
 368.961
  20
 826.729
  30
0.0
  11
 370.379
  21
 825.985
  31
0.0
   0
LINE
   8
LEVEL001
   6
CONTINUOUS
  62
7
  10
 370.379
  20
 825.985
  30
0.0
  11
 371.884
  21
 825.412
  31
0.0
   0
LINE
   8
LEVEL001
   6
CONTINUOUS
  62
7
  10
 371.884
  20
 825.412
  30
0.0
  11
 373.454
  21
 825.021
  31
0.0
   0
LINE
   8
LEVEL001
   6
CONTINUOUS
  62
7
  10
 373.454
  20
 825.021
  30
0.0
  11
 375.063
  21
 824.816
  31
0.0
   0
LINE
   8
LEVEL001
   6
CONTINUOUS
  62
7
  10
 375.063
  20
 824.816
  30
0.0
  11
 376.687
  21
 824.801
  31
0.0
   0
LINE
   8
LEVEL001
   6
CONTINUOUS
  62
7
  10
 376.687
  20
 824.801
  30
0.0
  11
 378.300
  21
 824.977
  31
0.0
   0
LINE
   8
LEVEL001
   6
CONTINUOUS
  62
7
  10
 378.300
  20
 824.977
  30
0.0
  11
 379.877
  21
 825.340
  31
0.0
   0
LINE
   8
LEVEL001
   6
CONTINUOUS
  62
7
  10
 379.877
  20
 825.340
  30
0.0
  11
 381.394
  21
 825.885
  31
0.0
   0
LINE
   8
LEVEL001
   6
CONTINUOUS
  62
7
  10
 381.394
  20
 825.885
  30
0.0
  11
 382.827
  21
 826.604
  31
0.0
   0
LINE
   8
LEVEL001
   6
CONTINUOUS
  62
7
  10
 382.827
  20
 826.604
  30
0.0
  11
 384.153
  21
 827.485
  31
0.0
   0
LINE
   8
LEVEL001
   6
CONTINUOUS
  62
7
  10
 384.153
  20
 827.485
  30
0.0
  11
 385.351
  21
 828.514
  31
0.0
   0
LINE
   8
LEVEL001
   6
CONTINUOUS
  62
7
  10
 385.351
  20
 828.514
  30
0.0
  11
 386.404
  21
 829.676
  31
0.0
   0
LINE
   8
LEVEL001
   6
CONTINUOUS
  62
7
  10
 386.404
  20
 829.676
  30
0.0
  11
 387.295
  21
 830.952
  31
0.0
   0
LINE
   8
LEVEL001
   6
CONTINUOUS
  62
7
  10
 387.295
  20
 830.952
  30
0.0
  11
 388.009
  21
 832.322
  31
0.0
   0
LINE
   8
LEVEL001
   6
CONTINUOUS
  62
7
  10
 388.009
  20
 832.322
  30
0.0
  11
 388.536
  21
 833.766
  31
0.0
   0
LINE
   8
LEVEL001
   6
CONTINUOUS
  62
7
  10
 388.536
  20
 833.766
  30
0.0
  11
 388.867
  21
 835.260
  31
0.0
   0
LINE
   8
LEVEL001
   6
CONTINUOUS
  62
7
  10
 388.867
  20
 835.260
  30
0.0
  11
 388.998
  21
 836.781
  31
0.0
   0
LINE
   8
LEVEL001
   6
CONTINUOUS
  62
7
  10
 388.998
  20
 836.781
  30
0.0
  11
 388.926
  21
 838.305
  31
0.0
   0
LINE
   8
LEVEL001
   6
CONTINUOUS
  62
7
  10
 388.926
  20
 838.305
  30
0.0
  11
 388.652
  21
 839.809
  31
0.0
   0
LINE
   8
LEVEL001
   6
CONTINUOUS
  62
7
  10
 388.652
  20
 839.809
  30
0.0
  11
 388.180
  21
 841.270
  31
0.0
   0
LINE
   8
LEVEL001
   6
CONTINUOUS
  62
7
  10
 388.180
  20
 841.270
  30
0.0
  11
 387.519
  21
 842.663
  31
0.0
   0
LINE
   8
LEVEL001
   6
CONTINUOUS
  62
7
  10
 387.519
  20
 842.663
  30
0.0
  11
 386.677
  21
 843.969
  31
0.0
   0
LINE
   8
LEVEL001
   6
CONTINUOUS
  62
7
  10
 386.677
  20
 843.969
  30
0.0
  11
 385.669
  21
 845.165
  31
0.0
   0
LINE
   8
LEVEL001
   6
CONTINUOUS
  62
7
  10
 385.669
  20
 845.165
  30
0.0
  11
 385.500
  21
 845.339
  31
0.0
   0
ARC
   8
LEVEL001
   6
CONTINUOUS
  62
7
  10
 391.124
  20
 846.355
  30
0.0
  40
 5.00000
  50
 213.690
  51
 270.000
   0
LINE
   8
LEVEL001
   6
DASHDOT
  62
1
  10
 388.500
  20
 842.951
  30
0.0
  11
 363.500
  21
 842.951
  31
0.0
   0
ARC
   8
LEVEL001
   6
CONTINUOUS
  62
7
  10
 362.744
  20
 848.654
  30
0.0
  40
 5.00000
  50
 258.631
  51
 303.304
   0
LINE
   8
LEVEL001
   6
DASHDOT
  62
1
  10
 361.783
  20
 845.387
  30
0.0
  11
 342.541
  21
 845.387
  31
0.0
   0
LINE
   8
LEVEL001
   6
CONTINUOUS
  62
7
  10
 361.957
  20
 842.571
  30
0.0
  11
 361.764
  21
 843.731
  31
0.0
   0
LINE
   8
LEVEL001
   6
CONTINUOUS
  62
7
  10
 361.764
  20
 843.731
  30
0.0
  11
 361.418
  21
 844.859
  31
0.0
   0
LINE
   8
LEVEL001
   6
CONTINUOUS
  62
7
  10
 361.418
  20
 844.859
  30
0.0
  11
 360.925
  21
 845.938
  31
0.0
   0
LINE
   8
LEVEL001
   6
CONTINUOUS
  62
7
  10
 360.925
  20
 845.938
  30
0.0
  11
 360.550
  21
 846.574
  31
0.0
   0
LINE
   8
LEVEL001
   6
DASHDOT
  62
1
  10
 385.783
  20
 846.809
  30
0.0
  11
 366.541
  21
 846.809
  31
0.0
   0
LINE
   8
LEVEL001
   6
CONTINUOUS
  62
7
  10
 305.090
  20
 851.500
  30
0.0
  11
 346.932
  21
 851.500
  31
0.0
   0
LINE
   8
LEVEL001
   6
CONTINUOUS
  62
7
  10
 357.168
  20
 851.500
  30
0.0
  11
 362.910
  21
 851.500
  31
0.0
   0
LINE
   8
LEVEL001
   6
DASHDOT
  62
1
  10
 110.252
  20
 310.113
  30
0.0
  11
 70.0280
  21
 420.627
  31
0.0
   0
LINE
   8
LEVEL001
   6
CONTINUOUS
  62
7
  10
 73.4288
  20
 396.935
  30
0.0
  11
 70.5279
  21
 404.905
  31
0.0
   0
ARC
   8
LEVEL001
   6
CONTINUOUS
  62
7
  10
 80.4345
  20
 392.036
  30
0.0
  40
 16.2408
  50
 92.4120
  51
 127.588
   0
ARC
   8
LEVEL001
   6
CONTINUOUS
  62
7
  10
 72.7453
  20
 413.161
  30
0.0
  40
 16.2408
  50
 272.412
  51
 307.588
   0
ARC
   8
LEVEL001
   6
CONTINUOUS
  62
7
  10
 69.9294
  20
 396.046
  30
0.0
  40
 8.87961
  50
 86.1351
  51
 110.000
   0
ARC
   8
LEVEL001
   6
CONTINUOUS
  62
7
  10
 67.2756
  20
 403.337
  30
0.0
  40
 8.87961
  50
 290.000
  51
 313.865
   0
LINE
   8
LEVEL001
   6
CONTINUOUS
  62
7
  10
 70.3126
  20
 394.993
  30
0.0
  11
 68.8173
  21
 395.256
  31
0.0
   0
LINE
   8
LEVEL001
   6
CONTINUOUS
  62
7
  10
 68.8173
  20
 395.256
  30
0.0
  11
 65.9164
  21
 403.227
  31
0.0
   0
LINE
   8
LEVEL001
   6
CONTINUOUS
  62
7
  10
 65.9164
  20
 403.227
  30
0.0
  11
 66.8924
  21
 404.390
  31
0.0
   0
LINE
   8
LEVEL001
   6
CONTINUOUS
  62
7
  10
 66.8924
  20
 404.390
  30
0.0
  11
 82.8672
  21
 410.204
  31
0.0
   0
LINE
   8
LEVEL001
   6
CONTINUOUS
  62
7
  10
 82.8672
  20
 410.204
  30
0.0
  11
 84.3625
  21
 409.940
  31
0.0
   0
LINE
   8
LEVEL001
   6
CONTINUOUS
  62
7
  10
 84.3625
  20
 409.940
  30
0.0
  11
 87.2634
  21
 401.970
  31
0.0
   0
LINE
   8
LEVEL001
   6
CONTINUOUS
  62
7
  10
 87.2634
  20
 401.970
  30
0.0
  11
 86.2874
  21
 400.807
  31
0.0
   0
ARC
   8
LEVEL001
   6
CONTINUOUS
  62
7
  10
 74.8798
  20
 407.297
  30
0.0
  40
 7.50000
  50
 20.0000
  51
 200.000
   0
LINE
   8
LEVEL003
   6
CONTINUOUS
  62
7
  10
 67.8885
  20
 397.808
  30
0.0
  11
 67.0315
  21
 396.787
  31
0.0
   0
LINE
   8
LEVEL003
   6
CONTINUOUS
  62
7
  10
 67.0315
  20
 396.787
  30
0.0
  11
 68.5000
  21
 392.752
  31
0.0
   0
ARC
   8
LEVEL001
   6
CONTINUOUS
  62
7
  10
 73.4582
  20
 411.203
  30
0.0
  40
 7.50000
  50
 20.0000
  51
 200.000
   0
LINE
   8
LEVEL001
   6
CONTINUOUS
  62
7
  10
 67.5918
  20
 409.068
  30
0.0
  11
 65.4708
  21
 408.296
  31
0.0
   0
LINE
   8
LEVEL001
   6
CONTINUOUS
  62
7
  10
 65.4708
  20
 408.296
  30
0.0
  11
 64.4948
  21
 407.133
  31
0.0
   0
LINE
   8
LEVEL001
   6
CONTINUOUS
  62
7
  10
 64.4948
  20
 407.133
  30
0.0
  11
 65.9164
  21
 403.227
  31
0.0
   0
ARC
   8
LEVEL001
   6
CONTINUOUS
  62
7
  10
 68.5078
  20
 399.952
  30
0.0
  40
 8.87961
  50
 96.3397
  51
 103.575
   0
LINE
   8
LEVEL001
   6
CONTINUOUS
  62
7
  10
 82.6519
  20
 400.292
  30
0.0
  11
 79.7510
  21
 408.262
  31
0.0
   0
LINE
   8
LEVEL003
   6
CONTINUOUS
  62
7
  10
 88.6081
  20
 401.652
  30
0.0
  11
 87.6477
  21
 404.291
  31
0.0
   0
LINE
   8
LEVEL003
   6
CONTINUOUS
  62
7
  10
 87.6477
  20
 404.291
  30
0.0
  11
 86.3346
  21
 404.522
  31
0.0
   0
ARC
   8
LEVEL001
   6
CONTINUOUS
  62
7
  10
 83.2504
  20
 409.151
  30
0.0
  40
 8.87961
  50
 266.135
  51
 290.000
   0
ARC
   8
LEVEL001
   6
CONTINUOUS
  62
7
  10
 85.9042
  20
 401.860
  30
0.0
  40
 8.87961
  50
 110.000
  51
 133.865
   0
LINE
   8
LEVEL001
   6
CONTINUOUS
  62
7
  10
 84.3625
  20
 409.940
  30
0.0
  11
 82.9409
  21
 413.846
  31
0.0
   0
LINE
   8
LEVEL001
   6
CONTINUOUS
  62
7
  10
 82.9409
  20
 413.846
  30
0.0
  11
 81.4455
  21
 414.110
  31
0.0
   0
LINE
   8
LEVEL001
   6
CONTINUOUS
  62
7
  10
 81.4455
  20
 414.110
  30
0.0
  11
 79.3245
  21
 413.338
  31
0.0
   0
ARC
   8
LEVEL001
   6
CONTINUOUS
  62
7
  10
 84.4826
  20
 405.766
  30
0.0
  40
 8.87961
  50
 116.425
  51
 123.660
   0
LINE
   8
LEVEL001
   6
CONTINUOUS
  62
7
  10
 966.674
  20
 438.097
  30
0.0
  11
 968.919
  21
 437.986
  31
0.0
   0
ARC
   8
LEVEL001
   6
CONTINUOUS
  62
7
  10
 968.791
  20
 435.389
  30
0.0
  40
 2.60000
  50
 18.0538
  51
 87.1729
   0
LINE
   8
LEVEL001
   6
CONTINUOUS
  62
7
  10
 966.674
  20
 438.097
  30
0.0
  11
 967.205
  21
 424.107
  31
0.0
   0
ARC
   8
LEVEL001
   6
CONTINUOUS
  62
7
  10
 954.149
  20
 430.617
  30
0.0
  40
 18.0000
  50
 346.292
  51
 18.0538
   0
LINE
   8
LEVEL001
   6
CONTINUOUS
  62
7
  10
 967.205
  20
 424.107
  30
0.0
  11
 969.435
  21
 424.388
  31
0.0
   0
ARC
   8
LEVEL001
   6
CONTINUOUS
  62
7
  10
 969.110
  20
 426.967
  30
0.0
  40
 2.60000
  50
 277.173
  51
 346.292
   0
LINE
   8
LEVEL003
   6
CONTINUOUS
  62
7
  10
 966.439
  20
 436.337
  30
0.0
  11
 966.740
  21
 436.348
  31
0.0
   0
LINE
   8
LEVEL003
   6
CONTINUOUS
  62
7
  10
 966.841
  20
 425.845
  30
0.0
  11
 967.139
  21
 425.856
  31
0.0
   0
LINE
   8
LEVEL001
   6
CONTINUOUS
  62
7
  10
 442.414
  20
 842.700
  30
0.0
  11
 451.000
  21
 842.700
  31
0.0
   0
LINE
   8
LEVEL001
   6
CONTINUOUS
  62
7
  10
 442.414
  20
 757.300
  30
0.0
  11
 451.000
  21
 757.300
  31
0.0
   0
LINE
   8
LEVEL001
   6
CONTINUOUS
  62
7
  10
 454.000
  20
 845.700
  30
0.0
  11
 451.000
  21
 842.700
  31
0.0
   0
LINE
   8
LEVEL001
   6
CONTINUOUS
  62
7
  10
 451.000
  20
 842.700
  30
0.0
  11
 451.000
  21
 816.500
  31
0.0
   0
LINE
   8
LEVEL001
   6
CONTINUOUS
  62
7
  10
 451.000
  20
 783.500
  30
0.0
  11
 451.000
  21
 757.300
  31
0.0
   0
LINE
   8
LEVEL001
   6
CONTINUOUS
  62
7
  10
 451.000
  20
 757.300
  30
0.0
  11
 454.000
  21
 754.300
  31
0.0
   0
LINE
   8
LEVEL001
   6
CONTINUOUS
  62
7
  10
 449.677
  20
 414.984
  30
0.0
  11
 446.794
  21
 411.872
  31
0.0
   0
LINE
   8
LEVEL001
   6
CONTINUOUS
  62
7
  10
 446.794
  20
 411.872
  30
0.0
  11
 450.065
  21
 326.534
  31
0.0
   0
LINE
   8
LEVEL001
   6
CONTINUOUS
  62
7
  10
 450.065
  20
 326.534
  30
0.0
  11
 453.177
  21
 323.651
  31
0.0
   0
LINE
   8
LEVEL001
   6
CONTINUOUS
  62
7
  10
 438.215
  20
 411.543
  30
0.0
  11
 446.794
  21
 411.872
  31
0.0
   0
LINE
   8
LEVEL001
   6
CONTINUOUS
  62
7
  10
 441.485
  20
 326.205
  30
0.0
  11
 450.065
  21
 326.534
  31
0.0
   0
LINE
   8
LEVEL003
   6
CONTINUOUS
  62
3
  10
 164.705
  20
 364.500
  30
0.0
  11
 256.727
  21
 364.500
  31
0.0
   0
LINE
   8
LEVEL003
   6
CONTINUOUS
  62
3
  10
 209.000
  20
 300.000
  30
0.0
  11
 256.727
  21
 300.000
  31
0.0
   0
LINE
   8
LEVEL003
   6
CONTINUOUS
  62
3
  10
 248.727
  20
 364.500
  30
0.0
  11
 248.727
  21
 300.000
  31
0.0
   0
LINE
   8
LEVEL003
   6
CONTINUOUS
  62
3
  10
 248.727
  20
 364.500
  30
0.0
  11
 246.611
  21
 352.500
  31
0.0
   0
LINE
   8
LEVEL003
   6
CONTINUOUS
  62
3
  10
 248.727
  20
 364.500
  30
0.0
  11
 250.843
  21
 352.500
  31
0.0
   0
LINE
   8
LEVEL003
   6
CONTINUOUS
  62
3
  10
 248.727
  20
 300.000
  30
0.0
  11
 250.843
  21
 312.000
  31
0.0
   0
LINE
   8
LEVEL003
   6
CONTINUOUS
  62
3
  10
 248.727
  20
 300.000
  30
0.0
  11
 246.611
  21
 312.000
  31
0.0
   0
TEXT
   8
LEVEL003
  62
3
  10
 245.527
  20
 316.250
  30
0.0
  40
 16.0000
   1
約65
  50
 90.0000
   7
STANDARD
  72
1
  11
 245.527
  21
 332.250
  31
0.0
   0
CIRCLE
   8
LEVEL003
   6
CONTINUOUS
  62
7
  10
 1307.41
  20
 79.6176
  30
0.0
  40
 9.00000
   0
LINE
   8
LEVEL003
   6
CONTINUOUS
  62
7
  10
 1325.07
  20
 88.6176
  30
0.0
  11
 1313.64
  21
 68.8176
  31
0.0
   0
LINE
   8
LEVEL003
   6
CONTINUOUS
  62
7
  10
 1313.64
  20
 68.8176
  30
0.0
  11
 1290.78
  21
 68.8176
  31
0.0
   0
LINE
   8
LEVEL003
   6
CONTINUOUS
  62
7
  10
 1288.18
  20
 64.3176
  30
0.0
  11
 1329.04
  21
 64.3176
  31
0.0
   0
LINE
   8
LEVEL003
   6
CONTINUOUS
  62
7
  10
 1329.04
  20
 64.3176
  30
0.0
  11
 1343.07
  21
 88.6176
  31
0.0
   0
LINE
   8
LEVEL003
   6
CONTINUOUS
  62
7
  10
 1343.07
  20
 88.6176
  30
0.0
  11
 1325.07
  21
 88.6176
  31
0.0
   0
LINE
   8
LEVEL003
   6
CONTINUOUS
  62
7
  10
 1290.78
  20
 68.8176
  30
0.0
  11
 1288.18
  21
 64.3176
  31
0.0
   0
TEXT
   8
LEVEL003
  62
7
  10
 1350.22
  20
 58.2976
  30
0.0
  40
 22.5000
   1
ＯＳＡＫＡ ＪＡＣＫ
   7
STANDARD
   0
TEXT
   8
LEVEL003
  62
7
  10
 1354.96
  20
 103.847
  30
0.0
  40
 15.0000
   1
Model : ＴＷＡ－６
   7
STANDARD
   0
ENDSEC
   0
EOF
