   0
SECTION
   2
HEADER
   9
$LIMMIN
  10
-99.0000
  20
0.0
   9
$LIMMAX
  10
 2501.00
  20
 1780.00
   9
$EXTMIN
  10
-99.0000
  20
0.0
   9
$EXTMAX
  10
 2501.00
  20
 1780.00
   9
$LTSCALE
  40
 52.0000
   0
ENDSEC
   0
SECTION
   2
TABLES
  0
TABLE
  2
LTYPE
 70
    25
  0
LTYPE
  2
CONTINUOUS
 70
    64
  3
Solid line
 72
    65
 73
     0
 40
0.0
  0
LTYPE
  2
BORDER
 70
    64
  3
__ __ . __ __ . __ __ . __ __ . __ __ . __ __ .
 72
    65
 73
     6
 40
1.75
 49
0.5
 49
-0.25
 49
0.5
 49
-0.25
 49
0.0
 49
-0.25
  0
LTYPE
  2
BORDER2
 70
    64
  3
__.__.__.__.__.__.__.__.__.__.__.__.__.__.__.__
 72
    65
 73
     6
 40
0.875
 49
0.25
 49
-0.125
 49
0.25
 49
-0.125
 49
0.0
 49
-0.125
  0
LTYPE
  2
BORDERX2
 70
    64
  3
____  ____  .  ____  ____  .  ____  ____  .  __
 72
    65
 73
     6
 40
3.5
 49
1.0
 49
-0.5
 49
1.0
 49
-0.5
 49
0.0
 49
-0.5
  0
LTYPE
  2
CENTER
 70
    64
  3
____ _ ____ _ ____ _ ____ _ ____ _ ____ _ ____ 
 72
    65
 73
     4
 40
2.0
 49
1.25
 49
-0.25
 49
0.25
 49
-0.25
  0
LTYPE
  2
CENTER2
 70
    64
  3
___ _ ___ _ ___ _ ___ _ ___ _ ___ _ ___ _ ___ _
 72
    65
 73
     4
 40
1.125
 49
0.75
 49
-0.125
 49
0.125
 49
-0.125
  0
LTYPE
  2
CENTERX2
 70
    64
  3
________  __  ________  __  ________  __  _____
 72
    65
 73
     4
 40
4.0
 49
2.5
 49
-0.5
 49
0.5
 49
-0.5
  0
LTYPE
  2
DASHDOT
 70
    64
  3
__ . __ . __ . __ . __ . __ . __ . __ . __ . __
 72
    65
 73
     4
 40
1.0
 49
0.5
 49
-0.25
 49
0.0
 49
-0.25
  0
LTYPE
  2
DASHDOT2
 70
    64
  3
_._._._._._._._._._._._._._._._._._._._._._._._
 72
    65
 73
     4
 40
0.5
 49
0.25
 49
-0.125
 49
0.0
 49
-0.125
  0
LTYPE
  2
DASHDOTX2
 70
    64
  3
____  .  ____  .  ____  .  ____  .  ____  .  __
 72
    65
 73
     4
 40
2.0
 49
1.0
 49
-0.5
 49
0.0
 49
-0.5
  0
LTYPE
  2
DASHED
 70
    64
  3
__ __ __ __ __ __ __ __ __ __ __ __ __ __ __ __
 72
    65
 73
     2
 40
0.75
 49
0.5
 49
-0.25
  0
LTYPE
  2
DASHED2
 70
    64
  3
_ _ _ _ _ _ _ _ _ _ _ _ _ _ _ _ _ _ _ _ _ _ _ _
 72
    65
 73
     2
 40
0.375
 49
0.25
 49
-0.125
  0
LTYPE
  2
DASHEDX2
 70
    64
  3
____  ____  ____  ____  ____  ____  ____  ____ 
 72
    65
 73
     2
 40
1.5
 49
1.0
 49
-0.5
  0
LTYPE
  2
DIVIDE
 70
    64
  3
____ . . ____ . . ____ . . ____ . . ____ . . __
 72
    65
 73
     6
 40
1.25
 49
0.5
 49
-0.25
 49
0.0
 49
-0.25
 49
0.0
 49
-0.25
  0
LTYPE
  2
DIVIDE2
 70
    64
  3
__..__..__..__..__..__..__..__..__..__..__..__.
 72
    65
 73
     6
 40
0.625
 49
0.25
 49
-0.125
 49
0.0
 49
-0.125
 49
0.0
 49
-0.125
  0
LTYPE
  2
DIVIDEX2
 70
    64
  3
________  .  .  ________  .  .  ________  .  . 
 72
    65
 73
     6
 40
2.5
 49
1.0
 49
-0.5
 49
0.0
 49
-0.5
 49
0.0
 49
-0.5
  0
LTYPE
  2
DOT
 70
    64
  3
. . . . . . . . . . . . . . . . . . . . . . . .
 72
    65
 73
     2
 40
0.25
 49
0.0
 49
-0.25
  0
LTYPE
  2
DOT2
 70
    64
  3
...............................................
 72
    65
 73
     2
 40
0.125
 49
0.0
 49
-0.125
  0
LTYPE
  2
DOTX2
 70
    64
  3
.  .  .  .  .  .  .  .  .  .  .  .  .  .  .  . 
 72
    65
 73
     2
 40
0.5
 49
0.0
 49
-0.5
  0
LTYPE
  2
HIDDEN
 70
    64
  3
__ __ __ __ __ __ __ __ __ __ __ __ __ __ __ __
 72
    65
 73
     2
 40
0.375
 49
0.25
 49
-0.125
  0
LTYPE
  2
HIDDEN2
 70
    64
  3
_ _ _ _ _ _ _ _ _ _ _ _ _ _ _ _ _ _ _ _ _ _ _ _
 72
    65
 73
     2
 40
0.1875
 49
0.125
 49
-0.0625
  0
LTYPE
  2
HIDDENX2
 70
    64
  3
____ ____ ____ ____ ____ ____ ____ ____ ____ __
 72
    65
 73
     2
 40
0.75
 49
0.5
 49
-0.25
  0
LTYPE
  2
PHANTOM
 70
    64
  3
______  __  __  ______  __  __  ______  __  __ 
 72
    65
 73
     6
 40
2.5
 49
1.25
 49
-0.25
 49
0.25
 49
-0.25
 49
0.25
 49
-0.25
  0
LTYPE
  2
PHANTOM2
 70
    64
  3
___ _ _ ___ _ _ ___ _ _ ___ _ _ ___ _ _ ___ _ _
 72
    65
 73
     6
 40
1.25
 49
0.625
 49
-0.125
 49
0.125
 49
-0.125
 49
0.125
 49
-0.125
  0
LTYPE
  2
PHANTOMX2
 70
    64
  3
____________    ____    ____    ____________   
 72
    65
 73
     6
 40
5.0
 49
2.5
 49
-0.5
 49
0.5
 49
-0.5
 49
0.5
 49
-0.5
  0
ENDTAB
  0
TABLE
  2
STYLE
 70
     2
  0
STYLE
  2
STANDARD
 70
0
 40
0.0
 41
1.0
 50
0.0
 71
0
 42
0.2
  3
TXT
  4
BIGFONT
  0
STYLE
  2
STANDARD1
 70
     4
 40
0.0
 41
1.0
 50
0.0
 71
     0
 42
0.2
  3
TXT
  4
BIGFONT
  0
ENDTAB
   0
TABLE
   2
LAYER
  70
8
   0
LAYER
   2
0
  70
0
  62
7
   6
CONTINUOUS
   0
LAYER
   2
LEVEL001
  70
0
  62
7
   6
CONTINUOUS
   0
LAYER
   2
LEVEL003
  70
0
  62
7
   6
CONTINUOUS
   0
LAYER
   2
LEVEL010
  70
0
  62
7
   6
CONTINUOUS
   0
LAYER
   2
LEVEL020
  70
0
  62
7
   6
CONTINUOUS
   0
LAYER
   2
LEVEL030
  70
0
  62
7
   6
CONTINUOUS
   0
LAYER
   2
LEVEL050
  70
0
  62
7
   6
CONTINUOUS
   0
LAYER
   2
LEVEL100
  70
0
  62
-7
   6
CONTINUOUS
   0
ENDTAB
   0
ENDSEC
   0
SECTION
   2
ENTITIES
   0
LINE
   8
LEVEL100
   6
CONTINUOUS
  62
7
  10
 1717.50
  20
 324.000
  30
0.0
  11
 1717.50
  21
 282.000
  31
0.0
   0
LINE
   8
LEVEL100
   6
CONTINUOUS
  62
7
  10
 1897.50
  20
 324.000
  30
0.0
  11
 1897.50
  21
 186.000
  31
0.0
   0
LINE
   8
LEVEL100
   6
CONTINUOUS
  62
7
  10
 2017.50
  20
 324.000
  30
0.0
  11
 2017.50
  21
 282.000
  31
0.0
   0
LINE
   8
LEVEL100
   6
CONTINUOUS
  62
7
  10
 2065.50
  20
 324.000
  30
0.0
  11
 2065.50
  21
 282.000
  31
0.0
   0
LINE
   8
LEVEL100
   6
CONTINUOUS
  62
7
  10
 2134.50
  20
 324.000
  30
0.0
  11
 2134.50
  21
 282.000
  31
0.0
   0
LINE
   8
LEVEL100
   6
CONTINUOUS
  62
7
  10
 1840.50
  20
 282.000
  30
0.0
  11
 1840.50
  21
 186.000
  31
0.0
   0
LINE
   8
LEVEL100
   6
CONTINUOUS
  62
7
  10
 1741.50
  20
 99.0000
  30
0.0
  11
 1771.50
  21
 129.000
  31
0.0
   0
CIRCLE
   8
LEVEL100
   6
CONTINUOUS
  62
7
  10
 1699.50
  20
 9.00000
  30
0.0
  40
 2.40000
   0
CIRCLE
   8
LEVEL100
   6
CONTINUOUS
  62
7
  10
 1741.50
  20
 9.00000
  30
0.0
  40
 2.40000
   0
CIRCLE
   8
LEVEL100
   6
CONTINUOUS
  62
7
  10
 1699.50
  20
 9.00000
  30
0.0
  40
 1.50000
   0
CIRCLE
   8
LEVEL100
   6
CONTINUOUS
  62
7
  10
 1741.50
  20
 9.00000
  30
0.0
  40
 1.50000
   0
LINE
   8
LEVEL100
   6
CONTINUOUS
  62
7
  10
 1926.00
  20
 33.0000
  30
0.0
  11
 1926.00
  21
 39.0000
  31
0.0
   0
LINE
   8
LEVEL100
   6
CONTINUOUS
  62
7
  10
 1926.00
  20
 39.0000
  30
0.0
  11
 1944.00
  21
 39.0000
  31
0.0
   0
LINE
   8
LEVEL100
   6
CONTINUOUS
  62
7
  10
 1944.00
  20
 39.0000
  30
0.0
  11
 1944.00
  21
 33.0000
  31
0.0
   0
LINE
   8
LEVEL100
   6
CONTINUOUS
  62
7
  10
 1944.00
  20
 33.0000
  30
0.0
  11
 1926.00
  21
 33.0000
  31
0.0
   0
LINE
   8
LEVEL100
   6
CONTINUOUS
  62
7
  10
 1657.50
  20
0.0
  30
0.0
  11
 1657.50
  21
 324.000
  31
0.0
   0
LINE
   8
LEVEL100
   6
CONTINUOUS
  62
7
  10
 1783.50
  20
 282.000
  30
0.0
  11
 1783.50
  21
0.0
  31
0.0
   0
LINE
   8
LEVEL100
   6
CONTINUOUS
  62
7
  10
 1657.50
  20
 138.000
  30
0.0
  11
 1783.50
  21
 138.000
  31
0.0
   0
TEXT
   8
LEVEL100
  62
7
  10
 1804.50
  20
 21.0000
  30
0.0
  40
 30.0000
   1
ＯＪ
  41
 0.700000
   7
STANDARD
   0
LINE
   8
LEVEL100
   6
CONTINUOUS
  62
7
  10
 1657.50
  20
 282.000
  30
0.0
  11
 2298.90
  21
 282.000
  31
0.0
   0
LINE
   8
LEVEL100
   6
CONTINUOUS
  62
7
  10
 1657.50
  20
 258.000
  30
0.0
  11
 2298.90
  21
 258.000
  31
0.0
   0
LINE
   8
LEVEL100
   6
CONTINUOUS
  62
7
  10
 1657.50
  20
 324.000
  30
0.0
  11
 2298.90
  21
 324.000
  31
0.0
   0
LINE
   8
LEVEL100
   6
CONTINUOUS
  62
7
  10
 1812.90
  20
 1518.00
  30
0.0
  11
 1812.90
  21
 1668.00
  31
0.0
   0
LINE
   8
LEVEL100
   6
CONTINUOUS
  62
7
  10
 1812.90
  20
 1638.00
  30
0.0
  11
 2298.90
  21
 1638.00
  31
0.0
   0
LINE
   8
LEVEL100
   6
CONTINUOUS
  62
7
  10
 1812.90
  20
 1608.00
  30
0.0
  11
 2298.90
  21
 1608.00
  31
0.0
   0
LINE
   8
LEVEL100
   6
CONTINUOUS
  62
7
  10
 1866.90
  20
 1638.00
  30
0.0
  11
 1866.90
  21
 1608.00
  31
0.0
   0
LINE
   8
LEVEL100
   6
CONTINUOUS
  62
7
  10
 2178.90
  20
 1638.00
  30
0.0
  11
 2178.90
  21
 1608.00
  31
0.0
   0
LINE
   8
LEVEL100
   6
CONTINUOUS
  62
7
  10
 2250.90
  20
 1638.00
  30
0.0
  11
 2250.90
  21
 1608.00
  31
0.0
   0
LINE
   8
LEVEL100
   6
CONTINUOUS
  62
7
  10
 1657.50
  20
 186.000
  30
0.0
  11
 2298.90
  21
 186.000
  31
0.0
   0
LINE
   8
LEVEL100
   6
CONTINUOUS
  62
7
  10
 1657.50
  20
 90.0000
  30
0.0
  11
 2298.90
  21
 90.0000
  31
0.0
   0
LINE
   8
LEVEL100
   6
CONTINUOUS
  62
7
  10
 2130.90
  20
 90.0000
  30
0.0
  11
 2130.90
  21
0.0
  31
0.0
   0
LINE
   8
LEVEL100
   6
CONTINUOUS
  62
7
  10
 2154.90
  20
0.0
  30
0.0
  11
 2256.90
  21
 60.0000
  31
0.0
   0
LINE
   8
LEVEL100
   6
CONTINUOUS
  62
7
  10
0.0
  20
 1668.00
  30
0.0
  11
 2298.90
  21
 1668.00
  31
0.0
   0
LINE
   8
LEVEL100
   6
CONTINUOUS
  62
7
  10
 2298.90
  20
 1668.00
  30
0.0
  11
 2298.90
  21
0.0
  31
0.0
   0
LINE
   8
LEVEL100
   6
CONTINUOUS
  62
7
  10
 2298.90
  20
0.0
  30
0.0
  11
0.0
  21
0.0
  31
0.0
   0
LINE
   8
LEVEL100
   6
CONTINUOUS
  62
7
  10
0.0
  20
 1615.20
  30
0.0
  11
 300.900
  21
 1615.20
  31
0.0
   0
LINE
   8
LEVEL100
   6
CONTINUOUS
  62
7
  10
 300.900
  20
 1615.20
  30
0.0
  11
 300.900
  21
 1668.00
  31
0.0
   0
TEXT
   8
LEVEL100
  62
7
  10
 294.900
  20
 1656.60
  30
0.0
  40
 30.0000
   1
ＯＪ．
  50
 180.000
  41
 0.900000
   7
STANDARD
   0
LINE
   8
LEVEL100
   6
CONTINUOUS
  62
7
  10
 192.900
  20
 1644.60
  30
0.0
  11
 174.900
  21
 1644.60
  31
0.0
   0
LINE
   8
LEVEL100
   6
CONTINUOUS
  62
7
  10
 174.900
  20
 1644.60
  30
0.0
  11
 174.900
  21
 1638.60
  31
0.0
   0
LINE
   8
LEVEL100
   6
CONTINUOUS
  62
7
  10
 174.900
  20
 1638.60
  30
0.0
  11
 192.900
  21
 1638.60
  31
0.0
   0
LINE
   8
LEVEL100
   6
CONTINUOUS
  62
7
  10
 192.900
  20
 1638.60
  30
0.0
  11
 192.900
  21
 1644.60
  31
0.0
   0
TEXT
   8
LEVEL100
  62
3
  10
 1897.50
  20
 186.000
  30
0.0
  40
 30.0000
   1
＊＊＊＊＊＊＊＊＊＊＊＊＊＊
  41
 0.700000
   7
STANDARD
   0
TEXT
   8
LEVEL100
  62
3
  10
 2156.69
  20
 31.8000
  30
0.0
  40
 30.0000
   1
＊＊
  41
 0.630000
   7
STANDARD
  72
1
  11
 2175.59
  21
 31.8000
  31
0.0
   0
TEXT
   8
LEVEL100
  62
7
  10
 1723.50
  20
 288.000
  30
0.0
  40
 24.0000
   1
Ｓ．ＩＭＡＮＩＳＨＩ
  41
 0.625000
   7
STANDARD
   0
LINE
   8
LEVEL003
   6
CONTINUOUS
  62
7
  10
 410.000
  20
 1387.00
  30
0.0
  11
 410.000
  21
 1137.00
  31
0.0
   0
LINE
   8
LEVEL003
   6
CONTINUOUS
  62
7
  10
 410.000
  20
 1137.00
  30
0.0
  11
 710.000
  21
 1137.00
  31
0.0
   0
LINE
   8
LEVEL003
   6
DASHDOT
  62
1
  10
 390.000
  20
 1162.00
  30
0.0
  11
 1250.00
  21
 1162.00
  31
0.0
   0
LINE
   8
LEVEL003
   6
CONTINUOUS
  62
7
  10
 1215.00
  20
 1137.00
  30
0.0
  11
 1203.00
  21
 1137.00
  31
0.0
   0
LINE
   8
LEVEL003
   6
CONTINUOUS
  62
7
  10
 1203.00
  20
 1387.00
  30
0.0
  11
 1215.00
  21
 1387.00
  31
0.0
   0
LINE
   8
LEVEL003
   6
DASHDOT
  62
1
  10
 390.000
  20
 1362.00
  30
0.0
  11
 1250.00
  21
 1362.00
  31
0.0
   0
LINE
   8
LEVEL003
   6
CONTINUOUS
  62
7
  10
 710.000
  20
 1379.00
  30
0.0
  11
 1203.00
  21
 1379.00
  31
0.0
   0
LINE
   8
LEVEL003
   6
CONTINUOUS
  62
7
  10
 710.000
  20
 1345.00
  30
0.0
  11
 1203.00
  21
 1345.00
  31
0.0
   0
LINE
   8
LEVEL003
   6
CONTINUOUS
  62
7
  10
 710.000
  20
 1179.00
  30
0.0
  11
 1203.00
  21
 1179.00
  31
0.0
   0
LINE
   8
LEVEL003
   6
CONTINUOUS
  62
7
  10
 710.000
  20
 1145.00
  30
0.0
  11
 1203.00
  21
 1145.00
  31
0.0
   0
LINE
   8
LEVEL001
   6
DASHDOT
  62
1
  10
 660.000
  20
 1166.90
  30
0.0
  11
 660.000
  21
 1207.10
  31
0.0
   0
LINE
   8
LEVEL001
   6
DASHDOT
  62
1
  10
 639.900
  20
 1187.00
  30
0.0
  11
 680.100
  21
 1187.00
  31
0.0
   0
CIRCLE
   8
LEVEL003
   6
CONTINUOUS
  62
7
  10
 488.000
  20
 1353.00
  30
0.0
  40
 8.50000
   0
LINE
   8
LEVEL003
   6
CONTINUOUS
  62
7
  10
 488.000
  20
 1362.81
  30
0.0
  11
 496.500
  21
 1357.91
  31
0.0
   0
LINE
   8
LEVEL003
   6
CONTINUOUS
  62
7
  10
 496.500
  20
 1357.91
  30
0.0
  11
 496.500
  21
 1348.09
  31
0.0
   0
LINE
   8
LEVEL003
   6
CONTINUOUS
  62
7
  10
 496.500
  20
 1348.09
  30
0.0
  11
 488.000
  21
 1343.19
  31
0.0
   0
LINE
   8
LEVEL003
   6
CONTINUOUS
  62
7
  10
 488.000
  20
 1343.19
  30
0.0
  11
 479.500
  21
 1348.09
  31
0.0
   0
LINE
   8
LEVEL003
   6
CONTINUOUS
  62
7
  10
 479.500
  20
 1348.09
  30
0.0
  11
 479.500
  21
 1357.91
  31
0.0
   0
LINE
   8
LEVEL003
   6
CONTINUOUS
  62
7
  10
 479.500
  20
 1357.91
  30
0.0
  11
 488.000
  21
 1362.81
  31
0.0
   0
CIRCLE
   8
LEVEL003
   6
CONTINUOUS
  62
7
  10
 488.000
  20
 1353.00
  30
0.0
  40
 8.00000
   0
CIRCLE
   8
LEVEL003
   6
CONTINUOUS
  62
7
  10
 515.000
  20
 1353.00
  30
0.0
  40
 8.50000
   0
LINE
   8
LEVEL003
   6
CONTINUOUS
  62
7
  10
 515.000
  20
 1362.81
  30
0.0
  11
 523.500
  21
 1357.91
  31
0.0
   0
LINE
   8
LEVEL003
   6
CONTINUOUS
  62
7
  10
 523.500
  20
 1357.91
  30
0.0
  11
 523.500
  21
 1348.09
  31
0.0
   0
LINE
   8
LEVEL003
   6
CONTINUOUS
  62
7
  10
 523.500
  20
 1348.09
  30
0.0
  11
 515.000
  21
 1343.19
  31
0.0
   0
LINE
   8
LEVEL003
   6
CONTINUOUS
  62
7
  10
 515.000
  20
 1343.19
  30
0.0
  11
 506.500
  21
 1348.09
  31
0.0
   0
LINE
   8
LEVEL003
   6
CONTINUOUS
  62
7
  10
 506.500
  20
 1348.09
  30
0.0
  11
 506.500
  21
 1357.91
  31
0.0
   0
LINE
   8
LEVEL003
   6
CONTINUOUS
  62
7
  10
 506.500
  20
 1357.91
  30
0.0
  11
 515.000
  21
 1362.81
  31
0.0
   0
CIRCLE
   8
LEVEL003
   6
CONTINUOUS
  62
7
  10
 515.000
  20
 1353.00
  30
0.0
  40
 8.00000
   0
LINE
   8
LEVEL003
   6
CONTINUOUS
  62
7
  10
 549.000
  20
 1370.62
  30
0.0
  11
 553.000
  21
 1368.31
  31
0.0
   0
LINE
   8
LEVEL003
   6
CONTINUOUS
  62
7
  10
 553.000
  20
 1368.31
  30
0.0
  11
 553.000
  21
 1363.69
  31
0.0
   0
LINE
   8
LEVEL003
   6
CONTINUOUS
  62
7
  10
 553.000
  20
 1363.69
  30
0.0
  11
 549.000
  21
 1361.38
  31
0.0
   0
LINE
   8
LEVEL003
   6
CONTINUOUS
  62
7
  10
 549.000
  20
 1361.38
  30
0.0
  11
 545.000
  21
 1363.69
  31
0.0
   0
LINE
   8
LEVEL003
   6
CONTINUOUS
  62
7
  10
 545.000
  20
 1363.69
  30
0.0
  11
 545.000
  21
 1368.31
  31
0.0
   0
LINE
   8
LEVEL003
   6
CONTINUOUS
  62
7
  10
 545.000
  20
 1368.31
  30
0.0
  11
 549.000
  21
 1370.62
  31
0.0
   0
CIRCLE
   8
LEVEL003
   6
CONTINUOUS
  62
7
  10
 549.000
  20
 1366.00
  30
0.0
  40
 8.00000
   0
CIRCLE
   8
LEVEL003
   6
CONTINUOUS
  62
7
  10
 549.000
  20
 1366.00
  30
0.0
  40
 7.13397
   0
LINE
   8
LEVEL003
   6
CONTINUOUS
  62
7
  10
 431.000
  20
 1370.62
  30
0.0
  11
 435.000
  21
 1368.31
  31
0.0
   0
LINE
   8
LEVEL003
   6
CONTINUOUS
  62
7
  10
 435.000
  20
 1368.31
  30
0.0
  11
 435.000
  21
 1363.69
  31
0.0
   0
LINE
   8
LEVEL003
   6
CONTINUOUS
  62
7
  10
 435.000
  20
 1363.69
  30
0.0
  11
 431.000
  21
 1361.38
  31
0.0
   0
LINE
   8
LEVEL003
   6
CONTINUOUS
  62
7
  10
 431.000
  20
 1361.38
  30
0.0
  11
 427.000
  21
 1363.69
  31
0.0
   0
LINE
   8
LEVEL003
   6
CONTINUOUS
  62
7
  10
 427.000
  20
 1363.69
  30
0.0
  11
 427.000
  21
 1368.31
  31
0.0
   0
LINE
   8
LEVEL003
   6
CONTINUOUS
  62
7
  10
 427.000
  20
 1368.31
  30
0.0
  11
 431.000
  21
 1370.62
  31
0.0
   0
CIRCLE
   8
LEVEL003
   6
CONTINUOUS
  62
7
  10
 431.000
  20
 1366.00
  30
0.0
  40
 8.00000
   0
CIRCLE
   8
LEVEL003
   6
CONTINUOUS
  62
7
  10
 431.000
  20
 1366.00
  30
0.0
  40
 7.13397
   0
LINE
   8
LEVEL003
   6
CONTINUOUS
  62
7
  10
 549.000
  20
 1252.62
  30
0.0
  11
 553.000
  21
 1250.31
  31
0.0
   0
LINE
   8
LEVEL003
   6
CONTINUOUS
  62
7
  10
 553.000
  20
 1250.31
  30
0.0
  11
 553.000
  21
 1245.69
  31
0.0
   0
LINE
   8
LEVEL003
   6
CONTINUOUS
  62
7
  10
 553.000
  20
 1245.69
  30
0.0
  11
 549.000
  21
 1243.38
  31
0.0
   0
LINE
   8
LEVEL003
   6
CONTINUOUS
  62
7
  10
 549.000
  20
 1243.38
  30
0.0
  11
 545.000
  21
 1245.69
  31
0.0
   0
LINE
   8
LEVEL003
   6
CONTINUOUS
  62
7
  10
 545.000
  20
 1245.69
  30
0.0
  11
 545.000
  21
 1250.31
  31
0.0
   0
LINE
   8
LEVEL003
   6
CONTINUOUS
  62
7
  10
 545.000
  20
 1250.31
  30
0.0
  11
 549.000
  21
 1252.62
  31
0.0
   0
CIRCLE
   8
LEVEL003
   6
CONTINUOUS
  62
7
  10
 549.000
  20
 1248.00
  30
0.0
  40
 8.00000
   0
CIRCLE
   8
LEVEL003
   6
CONTINUOUS
  62
7
  10
 549.000
  20
 1248.00
  30
0.0
  40
 7.13397
   0
CIRCLE
   8
LEVEL003
   6
CONTINUOUS
  62
7
  10
 549.000
  20
 1248.00
  30
0.0
  40
 9.00000
   0
CIRCLE
   8
LEVEL003
   6
CONTINUOUS
  62
7
  10
 549.000
  20
 1366.00
  30
0.0
  40
 9.00000
   0
CIRCLE
   8
LEVEL003
   6
CONTINUOUS
  62
7
  10
 431.000
  20
 1366.00
  30
0.0
  40
 9.00000
   0
LINE
   8
LEVEL003
   6
CONTINUOUS
  62
7
  10
 502.000
  20
 1265.46
  30
0.0
  11
 505.000
  21
 1263.73
  31
0.0
   0
LINE
   8
LEVEL003
   6
CONTINUOUS
  62
7
  10
 505.000
  20
 1263.73
  30
0.0
  11
 505.000
  21
 1260.27
  31
0.0
   0
LINE
   8
LEVEL003
   6
CONTINUOUS
  62
7
  10
 505.000
  20
 1260.27
  30
0.0
  11
 502.000
  21
 1258.54
  31
0.0
   0
LINE
   8
LEVEL003
   6
CONTINUOUS
  62
7
  10
 502.000
  20
 1258.54
  30
0.0
  11
 499.000
  21
 1260.27
  31
0.0
   0
LINE
   8
LEVEL003
   6
CONTINUOUS
  62
7
  10
 499.000
  20
 1260.27
  30
0.0
  11
 499.000
  21
 1263.73
  31
0.0
   0
LINE
   8
LEVEL003
   6
CONTINUOUS
  62
7
  10
 499.000
  20
 1263.73
  30
0.0
  11
 502.000
  21
 1265.46
  31
0.0
   0
CIRCLE
   8
LEVEL003
   6
CONTINUOUS
  62
7
  10
 502.000
  20
 1262.00
  30
0.0
  40
 6.50000
   0
CIRCLE
   8
LEVEL003
   6
CONTINUOUS
  62
7
  10
 502.000
  20
 1262.00
  30
0.0
  40
 5.80718
   0
LINE
   8
LEVEL003
   6
CONTINUOUS
  62
7
  10
 470.000
  20
 1265.46
  30
0.0
  11
 473.000
  21
 1263.73
  31
0.0
   0
LINE
   8
LEVEL003
   6
CONTINUOUS
  62
7
  10
 473.000
  20
 1263.73
  30
0.0
  11
 473.000
  21
 1260.27
  31
0.0
   0
LINE
   8
LEVEL003
   6
CONTINUOUS
  62
7
  10
 473.000
  20
 1260.27
  30
0.0
  11
 470.000
  21
 1258.54
  31
0.0
   0
LINE
   8
LEVEL003
   6
CONTINUOUS
  62
7
  10
 470.000
  20
 1258.54
  30
0.0
  11
 467.000
  21
 1260.27
  31
0.0
   0
LINE
   8
LEVEL003
   6
CONTINUOUS
  62
7
  10
 467.000
  20
 1260.27
  30
0.0
  11
 467.000
  21
 1263.73
  31
0.0
   0
LINE
   8
LEVEL003
   6
CONTINUOUS
  62
7
  10
 467.000
  20
 1263.73
  30
0.0
  11
 470.000
  21
 1265.46
  31
0.0
   0
LINE
   8
LEVEL003
   6
CONTINUOUS
  62
7
  10
 430.000
  20
 1249.00
  30
0.0
  11
 511.000
  21
 1249.00
  31
0.0
   0
LINE
   8
LEVEL003
   6
CONTINUOUS
  62
7
  10
 511.000
  20
 1271.00
  30
0.0
  11
 511.000
  21
 1249.00
  31
0.0
   0
LINE
   8
LEVEL003
   6
CONTINUOUS
  62
7
  10
 430.000
  20
 1271.00
  30
0.0
  11
 430.000
  21
 1249.00
  31
0.0
   0
LINE
   8
LEVEL003
   6
CONTINUOUS
  62
7
  10
 560.000
  20
 1377.00
  30
0.0
  11
 420.000
  21
 1377.00
  31
0.0
   0
LINE
   8
LEVEL003
   6
CONTINUOUS
  62
7
  10
 420.000
  20
 1377.00
  30
0.0
  11
 420.000
  21
 1237.00
  31
0.0
   0
LINE
   8
LEVEL003
   6
CONTINUOUS
  62
7
  10
 420.000
  20
 1237.00
  30
0.0
  11
 560.000
  21
 1237.00
  31
0.0
   0
ARC
   8
LEVEL003
   6
CONTINUOUS
  62
7
  10
 431.000
  20
 1248.00
  30
0.0
  40
 7.13397
  50
 98.0579
  51
 8.05793
   0
ARC
   8
LEVEL003
   6
CONTINUOUS
  62
7
  10
 431.000
  20
 1248.00
  30
0.0
  40
 8.00000
  50
 97.1808
  51
 7.18076
   0
ARC
   8
LEVEL003
   6
CONTINUOUS
  62
7
  10
 431.000
  20
 1248.00
  30
0.0
  40
 9.00000
  50
 96.3794
  51
 6.37937
   0
LINE
   8
LEVEL003
   6
CONTINUOUS
  62
7
  10
 435.000
  20
 1249.00
  30
0.0
  11
 435.000
  21
 1245.69
  31
0.0
   0
LINE
   8
LEVEL003
   6
CONTINUOUS
  62
7
  10
 435.000
  20
 1245.69
  30
0.0
  11
 431.000
  21
 1243.38
  31
0.0
   0
LINE
   8
LEVEL003
   6
CONTINUOUS
  62
7
  10
 431.000
  20
 1243.38
  30
0.0
  11
 427.000
  21
 1245.69
  31
0.0
   0
LINE
   8
LEVEL003
   6
CONTINUOUS
  62
7
  10
 427.000
  20
 1245.69
  30
0.0
  11
 427.000
  21
 1250.31
  31
0.0
   0
LINE
   8
LEVEL003
   6
CONTINUOUS
  62
7
  10
 427.000
  20
 1250.31
  30
0.0
  11
 430.000
  21
 1252.04
  31
0.0
   0
LINE
   8
LEVEL001
   6
DASHDOT
  62
1
  10
 490.000
  20
 1227.00
  30
0.0
  11
 490.000
  21
 1387.00
  31
0.0
   0
LINE
   8
LEVEL003
   6
DASHDOT
  62
1
  10
 488.000
  20
 1365.81
  30
0.0
  11
 488.000
  21
 1340.19
  31
0.0
   0
LINE
   8
LEVEL003
   6
DASHDOT
  62
1
  10
 515.000
  20
 1365.81
  30
0.0
  11
 515.000
  21
 1340.19
  31
0.0
   0
LINE
   8
LEVEL003
   6
DASHDOT
  62
1
  10
 560.000
  20
 1366.00
  30
0.0
  11
 538.000
  21
 1366.00
  31
0.0
   0
LINE
   8
LEVEL003
   6
DASHDOT
  62
1
  10
 549.000
  20
 1377.00
  30
0.0
  11
 549.000
  21
 1355.00
  31
0.0
   0
LINE
   8
LEVEL003
   6
DASHDOT
  62
1
  10
 442.000
  20
 1366.00
  30
0.0
  11
 420.000
  21
 1366.00
  31
0.0
   0
LINE
   8
LEVEL003
   6
DASHDOT
  62
1
  10
 431.000
  20
 1377.00
  30
0.0
  11
 431.000
  21
 1355.00
  31
0.0
   0
LINE
   8
LEVEL003
   6
DASHDOT
  62
1
  10
 499.500
  20
 1353.00
  30
0.0
  11
 476.500
  21
 1353.00
  31
0.0
   0
LINE
   8
LEVEL003
   6
DASHDOT
  62
1
  10
 526.500
  20
 1353.00
  30
0.0
  11
 503.500
  21
 1353.00
  31
0.0
   0
LINE
   8
LEVEL003
   6
DASHDOT
  62
1
  10
 442.000
  20
 1248.00
  30
0.0
  11
 420.000
  21
 1248.00
  31
0.0
   0
LINE
   8
LEVEL003
   6
DASHDOT
  62
1
  10
 431.000
  20
 1259.00
  30
0.0
  11
 431.000
  21
 1237.00
  31
0.0
   0
LINE
   8
LEVEL003
   6
DASHDOT
  62
1
  10
 560.000
  20
 1248.00
  30
0.0
  11
 538.000
  21
 1248.00
  31
0.0
   0
LINE
   8
LEVEL003
   6
DASHDOT
  62
1
  10
 549.000
  20
 1259.00
  30
0.0
  11
 549.000
  21
 1237.00
  31
0.0
   0
LINE
   8
LEVEL003
   6
DOT
  62
3
  10
 446.669
  20
 1237.00
  30
0.0
  11
 447.553
  21
 1237.88
  31
0.0
   0
LINE
   8
LEVEL003
   6
DOT
  62
3
  10
 463.331
  20
 1237.00
  30
0.0
  11
 462.447
  21
 1237.88
  31
0.0
   0
LINE
   8
LEVEL003
   6
DASHDOT
  62
1
  10
 485.500
  20
 1262.00
  30
0.0
  11
 476.500
  21
 1262.00
  31
0.0
   0
LINE
   8
LEVEL003
   6
DASHDOT
  62
1
  10
 477.500
  20
 1262.00
  30
0.0
  11
 458.500
  21
 1262.00
  31
0.0
   0
LINE
   8
LEVEL003
   6
DASHDOT
  62
1
  10
 507.500
  20
 1262.00
  30
0.0
  11
 482.000
  21
 1262.00
  31
0.0
   0
LINE
   8
LEVEL003
   6
DASHDOT
  62
1
  10
 502.000
  20
 1271.50
  30
0.0
  11
 502.000
  21
 1252.50
  31
0.0
   0
LINE
   8
LEVEL003
   6
DASHDOT
  62
1
  10
 470.000
  20
 1271.50
  30
0.0
  11
 470.000
  21
 1252.50
  31
0.0
   0
LINE
   8
LEVEL001
   6
DASHDOT
  62
1
  10
 413.720
  20
 1307.00
  30
0.0
  11
 1322.78
  21
 1307.00
  31
0.0
   0
LINE
   8
LEVEL003
   6
CONTINUOUS
  62
7
  10
 1215.00
  20
 1387.00
  30
0.0
  11
 1215.00
  21
 1324.00
  31
0.0
   0
LINE
   8
LEVEL003
   6
CONTINUOUS
  62
7
  10
 1203.00
  20
 1387.00
  30
0.0
  11
 1203.00
  21
 1324.00
  31
0.0
   0
LINE
   8
LEVEL003
   6
CONTINUOUS
  62
7
  10
 1215.00
  20
 1290.00
  30
0.0
  11
 1215.00
  21
 1137.00
  31
0.0
   0
LINE
   8
LEVEL003
   6
CONTINUOUS
  62
7
  10
 1203.00
  20
 1290.00
  30
0.0
  11
 1203.00
  21
 1137.00
  31
0.0
   0
LINE
   8
LEVEL003
   6
CONTINUOUS
  62
7
  10
 710.000
  20
 1387.00
  30
0.0
  11
 710.000
  21
 1324.00
  31
0.0
   0
LINE
   8
LEVEL003
   6
CONTINUOUS
  62
7
  10
 710.000
  20
 1290.00
  30
0.0
  11
 710.000
  21
 1137.00
  31
0.0
   0
LINE
   8
LEVEL003
   6
CONTINUOUS
  62
7
  10
 576.000
  20
 1132.00
  30
0.0
  11
 544.000
  21
 1132.00
  31
0.0
   0
LINE
   8
LEVEL003
   6
DASHDOT
  62
1
  10
 560.000
  20
 1128.10
  30
0.0
  11
 560.000
  21
 1147.00
  31
0.0
   0
LINE
   8
LEVEL003
   6
CONTINUOUS
  62
7
  10
 549.530
  20
 1132.23
  30
0.0
  11
 570.470
  21
 1132.23
  31
0.0
   0
LINE
   8
LEVEL003
   6
CONTINUOUS
  62
7
  10
 550.656
  20
 1131.10
  30
0.0
  11
 569.344
  21
 1131.10
  31
0.0
   0
LINE
   8
LEVEL003
   6
CONTINUOUS
  62
7
  10
 569.344
  20
 1131.10
  30
0.0
  11
 570.470
  21
 1132.23
  31
0.0
   0
LINE
   8
LEVEL003
   6
CONTINUOUS
  62
7
  10
 549.530
  20
 1132.23
  30
0.0
  11
 550.656
  21
 1131.10
  31
0.0
   0
LINE
   8
LEVEL003
   6
CONTINUOUS
  62
3
  10
 569.310
  20
 1132.19
  30
0.0
  11
 569.344
  21
 1131.10
  31
0.0
   0
LINE
   8
LEVEL003
   6
CONTINUOUS
  62
3
  10
 550.690
  20
 1132.19
  30
0.0
  11
 550.656
  21
 1131.10
  31
0.0
   0
LINE
   8
LEVEL001
   6
DASHDOT
  62
1
  10
 537.500
  20
 1391.83
  30
0.0
  11
 537.500
  21
 1374.83
  31
0.0
   0
ARC
   8
LEVEL001
   6
CONTINUOUS
  62
7
  10
 529.500
  20
 1394.16
  30
0.0
  40
 7.00000
  50
 90.0000
  51
 180.000
   0
LINE
   8
LEVEL001
   6
CONTINUOUS
  62
7
  10
 522.500
  20
 1394.16
  30
0.0
  11
 522.500
  21
 1390.20
  31
0.0
   0
ARC
   8
LEVEL001
   6
CONTINUOUS
  62
7
  10
 531.480
  20
 1392.18
  30
0.0
  40
 1.98000
  50
 92.8683
  51
 269.989
   0
LINE
   8
LEVEL001
   6
CONTINUOUS
  62
7
  10
 535.983
  20
 1390.20
  30
0.0
  11
 531.480
  21
 1390.20
  31
0.0
   0
LINE
   8
LEVEL001
   6
DASHDOT
  62
1
  10
 582.500
  20
 1391.83
  30
0.0
  11
 582.500
  21
 1374.83
  31
0.0
   0
ARC
   8
LEVEL001
   6
CONTINUOUS
  62
7
  10
 590.500
  20
 1394.16
  30
0.0
  40
 7.00000
  50
0.0
  51
 90.0000
   0
LINE
   8
LEVEL001
   6
CONTINUOUS
  62
7
  10
 597.500
  20
 1394.16
  30
0.0
  11
 597.500
  21
 1390.20
  31
0.0
   0
ARC
   8
LEVEL001
   6
CONTINUOUS
  62
7
  10
 588.520
  20
 1392.18
  30
0.0
  40
 1.98000
  50
 270.011
  51
 87.1317
   0
LINE
   8
LEVEL001
   6
CONTINUOUS
  62
7
  10
 584.017
  20
 1390.20
  30
0.0
  11
 588.520
  21
 1390.20
  31
0.0
   0
LINE
   8
LEVEL001
   6
CONTINUOUS
  62
7
  10
 531.381
  20
 1394.16
  30
0.0
  11
 588.619
  21
 1394.16
  31
0.0
   0
LINE
   8
LEVEL001
   6
CONTINUOUS
  62
7
  10
 529.500
  20
 1401.16
  30
0.0
  11
 590.500
  21
 1401.16
  31
0.0
   0
LINE
   8
LEVEL001
   6
CONTINUOUS
  62
7
  10
 584.017
  20
 1387.10
  30
0.0
  11
 584.017
  21
 1391.83
  31
0.0
   0
LINE
   8
LEVEL001
   6
CONTINUOUS
  62
7
  10
 584.017
  20
 1391.83
  30
0.0
  11
 535.983
  21
 1391.83
  31
0.0
   0
LINE
   8
LEVEL001
   6
CONTINUOUS
  62
7
  10
 535.983
  20
 1391.83
  30
0.0
  11
 535.983
  21
 1387.10
  31
0.0
   0
ARC
   8
LEVEL001
   6
CONTINUOUS
  62
7
  10
 590.500
  20
 1390.20
  30
0.0
  40
 7.00000
  50
 332.797
  51
0.0
   0
ARC
   8
LEVEL001
   6
CONTINUOUS
  62
7
  10
 529.500
  20
 1390.20
  30
0.0
  40
 7.00000
  50
 180.000
  51
 207.203
   0
ARC
   8
LEVEL001
   6
CONTINUOUS
  62
7
  10
 529.500
  20
 1129.84
  30
0.0
  40
 7.00000
  50
 180.000
  51
 270.000
   0
LINE
   8
LEVEL001
   6
CONTINUOUS
  62
7
  10
 522.500
  20
 1129.84
  30
0.0
  11
 522.500
  21
 1133.80
  31
0.0
   0
ARC
   8
LEVEL001
   6
CONTINUOUS
  62
7
  10
 531.480
  20
 1131.82
  30
0.0
  40
 1.98000
  50
 90.0111
  51
 267.132
   0
LINE
   8
LEVEL001
   6
CONTINUOUS
  62
7
  10
 535.983
  20
 1133.80
  30
0.0
  11
 531.480
  21
 1133.80
  31
0.0
   0
ARC
   8
LEVEL001
   6
CONTINUOUS
  62
7
  10
 590.500
  20
 1129.84
  30
0.0
  40
 7.00000
  50
 270.000
  51
0.0
   0
LINE
   8
LEVEL001
   6
CONTINUOUS
  62
7
  10
 597.500
  20
 1129.84
  30
0.0
  11
 597.500
  21
 1133.80
  31
0.0
   0
ARC
   8
LEVEL001
   6
CONTINUOUS
  62
7
  10
 588.520
  20
 1131.82
  30
0.0
  40
 1.98000
  50
 272.868
  51
 89.9889
   0
LINE
   8
LEVEL001
   6
CONTINUOUS
  62
7
  10
 584.017
  20
 1133.80
  30
0.0
  11
 588.520
  21
 1133.80
  31
0.0
   0
LINE
   8
LEVEL001
   6
CONTINUOUS
  62
7
  10
 531.381
  20
 1129.84
  30
0.0
  11
 588.619
  21
 1129.84
  31
0.0
   0
LINE
   8
LEVEL001
   6
CONTINUOUS
  62
7
  10
 529.500
  20
 1122.84
  30
0.0
  11
 590.500
  21
 1122.84
  31
0.0
   0
LINE
   8
LEVEL001
   6
CONTINUOUS
  62
7
  10
 584.017
  20
 1136.90
  30
0.0
  11
 584.017
  21
 1132.17
  31
0.0
   0
LINE
   8
LEVEL001
   6
CONTINUOUS
  62
7
  10
 584.017
  20
 1132.17
  30
0.0
  11
 535.983
  21
 1132.17
  31
0.0
   0
LINE
   8
LEVEL001
   6
CONTINUOUS
  62
7
  10
 535.983
  20
 1132.17
  30
0.0
  11
 535.983
  21
 1136.90
  31
0.0
   0
ARC
   8
LEVEL001
   6
CONTINUOUS
  62
7
  10
 590.500
  20
 1133.80
  30
0.0
  40
 7.00000
  50
 0.370355E-9
  51
 27.2030
   0
ARC
   8
LEVEL001
   6
CONTINUOUS
  62
7
  10
 529.500
  20
 1133.80
  30
0.0
  40
 7.00000
  50
 152.797
  51
 180.000
   0
LINE
   8
LEVEL001
   6
DASHDOT
  62
1
  10
 537.500
  20
 1132.17
  30
0.0
  11
 537.500
  21
 1149.17
  31
0.0
   0
LINE
   8
LEVEL001
   6
DASHDOT
  62
1
  10
 582.500
  20
 1132.17
  30
0.0
  11
 582.500
  21
 1149.17
  31
0.0
   0
LINE
   8
LEVEL003
   6
DOT
  62
3
  10
 447.013
  20
 1248.00
  30
0.0
  11
 446.669
  21
 1237.00
  31
0.0
   0
LINE
   8
LEVEL003
   6
DOT
  62
3
  10
 463.331
  20
 1237.00
  30
0.0
  11
 462.987
  21
 1248.00
  31
0.0
   0
LINE
   8
LEVEL003
   6
DOT
  62
3
  10
 447.869
  20
 1248.00
  30
0.0
  11
 447.553
  21
 1237.88
  31
0.0
   0
LINE
   8
LEVEL003
   6
DOT
  62
3
  10
 447.553
  20
 1237.88
  30
0.0
  11
 462.447
  21
 1237.88
  31
0.0
   0
LINE
   8
LEVEL003
   6
DOT
  62
3
  10
 462.447
  20
 1237.88
  30
0.0
  11
 462.131
  21
 1248.00
  31
0.0
   0
LINE
   8
LEVEL003
   6
DASHDOT
  62
1
  10
 517.813
  20
 674.256
  30
0.0
  11
 1322.10
  21
 502.921
  31
0.0
   0
LINE
   8
LEVEL003
   6
CONTINUOUS
  62
7
  10
 644.015
  20
 668.843
  30
0.0
  11
 643.245
  21
 670.029
  31
0.0
   0
LINE
   8
LEVEL003
   6
CONTINUOUS
  62
7
  10
 635.264
  20
 627.765
  30
0.0
  11
 634.077
  21
 626.995
  31
0.0
   0
LINE
   8
LEVEL003
   6
CONTINUOUS
  62
7
  10
 576.581
  20
 640.266
  30
0.0
  11
 577.350
  21
 639.079
  31
0.0
   0
LINE
   8
LEVEL003
   6
CONTINUOUS
  62
7
  10
 585.331
  20
 681.344
  30
0.0
  11
 586.518
  21
 682.114
  31
0.0
   0
ARC
   8
LEVEL003
   6
CONTINUOUS
  62
7
  10
 592.693
  20
 643.908
  30
0.0
  40
 12.4194
  50
 240.386
  51
 275.562
   0
ARC
   8
LEVEL003
   6
CONTINUOUS
  62
7
  10
 585.163
  20
 639.757
  30
0.0
  40
 6.79029
  50
 257.974
  51
 281.839
   0
ARC
   8
LEVEL003
   6
CONTINUOUS
  62
7
  10
 597.878
  20
 637.048
  30
0.0
  40
 6.79029
  50
 234.109
  51
 257.974
   0
LINE
   8
LEVEL003
   6
DASHDOT
  62
1
  10
 589.480
  20
 628.827
  30
0.0
  11
 593.335
  21
 646.921
  31
0.0
   0
LINE
   8
LEVEL003
   6
CONTINUOUS
  62
7
  10
 1313.15
  20
 522.210
  30
0.0
  11
 1313.92
  21
 521.024
  31
0.0
   0
LINE
   8
LEVEL003
   6
CONTINUOUS
  62
7
  10
 1307.25
  20
 489.726
  30
0.0
  11
 1306.06
  21
 488.956
  31
0.0
   0
LINE
   8
LEVEL003
   6
CONTINUOUS
  62
7
  10
 1313.92
  20
 521.024
  30
0.0
  11
 1307.25
  21
 489.726
  31
0.0
   0
LINE
   8
LEVEL003
   6
CONTINUOUS
  62
7
  10
 643.181
  20
 664.931
  30
0.0
  11
 1313.15
  21
 522.210
  31
0.0
   0
LINE
   8
LEVEL003
   6
CONTINUOUS
  62
7
  10
 636.097
  20
 631.677
  30
0.0
  11
 1306.06
  21
 488.956
  31
0.0
   0
LINE
   8
LEVEL003
   6
CONTINUOUS
  62
7
  10
 638.976
  20
 681.163
  30
0.0
  11
 624.295
  21
 684.291
  31
0.0
   0
LINE
   8
LEVEL003
   6
CONTINUOUS
  62
7
  10
 624.295
  20
 684.291
  30
0.0
  11
 625.632
  21
 690.569
  31
0.0
   0
LINE
   8
LEVEL003
   6
CONTINUOUS
  62
7
  10
 625.632
  20
 690.569
  30
0.0
  11
 626.737
  21
 690.928
  31
0.0
   0
LINE
   8
LEVEL003
   6
CONTINUOUS
  62
7
  10
 626.737
  20
 690.928
  30
0.0
  11
 639.451
  21
 688.219
  31
0.0
   0
LINE
   8
LEVEL003
   6
CONTINUOUS
  62
7
  10
 639.451
  20
 688.219
  30
0.0
  11
 640.314
  21
 687.442
  31
0.0
   0
LINE
   8
LEVEL003
   6
CONTINUOUS
  62
7
  10
 640.314
  20
 687.442
  30
0.0
  11
 638.976
  21
 681.163
  31
0.0
   0
LINE
   8
LEVEL003
   6
CONTINUOUS
  62
7
  10
 627.965
  20
 683.509
  30
0.0
  11
 629.303
  21
 689.787
  31
0.0
   0
ARC
   8
LEVEL003
   6
CONTINUOUS
  62
7
  10
 630.506
  20
 677.426
  30
0.0
  40
 12.4194
  50
 60.3863
  51
 95.5622
   0
ARC
   8
LEVEL003
   6
CONTINUOUS
  62
7
  10
 625.322
  20
 684.286
  30
0.0
  40
 6.79029
  50
 54.1093
  51
 77.9742
   0
LINE
   8
LEVEL003
   6
CONTINUOUS
  62
7
  10
 635.306
  20
 681.945
  30
0.0
  11
 636.644
  21
 688.224
  31
0.0
   0
ARC
   8
LEVEL003
   6
CONTINUOUS
  62
7
  10
 638.037
  20
 681.578
  30
0.0
  40
 6.79029
  50
 77.9743
  51
 101.839
   0
LINE
   8
LEVEL003
   6
CONTINUOUS
  62
7
  10
 626.737
  20
 690.928
  30
0.0
  11
 628.924
  21
 701.197
  31
0.0
   0
LINE
   8
LEVEL003
   6
CONTINUOUS
  62
7
  10
 639.451
  20
 688.219
  30
0.0
  11
 641.639
  21
 698.489
  31
0.0
   0
LINE
   8
LEVEL003
   6
CONTINUOUS
  62
7
  10
 628.924
  20
 701.197
  30
0.0
  11
 625.846
  21
 705.943
  31
0.0
   0
LINE
   8
LEVEL003
   6
CONTINUOUS
  62
7
  10
 625.846
  20
 705.943
  30
0.0
  11
 627.200
  21
 712.300
  31
0.0
   0
LINE
   8
LEVEL003
   6
CONTINUOUS
  62
7
  10
 627.200
  20
 712.300
  30
0.0
  11
 647.739
  21
 707.925
  31
0.0
   0
LINE
   8
LEVEL003
   6
CONTINUOUS
  62
7
  10
 647.739
  20
 707.925
  30
0.0
  11
 646.385
  21
 701.567
  31
0.0
   0
LINE
   8
LEVEL003
   6
CONTINUOUS
  62
7
  10
 646.385
  20
 701.567
  30
0.0
  11
 641.639
  21
 698.489
  31
0.0
   0
LINE
   8
LEVEL003
   6
CONTINUOUS
  62
7
  10
 628.924
  20
 701.197
  30
0.0
  11
 641.639
  21
 698.489
  31
0.0
   0
LINE
   8
LEVEL003
   6
CONTINUOUS
  62
3
  10
 635.620
  20
 679.833
  30
0.0
  11
 636.526
  21
 681.685
  31
0.0
   0
LINE
   8
LEVEL003
   6
CONTINUOUS
  62
3
  10
 626.745
  20
 683.769
  30
0.0
  11
 626.818
  21
 681.708
  31
0.0
   0
LINE
   8
LEVEL003
   6
DASHDOT
  62
1
  10
 637.970
  20
 712.461
  30
0.0
  11
 625.962
  21
 656.092
  31
0.0
   0
LINE
   8
LEVEL001
   6
CONTINUOUS
  62
7
  10
 586.518
  20
 682.114
  30
0.0
  11
 577.350
  21
 639.079
  31
0.0
   0
LINE
   8
LEVEL003
   6
CONTINUOUS
  62
7
  10
 577.350
  20
 639.079
  30
0.0
  11
 634.077
  21
 626.995
  31
0.0
   0
LINE
   8
LEVEL003
   6
CONTINUOUS
  62
7
  10
 583.702
  20
 637.726
  30
0.0
  11
 582.886
  21
 633.893
  31
0.0
   0
LINE
   8
LEVEL003
   6
CONTINUOUS
  62
7
  10
 582.886
  20
 633.893
  30
0.0
  11
 583.748
  21
 633.116
  31
0.0
   0
LINE
   8
LEVEL003
   6
CONTINUOUS
  62
7
  10
 583.748
  20
 633.116
  30
0.0
  11
 596.463
  21
 630.407
  31
0.0
   0
LINE
   8
LEVEL003
   6
CONTINUOUS
  62
7
  10
 596.463
  20
 630.407
  30
0.0
  11
 597.567
  21
 630.765
  31
0.0
   0
LINE
   8
LEVEL003
   6
CONTINUOUS
  62
7
  10
 597.567
  20
 630.765
  30
0.0
  11
 598.384
  21
 634.599
  31
0.0
   0
LINE
   8
LEVEL003
   6
CONTINUOUS
  62
7
  10
 594.713
  20
 635.381
  30
0.0
  11
 593.897
  21
 631.547
  31
0.0
   0
LINE
   8
LEVEL003
   6
CONTINUOUS
  62
7
  10
 587.373
  20
 636.944
  30
0.0
  11
 586.556
  21
 633.111
  31
0.0
   0
LINE
   8
LEVEL003
   6
CONTINUOUS
  62
7
  10
 644.015
  20
 668.843
  30
0.0
  11
 635.264
  21
 627.765
  31
0.0
   0
LINE
   8
LEVEL001
   6
CONTINUOUS
  62
7
  10
 625.846
  20
 705.943
  30
0.0
  11
 646.385
  21
 701.567
  31
0.0
   0
LINE
   8
LEVEL003
   6
CONTINUOUS
  62
7
  10
 586.518
  20
 682.114
  30
0.0
  11
 643.245
  21
 670.029
  31
0.0
   0
LINE
   8
LEVEL003
   6
CONTINUOUS
  62
7
  10
 630.802
  20
 678.815
  30
0.0
  11
 622.489
  21
 680.586
  31
0.0
   0
LINE
   8
LEVEL003
   6
CONTINUOUS
  62
7
  10
 622.489
  20
 680.586
  30
0.0
  11
 621.044
  21
 680.117
  31
0.0
   0
LINE
   8
LEVEL003
   6
CONTINUOUS
  62
7
  10
 621.044
  20
 680.117
  30
0.0
  11
 620.111
  21
 675.734
  31
0.0
   0
LINE
   8
LEVEL003
   6
CONTINUOUS
  62
7
  10
 620.111
  20
 675.734
  30
0.0
  11
 621.239
  21
 674.717
  31
0.0
   0
LINE
   8
LEVEL003
   6
CONTINUOUS
  62
7
  10
 621.239
  20
 674.717
  30
0.0
  11
 625.151
  21
 673.884
  31
0.0
   0
LINE
   8
LEVEL003
   6
CONTINUOUS
  62
7
  10
 633.953
  20
 672.009
  30
0.0
  11
 637.866
  21
 671.175
  31
0.0
   0
LINE
   8
LEVEL003
   6
CONTINUOUS
  62
7
  10
 637.866
  20
 671.175
  30
0.0
  11
 639.310
  21
 671.644
  31
0.0
   0
LINE
   8
LEVEL003
   6
CONTINUOUS
  62
7
  10
 639.310
  20
 671.644
  30
0.0
  11
 640.244
  21
 676.027
  31
0.0
   0
LINE
   8
LEVEL003
   6
CONTINUOUS
  62
7
  10
 640.244
  20
 676.027
  30
0.0
  11
 639.116
  21
 677.044
  31
0.0
   0
LINE
   8
LEVEL003
   6
CONTINUOUS
  62
7
  10
 639.116
  20
 677.044
  30
0.0
  11
 630.802
  21
 678.815
  31
0.0
   0
LINE
   8
LEVEL003
   6
CONTINUOUS
  62
3
  10
 626.401
  20
 679.752
  30
0.0
  11
 626.818
  21
 681.708
  31
0.0
   0
LINE
   8
LEVEL003
   6
CONTINUOUS
  62
7
  10
 626.745
  20
 683.769
  30
0.0
  11
 625.912
  21
 679.856
  31
0.0
   0
LINE
   8
LEVEL003
   6
CONTINUOUS
  62
7
  10
 635.692
  20
 677.773
  30
0.0
  11
 636.526
  21
 681.685
  31
0.0
   0
LINE
   8
LEVEL003
   6
CONTINUOUS
  62
3
  10
 635.620
  20
 679.833
  30
0.0
  11
 635.203
  21
 677.877
  31
0.0
   0
LINE
   8
LEVEL003
   6
CONTINUOUS
  62
3
  10
 626.329
  20
 681.813
  30
0.0
  11
 636.109
  21
 679.729
  31
0.0
   0
ARC
   8
LEVEL003
   6
CONTINUOUS
  62
7
  10
 623.089
  20
 683.402
  30
0.0
  40
 8.87961
  50
 257.974
  51
 281.839
   0
ARC
   8
LEVEL003
   6
CONTINUOUS
  62
7
  10
 620.639
  20
 671.901
  30
0.0
  40
 8.87961
  50
 54.1093
  51
 77.9742
   0
LINE
   8
LEVEL003
   6
CONTINUOUS
  62
7
  10
 624.911
  20
 674.711
  30
0.0
  11
 625.844
  21
 679.095
  31
0.0
   0
ARC
   8
LEVEL003
   6
CONTINUOUS
  62
7
  10
 639.716
  20
 679.860
  30
0.0
  40
 8.87961
  50
 234.109
  51
 257.974
   0
ARC
   8
LEVEL003
   6
CONTINUOUS
  62
7
  10
 637.266
  20
 668.359
  30
0.0
  40
 8.87961
  50
 77.9743
  51
 101.839
   0
ARC
   8
LEVEL003
   6
CONTINUOUS
  62
7
  10
 632.936
  20
 688.831
  30
0.0
  40
 16.2408
  50
 240.386
  51
 275.562
   0
ARC
   8
LEVEL003
   6
CONTINUOUS
  62
7
  10
 627.418
  20
 662.930
  30
0.0
  40
 16.2408
  50
 60.3863
  51
 95.5622
   0
LINE
   8
LEVEL003
   6
CONTINUOUS
  62
7
  10
 634.510
  20
 672.666
  30
0.0
  11
 635.444
  21
 677.050
  31
0.0
   0
LINE
   8
LEVEL001
   6
CONTINUOUS
  62
7
  10
 643.245
  20
 670.029
  30
0.0
  11
 634.077
  21
 626.995
  31
0.0
   0
LINE
   8
LEVEL001
   6
CONTINUOUS
  62
7
  10
 1313.15
  20
 522.210
  30
0.0
  11
 1306.06
  21
 488.956
  31
0.0
   0
LINE
   8
LEVEL001
   6
CONTINUOUS
  62
3
  10
 1167.42
  20
 553.255
  30
0.0
  11
 1160.33
  21
 520.001
  31
0.0
   0
LINE
   8
LEVEL001
   6
CONTINUOUS
  62
3
  10
 1167.36
  20
 552.968
  30
0.0
  11
 1167.70
  21
 553.193
  31
0.0
   0
LINE
   8
LEVEL001
   6
CONTINUOUS
  62
3
  10
 1165.88
  20
 546.052
  30
0.0
  11
 1174.62
  21
 551.720
  31
0.0
   0
LINE
   8
LEVEL001
   6
CONTINUOUS
  62
3
  10
 1164.41
  20
 539.136
  30
0.0
  11
 1181.54
  21
 550.247
  31
0.0
   0
LINE
   8
LEVEL001
   6
CONTINUOUS
  62
3
  10
 1162.94
  20
 532.220
  30
0.0
  11
 1188.45
  21
 548.774
  31
0.0
   0
LINE
   8
LEVEL001
   6
CONTINUOUS
  62
3
  10
 1161.46
  20
 525.304
  30
0.0
  11
 1195.37
  21
 547.300
  31
0.0
   0
LINE
   8
LEVEL001
   6
CONTINUOUS
  62
3
  10
 1161.95
  20
 519.657
  30
0.0
  11
 1202.28
  21
 545.827
  31
0.0
   0
LINE
   8
LEVEL001
   6
CONTINUOUS
  62
3
  10
 1168.86
  20
 518.184
  30
0.0
  11
 1209.20
  21
 544.354
  31
0.0
   0
LINE
   8
LEVEL001
   6
CONTINUOUS
  62
3
  10
 1175.78
  20
 516.711
  30
0.0
  11
 1216.12
  21
 542.881
  31
0.0
   0
LINE
   8
LEVEL001
   6
CONTINUOUS
  62
3
  10
 1182.69
  20
 515.237
  30
0.0
  11
 1223.03
  21
 541.407
  31
0.0
   0
LINE
   8
LEVEL001
   6
CONTINUOUS
  62
3
  10
 1189.61
  20
 513.764
  30
0.0
  11
 1229.95
  21
 539.934
  31
0.0
   0
LINE
   8
LEVEL001
   6
CONTINUOUS
  62
3
  10
 1196.53
  20
 512.291
  30
0.0
  11
 1236.86
  21
 538.461
  31
0.0
   0
LINE
   8
LEVEL001
   6
CONTINUOUS
  62
3
  10
 1203.44
  20
 510.818
  30
0.0
  11
 1243.78
  21
 536.988
  31
0.0
   0
LINE
   8
LEVEL001
   6
CONTINUOUS
  62
3
  10
 1210.36
  20
 509.344
  30
0.0
  11
 1250.70
  21
 535.514
  31
0.0
   0
LINE
   8
LEVEL001
   6
CONTINUOUS
  62
3
  10
 1217.27
  20
 507.871
  30
0.0
  11
 1257.61
  21
 534.041
  31
0.0
   0
LINE
   8
LEVEL001
   6
CONTINUOUS
  62
3
  10
 1224.19
  20
 506.398
  30
0.0
  11
 1264.53
  21
 532.568
  31
0.0
   0
LINE
   8
LEVEL001
   6
CONTINUOUS
  62
3
  10
 1231.11
  20
 504.925
  30
0.0
  11
 1271.44
  21
 531.094
  31
0.0
   0
LINE
   8
LEVEL001
   6
CONTINUOUS
  62
3
  10
 1238.02
  20
 503.451
  30
0.0
  11
 1278.36
  21
 529.621
  31
0.0
   0
LINE
   8
LEVEL001
   6
CONTINUOUS
  62
3
  10
 1244.94
  20
 501.978
  30
0.0
  11
 1285.27
  21
 528.148
  31
0.0
   0
LINE
   8
LEVEL001
   6
CONTINUOUS
  62
3
  10
 1251.85
  20
 500.505
  30
0.0
  11
 1292.19
  21
 526.675
  31
0.0
   0
LINE
   8
LEVEL001
   6
CONTINUOUS
  62
3
  10
 1258.77
  20
 499.031
  30
0.0
  11
 1299.11
  21
 525.201
  31
0.0
   0
LINE
   8
LEVEL001
   6
CONTINUOUS
  62
3
  10
 1265.68
  20
 497.558
  30
0.0
  11
 1306.02
  21
 523.728
  31
0.0
   0
LINE
   8
LEVEL001
   6
CONTINUOUS
  62
3
  10
 1272.60
  20
 496.085
  30
0.0
  11
 1312.94
  21
 522.255
  31
0.0
   0
LINE
   8
LEVEL001
   6
CONTINUOUS
  62
3
  10
 1279.52
  20
 494.612
  30
0.0
  11
 1311.72
  21
 515.504
  31
0.0
   0
LINE
   8
LEVEL001
   6
CONTINUOUS
  62
3
  10
 1286.43
  20
 493.138
  30
0.0
  11
 1310.25
  21
 508.588
  31
0.0
   0
LINE
   8
LEVEL001
   6
CONTINUOUS
  62
3
  10
 1293.35
  20
 491.665
  30
0.0
  11
 1308.77
  21
 501.672
  31
0.0
   0
LINE
   8
LEVEL001
   6
CONTINUOUS
  62
3
  10
 1300.26
  20
 490.192
  30
0.0
  11
 1307.30
  21
 494.756
  31
0.0
   0
LINE
   8
LEVEL001
   6
CONTINUOUS
  62
3
  10
 1161.40
  20
 525.020
  30
0.0
  11
 1165.35
  21
 518.931
  31
0.0
   0
LINE
   8
LEVEL001
   6
CONTINUOUS
  62
3
  10
 1162.88
  20
 531.936
  30
0.0
  11
 1172.27
  21
 517.458
  31
0.0
   0
LINE
   8
LEVEL001
   6
CONTINUOUS
  62
3
  10
 1164.35
  20
 538.851
  30
0.0
  11
 1179.18
  21
 515.985
  31
0.0
   0
LINE
   8
LEVEL001
   6
CONTINUOUS
  62
3
  10
 1165.82
  20
 545.767
  30
0.0
  11
 1186.10
  21
 514.512
  31
0.0
   0
LINE
   8
LEVEL001
   6
CONTINUOUS
  62
3
  10
 1167.30
  20
 552.683
  30
0.0
  11
 1193.02
  21
 513.038
  31
0.0
   0
LINE
   8
LEVEL001
   6
CONTINUOUS
  62
3
  10
 1173.76
  20
 551.903
  30
0.0
  11
 1199.93
  21
 511.565
  31
0.0
   0
LINE
   8
LEVEL001
   6
CONTINUOUS
  62
3
  10
 1180.68
  20
 550.430
  30
0.0
  11
 1206.85
  21
 510.092
  31
0.0
   0
LINE
   8
LEVEL001
   6
CONTINUOUS
  62
3
  10
 1187.59
  20
 548.956
  30
0.0
  11
 1213.76
  21
 508.619
  31
0.0
   0
LINE
   8
LEVEL001
   6
CONTINUOUS
  62
3
  10
 1194.51
  20
 547.483
  30
0.0
  11
 1220.68
  21
 507.145
  31
0.0
   0
LINE
   8
LEVEL001
   6
CONTINUOUS
  62
3
  10
 1201.43
  20
 546.010
  30
0.0
  11
 1227.60
  21
 505.672
  31
0.0
   0
LINE
   8
LEVEL001
   6
CONTINUOUS
  62
3
  10
 1208.34
  20
 544.537
  30
0.0
  11
 1234.51
  21
 504.199
  31
0.0
   0
LINE
   8
LEVEL001
   6
CONTINUOUS
  62
3
  10
 1215.26
  20
 543.063
  30
0.0
  11
 1241.43
  21
 502.726
  31
0.0
   0
LINE
   8
LEVEL001
   6
CONTINUOUS
  62
3
  10
 1222.17
  20
 541.590
  30
0.0
  11
 1248.34
  21
 501.252
  31
0.0
   0
LINE
   8
LEVEL001
   6
CONTINUOUS
  62
3
  10
 1229.09
  20
 540.117
  30
0.0
  11
 1255.26
  21
 499.779
  31
0.0
   0
LINE
   8
LEVEL001
   6
CONTINUOUS
  62
3
  10
 1236.01
  20
 538.644
  30
0.0
  11
 1262.18
  21
 498.306
  31
0.0
   0
LINE
   8
LEVEL001
   6
CONTINUOUS
  62
3
  10
 1242.92
  20
 537.170
  30
0.0
  11
 1269.09
  21
 496.833
  31
0.0
   0
LINE
   8
LEVEL001
   6
CONTINUOUS
  62
3
  10
 1249.84
  20
 535.697
  30
0.0
  11
 1276.01
  21
 495.359
  31
0.0
   0
LINE
   8
LEVEL001
   6
CONTINUOUS
  62
3
  10
 1256.75
  20
 534.224
  30
0.0
  11
 1282.92
  21
 493.886
  31
0.0
   0
LINE
   8
LEVEL001
   6
CONTINUOUS
  62
3
  10
 1263.67
  20
 532.750
  30
0.0
  11
 1289.84
  21
 492.413
  31
0.0
   0
LINE
   8
LEVEL001
   6
CONTINUOUS
  62
3
  10
 1270.59
  20
 531.277
  30
0.0
  11
 1296.76
  21
 490.939
  31
0.0
   0
LINE
   8
LEVEL001
   6
CONTINUOUS
  62
3
  10
 1277.50
  20
 529.804
  30
0.0
  11
 1303.67
  21
 489.466
  31
0.0
   0
LINE
   8
LEVEL001
   6
CONTINUOUS
  62
3
  10
 1284.42
  20
 528.331
  30
0.0
  11
 1307.03
  21
 493.479
  31
0.0
   0
LINE
   8
LEVEL001
   6
CONTINUOUS
  62
3
  10
 1291.33
  20
 526.857
  30
0.0
  11
 1308.50
  21
 500.395
  31
0.0
   0
LINE
   8
LEVEL001
   6
CONTINUOUS
  62
3
  10
 1298.25
  20
 525.384
  30
0.0
  11
 1309.97
  21
 507.311
  31
0.0
   0
LINE
   8
LEVEL001
   6
CONTINUOUS
  62
3
  10
 1305.16
  20
 523.911
  30
0.0
  11
 1311.45
  21
 514.227
  31
0.0
   0
LINE
   8
LEVEL001
   6
CONTINUOUS
  62
3
  10
 1312.08
  20
 522.438
  30
0.0
  11
 1312.92
  21
 521.142
  31
0.0
   0
LINE
   8
LEVEL001
   6
CONTINUOUS
  62
7
  10
 420.000
  20
 600.000
  30
0.0
  11
 560.000
  21
 600.000
  31
0.0
   0
LINE
   8
LEVEL003
   6
CONTINUOUS
  62
7
  10
 406.000
  20
 1379.00
  30
0.0
  11
 405.000
  21
 1378.00
  31
0.0
   0
LINE
   8
LEVEL003
   6
CONTINUOUS
  62
7
  10
 405.000
  20
 1378.00
  30
0.0
  11
 405.000
  21
 1346.00
  31
0.0
   0
LINE
   8
LEVEL001
   6
CONTINUOUS
  62
7
  10
 406.000
  20
 1379.00
  30
0.0
  11
 406.000
  21
 1345.00
  31
0.0
   0
LINE
   8
LEVEL003
   6
CONTINUOUS
  62
7
  10
 405.000
  20
 1346.00
  30
0.0
  11
 406.000
  21
 1345.00
  31
0.0
   0
LINE
   8
LEVEL003
   6
CONTINUOUS
  62
7
  10
 406.000
  20
 1179.00
  30
0.0
  11
 405.000
  21
 1178.00
  31
0.0
   0
LINE
   8
LEVEL003
   6
CONTINUOUS
  62
7
  10
 405.000
  20
 1178.00
  30
0.0
  11
 405.000
  21
 1146.00
  31
0.0
   0
LINE
   8
LEVEL001
   6
CONTINUOUS
  62
7
  10
 406.000
  20
 1179.00
  30
0.0
  11
 406.000
  21
 1145.00
  31
0.0
   0
LINE
   8
LEVEL003
   6
CONTINUOUS
  62
7
  10
 405.000
  20
 1146.00
  30
0.0
  11
 406.000
  21
 1145.00
  31
0.0
   0
LINE
   8
LEVEL003
   6
CONTINUOUS
  62
7
  10
 406.000
  20
 1379.00
  30
0.0
  11
 410.000
  21
 1379.00
  31
0.0
   0
LINE
   8
LEVEL003
   6
CONTINUOUS
  62
7
  10
 406.000
  20
 1345.00
  30
0.0
  11
 410.000
  21
 1345.00
  31
0.0
   0
LINE
   8
LEVEL003
   6
CONTINUOUS
  62
7
  10
 406.000
  20
 1179.00
  30
0.0
  11
 410.000
  21
 1179.00
  31
0.0
   0
LINE
   8
LEVEL003
   6
CONTINUOUS
  62
7
  10
 406.000
  20
 1145.00
  30
0.0
  11
 410.000
  21
 1145.00
  31
0.0
   0
LINE
   8
LEVEL003
   6
CONTINUOUS
  62
7
  10
 1215.00
  20
 1379.00
  30
0.0
  11
 1224.00
  21
 1379.00
  31
0.0
   0
LINE
   8
LEVEL003
   6
CONTINUOUS
  62
7
  10
 1224.00
  20
 1379.00
  30
0.0
  11
 1225.00
  21
 1378.00
  31
0.0
   0
LINE
   8
LEVEL003
   6
CONTINUOUS
  62
7
  10
 1225.00
  20
 1378.00
  30
0.0
  11
 1225.00
  21
 1346.00
  31
0.0
   0
LINE
   8
LEVEL003
   6
CONTINUOUS
  62
7
  10
 1225.00
  20
 1346.00
  30
0.0
  11
 1224.00
  21
 1345.00
  31
0.0
   0
LINE
   8
LEVEL003
   6
CONTINUOUS
  62
7
  10
 1215.00
  20
 1345.00
  30
0.0
  11
 1224.00
  21
 1345.00
  31
0.0
   0
LINE
   8
LEVEL003
   6
CONTINUOUS
  62
7
  10
 1215.00
  20
 1179.00
  30
0.0
  11
 1224.00
  21
 1179.00
  31
0.0
   0
LINE
   8
LEVEL003
   6
CONTINUOUS
  62
7
  10
 1224.00
  20
 1179.00
  30
0.0
  11
 1225.00
  21
 1178.00
  31
0.0
   0
LINE
   8
LEVEL003
   6
CONTINUOUS
  62
7
  10
 1225.00
  20
 1178.00
  30
0.0
  11
 1225.00
  21
 1146.00
  31
0.0
   0
LINE
   8
LEVEL003
   6
CONTINUOUS
  62
7
  10
 1225.00
  20
 1146.00
  30
0.0
  11
 1224.00
  21
 1145.00
  31
0.0
   0
LINE
   8
LEVEL003
   6
CONTINUOUS
  62
7
  10
 1215.00
  20
 1145.00
  30
0.0
  11
 1224.00
  21
 1145.00
  31
0.0
   0
LINE
   8
LEVEL001
   6
CONTINUOUS
  62
7
  10
 1224.00
  20
 1379.00
  30
0.0
  11
 1224.00
  21
 1345.00
  31
0.0
   0
LINE
   8
LEVEL001
   6
CONTINUOUS
  62
7
  10
 1224.00
  20
 1179.00
  30
0.0
  11
 1224.00
  21
 1145.00
  31
0.0
   0
LINE
   8
LEVEL001
   6
DASHDOT
  62
1
  10
 629.552
  20
 1317.61
  30
0.0
  11
 629.552
  21
 1295.61
  31
0.0
   0
LINE
   8
LEVEL001
   6
CONTINUOUS
  62
7
  10
 1163.88
  20
 1290.00
  30
0.0
  11
 1164.32
  21
 1290.13
  31
0.0
   0
LINE
   8
LEVEL001
   6
CONTINUOUS
  62
7
  10
 1164.32
  20
 1290.13
  30
0.0
  11
 1164.75
  21
 1290.53
  31
0.0
   0
LINE
   8
LEVEL001
   6
CONTINUOUS
  62
7
  10
 1164.75
  20
 1290.53
  30
0.0
  11
 1165.17
  21
 1291.18
  31
0.0
   0
LINE
   8
LEVEL001
   6
CONTINUOUS
  62
7
  10
 1165.17
  20
 1291.18
  30
0.0
  11
 1165.57
  21
 1292.08
  31
0.0
   0
LINE
   8
LEVEL001
   6
CONTINUOUS
  62
7
  10
 1165.57
  20
 1292.08
  30
0.0
  11
 1165.95
  21
 1293.21
  31
0.0
   0
LINE
   8
LEVEL001
   6
CONTINUOUS
  62
7
  10
 1165.95
  20
 1293.21
  30
0.0
  11
 1166.29
  21
 1294.56
  31
0.0
   0
LINE
   8
LEVEL001
   6
CONTINUOUS
  62
7
  10
 1166.29
  20
 1294.56
  30
0.0
  11
 1166.60
  21
 1296.10
  31
0.0
   0
LINE
   8
LEVEL001
   6
CONTINUOUS
  62
7
  10
 1166.60
  20
 1296.10
  30
0.0
  11
 1166.86
  21
 1297.81
  31
0.0
   0
LINE
   8
LEVEL001
   6
CONTINUOUS
  62
7
  10
 1166.86
  20
 1297.81
  30
0.0
  11
 1167.07
  21
 1299.67
  31
0.0
   0
LINE
   8
LEVEL001
   6
CONTINUOUS
  62
7
  10
 1167.07
  20
 1299.67
  30
0.0
  11
 1167.24
  21
 1301.64
  31
0.0
   0
LINE
   8
LEVEL001
   6
CONTINUOUS
  62
7
  10
 1167.24
  20
 1301.64
  30
0.0
  11
 1167.35
  21
 1303.69
  31
0.0
   0
LINE
   8
LEVEL001
   6
CONTINUOUS
  62
7
  10
 1167.35
  20
 1303.69
  30
0.0
  11
 1167.41
  21
 1305.80
  31
0.0
   0
LINE
   8
LEVEL001
   6
CONTINUOUS
  62
7
  10
 1167.41
  20
 1305.80
  30
0.0
  11
 1167.41
  21
 1307.92
  31
0.0
   0
LINE
   8
LEVEL001
   6
CONTINUOUS
  62
7
  10
 1167.41
  20
 1307.92
  30
0.0
  11
 1167.36
  21
 1310.03
  31
0.0
   0
LINE
   8
LEVEL001
   6
CONTINUOUS
  62
7
  10
 1167.36
  20
 1310.03
  30
0.0
  11
 1167.26
  21
 1312.09
  31
0.0
   0
LINE
   8
LEVEL001
   6
CONTINUOUS
  62
7
  10
 1167.26
  20
 1312.09
  30
0.0
  11
 1167.10
  21
 1314.07
  31
0.0
   0
LINE
   8
LEVEL001
   6
CONTINUOUS
  62
7
  10
 1167.10
  20
 1314.07
  30
0.0
  11
 1166.89
  21
 1315.95
  31
0.0
   0
LINE
   8
LEVEL001
   6
CONTINUOUS
  62
7
  10
 1166.89
  20
 1315.95
  30
0.0
  11
 1166.63
  21
 1317.68
  31
0.0
   0
LINE
   8
LEVEL001
   6
CONTINUOUS
  62
7
  10
 1166.63
  20
 1317.68
  30
0.0
  11
 1166.33
  21
 1319.24
  31
0.0
   0
LINE
   8
LEVEL001
   6
CONTINUOUS
  62
7
  10
 1166.33
  20
 1319.24
  30
0.0
  11
 1166.00
  21
 1320.62
  31
0.0
   0
LINE
   8
LEVEL001
   6
CONTINUOUS
  62
7
  10
 1166.00
  20
 1320.62
  30
0.0
  11
 1165.63
  21
 1321.78
  31
0.0
   0
LINE
   8
LEVEL001
   6
CONTINUOUS
  62
7
  10
 1165.63
  20
 1321.78
  30
0.0
  11
 1165.23
  21
 1322.71
  31
0.0
   0
LINE
   8
LEVEL001
   6
CONTINUOUS
  62
7
  10
 1165.23
  20
 1322.71
  30
0.0
  11
 1164.81
  21
 1323.40
  31
0.0
   0
LINE
   8
LEVEL001
   6
CONTINUOUS
  62
7
  10
 1164.81
  20
 1323.40
  30
0.0
  11
 1164.38
  21
 1323.83
  31
0.0
   0
LINE
   8
LEVEL001
   6
CONTINUOUS
  62
7
  10
 1164.38
  20
 1323.83
  30
0.0
  11
 1163.93
  21
 1324.00
  31
0.0
   0
LINE
   8
LEVEL001
   6
CONTINUOUS
  62
7
  10
 1163.93
  20
 1324.00
  30
0.0
  11
 1163.88
  21
 1324.00
  31
0.0
   0
LINE
   8
LEVEL001
   6
CONTINUOUS
  62
3
  10
 1167.42
  20
 1320.65
  30
0.0
  11
 1170.77
  21
 1324.00
  31
0.0
   0
LINE
   8
LEVEL001
   6
CONTINUOUS
  62
3
  10
 1167.42
  20
 1313.58
  30
0.0
  11
 1177.84
  21
 1324.00
  31
0.0
   0
LINE
   8
LEVEL001
   6
CONTINUOUS
  62
3
  10
 1167.42
  20
 1306.51
  30
0.0
  11
 1184.91
  21
 1324.00
  31
0.0
   0
LINE
   8
LEVEL001
   6
CONTINUOUS
  62
3
  10
 1167.42
  20
 1299.44
  30
0.0
  11
 1191.98
  21
 1324.00
  31
0.0
   0
LINE
   8
LEVEL001
   6
CONTINUOUS
  62
3
  10
 1167.42
  20
 1292.37
  30
0.0
  11
 1199.05
  21
 1324.00
  31
0.0
   0
LINE
   8
LEVEL001
   6
CONTINUOUS
  62
3
  10
 1172.12
  20
 1290.00
  30
0.0
  11
 1206.12
  21
 1324.00
  31
0.0
   0
LINE
   8
LEVEL001
   6
CONTINUOUS
  62
3
  10
 1179.19
  20
 1290.00
  30
0.0
  11
 1213.19
  21
 1324.00
  31
0.0
   0
LINE
   8
LEVEL001
   6
CONTINUOUS
  62
3
  10
 1186.26
  20
 1290.00
  30
0.0
  11
 1220.26
  21
 1324.00
  31
0.0
   0
LINE
   8
LEVEL001
   6
CONTINUOUS
  62
3
  10
 1193.33
  20
 1290.00
  30
0.0
  11
 1227.33
  21
 1324.00
  31
0.0
   0
LINE
   8
LEVEL001
   6
CONTINUOUS
  62
3
  10
 1200.41
  20
 1290.00
  30
0.0
  11
 1234.41
  21
 1324.00
  31
0.0
   0
LINE
   8
LEVEL001
   6
CONTINUOUS
  62
3
  10
 1207.48
  20
 1290.00
  30
0.0
  11
 1241.48
  21
 1324.00
  31
0.0
   0
LINE
   8
LEVEL001
   6
CONTINUOUS
  62
3
  10
 1214.55
  20
 1290.00
  30
0.0
  11
 1248.55
  21
 1324.00
  31
0.0
   0
LINE
   8
LEVEL001
   6
CONTINUOUS
  62
3
  10
 1221.62
  20
 1290.00
  30
0.0
  11
 1255.62
  21
 1324.00
  31
0.0
   0
LINE
   8
LEVEL001
   6
CONTINUOUS
  62
3
  10
 1228.69
  20
 1290.00
  30
0.0
  11
 1262.69
  21
 1324.00
  31
0.0
   0
LINE
   8
LEVEL001
   6
CONTINUOUS
  62
3
  10
 1235.76
  20
 1290.00
  30
0.0
  11
 1269.76
  21
 1324.00
  31
0.0
   0
LINE
   8
LEVEL001
   6
CONTINUOUS
  62
3
  10
 1242.83
  20
 1290.00
  30
0.0
  11
 1276.83
  21
 1324.00
  31
0.0
   0
LINE
   8
LEVEL001
   6
CONTINUOUS
  62
3
  10
 1249.90
  20
 1290.00
  30
0.0
  11
 1283.90
  21
 1324.00
  31
0.0
   0
LINE
   8
LEVEL001
   6
CONTINUOUS
  62
3
  10
 1256.97
  20
 1290.00
  30
0.0
  11
 1290.97
  21
 1324.00
  31
0.0
   0
LINE
   8
LEVEL001
   6
CONTINUOUS
  62
3
  10
 1264.05
  20
 1290.00
  30
0.0
  11
 1298.05
  21
 1324.00
  31
0.0
   0
LINE
   8
LEVEL001
   6
CONTINUOUS
  62
3
  10
 1271.12
  20
 1290.00
  30
0.0
  11
 1305.12
  21
 1324.00
  31
0.0
   0
LINE
   8
LEVEL001
   6
CONTINUOUS
  62
3
  10
 1278.19
  20
 1290.00
  30
0.0
  11
 1310.58
  21
 1322.40
  31
0.0
   0
LINE
   8
LEVEL001
   6
CONTINUOUS
  62
3
  10
 1285.26
  20
 1290.00
  30
0.0
  11
 1310.58
  21
 1315.33
  31
0.0
   0
LINE
   8
LEVEL001
   6
CONTINUOUS
  62
3
  10
 1292.33
  20
 1290.00
  30
0.0
  11
 1310.58
  21
 1308.25
  31
0.0
   0
LINE
   8
LEVEL001
   6
CONTINUOUS
  62
3
  10
 1299.40
  20
 1290.00
  30
0.0
  11
 1310.58
  21
 1301.18
  31
0.0
   0
LINE
   8
LEVEL001
   6
CONTINUOUS
  62
3
  10
 1306.47
  20
 1290.00
  30
0.0
  11
 1310.58
  21
 1294.11
  31
0.0
   0
LINE
   8
LEVEL001
   6
CONTINUOUS
  62
3
  10
 1167.42
  20
 1292.14
  30
0.0
  11
 1169.56
  21
 1290.00
  31
0.0
   0
LINE
   8
LEVEL001
   6
CONTINUOUS
  62
3
  10
 1167.42
  20
 1299.21
  30
0.0
  11
 1176.63
  21
 1290.00
  31
0.0
   0
LINE
   8
LEVEL001
   6
CONTINUOUS
  62
3
  10
 1167.42
  20
 1306.28
  30
0.0
  11
 1183.70
  21
 1290.00
  31
0.0
   0
LINE
   8
LEVEL001
   6
CONTINUOUS
  62
3
  10
 1167.42
  20
 1313.35
  30
0.0
  11
 1190.77
  21
 1290.00
  31
0.0
   0
LINE
   8
LEVEL001
   6
CONTINUOUS
  62
3
  10
 1167.42
  20
 1320.42
  30
0.0
  11
 1197.84
  21
 1290.00
  31
0.0
   0
LINE
   8
LEVEL001
   6
CONTINUOUS
  62
3
  10
 1170.92
  20
 1324.00
  30
0.0
  11
 1204.92
  21
 1290.00
  31
0.0
   0
LINE
   8
LEVEL001
   6
CONTINUOUS
  62
3
  10
 1177.99
  20
 1324.00
  30
0.0
  11
 1211.99
  21
 1290.00
  31
0.0
   0
LINE
   8
LEVEL001
   6
CONTINUOUS
  62
3
  10
 1185.06
  20
 1324.00
  30
0.0
  11
 1219.06
  21
 1290.00
  31
0.0
   0
LINE
   8
LEVEL001
   6
CONTINUOUS
  62
3
  10
 1192.13
  20
 1324.00
  30
0.0
  11
 1226.13
  21
 1290.00
  31
0.0
   0
LINE
   8
LEVEL001
   6
CONTINUOUS
  62
3
  10
 1199.20
  20
 1324.00
  30
0.0
  11
 1233.20
  21
 1290.00
  31
0.0
   0
LINE
   8
LEVEL001
   6
CONTINUOUS
  62
3
  10
 1206.27
  20
 1324.00
  30
0.0
  11
 1240.27
  21
 1290.00
  31
0.0
   0
LINE
   8
LEVEL001
   6
CONTINUOUS
  62
3
  10
 1213.34
  20
 1324.00
  30
0.0
  11
 1247.34
  21
 1290.00
  31
0.0
   0
LINE
   8
LEVEL001
   6
CONTINUOUS
  62
3
  10
 1220.41
  20
 1324.00
  30
0.0
  11
 1254.41
  21
 1290.00
  31
0.0
   0
LINE
   8
LEVEL001
   6
CONTINUOUS
  62
3
  10
 1227.48
  20
 1324.00
  30
0.0
  11
 1261.48
  21
 1290.00
  31
0.0
   0
LINE
   8
LEVEL001
   6
CONTINUOUS
  62
3
  10
 1234.55
  20
 1324.00
  30
0.0
  11
 1268.55
  21
 1290.00
  31
0.0
   0
LINE
   8
LEVEL001
   6
CONTINUOUS
  62
3
  10
 1241.63
  20
 1324.00
  30
0.0
  11
 1275.63
  21
 1290.00
  31
0.0
   0
LINE
   8
LEVEL001
   6
CONTINUOUS
  62
3
  10
 1248.70
  20
 1324.00
  30
0.0
  11
 1282.70
  21
 1290.00
  31
0.0
   0
LINE
   8
LEVEL001
   6
CONTINUOUS
  62
3
  10
 1255.77
  20
 1324.00
  30
0.0
  11
 1289.77
  21
 1290.00
  31
0.0
   0
LINE
   8
LEVEL001
   6
CONTINUOUS
  62
3
  10
 1262.84
  20
 1324.00
  30
0.0
  11
 1296.84
  21
 1290.00
  31
0.0
   0
LINE
   8
LEVEL001
   6
CONTINUOUS
  62
3
  10
 1269.91
  20
 1324.00
  30
0.0
  11
 1303.91
  21
 1290.00
  31
0.0
   0
LINE
   8
LEVEL001
   6
CONTINUOUS
  62
3
  10
 1276.98
  20
 1324.00
  30
0.0
  11
 1310.58
  21
 1290.40
  31
0.0
   0
LINE
   8
LEVEL001
   6
CONTINUOUS
  62
3
  10
 1284.05
  20
 1324.00
  30
0.0
  11
 1310.58
  21
 1297.47
  31
0.0
   0
LINE
   8
LEVEL001
   6
CONTINUOUS
  62
3
  10
 1291.12
  20
 1324.00
  30
0.0
  11
 1310.58
  21
 1304.54
  31
0.0
   0
LINE
   8
LEVEL001
   6
CONTINUOUS
  62
3
  10
 1298.19
  20
 1324.00
  30
0.0
  11
 1310.58
  21
 1311.61
  31
0.0
   0
LINE
   8
LEVEL001
   6
CONTINUOUS
  62
3
  10
 1305.27
  20
 1324.00
  30
0.0
  11
 1310.58
  21
 1318.68
  31
0.0
   0
LINE
   8
LEVEL001
   6
CONTINUOUS
  62
7
  10
 1310.58
  20
 1290.00
  30
0.0
  11
 1311.03
  21
 1290.13
  31
0.0
   0
LINE
   8
LEVEL001
   6
CONTINUOUS
  62
7
  10
 1311.03
  20
 1290.13
  30
0.0
  11
 1311.46
  21
 1290.53
  31
0.0
   0
LINE
   8
LEVEL001
   6
CONTINUOUS
  62
7
  10
 1311.46
  20
 1290.53
  30
0.0
  11
 1311.88
  21
 1291.18
  31
0.0
   0
LINE
   8
LEVEL001
   6
CONTINUOUS
  62
7
  10
 1311.88
  20
 1291.18
  30
0.0
  11
 1312.28
  21
 1292.08
  31
0.0
   0
LINE
   8
LEVEL001
   6
CONTINUOUS
  62
7
  10
 1312.28
  20
 1292.08
  30
0.0
  11
 1312.66
  21
 1293.21
  31
0.0
   0
LINE
   8
LEVEL001
   6
CONTINUOUS
  62
7
  10
 1312.66
  20
 1293.21
  30
0.0
  11
 1313.00
  21
 1294.56
  31
0.0
   0
LINE
   8
LEVEL001
   6
CONTINUOUS
  62
7
  10
 1313.00
  20
 1294.56
  30
0.0
  11
 1313.30
  21
 1296.10
  31
0.0
   0
LINE
   8
LEVEL001
   6
CONTINUOUS
  62
7
  10
 1313.30
  20
 1296.10
  30
0.0
  11
 1313.57
  21
 1297.81
  31
0.0
   0
LINE
   8
LEVEL001
   6
CONTINUOUS
  62
7
  10
 1313.57
  20
 1297.81
  30
0.0
  11
 1313.78
  21
 1299.67
  31
0.0
   0
LINE
   8
LEVEL001
   6
CONTINUOUS
  62
7
  10
 1313.78
  20
 1299.67
  30
0.0
  11
 1313.95
  21
 1301.64
  31
0.0
   0
LINE
   8
LEVEL001
   6
CONTINUOUS
  62
7
  10
 1313.95
  20
 1301.64
  30
0.0
  11
 1314.06
  21
 1303.69
  31
0.0
   0
LINE
   8
LEVEL001
   6
CONTINUOUS
  62
7
  10
 1314.06
  20
 1303.69
  30
0.0
  11
 1314.12
  21
 1305.80
  31
0.0
   0
LINE
   8
LEVEL001
   6
CONTINUOUS
  62
7
  10
 1314.12
  20
 1305.80
  30
0.0
  11
 1314.12
  21
 1307.92
  31
0.0
   0
LINE
   8
LEVEL001
   6
CONTINUOUS
  62
7
  10
 1314.12
  20
 1307.92
  30
0.0
  11
 1314.07
  21
 1310.03
  31
0.0
   0
LINE
   8
LEVEL001
   6
CONTINUOUS
  62
7
  10
 1314.07
  20
 1310.03
  30
0.0
  11
 1313.96
  21
 1312.09
  31
0.0
   0
LINE
   8
LEVEL001
   6
CONTINUOUS
  62
7
  10
 1313.96
  20
 1312.09
  30
0.0
  11
 1313.81
  21
 1314.07
  31
0.0
   0
LINE
   8
LEVEL001
   6
CONTINUOUS
  62
7
  10
 1313.81
  20
 1314.07
  30
0.0
  11
 1313.60
  21
 1315.95
  31
0.0
   0
LINE
   8
LEVEL001
   6
CONTINUOUS
  62
7
  10
 1313.60
  20
 1315.95
  30
0.0
  11
 1313.34
  21
 1317.68
  31
0.0
   0
LINE
   8
LEVEL001
   6
CONTINUOUS
  62
7
  10
 1313.34
  20
 1317.68
  30
0.0
  11
 1313.04
  21
 1319.24
  31
0.0
   0
LINE
   8
LEVEL001
   6
CONTINUOUS
  62
7
  10
 1313.04
  20
 1319.24
  30
0.0
  11
 1312.70
  21
 1320.62
  31
0.0
   0
LINE
   8
LEVEL001
   6
CONTINUOUS
  62
7
  10
 1312.70
  20
 1320.62
  30
0.0
  11
 1312.33
  21
 1321.78
  31
0.0
   0
LINE
   8
LEVEL001
   6
CONTINUOUS
  62
7
  10
 1312.33
  20
 1321.78
  30
0.0
  11
 1311.94
  21
 1322.71
  31
0.0
   0
LINE
   8
LEVEL001
   6
CONTINUOUS
  62
7
  10
 1311.94
  20
 1322.71
  30
0.0
  11
 1311.52
  21
 1323.40
  31
0.0
   0
LINE
   8
LEVEL001
   6
CONTINUOUS
  62
7
  10
 1311.52
  20
 1323.40
  30
0.0
  11
 1311.08
  21
 1323.83
  31
0.0
   0
LINE
   8
LEVEL001
   6
CONTINUOUS
  62
7
  10
 1311.08
  20
 1323.83
  30
0.0
  11
 1310.64
  21
 1324.00
  31
0.0
   0
LINE
   8
LEVEL001
   6
CONTINUOUS
  62
7
  10
 1310.64
  20
 1324.00
  30
0.0
  11
 1310.58
  21
 1324.00
  31
0.0
   0
LINE
   8
LEVEL001
   6
CONTINUOUS
  62
7
  10
 638.661
  20
 1285.00
  30
0.0
  11
 639.233
  21
 1285.17
  31
0.0
   0
LINE
   8
LEVEL001
   6
CONTINUOUS
  62
7
  10
 639.233
  20
 1285.17
  30
0.0
  11
 639.796
  21
 1285.68
  31
0.0
   0
LINE
   8
LEVEL001
   6
CONTINUOUS
  62
7
  10
 639.796
  20
 1285.68
  30
0.0
  11
 640.341
  21
 1286.53
  31
0.0
   0
LINE
   8
LEVEL001
   6
CONTINUOUS
  62
7
  10
 640.341
  20
 1286.53
  30
0.0
  11
 640.859
  21
 1287.69
  31
0.0
   0
LINE
   8
LEVEL001
   6
CONTINUOUS
  62
7
  10
 640.859
  20
 1287.69
  30
0.0
  11
 641.344
  21
 1289.16
  31
0.0
   0
LINE
   8
LEVEL001
   6
CONTINUOUS
  62
7
  10
 641.344
  20
 1289.16
  30
0.0
  11
 641.787
  21
 1290.90
  31
0.0
   0
LINE
   8
LEVEL001
   6
CONTINUOUS
  62
7
  10
 641.787
  20
 1290.90
  30
0.0
  11
 642.181
  21
 1292.90
  31
0.0
   0
LINE
   8
LEVEL001
   6
CONTINUOUS
  62
7
  10
 642.181
  20
 1292.90
  30
0.0
  11
 642.520
  21
 1295.11
  31
0.0
   0
LINE
   8
LEVEL001
   6
CONTINUOUS
  62
7
  10
 642.520
  20
 1295.11
  30
0.0
  11
 642.798
  21
 1297.51
  31
0.0
   0
LINE
   8
LEVEL001
   6
CONTINUOUS
  62
7
  10
 642.798
  20
 1297.51
  30
0.0
  11
 643.013
  21
 1300.06
  31
0.0
   0
LINE
   8
LEVEL001
   6
CONTINUOUS
  62
7
  10
 643.013
  20
 1300.06
  30
0.0
  11
 643.159
  21
 1302.72
  31
0.0
   0
LINE
   8
LEVEL001
   6
CONTINUOUS
  62
7
  10
 643.159
  20
 1302.72
  30
0.0
  11
 643.235
  21
 1305.44
  31
0.0
   0
LINE
   8
LEVEL001
   6
CONTINUOUS
  62
7
  10
 643.235
  20
 1305.44
  30
0.0
  11
 643.240
  21
 1308.19
  31
0.0
   0
LINE
   8
LEVEL001
   6
CONTINUOUS
  62
7
  10
 643.240
  20
 1308.19
  30
0.0
  11
 643.173
  21
 1310.92
  31
0.0
   0
LINE
   8
LEVEL001
   6
CONTINUOUS
  62
7
  10
 643.173
  20
 1310.92
  30
0.0
  11
 643.036
  21
 1313.59
  31
0.0
   0
LINE
   8
LEVEL001
   6
CONTINUOUS
  62
7
  10
 643.036
  20
 1313.59
  30
0.0
  11
 642.831
  21
 1316.16
  31
0.0
   0
LINE
   8
LEVEL001
   6
CONTINUOUS
  62
7
  10
 642.831
  20
 1316.16
  30
0.0
  11
 642.560
  21
 1318.58
  31
0.0
   0
LINE
   8
LEVEL001
   6
CONTINUOUS
  62
7
  10
 642.560
  20
 1318.58
  30
0.0
  11
 642.229
  21
 1320.82
  31
0.0
   0
LINE
   8
LEVEL001
   6
CONTINUOUS
  62
7
  10
 642.229
  20
 1320.82
  30
0.0
  11
 641.842
  21
 1322.85
  31
0.0
   0
LINE
   8
LEVEL001
   6
CONTINUOUS
  62
7
  10
 641.842
  20
 1322.85
  30
0.0
  11
 641.405
  21
 1324.63
  31
0.0
   0
LINE
   8
LEVEL001
   6
CONTINUOUS
  62
7
  10
 641.405
  20
 1324.63
  30
0.0
  11
 640.926
  21
 1326.13
  31
0.0
   0
LINE
   8
LEVEL001
   6
CONTINUOUS
  62
7
  10
 640.926
  20
 1326.13
  30
0.0
  11
 640.411
  21
 1327.33
  31
0.0
   0
LINE
   8
LEVEL001
   6
CONTINUOUS
  62
7
  10
 640.411
  20
 1327.33
  30
0.0
  11
 639.869
  21
 1328.22
  31
0.0
   0
LINE
   8
LEVEL001
   6
CONTINUOUS
  62
7
  10
 639.869
  20
 1328.22
  30
0.0
  11
 639.308
  21
 1328.78
  31
0.0
   0
LINE
   8
LEVEL001
   6
CONTINUOUS
  62
7
  10
 639.308
  20
 1328.78
  30
0.0
  11
 638.737
  21
 1329.00
  31
0.0
   0
LINE
   8
LEVEL001
   6
CONTINUOUS
  62
7
  10
 638.737
  20
 1329.00
  30
0.0
  11
 638.661
  21
 1329.00
  31
0.0
   0
LINE
   8
LEVEL003
   6
CONTINUOUS
  62
7
  10
 641.572
  20
 1324.00
  30
0.0
  11
 1310.58
  21
 1324.00
  31
0.0
   0
LINE
   8
LEVEL003
   6
CONTINUOUS
  62
7
  10
 641.572
  20
 1290.00
  30
0.0
  11
 1310.58
  21
 1290.00
  31
0.0
   0
LINE
   8
LEVEL003
   6
CONTINUOUS
  62
7
  10
 430.000
  20
 1271.00
  30
0.0
  11
 459.505
  21
 1271.00
  31
0.0
   0
LINE
   8
LEVEL003
   6
CONTINUOUS
  62
7
  10
 471.505
  20
 1271.00
  30
0.0
  11
 511.000
  21
 1271.00
  31
0.0
   0
LINE
   8
LEVEL001
   6
CONTINUOUS
  62
7
  10
 430.000
  20
 600.000
  30
0.0
  11
 430.000
  21
 616.000
  31
0.0
   0
LINE
   8
LEVEL001
   6
CONTINUOUS
  62
7
  10
 430.000
  20
 616.000
  30
0.0
  11
 511.000
  21
 616.000
  31
0.0
   0
LINE
   8
LEVEL001
   6
CONTINUOUS
  62
7
  10
 511.000
  20
 616.000
  30
0.0
  11
 511.000
  21
 600.000
  31
0.0
   0
LINE
   8
LEVEL003
   6
CONTINUOUS
  62
7
  10
 463.500
  20
 616.000
  30
0.0
  11
 476.500
  21
 616.000
  31
0.0
   0
LINE
   8
LEVEL003
   6
CONTINUOUS
  62
7
  10
 476.500
  20
 616.000
  30
0.0
  11
 476.500
  21
 623.600
  31
0.0
   0
LINE
   8
LEVEL003
   6
CONTINUOUS
  62
7
  10
 476.500
  20
 623.600
  30
0.0
  11
 475.807
  21
 624.000
  31
0.0
   0
LINE
   8
LEVEL003
   6
CONTINUOUS
  62
7
  10
 475.807
  20
 624.000
  30
0.0
  11
 464.193
  21
 624.000
  31
0.0
   0
LINE
   8
LEVEL003
   6
CONTINUOUS
  62
7
  10
 464.193
  20
 624.000
  30
0.0
  11
 463.500
  21
 623.600
  31
0.0
   0
LINE
   8
LEVEL003
   6
CONTINUOUS
  62
7
  10
 463.500
  20
 623.600
  30
0.0
  11
 463.500
  21
 616.000
  31
0.0
   0
LINE
   8
LEVEL003
   6
CONTINUOUS
  62
7
  10
 463.500
  20
 623.600
  30
0.0
  11
 476.500
  21
 623.600
  31
0.0
   0
LINE
   8
LEVEL003
   6
CONTINUOUS
  62
7
  10
 495.500
  20
 616.000
  30
0.0
  11
 508.500
  21
 616.000
  31
0.0
   0
LINE
   8
LEVEL003
   6
CONTINUOUS
  62
7
  10
 508.500
  20
 616.000
  30
0.0
  11
 508.500
  21
 623.600
  31
0.0
   0
LINE
   8
LEVEL003
   6
CONTINUOUS
  62
7
  10
 508.500
  20
 623.600
  30
0.0
  11
 507.807
  21
 624.000
  31
0.0
   0
LINE
   8
LEVEL003
   6
CONTINUOUS
  62
7
  10
 507.807
  20
 624.000
  30
0.0
  11
 496.193
  21
 624.000
  31
0.0
   0
LINE
   8
LEVEL003
   6
CONTINUOUS
  62
7
  10
 496.193
  20
 624.000
  30
0.0
  11
 495.500
  21
 623.600
  31
0.0
   0
LINE
   8
LEVEL003
   6
CONTINUOUS
  62
7
  10
 495.500
  20
 623.600
  30
0.0
  11
 495.500
  21
 616.000
  31
0.0
   0
LINE
   8
LEVEL003
   6
CONTINUOUS
  62
7
  10
 495.500
  20
 623.600
  30
0.0
  11
 508.500
  21
 623.600
  31
0.0
   0
LINE
   8
LEVEL003
   6
CONTINUOUS
  62
3
  10
 404.000
  20
 1387.00
  30
0.0
  11
 318.000
  21
 1387.00
  31
0.0
   0
LINE
   8
LEVEL003
   6
CONTINUOUS
  62
3
  10
 404.000
  20
 1137.00
  30
0.0
  11
 318.000
  21
 1137.00
  31
0.0
   0
LINE
   8
LEVEL003
   6
CONTINUOUS
  62
3
  10
 330.000
  20
 1387.00
  30
0.0
  11
 330.000
  21
 1137.00
  31
0.0
   0
LINE
   8
LEVEL003
   6
CONTINUOUS
  62
3
  10
 330.000
  20
 1387.00
  30
0.0
  11
 326.826
  21
 1369.00
  31
0.0
   0
LINE
   8
LEVEL003
   6
CONTINUOUS
  62
3
  10
 330.000
  20
 1387.00
  30
0.0
  11
 333.174
  21
 1369.00
  31
0.0
   0
LINE
   8
LEVEL003
   6
CONTINUOUS
  62
3
  10
 330.000
  20
 1137.00
  30
0.0
  11
 333.174
  21
 1155.00
  31
0.0
   0
LINE
   8
LEVEL003
   6
CONTINUOUS
  62
3
  10
 330.000
  20
 1137.00
  30
0.0
  11
 326.826
  21
 1155.00
  31
0.0
   0
TEXT
   8
LEVEL003
  62
3
  10
 325.200
  20
 1244.00
  30
0.0
  40
 24.0000
   1
250
  50
 90.0000
  41
 0.500000
   7
STANDARD
  72
1
  11
 325.200
  21
 1262.00
  31
0.0
   0
LINE
   8
LEVEL003
   6
CONTINUOUS
  62
3
  10
 1221.00
  20
 1387.00
  30
0.0
  11
 1422.00
  21
 1387.00
  31
0.0
   0
LINE
   8
LEVEL003
   6
CONTINUOUS
  62
3
  10
 1221.00
  20
 1137.00
  30
0.0
  11
 1422.00
  21
 1137.00
  31
0.0
   0
LINE
   8
LEVEL003
   6
CONTINUOUS
  62
3
  10
 1410.00
  20
 1387.00
  30
0.0
  11
 1410.00
  21
 1137.00
  31
0.0
   0
LINE
   8
LEVEL003
   6
CONTINUOUS
  62
3
  10
 1410.00
  20
 1387.00
  30
0.0
  11
 1406.83
  21
 1369.00
  31
0.0
   0
LINE
   8
LEVEL003
   6
CONTINUOUS
  62
3
  10
 1410.00
  20
 1387.00
  30
0.0
  11
 1413.17
  21
 1369.00
  31
0.0
   0
LINE
   8
LEVEL003
   6
CONTINUOUS
  62
3
  10
 1410.00
  20
 1137.00
  30
0.0
  11
 1413.17
  21
 1155.00
  31
0.0
   0
LINE
   8
LEVEL003
   6
CONTINUOUS
  62
3
  10
 1410.00
  20
 1137.00
  30
0.0
  11
 1406.83
  21
 1155.00
  31
0.0
   0
TEXT
   8
LEVEL003
  62
3
  10
 1405.20
  20
 1244.00
  30
0.0
  40
 24.0000
   1
250
  50
 90.0000
  41
 0.500000
   7
STANDARD
  72
1
  11
 1405.20
  21
 1262.00
  31
0.0
   0
TEXT
   8
LEVEL003
  62
3
  10
 216.500
  20
 812.000
  30
0.0
  40
 24.0000
   1
吐出口
   7
STANDARD
   0
TEXT
   8
LEVEL003
  62
3
  10
 216.500
  20
 780.000
  30
0.0
  40
 24.0000
   1
Ｒｃ３／８
   7
STANDARD
   0
LINE
   8
LEVEL100
   6
DOT
  62
3
  10
 570.000
  20
 1382.00
  30
0.0
  11
 410.000
  21
 1382.00
  31
0.0
   0
LINE
   8
LEVEL100
   6
DOT
  62
3
  10
 418.200
  20
 1378.80
  30
0.0
  11
 418.200
  21
 1145.20
  31
0.0
   0
LINE
   8
LEVEL100
   6
DOT
  62
3
  10
 415.000
  20
 1378.80
  30
0.0
  11
 415.000
  21
 1145.20
  31
0.0
   0
LINE
   8
LEVEL100
   6
DOT
  62
3
  10
 410.000
  20
 1378.80
  30
0.0
  11
 710.000
  21
 1378.80
  31
0.0
   0
LINE
   8
LEVEL100
   6
DOT
  62
3
  10
 570.000
  20
 1382.00
  30
0.0
  11
 710.000
  21
 1382.00
  31
0.0
   0
CIRCLE
   8
LEVEL100
   6
DOT
  62
3
  10
 490.000
  20
 1307.00
  30
0.0
  40
 65.0000
   0
LINE
   8
LEVEL100
   6
DOT
  62
3
  10
 540.000
  20
 1364.58
  30
0.0
  11
 539.116
  21
 1363.69
  31
0.0
   0
LINE
   8
LEVEL100
   6
DOT
  62
3
  10
 540.000
  20
 1351.42
  30
0.0
  11
 539.116
  21
 1352.31
  31
0.0
   0
LINE
   8
LEVEL100
   6
DOT
  62
3
  10
 496.000
  20
 1329.50
  30
0.0
  11
 496.000
  21
 1284.50
  31
0.0
   0
LINE
   8
LEVEL100
   6
DOT
  62
3
  10
 484.000
  20
 1329.50
  30
0.0
  11
 484.000
  21
 1284.50
  31
0.0
   0
LINE
   8
LEVEL100
   6
DOT
  62
3
  10
 459.505
  20
 1341.50
  30
0.0
  11
 459.505
  21
 1272.50
  31
0.0
   0
LINE
   8
LEVEL100
   6
DOT
  62
3
  10
 471.505
  20
 1341.50
  30
0.0
  11
 471.505
  21
 1272.50
  31
0.0
   0
LINE
   8
LEVEL100
   6
DOT
  62
3
  10
 498.000
  20
 1316.50
  30
0.0
  11
 498.000
  21
 1329.50
  31
0.0
   0
LINE
   8
LEVEL100
   6
DOT
  62
3
  10
 482.000
  20
 1316.50
  30
0.0
  11
 482.000
  21
 1329.50
  31
0.0
   0
LINE
   8
LEVEL100
   6
DOT
  62
3
  10
 457.505
  20
 1316.50
  30
0.0
  11
 457.505
  21
 1329.50
  31
0.0
   0
LINE
   8
LEVEL100
   6
DOT
  62
3
  10
 473.505
  20
 1316.50
  30
0.0
  11
 473.505
  21
 1329.50
  31
0.0
   0
LINE
   8
LEVEL100
   6
DOT
  62
3
  10
 498.000
  20
 1297.50
  30
0.0
  11
 498.000
  21
 1284.50
  31
0.0
   0
LINE
   8
LEVEL100
   6
DOT
  62
3
  10
 482.000
  20
 1297.50
  30
0.0
  11
 482.000
  21
 1284.50
  31
0.0
   0
LINE
   8
LEVEL100
   6
DOT
  62
3
  10
 457.505
  20
 1297.50
  30
0.0
  11
 457.505
  21
 1284.50
  31
0.0
   0
LINE
   8
LEVEL100
   6
DOT
  62
3
  10
 473.505
  20
 1297.50
  30
0.0
  11
 473.505
  21
 1284.50
  31
0.0
   0
LINE
   8
LEVEL100
   6
DOT
  62
3
  10
 545.944
  20
 1316.50
  30
0.0
  11
 545.944
  21
 1297.50
  31
0.0
   0
LINE
   8
LEVEL100
   6
DOT
  62
3
  10
 705.000
  20
 1378.80
  30
0.0
  11
 705.000
  21
 1324.00
  31
0.0
   0
LINE
   8
LEVEL100
   6
DOT
  62
3
  10
 701.800
  20
 1378.80
  30
0.0
  11
 701.800
  21
 1324.00
  31
0.0
   0
LINE
   8
LEVEL100
   6
DOT
  62
3
  10
 705.000
  20
 1290.00
  30
0.0
  11
 705.000
  21
 1145.20
  31
0.0
   0
LINE
   8
LEVEL100
   6
DOT
  62
3
  10
 701.800
  20
 1290.00
  30
0.0
  11
 701.800
  21
 1145.20
  31
0.0
   0
LINE
   8
LEVEL100
   6
DOT
  62
3
  10
 601.500
  20
 1382.00
  30
0.0
  11
 601.500
  21
 1383.20
  31
0.0
   0
LINE
   8
LEVEL100
   6
DOT
  62
3
  10
 601.500
  20
 1383.20
  30
0.0
  11
 518.500
  21
 1383.20
  31
0.0
   0
LINE
   8
LEVEL100
   6
DOT
  62
3
  10
 518.500
  20
 1383.20
  30
0.0
  11
 518.500
  21
 1382.00
  31
0.0
   0
LINE
   8
LEVEL100
   6
DOT
  62
3
  10
 452.565
  20
 1316.50
  30
0.0
  11
 545.944
  21
 1316.50
  31
0.0
   0
LINE
   8
LEVEL100
   6
DOT
  62
3
  10
 452.565
  20
 1297.50
  30
0.0
  11
 545.944
  21
 1297.50
  31
0.0
   0
LINE
   8
LEVEL100
   6
DOT
  62
3
  10
 473.505
  20
 1284.50
  30
0.0
  11
 473.505
  21
 1272.50
  31
0.0
   0
LINE
   8
LEVEL100
   6
DOT
  62
3
  10
 457.505
  20
 1284.50
  30
0.0
  11
 457.505
  21
 1272.50
  31
0.0
   0
LINE
   8
LEVEL100
   6
DOT
  62
3
  10
 457.505
  20
 1329.50
  30
0.0
  11
 457.505
  21
 1341.50
  31
0.0
   0
LINE
   8
LEVEL100
   6
DOT
  62
3
  10
 473.505
  20
 1329.50
  30
0.0
  11
 473.505
  21
 1341.50
  31
0.0
   0
LINE
   8
LEVEL100
   6
DOT
  62
3
  10
 570.000
  20
 1142.00
  30
0.0
  11
 410.000
  21
 1142.00
  31
0.0
   0
LINE
   8
LEVEL100
   6
DOT
  62
3
  10
 710.000
  20
 1145.20
  30
0.0
  11
 410.000
  21
 1145.20
  31
0.0
   0
LINE
   8
LEVEL100
   6
DOT
  62
3
  10
 570.000
  20
 1142.00
  30
0.0
  11
 710.000
  21
 1142.00
  31
0.0
   0
LINE
   8
LEVEL100
   6
DOT
  62
3
  10
 601.500
  20
 1142.00
  30
0.0
  11
 601.500
  21
 1140.80
  31
0.0
   0
LINE
   8
LEVEL100
   6
DOT
  62
3
  10
 601.500
  20
 1140.80
  30
0.0
  11
 518.500
  21
 1140.80
  31
0.0
   0
LINE
   8
LEVEL100
   6
DOT
  62
3
  10
 518.500
  20
 1140.80
  30
0.0
  11
 518.500
  21
 1142.00
  31
0.0
   0
LINE
   8
LEVEL100
   6
DOT
  62
3
  10
 576.000
  20
 1137.00
  30
0.0
  11
 576.000
  21
 1132.00
  31
0.0
   0
LINE
   8
LEVEL100
   6
DOT
  62
3
  10
 544.000
  20
 1137.00
  30
0.0
  11
 544.000
  21
 1132.00
  31
0.0
   0
ARC
   8
LEVEL100
   6
DOT
  62
3
  10
 524.732
  20
 689.652
  30
0.0
  40
 1.00000
  50
 347.974
  51
 77.9742
   0
LINE
   8
LEVEL100
   6
DOT
  62
3
  10
 517.585
  20
 651.300
  30
0.0
  11
 525.711
  21
 689.444
  31
0.0
   0
LINE
   8
LEVEL100
   6
DOT
  62
3
  10
 452.565
  20
 706.048
  30
0.0
  11
 524.941
  21
 690.630
  31
0.0
   0
CIRCLE
   8
LEVEL100
   6
DOT
  62
3
  10
 490.000
  20
 671.000
  30
0.0
  40
 6.00000
   0
CIRCLE
   8
LEVEL100
   6
DOT
  62
3
  10
 490.000
  20
 671.000
  30
0.0
  40
 6.00000
   0
CIRCLE
   8
LEVEL100
   6
DOT
  62
3
  10
 490.000
  20
 631.000
  30
0.0
  40
 6.00000
   0
ARC
   8
LEVEL100
   6
DOT
  62
3
  10
 490.000
  20
 671.000
  30
0.0
  40
 8.00000
  50
 74.7122
  51
 352.085
   0
LINE
   8
LEVEL100
   6
DOT
  62
3
  10
 410.000
  20
 357.200
  30
0.0
  11
 710.000
  21
 357.200
  31
0.0
   0
LINE
   8
LEVEL100
   6
DOT
  62
3
  10
 415.000
  20
 558.000
  30
0.0
  11
 415.000
  21
 357.200
  31
0.0
   0
LINE
   8
LEVEL100
   6
DOT
  62
3
  10
 418.200
  20
 558.000
  30
0.0
  11
 418.200
  21
 357.200
  31
0.0
   0
LINE
   8
LEVEL100
   6
DOT
  62
3
  10
 701.800
  20
 357.200
  30
0.0
  11
 701.800
  21
 558.000
  31
0.0
   0
LINE
   8
LEVEL100
   6
DOT
  62
3
  10
 705.000
  20
 558.000
  30
0.0
  11
 705.000
  21
 357.200
  31
0.0
   0
TEXT
   8
LEVEL003
  62
3
  10
 512.221
  20
 1529.74
  30
0.0
  40
 24.0000
   1
レリースバルブ
   7
STANDARD
   0
TEXT
   8
LEVEL003
  62
3
  10
 567.917
  20
 1488.78
  30
0.0
  40
 24.0000
   1
高圧安全弁
   7
STANDARD
   0
TEXT
   8
LEVEL003
  62
3
  10
 633.786
  20
 1443.91
  30
0.0
  40
 24.0000
   1
アンロードバルブ
   7
STANDARD
   0
LINE
   8
LEVEL003
   6
CONTINUOUS
  62
3
  10
 459.709
  20
 1412.43
  30
0.0
  11
 506.269
  21
 1529.03
  31
0.0
   0
LINE
   8
LEVEL003
   6
CONTINUOUS
  62
3
  10
 506.269
  20
 1529.03
  30
0.0
  11
 685.857
  21
 1529.03
  31
0.0
   0
LINE
   8
LEVEL003
   6
CONTINUOUS
  62
3
  10
 459.709
  20
 1412.43
  30
0.0
  11
 469.332
  21
 1427.97
  31
0.0
   0
LINE
   8
LEVEL003
   6
CONTINUOUS
  62
3
  10
 459.709
  20
 1412.43
  30
0.0
  11
 463.437
  21
 1430.33
  31
0.0
   0
LINE
   8
LEVEL003
   6
CONTINUOUS
  62
3
  10
 492.575
  20
 1359.22
  30
0.0
  11
 559.089
  21
 1485.60
  31
0.0
   0
LINE
   8
LEVEL003
   6
CONTINUOUS
  62
3
  10
 559.089
  20
 1485.60
  30
0.0
  11
 702.290
  21
 1485.60
  31
0.0
   0
LINE
   8
LEVEL003
   6
CONTINUOUS
  62
3
  10
 492.575
  20
 1359.22
  30
0.0
  11
 503.767
  21
 1373.67
  31
0.0
   0
LINE
   8
LEVEL003
   6
CONTINUOUS
  62
3
  10
 492.575
  20
 1359.22
  30
0.0
  11
 498.150
  21
 1376.63
  31
0.0
   0
LINE
   8
LEVEL003
   6
CONTINUOUS
  62
3
  10
 522.310
  20
 1356.48
  30
0.0
  11
 627.168
  21
 1441.78
  31
0.0
   0
LINE
   8
LEVEL003
   6
CONTINUOUS
  62
3
  10
 627.168
  20
 1441.78
  30
0.0
  11
 826.710
  21
 1441.78
  31
0.0
   0
LINE
   8
LEVEL003
   6
CONTINUOUS
  62
3
  10
 522.310
  20
 1356.48
  30
0.0
  11
 538.277
  21
 1365.38
  31
0.0
   0
LINE
   8
LEVEL003
   6
CONTINUOUS
  62
3
  10
 522.310
  20
 1356.48
  30
0.0
  11
 534.271
  21
 1370.30
  31
0.0
   0
LINE
   8
LEVEL003
   6
CONTINUOUS
  62
3
  10
 668.250
  20
 1174.48
  30
0.0
  11
 728.250
  21
 1084.48
  31
0.0
   0
LINE
   8
LEVEL003
   6
CONTINUOUS
  62
3
  10
 728.250
  20
 1084.48
  30
0.0
  11
 908.250
  21
 1084.48
  31
0.0
   0
LINE
   8
LEVEL003
   6
CONTINUOUS
  62
3
  10
 668.250
  20
 1174.48
  30
0.0
  11
 675.594
  21
 1157.74
  31
0.0
   0
LINE
   8
LEVEL003
   6
CONTINUOUS
  62
3
  10
 668.250
  20
 1174.48
  30
0.0
  11
 680.875
  21
 1161.26
  31
0.0
   0
TEXT
   8
LEVEL003
  62
3
  10
 732.554
  20
 1086.05
  30
0.0
  40
 24.0000
   1
エア抜きプラグ
   7
STANDARD
   0
TEXT
   8
LEVEL003
  62
3
  10
 732.554
  20
 1054.05
  30
0.0
  40
 24.0000
   1
給油口兼用
   7
STANDARD
   0
LINE
   8
LEVEL003
   6
CONTINUOUS
  62
3
  10
 405.000
  20
 1140.00
  30
0.0
  11
 405.000
  21
 978.000
  31
0.0
   0
LINE
   8
LEVEL003
   6
CONTINUOUS
  62
3
  10
 1314.13
  20
 1301.00
  30
0.0
  11
 1314.13
  21
 978.000
  31
0.0
   0
LINE
   8
LEVEL003
   6
CONTINUOUS
  62
3
  10
 405.000
  20
 990.000
  30
0.0
  11
 1314.13
  21
 990.000
  31
0.0
   0
LINE
   8
LEVEL003
   6
CONTINUOUS
  62
3
  10
 405.000
  20
 990.000
  30
0.0
  11
 423.000
  21
 986.826
  31
0.0
   0
LINE
   8
LEVEL003
   6
CONTINUOUS
  62
3
  10
 405.000
  20
 990.000
  30
0.0
  11
 423.000
  21
 993.174
  31
0.0
   0
LINE
   8
LEVEL003
   6
CONTINUOUS
  62
3
  10
 1314.13
  20
 990.000
  30
0.0
  11
 1296.13
  21
 993.174
  31
0.0
   0
LINE
   8
LEVEL003
   6
CONTINUOUS
  62
3
  10
 1314.13
  20
 990.000
  30
0.0
  11
 1296.13
  21
 986.826
  31
0.0
   0
TEXT
   8
LEVEL003
  62
3
  10
 805.564
  20
 994.800
  30
0.0
  40
 24.0000
   1
MIN.約910
   7
STANDARD
  72
1
  11
 859.564
  21
 994.800
  31
0.0
   0
LINE
   8
LEVEL003
   6
CONTINUOUS
  62
3
  10
 410.000
  20
 1131.00
  30
0.0
  11
 410.000
  21
 1038.00
  31
0.0
   0
LINE
   8
LEVEL003
   6
CONTINUOUS
  62
3
  10
 710.000
  20
 1131.00
  30
0.0
  11
 710.000
  21
 1038.00
  31
0.0
   0
LINE
   8
LEVEL003
   6
CONTINUOUS
  62
3
  10
 410.000
  20
 1050.00
  30
0.0
  11
 710.000
  21
 1050.00
  31
0.0
   0
LINE
   8
LEVEL003
   6
CONTINUOUS
  62
3
  10
 410.000
  20
 1050.00
  30
0.0
  11
 428.000
  21
 1046.83
  31
0.0
   0
LINE
   8
LEVEL003
   6
CONTINUOUS
  62
3
  10
 410.000
  20
 1050.00
  30
0.0
  11
 428.000
  21
 1053.17
  31
0.0
   0
LINE
   8
LEVEL003
   6
CONTINUOUS
  62
3
  10
 710.000
  20
 1050.00
  30
0.0
  11
 692.000
  21
 1053.17
  31
0.0
   0
LINE
   8
LEVEL003
   6
CONTINUOUS
  62
3
  10
 710.000
  20
 1050.00
  30
0.0
  11
 692.000
  21
 1046.83
  31
0.0
   0
TEXT
   8
LEVEL003
  62
3
  10
 542.000
  20
 1054.80
  30
0.0
  40
 24.0000
   1
300
  41
 0.500000
   7
STANDARD
  72
1
  11
 560.000
  21
 1054.80
  31
0.0
   0
LINE
   8
LEVEL003
   6
CONTINUOUS
  62
7
  10
 440.000
  20
 1265.46
  30
0.0
  11
 443.000
  21
 1263.73
  31
0.0
   0
LINE
   8
LEVEL003
   6
CONTINUOUS
  62
7
  10
 443.000
  20
 1263.73
  30
0.0
  11
 443.000
  21
 1260.27
  31
0.0
   0
LINE
   8
LEVEL003
   6
CONTINUOUS
  62
7
  10
 443.000
  20
 1260.27
  30
0.0
  11
 440.000
  21
 1258.54
  31
0.0
   0
LINE
   8
LEVEL003
   6
CONTINUOUS
  62
7
  10
 440.000
  20
 1258.54
  30
0.0
  11
 437.000
  21
 1260.27
  31
0.0
   0
LINE
   8
LEVEL003
   6
CONTINUOUS
  62
7
  10
 437.000
  20
 1260.27
  30
0.0
  11
 437.000
  21
 1263.73
  31
0.0
   0
LINE
   8
LEVEL003
   6
CONTINUOUS
  62
7
  10
 437.000
  20
 1263.73
  30
0.0
  11
 440.000
  21
 1265.46
  31
0.0
   0
CIRCLE
   8
LEVEL003
   6
CONTINUOUS
  62
7
  10
 440.000
  20
 1262.00
  30
0.0
  40
 6.50000
   0
CIRCLE
   8
LEVEL003
   6
CONTINUOUS
  62
7
  10
 440.000
  20
 1262.00
  30
0.0
  40
 5.80718
   0
LINE
   8
LEVEL003
   6
DASHDOT
  62
1
  10
 449.500
  20
 1262.00
  30
0.0
  11
 430.500
  21
 1262.00
  31
0.0
   0
LINE
   8
LEVEL003
   6
DASHDOT
  62
1
  10
 440.000
  20
 1271.50
  30
0.0
  11
 440.000
  21
 1252.50
  31
0.0
   0
LINE
   8
LEVEL003
   6
CONTINUOUS
  62
7
  10
 433.500
  20
 616.000
  30
0.0
  11
 446.500
  21
 616.000
  31
0.0
   0
LINE
   8
LEVEL003
   6
CONTINUOUS
  62
7
  10
 446.500
  20
 616.000
  30
0.0
  11
 446.500
  21
 623.600
  31
0.0
   0
LINE
   8
LEVEL003
   6
CONTINUOUS
  62
7
  10
 446.500
  20
 623.600
  30
0.0
  11
 445.807
  21
 624.000
  31
0.0
   0
LINE
   8
LEVEL003
   6
CONTINUOUS
  62
7
  10
 445.807
  20
 624.000
  30
0.0
  11
 434.193
  21
 624.000
  31
0.0
   0
LINE
   8
LEVEL003
   6
CONTINUOUS
  62
7
  10
 434.193
  20
 624.000
  30
0.0
  11
 433.500
  21
 623.600
  31
0.0
   0
LINE
   8
LEVEL003
   6
CONTINUOUS
  62
7
  10
 433.500
  20
 623.600
  30
0.0
  11
 433.500
  21
 616.000
  31
0.0
   0
LINE
   8
LEVEL003
   6
CONTINUOUS
  62
7
  10
 433.500
  20
 623.600
  30
0.0
  11
 446.500
  21
 623.600
  31
0.0
   0
ARC
   8
LEVEL003
   6
CONTINUOUS
  62
3
  10
 467.981
  20
 684.872
  30
0.0
  40
 214.291
  50
 347.974
  51
 63.5737
   0
LINE
   8
LEVEL003
   6
CONTINUOUS
  62
3
  10
 677.569
  20
 640.224
  30
0.0
  11
 683.947
  21
 657.353
  31
0.0
   0
LINE
   8
LEVEL003
   6
CONTINUOUS
  62
3
  10
 677.569
  20
 640.224
  30
0.0
  11
 677.704
  21
 658.501
  31
0.0
   0
LINE
   8
LEVEL003
   6
CONTINUOUS
  62
3
  10
 563.351
  20
 876.771
  30
0.0
  11
 577.748
  21
 865.510
  31
0.0
   0
LINE
   8
LEVEL003
   6
CONTINUOUS
  62
3
  10
 563.351
  20
 876.771
  30
0.0
  11
 580.731
  21
 871.113
  31
0.0
   0
TEXT
   8
LEVEL003
  62
3
  10
 596.114
  20
 739.515
  30
0.0
  40
 24.0000
   1
≒75%%d
   7
STANDARD
  72
2
  11
 668.114
  21
 755.515
  31
0.0
  73
2
   0
LINE
   8
LEVEL001
   6
CONTINUOUS
  62
7
  10
 460.505
  20
 1347.00
  30
0.0
  11
 459.505
  21
 1346.00
  31
0.0
   0
ARC
   8
LEVEL003
   6
CONTINUOUS
  62
7
  10
 470.000
  20
 1262.00
  30
0.0
  40
 5.80718
  50
 120.571
  51
 78.1832
   0
ARC
   8
LEVEL003
   6
CONTINUOUS
  62
7
  10
 470.000
  20
 1262.00
  30
0.0
  40
 6.50000
  50
 129.715
  51
 76.6114
   0
CIRCLE
   8
LEVEL003
   6
CONTINUOUS
  62
7
  10
 660.000
  20
 1187.00
  30
0.0
  40
 15.0000
   0
CIRCLE
   8
LEVEL003
   6
CONTINUOUS
  62
7
  10
 660.000
  20
 1187.00
  30
0.0
  40
 14.0000
   0
TEXT
   8
LEVEL003
  62
3
  10
 782.827
  20
 665.124
  30
0.0
  40
 24.0000
   1
ＭＡＸ．≒１４８０
  50
 347.974
   7
STANDARD
  72
1
  11
 888.457
  21
 642.622
  31
0.0
   0
LINE
   8
LEVEL003
   6
CONTINUOUS
  62
7
  10
 420.000
  20
 600.000
  30
0.0
  11
 420.000
  21
 572.000
  31
0.0
   0
LINE
   8
LEVEL003
   6
CONTINUOUS
  62
7
  10
 560.000
  20
 600.000
  30
0.0
  11
 560.000
  21
 572.000
  31
0.0
   0
LINE
   8
LEVEL003
   6
CONTINUOUS
  62
7
  10
 410.000
  20
 547.000
  30
0.0
  11
 410.000
  21
 515.000
  31
0.0
   0
LINE
   8
LEVEL003
   6
CONTINUOUS
  62
7
  10
 693.000
  20
 352.000
  30
0.0
  11
 693.000
  21
 302.000
  31
0.0
   0
LINE
   8
LEVEL003
   6
CONTINUOUS
  62
7
  10
 693.000
  20
 302.000
  30
0.0
  11
 705.000
  21
 302.000
  31
0.0
   0
LINE
   8
LEVEL003
   6
CONTINUOUS
  62
7
  10
 427.000
  20
 344.000
  30
0.0
  11
 693.000
  21
 344.000
  31
0.0
   0
LINE
   8
LEVEL003
   6
CONTINUOUS
  62
7
  10
 427.000
  20
 310.000
  30
0.0
  11
 693.000
  21
 310.000
  31
0.0
   0
LINE
   8
LEVEL003
   6
DASHDOT
  62
1
  10
 390.000
  20
 327.000
  30
0.0
  11
 1250.00
  21
 327.000
  31
0.0
   0
LINE
   8
LEVEL003
   6
CONTINUOUS
  62
7
  10
 1203.00
  20
 352.000
  30
0.0
  11
 1215.00
  21
 352.000
  31
0.0
   0
LINE
   8
LEVEL003
   6
CONTINUOUS
  62
7
  10
 705.000
  20
 344.000
  30
0.0
  11
 1203.00
  21
 344.000
  31
0.0
   0
LINE
   8
LEVEL003
   6
CONTINUOUS
  62
7
  10
 705.000
  20
 310.000
  30
0.0
  11
 1203.00
  21
 310.000
  31
0.0
   0
LINE
   8
LEVEL003
   6
CONTINUOUS
  62
7
  10
 410.000
  20
 515.000
  30
0.0
  11
 410.000
  21
 352.000
  31
0.0
   0
LINE
   8
LEVEL001
   6
CONTINUOUS
  62
7
  10
 415.000
  20
 572.000
  30
0.0
  11
 415.000
  21
 560.000
  31
0.0
   0
LINE
   8
LEVEL003
   6
CONTINUOUS
  62
7
  10
 410.000
  20
 560.000
  30
0.0
  11
 410.000
  21
 547.000
  31
0.0
   0
LINE
   8
LEVEL001
   6
CONTINUOUS
  62
7
  10
 565.000
  20
 572.000
  30
0.0
  11
 565.000
  21
 560.000
  31
0.0
   0
LINE
   8
LEVEL003
   6
CONTINUOUS
  62
7
  10
 710.000
  20
 560.000
  30
0.0
  11
 710.000
  21
 352.000
  31
0.0
   0
LINE
   8
LEVEL003
   6
CONTINUOUS
  62
7
  10
 705.000
  20
 352.000
  30
0.0
  11
 705.000
  21
 302.000
  31
0.0
   0
LINE
   8
LEVEL003
   6
CONTINUOUS
  62
7
  10
 415.000
  20
 572.000
  30
0.0
  11
 565.000
  21
 572.000
  31
0.0
   0
LINE
   8
LEVEL003
   6
CONTINUOUS
  62
7
  10
 410.000
  20
 560.000
  30
0.0
  11
 710.000
  21
 560.000
  31
0.0
   0
LINE
   8
LEVEL001
   6
DASHDOT
  62
1
  10
 490.000
  20
 690.000
  30
0.0
  11
 490.000
  21
 538.000
  31
0.0
   0
CIRCLE
   8
LEVEL003
   6
CONTINUOUS
  62
7
  10
 560.000
  20
 367.000
  30
0.0
  40
 16.0000
   0
LINE
   8
LEVEL001
   6
CONTINUOUS
  62
7
  10
 560.000
  20
 372.774
  30
0.0
  11
 565.000
  21
 369.887
  31
0.0
   0
LINE
   8
LEVEL001
   6
CONTINUOUS
  62
7
  10
 565.000
  20
 369.887
  30
0.0
  11
 565.000
  21
 364.113
  31
0.0
   0
LINE
   8
LEVEL001
   6
CONTINUOUS
  62
7
  10
 565.000
  20
 364.113
  30
0.0
  11
 560.000
  21
 361.226
  31
0.0
   0
LINE
   8
LEVEL001
   6
CONTINUOUS
  62
7
  10
 560.000
  20
 361.226
  30
0.0
  11
 555.000
  21
 364.113
  31
0.0
   0
LINE
   8
LEVEL001
   6
CONTINUOUS
  62
7
  10
 555.000
  20
 364.113
  30
0.0
  11
 555.000
  21
 369.887
  31
0.0
   0
LINE
   8
LEVEL001
   6
CONTINUOUS
  62
7
  10
 555.000
  20
 369.887
  30
0.0
  11
 560.000
  21
 372.774
  31
0.0
   0
CIRCLE
   8
LEVEL001
   6
CONTINUOUS
  62
7
  10
 560.000
  20
 367.000
  30
0.0
  40
 10.4775
   0
CIRCLE
   8
LEVEL001
   6
CONTINUOUS
  62
3
  10
 560.000
  20
 367.000
  30
0.0
  40
 9.31550
   0
LINE
   8
LEVEL001
   6
DASHDOT
  62
1
  10
 573.477
  20
 367.000
  30
0.0
  11
 546.523
  21
 367.000
  31
0.0
   0
LINE
   8
LEVEL001
   6
DASHDOT
  62
1
  10
 560.000
  20
 380.478
  30
0.0
  11
 560.000
  21
 353.522
  31
0.0
   0
LINE
   8
LEVEL003
   6
CONTINUOUS
  62
7
  10
 410.000
  20
 352.000
  30
0.0
  11
 554.432
  21
 352.000
  31
0.0
   0
LINE
   8
LEVEL003
   6
CONTINUOUS
  62
7
  10
 565.568
  20
 352.000
  30
0.0
  11
 710.000
  21
 352.000
  31
0.0
   0
LINE
   8
LEVEL001
   6
CONTINUOUS
  62
7
  10
 421.000
  20
 328.732
  30
0.0
  11
 422.500
  21
 327.866
  31
0.0
   0
LINE
   8
LEVEL001
   6
CONTINUOUS
  62
7
  10
 422.500
  20
 327.866
  30
0.0
  11
 422.500
  21
 326.134
  31
0.0
   0
LINE
   8
LEVEL001
   6
CONTINUOUS
  62
7
  10
 422.500
  20
 326.134
  30
0.0
  11
 421.000
  21
 325.268
  31
0.0
   0
LINE
   8
LEVEL001
   6
CONTINUOUS
  62
7
  10
 421.000
  20
 325.268
  30
0.0
  11
 419.500
  21
 326.134
  31
0.0
   0
LINE
   8
LEVEL001
   6
CONTINUOUS
  62
7
  10
 419.500
  20
 326.134
  30
0.0
  11
 419.500
  21
 327.866
  31
0.0
   0
LINE
   8
LEVEL001
   6
CONTINUOUS
  62
7
  10
 419.500
  20
 327.866
  30
0.0
  11
 421.000
  21
 328.732
  31
0.0
   0
CIRCLE
   8
LEVEL001
   6
CONTINUOUS
  62
7
  10
 421.000
  20
 327.000
  30
0.0
  40
 3.00000
   0
CIRCLE
   8
LEVEL001
   6
CONTINUOUS
  62
3
  10
 421.000
  20
 327.000
  30
0.0
  40
 2.50000
   0
LINE
   8
LEVEL001
   6
DASHDOT
  62
1
  10
 421.000
  20
 333.000
  30
0.0
  11
 421.000
  21
 321.000
  31
0.0
   0
LINE
   8
LEVEL001
   6
CONTINUOUS
  62
7
  10
 699.000
  20
 328.732
  30
0.0
  11
 700.500
  21
 327.866
  31
0.0
   0
LINE
   8
LEVEL001
   6
CONTINUOUS
  62
7
  10
 700.500
  20
 327.866
  30
0.0
  11
 700.500
  21
 326.134
  31
0.0
   0
LINE
   8
LEVEL001
   6
CONTINUOUS
  62
7
  10
 700.500
  20
 326.134
  30
0.0
  11
 699.000
  21
 325.268
  31
0.0
   0
LINE
   8
LEVEL001
   6
CONTINUOUS
  62
7
  10
 699.000
  20
 325.268
  30
0.0
  11
 697.500
  21
 326.134
  31
0.0
   0
LINE
   8
LEVEL001
   6
CONTINUOUS
  62
7
  10
 697.500
  20
 326.134
  30
0.0
  11
 697.500
  21
 327.866
  31
0.0
   0
LINE
   8
LEVEL001
   6
CONTINUOUS
  62
7
  10
 697.500
  20
 327.866
  30
0.0
  11
 699.000
  21
 328.732
  31
0.0
   0
CIRCLE
   8
LEVEL001
   6
CONTINUOUS
  62
7
  10
 699.000
  20
 327.000
  30
0.0
  40
 3.00000
   0
CIRCLE
   8
LEVEL001
   6
CONTINUOUS
  62
3
  10
 699.000
  20
 327.000
  30
0.0
  40
 2.50000
   0
LINE
   8
LEVEL001
   6
DASHDOT
  62
1
  10
 699.000
  20
 333.000
  30
0.0
  11
 699.000
  21
 321.000
  31
0.0
   0
LINE
   8
LEVEL001
   6
CONTINUOUS
  62
7
  10
 1209.00
  20
 328.732
  30
0.0
  11
 1210.50
  21
 327.866
  31
0.0
   0
LINE
   8
LEVEL001
   6
CONTINUOUS
  62
7
  10
 1210.50
  20
 327.866
  30
0.0
  11
 1210.50
  21
 326.134
  31
0.0
   0
LINE
   8
LEVEL001
   6
CONTINUOUS
  62
7
  10
 1210.50
  20
 326.134
  30
0.0
  11
 1209.00
  21
 325.268
  31
0.0
   0
LINE
   8
LEVEL001
   6
CONTINUOUS
  62
7
  10
 1209.00
  20
 325.268
  30
0.0
  11
 1207.50
  21
 326.134
  31
0.0
   0
LINE
   8
LEVEL001
   6
CONTINUOUS
  62
7
  10
 1207.50
  20
 326.134
  30
0.0
  11
 1207.50
  21
 327.866
  31
0.0
   0
LINE
   8
LEVEL001
   6
CONTINUOUS
  62
7
  10
 1207.50
  20
 327.866
  30
0.0
  11
 1209.00
  21
 328.732
  31
0.0
   0
CIRCLE
   8
LEVEL001
   6
CONTINUOUS
  62
7
  10
 1209.00
  20
 327.000
  30
0.0
  40
 3.00000
   0
CIRCLE
   8
LEVEL001
   6
CONTINUOUS
  62
3
  10
 1209.00
  20
 327.000
  30
0.0
  40
 2.50000
   0
LINE
   8
LEVEL001
   6
DASHDOT
  62
1
  10
 1209.00
  20
 333.000
  30
0.0
  11
 1209.00
  21
 321.000
  31
0.0
   0
LINE
   8
LEVEL003
   6
CONTINUOUS
  62
7
  10
 1215.00
  20
 344.000
  30
0.0
  11
 1224.00
  21
 344.000
  31
0.0
   0
LINE
   8
LEVEL003
   6
CONTINUOUS
  62
7
  10
 1224.00
  20
 344.000
  30
0.0
  11
 1225.00
  21
 343.000
  31
0.0
   0
LINE
   8
LEVEL003
   6
CONTINUOUS
  62
7
  10
 1225.00
  20
 343.000
  30
0.0
  11
 1225.00
  21
 311.000
  31
0.0
   0
LINE
   8
LEVEL003
   6
CONTINUOUS
  62
7
  10
 1225.00
  20
 311.000
  30
0.0
  11
 1224.00
  21
 310.000
  31
0.0
   0
LINE
   8
LEVEL003
   6
CONTINUOUS
  62
7
  10
 1215.00
  20
 310.000
  30
0.0
  11
 1224.00
  21
 310.000
  31
0.0
   0
LINE
   8
LEVEL001
   6
CONTINUOUS
  62
7
  10
 1224.00
  20
 344.000
  30
0.0
  11
 1224.00
  21
 310.000
  31
0.0
   0
LINE
   8
LEVEL003
   6
CONTINUOUS
  62
7
  10
 406.000
  20
 344.000
  30
0.0
  11
 415.000
  21
 344.000
  31
0.0
   0
LINE
   8
LEVEL003
   6
CONTINUOUS
  62
7
  10
 406.000
  20
 344.000
  30
0.0
  11
 405.000
  21
 343.000
  31
0.0
   0
LINE
   8
LEVEL003
   6
CONTINUOUS
  62
7
  10
 405.000
  20
 343.000
  30
0.0
  11
 405.000
  21
 311.000
  31
0.0
   0
LINE
   8
LEVEL003
   6
CONTINUOUS
  62
7
  10
 405.000
  20
 311.000
  30
0.0
  11
 406.000
  21
 310.000
  31
0.0
   0
LINE
   8
LEVEL003
   6
CONTINUOUS
  62
7
  10
 406.000
  20
 310.000
  30
0.0
  11
 415.000
  21
 310.000
  31
0.0
   0
LINE
   8
LEVEL001
   6
CONTINUOUS
  62
7
  10
 406.000
  20
 344.000
  30
0.0
  11
 406.000
  21
 310.000
  31
0.0
   0
LINE
   8
LEVEL003
   6
DASHDOT
  62
1
  10
 470.000
  20
 627.000
  30
0.0
  11
 470.000
  21
 588.000
  31
0.0
   0
LINE
   8
LEVEL003
   6
DASHDOT
  62
1
  10
 502.000
  20
 627.000
  30
0.0
  11
 502.000
  21
 588.000
  31
0.0
   0
LINE
   8
LEVEL003
   6
CONTINUOUS
  62
3
  10
 451.735
  20
 592.664
  30
0.0
  11
 360.000
  21
 808.000
  31
0.0
   0
LINE
   8
LEVEL003
   6
CONTINUOUS
  62
3
  10
 360.000
  20
 808.000
  30
0.0
  11
 210.000
  21
 808.000
  31
0.0
   0
LINE
   8
LEVEL003
   6
CONTINUOUS
  62
3
  10
 451.735
  20
 592.664
  30
0.0
  11
 447.600
  21
 610.468
  31
0.0
   0
LINE
   8
LEVEL003
   6
CONTINUOUS
  62
3
  10
 451.735
  20
 592.664
  30
0.0
  11
 441.760
  21
 607.980
  31
0.0
   0
LINE
   8
LEVEL003
   6
CONTINUOUS
  62
3
  10
 405.000
  20
 305.000
  30
0.0
  11
 405.000
  21
 226.000
  31
0.0
   0
LINE
   8
LEVEL003
   6
CONTINUOUS
  62
3
  10
 1225.00
  20
 305.000
  30
0.0
  11
 1225.00
  21
 226.000
  31
0.0
   0
LINE
   8
LEVEL003
   6
CONTINUOUS
  62
3
  10
 405.000
  20
 238.000
  30
0.0
  11
 1225.00
  21
 238.000
  31
0.0
   0
LINE
   8
LEVEL003
   6
CONTINUOUS
  62
3
  10
 405.000
  20
 238.000
  30
0.0
  11
 423.000
  21
 234.826
  31
0.0
   0
LINE
   8
LEVEL003
   6
CONTINUOUS
  62
3
  10
 405.000
  20
 238.000
  30
0.0
  11
 423.000
  21
 241.174
  31
0.0
   0
LINE
   8
LEVEL003
   6
CONTINUOUS
  62
3
  10
 1225.00
  20
 238.000
  30
0.0
  11
 1207.00
  21
 241.174
  31
0.0
   0
LINE
   8
LEVEL003
   6
CONTINUOUS
  62
3
  10
 1225.00
  20
 238.000
  30
0.0
  11
 1207.00
  21
 234.826
  31
0.0
   0
TEXT
   8
LEVEL003
  62
3
  10
 797.000
  20
 242.800
  30
0.0
  40
 24.0000
   1
820
  41
 0.500000
   7
STANDARD
  72
1
  11
 815.000
  21
 242.800
  31
0.0
   0
LINE
   8
LEVEL001
   6
DASHDOT
  62
1
  10
 575.500
  20
 530.000
  30
0.0
  11
 589.500
  21
 530.000
  31
0.0
   0
LINE
   8
LEVEL001
   6
DASHDOT
  62
1
  10
 582.500
  20
 537.000
  30
0.0
  11
 582.500
  21
 523.000
  31
0.0
   0
LINE
   8
LEVEL001
   6
DASHDOT
  62
1
  10
 530.500
  20
 530.000
  30
0.0
  11
 544.500
  21
 530.000
  31
0.0
   0
LINE
   8
LEVEL001
   6
DASHDOT
  62
1
  10
 537.500
  20
 537.000
  30
0.0
  11
 537.500
  21
 523.000
  31
0.0
   0
ARC
   8
LEVEL001
   6
CONTINUOUS
  62
7
  10
 560.000
  20
 424.433
  30
0.0
  40
 118.567
  50
 69.5118
  51
 110.488
   0
LINE
   8
LEVEL001
   6
CONTINUOUS
  62
7
  10
 594.373
  20
 520.500
  30
0.0
  11
 601.500
  21
 520.500
  31
0.0
   0
LINE
   8
LEVEL001
   6
CONTINUOUS
  62
7
  10
 525.627
  20
 520.500
  30
0.0
  11
 518.500
  21
 520.500
  31
0.0
   0
ARC
   8
LEVEL001
   6
CONTINUOUS
  62
7
  10
 529.500
  20
 501.000
  30
0.0
  40
 7.00000
  50
 90.0000
  51
 180.000
   0
ARC
   8
LEVEL001
   6
CONTINUOUS
  62
7
  10
 529.500
  20
 467.000
  30
0.0
  40
 7.00000
  50
 180.000
  51
 270.000
   0
LINE
   8
LEVEL001
   6
CONTINUOUS
  62
7
  10
 522.500
  20
 467.000
  30
0.0
  11
 522.500
  21
 501.000
  31
0.0
   0
ARC
   8
LEVEL001
   6
CONTINUOUS
  62
7
  10
 533.000
  20
 470.500
  30
0.0
  40
 3.50000
  50
 180.000
  51
 270.000
   0
ARC
   8
LEVEL001
   6
CONTINUOUS
  62
7
  10
 533.000
  20
 497.500
  30
0.0
  40
 3.50000
  50
 89.9990
  51
 180.000
   0
LINE
   8
LEVEL001
   6
CONTINUOUS
  62
7
  10
 535.983
  20
 501.000
  30
0.0
  11
 533.000
  21
 501.000
  31
0.0
   0
LINE
   8
LEVEL001
   6
CONTINUOUS
  62
7
  10
 535.983
  20
 508.000
  30
0.0
  11
 529.500
  21
 508.000
  31
0.0
   0
LINE
   8
LEVEL001
   6
CONTINUOUS
  62
7
  10
 529.500
  20
 497.500
  30
0.0
  11
 529.500
  21
 470.500
  31
0.0
   0
LINE
   8
LEVEL001
   6
CONTINUOUS
  62
7
  10
 535.983
  20
 510.500
  30
0.0
  11
 518.500
  21
 510.500
  31
0.0
   0
LINE
   8
LEVEL001
   6
CONTINUOUS
  62
7
  10
 535.983
  20
 498.495
  30
0.0
  11
 535.983
  21
 510.500
  31
0.0
   0
LINE
   8
LEVEL001
   6
DASHDOT
  62
1
  10
 520.500
  20
 486.000
  30
0.0
  11
 534.500
  21
 486.000
  31
0.0
   0
LINE
   8
LEVEL001
   6
DASHDOT
  62
1
  10
 527.500
  20
 493.000
  30
0.0
  11
 527.500
  21
 479.000
  31
0.0
   0
LINE
   8
LEVEL001
   6
CONTINUOUS
  62
7
  10
 518.500
  20
 535.500
  30
0.0
  11
 518.500
  21
 487.868
  31
0.0
   0
ARC
   8
LEVEL001
   6
CONTINUOUS
  62
7
  10
 529.500
  20
 487.868
  30
0.0
  40
 11.0000
  50
 180.000
  51
 230.478
   0
ARC
   8
LEVEL001
   6
CONTINUOUS
  62
7
  10
 529.500
  20
 487.868
  30
0.0
  40
 11.0000
  50
 270.000
  51
 283.598
   0
ARC
   8
LEVEL001
   6
CONTINUOUS
  62
7
  10
 590.500
  20
 501.000
  30
0.0
  40
 7.00000
  50
0.0
  51
 90.0000
   0
ARC
   8
LEVEL001
   6
CONTINUOUS
  62
7
  10
 590.500
  20
 467.000
  30
0.0
  40
 7.00000
  50
 270.000
  51
0.0
   0
LINE
   8
LEVEL001
   6
CONTINUOUS
  62
7
  10
 597.500
  20
 467.000
  30
0.0
  11
 597.500
  21
 501.000
  31
0.0
   0
ARC
   8
LEVEL001
   6
CONTINUOUS
  62
7
  10
 587.000
  20
 470.500
  30
0.0
  40
 3.50000
  50
 270.000
  51
 0.186108E-11
   0
ARC
   8
LEVEL001
   6
CONTINUOUS
  62
7
  10
 587.000
  20
 497.500
  30
0.0
  40
 3.50000
  50
0.0
  51
 90.0010
   0
LINE
   8
LEVEL001
   6
CONTINUOUS
  62
7
  10
 584.017
  20
 501.000
  30
0.0
  11
 587.000
  21
 501.000
  31
0.0
   0
LINE
   8
LEVEL001
   6
CONTINUOUS
  62
7
  10
 584.017
  20
 508.000
  30
0.0
  11
 590.500
  21
 508.000
  31
0.0
   0
LINE
   8
LEVEL001
   6
CONTINUOUS
  62
7
  10
 590.500
  20
 497.500
  30
0.0
  11
 590.500
  21
 470.500
  31
0.0
   0
LINE
   8
LEVEL001
   6
CONTINUOUS
  62
7
  10
 584.017
  20
 510.500
  30
0.0
  11
 601.500
  21
 510.500
  31
0.0
   0
LINE
   8
LEVEL001
   6
CONTINUOUS
  62
7
  10
 584.017
  20
 498.495
  30
0.0
  11
 584.017
  21
 510.500
  31
0.0
   0
LINE
   8
LEVEL001
   6
DASHDOT
  62
1
  10
 599.500
  20
 486.000
  30
0.0
  11
 585.500
  21
 486.000
  31
0.0
   0
LINE
   8
LEVEL001
   6
DASHDOT
  62
1
  10
 592.500
  20
 493.000
  30
0.0
  11
 592.500
  21
 479.000
  31
0.0
   0
LINE
   8
LEVEL001
   6
CONTINUOUS
  62
7
  10
 601.500
  20
 535.500
  30
0.0
  11
 601.500
  21
 487.868
  31
0.0
   0
ARC
   8
LEVEL001
   6
CONTINUOUS
  62
7
  10
 590.500
  20
 487.868
  30
0.0
  40
 11.0000
  50
 309.522
  51
0.0
   0
ARC
   8
LEVEL001
   6
CONTINUOUS
  62
7
  10
 590.500
  20
 487.868
  30
0.0
  40
 11.0000
  50
 256.402
  51
 270.000
   0
ARC
   8
LEVEL001
   6
CONTINUOUS
  62
7
  10
 559.963
  20
 361.933
  30
0.0
  40
 118.567
  50
 76.3667
  51
 103.598
   0
LINE
   8
LEVEL001
   6
CONTINUOUS
  62
7
  10
 535.983
  20
 498.495
  30
0.0
  11
 584.017
  21
 498.495
  31
0.0
   0
LINE
   8
LEVEL001
   6
CONTINUOUS
  62
7
  10
 533.000
  20
 467.000
  30
0.0
  11
 587.000
  21
 467.000
  31
0.0
   0
LINE
   8
LEVEL001
   6
CONTINUOUS
  62
7
  10
 529.500
  20
 460.000
  30
0.0
  11
 590.500
  21
 460.000
  31
0.0
   0
ARC
   8
LEVEL001
   6
CONTINUOUS
  62
7
  10
 536.157
  20
 517.681
  30
0.0
  40
 5.00000
  50
 196.812
  51
 270.000
   0
ARC
   8
LEVEL001
   6
CONTINUOUS
  62
7
  10
 525.627
  20
 514.500
  30
0.0
  40
 6.00000
  50
 16.8114
  51
 89.9999
   0
ARC
   8
LEVEL001
   6
CONTINUOUS
  62
7
  10
 583.843
  20
 517.681
  30
0.0
  40
 5.00000
  50
 270.000
  51
 343.188
   0
LINE
   8
LEVEL001
   6
CONTINUOUS
  62
7
  10
 536.157
  20
 512.681
  30
0.0
  11
 583.843
  21
 512.681
  31
0.0
   0
ARC
   8
LEVEL001
   6
CONTINUOUS
  62
7
  10
 594.373
  20
 514.500
  30
0.0
  40
 6.00000
  50
 89.9998
  51
 163.189
   0
LINE
   8
LEVEL003
   6
CONTINUOUS
  62
3
  10
 596.144
  20
 490.926
  30
0.0
  11
 747.927
  21
 536.760
  31
0.0
   0
LINE
   8
LEVEL003
   6
CONTINUOUS
  62
3
  10
 747.927
  20
 536.760
  30
0.0
  11
 844.577
  21
 536.760
  31
0.0
   0
LINE
   8
LEVEL003
   6
CONTINUOUS
  62
3
  10
 596.144
  20
 490.926
  30
0.0
  11
 614.293
  21
 493.091
  31
0.0
   0
LINE
   8
LEVEL003
   6
CONTINUOUS
  62
3
  10
 596.144
  20
 490.926
  30
0.0
  11
 612.458
  21
 499.168
  31
0.0
   0
LINE
   8
LEVEL003
   6
CONTINUOUS
  62
3
  10
 568.592
  20
 370.403
  30
0.0
  11
 761.393
  21
 423.212
  31
0.0
   0
LINE
   8
LEVEL003
   6
CONTINUOUS
  62
3
  10
 761.393
  20
 423.212
  30
0.0
  11
 932.274
  21
 423.212
  31
0.0
   0
LINE
   8
LEVEL003
   6
CONTINUOUS
  62
3
  10
 568.592
  20
 370.403
  30
0.0
  11
 586.791
  21
 372.097
  31
0.0
   0
LINE
   8
LEVEL003
   6
CONTINUOUS
  62
3
  10
 568.592
  20
 370.403
  30
0.0
  11
 585.114
  21
 378.219
  31
0.0
   0
LINE
   8
LEVEL003
   6
CONTINUOUS
  62
3
  10
 708.584
  20
 465.060
  30
0.0
  11
 758.902
  21
 484.490
  31
0.0
   0
LINE
   8
LEVEL003
   6
CONTINUOUS
  62
3
  10
 758.902
  20
 484.490
  30
0.0
  11
 913.840
  21
 484.490
  31
0.0
   0
LINE
   8
LEVEL003
   6
CONTINUOUS
  62
3
  10
 708.584
  20
 465.060
  30
0.0
  11
 726.519
  21
 468.583
  31
0.0
   0
LINE
   8
LEVEL003
   6
CONTINUOUS
  62
3
  10
 708.584
  20
 465.060
  30
0.0
  11
 724.233
  21
 474.505
  31
0.0
   0
TEXT
   8
LEVEL003
  62
3
  10
 765.364
  20
 486.276
  30
0.0
  40
 24.0000
   1
オイルタンク
   7
STANDARD
   0
TEXT
   8
LEVEL003
  62
3
  10
 768.852
  20
 426.493
  30
0.0
  40
 24.0000
   1
ドレンポート
   7
STANDARD
   0
TEXT
   8
LEVEL003
  62
3
  10
 768.852
  20
 394.493
  30
0.0
  40
 24.0000
   1
　Ｒｃ１／２
   7
STANDARD
   0
LINE
   8
LEVEL003
   6
DASHDOT
  62
1
  10
 440.000
  20
 627.000
  30
0.0
  11
 440.000
  21
 588.000
  31
0.0
   0
LINE
   8
LEVEL003
   6
CONTINUOUS
  62
7
  10
 710.000
  20
 554.000
  30
0.0
  11
 410.000
  21
 554.000
  31
0.0
   0
LINE
   8
LEVEL003
   6
CONTINUOUS
  62
7
  10
 636.000
  20
 560.000
  30
0.0
  11
 640.000
  21
 564.000
  31
0.0
   0
LINE
   8
LEVEL003
   6
CONTINUOUS
  62
7
  10
 684.000
  20
 560.000
  30
0.0
  11
 680.000
  21
 564.000
  31
0.0
   0
LINE
   8
LEVEL003
   6
CONTINUOUS
  62
7
  10
 675.000
  20
 575.466
  30
0.0
  11
 674.000
  21
 574.466
  31
0.0
   0
LINE
   8
LEVEL003
   6
CONTINUOUS
  62
7
  10
 645.000
  20
 575.466
  30
0.0
  11
 646.000
  21
 574.466
  31
0.0
   0
LINE
   8
LEVEL003
   6
CONTINUOUS
  62
7
  10
 646.000
  20
 574.466
  30
0.0
  11
 674.000
  21
 574.466
  31
0.0
   0
LINE
   8
LEVEL003
   6
CONTINUOUS
  62
7
  10
 645.000
  20
 575.466
  30
0.0
  11
 675.000
  21
 575.466
  31
0.0
   0
LINE
   8
LEVEL003
   6
CONTINUOUS
  62
7
  10
 674.000
  20
 589.466
  30
0.0
  11
 675.000
  21
 588.466
  31
0.0
   0
LINE
   8
LEVEL003
   6
CONTINUOUS
  62
7
  10
 675.000
  20
 588.466
  30
0.0
  11
 675.000
  21
 575.466
  31
0.0
   0
LINE
   8
LEVEL003
   6
CONTINUOUS
  62
7
  10
 645.000
  20
 588.466
  30
0.0
  11
 645.000
  21
 575.466
  31
0.0
   0
LINE
   8
LEVEL003
   6
CONTINUOUS
  62
7
  10
 645.000
  20
 588.466
  30
0.0
  11
 646.000
  21
 589.466
  31
0.0
   0
LINE
   8
LEVEL003
   6
CONTINUOUS
  62
7
  10
 646.000
  20
 589.466
  30
0.0
  11
 674.000
  21
 589.466
  31
0.0
   0
LINE
   8
LEVEL003
   6
CONTINUOUS
  62
7
  10
 645.000
  20
 588.466
  30
0.0
  11
 675.000
  21
 588.466
  31
0.0
   0
LINE
   8
LEVEL003
   6
CONTINUOUS
  62
3
  10
 645.000
  20
 588.407
  30
0.0
  11
 645.059
  21
 588.466
  31
0.0
   0
LINE
   8
LEVEL003
   6
CONTINUOUS
  62
3
  10
 645.000
  20
 585.579
  30
0.0
  11
 647.887
  21
 588.466
  31
0.0
   0
LINE
   8
LEVEL003
   6
CONTINUOUS
  62
3
  10
 645.000
  20
 582.750
  30
0.0
  11
 650.716
  21
 588.466
  31
0.0
   0
LINE
   8
LEVEL003
   6
CONTINUOUS
  62
3
  10
 645.000
  20
 579.922
  30
0.0
  11
 653.544
  21
 588.466
  31
0.0
   0
LINE
   8
LEVEL003
   6
CONTINUOUS
  62
3
  10
 645.000
  20
 577.094
  30
0.0
  11
 656.373
  21
 588.466
  31
0.0
   0
LINE
   8
LEVEL003
   6
CONTINUOUS
  62
3
  10
 646.201
  20
 575.466
  30
0.0
  11
 659.201
  21
 588.466
  31
0.0
   0
LINE
   8
LEVEL003
   6
CONTINUOUS
  62
3
  10
 649.029
  20
 575.466
  30
0.0
  11
 662.029
  21
 588.466
  31
0.0
   0
LINE
   8
LEVEL003
   6
CONTINUOUS
  62
3
  10
 651.858
  20
 575.466
  30
0.0
  11
 664.858
  21
 588.466
  31
0.0
   0
LINE
   8
LEVEL003
   6
CONTINUOUS
  62
3
  10
 654.686
  20
 575.466
  30
0.0
  11
 667.686
  21
 588.466
  31
0.0
   0
LINE
   8
LEVEL003
   6
CONTINUOUS
  62
3
  10
 657.515
  20
 575.466
  30
0.0
  11
 670.515
  21
 588.466
  31
0.0
   0
LINE
   8
LEVEL003
   6
CONTINUOUS
  62
3
  10
 660.343
  20
 575.466
  30
0.0
  11
 673.343
  21
 588.466
  31
0.0
   0
LINE
   8
LEVEL003
   6
CONTINUOUS
  62
3
  10
 663.172
  20
 575.466
  30
0.0
  11
 675.000
  21
 587.295
  31
0.0
   0
LINE
   8
LEVEL003
   6
CONTINUOUS
  62
3
  10
 666.000
  20
 575.466
  30
0.0
  11
 675.000
  21
 584.466
  31
0.0
   0
LINE
   8
LEVEL003
   6
CONTINUOUS
  62
3
  10
 668.828
  20
 575.466
  30
0.0
  11
 675.000
  21
 581.638
  31
0.0
   0
LINE
   8
LEVEL003
   6
CONTINUOUS
  62
3
  10
 671.657
  20
 575.466
  30
0.0
  11
 675.000
  21
 578.809
  31
0.0
   0
LINE
   8
LEVEL003
   6
CONTINUOUS
  62
3
  10
 674.485
  20
 575.466
  30
0.0
  11
 675.000
  21
 575.981
  31
0.0
   0
LINE
   8
LEVEL003
   6
CONTINUOUS
  62
3
  10
 645.000
  20
 576.182
  30
0.0
  11
 645.716
  21
 575.466
  31
0.0
   0
LINE
   8
LEVEL003
   6
CONTINUOUS
  62
3
  10
 645.000
  20
 579.010
  30
0.0
  11
 648.544
  21
 575.466
  31
0.0
   0
LINE
   8
LEVEL003
   6
CONTINUOUS
  62
3
  10
 645.000
  20
 581.839
  30
0.0
  11
 651.373
  21
 575.466
  31
0.0
   0
LINE
   8
LEVEL003
   6
CONTINUOUS
  62
3
  10
 645.000
  20
 584.667
  30
0.0
  11
 654.201
  21
 575.466
  31
0.0
   0
LINE
   8
LEVEL003
   6
CONTINUOUS
  62
3
  10
 645.000
  20
 587.496
  30
0.0
  11
 657.029
  21
 575.466
  31
0.0
   0
LINE
   8
LEVEL003
   6
CONTINUOUS
  62
3
  10
 646.858
  20
 588.466
  30
0.0
  11
 659.858
  21
 575.466
  31
0.0
   0
LINE
   8
LEVEL003
   6
CONTINUOUS
  62
3
  10
 649.686
  20
 588.466
  30
0.0
  11
 662.686
  21
 575.466
  31
0.0
   0
LINE
   8
LEVEL003
   6
CONTINUOUS
  62
3
  10
 652.515
  20
 588.466
  30
0.0
  11
 665.515
  21
 575.466
  31
0.0
   0
LINE
   8
LEVEL003
   6
CONTINUOUS
  62
3
  10
 655.343
  20
 588.466
  30
0.0
  11
 668.343
  21
 575.466
  31
0.0
   0
LINE
   8
LEVEL003
   6
CONTINUOUS
  62
3
  10
 658.172
  20
 588.466
  30
0.0
  11
 671.172
  21
 575.466
  31
0.0
   0
LINE
   8
LEVEL003
   6
CONTINUOUS
  62
3
  10
 661.000
  20
 588.466
  30
0.0
  11
 674.000
  21
 575.466
  31
0.0
   0
LINE
   8
LEVEL003
   6
CONTINUOUS
  62
3
  10
 663.828
  20
 588.466
  30
0.0
  11
 675.000
  21
 577.295
  31
0.0
   0
LINE
   8
LEVEL003
   6
CONTINUOUS
  62
3
  10
 666.657
  20
 588.466
  30
0.0
  11
 675.000
  21
 580.123
  31
0.0
   0
LINE
   8
LEVEL003
   6
CONTINUOUS
  62
3
  10
 669.485
  20
 588.466
  30
0.0
  11
 675.000
  21
 582.951
  31
0.0
   0
LINE
   8
LEVEL003
   6
CONTINUOUS
  62
3
  10
 672.314
  20
 588.466
  30
0.0
  11
 675.000
  21
 585.780
  31
0.0
   0
LINE
   8
LEVEL001
   6
DASHDOT
  62
1
  10
 660.000
  20
 518.332
  30
0.0
  11
 660.000
  21
 594.051
  31
0.0
   0
LINE
   8
LEVEL003
   6
CONTINUOUS
  62
7
  10
 640.000
  20
 564.000
  30
0.0
  11
 680.000
  21
 564.000
  31
0.0
   0
LINE
   8
LEVEL003
   6
CONTINUOUS
  62
7
  10
 680.000
  20
 572.000
  30
0.0
  11
 680.000
  21
 564.000
  31
0.0
   0
LINE
   8
LEVEL003
   6
CONTINUOUS
  62
7
  10
 640.000
  20
 572.000
  30
0.0
  11
 640.000
  21
 564.000
  31
0.0
   0
LINE
   8
LEVEL003
   6
CONTINUOUS
  62
7
  10
 640.000
  20
 572.000
  30
0.0
  11
 660.000
  21
 572.000
  31
0.0
   0
LINE
   8
LEVEL003
   6
CONTINUOUS
  62
7
  10
 660.000
  20
 572.000
  30
0.0
  11
 680.000
  21
 572.000
  31
0.0
   0
ARC
   8
LEVEL001
   6
CONTINUOUS
  62
7
  10
 671.145
  20
 572.641
  30
0.0
  40
 1.82500
  50
 339.434
  51
 90.0000
   0
ARC
   8
LEVEL001
   6
CONTINUOUS
  62
7
  10
 648.855
  20
 572.641
  30
0.0
  40
 1.82500
  50
 90.0000
  51
 200.566
   0
CIRCLE
   8
LEVEL003
   6
CONTINUOUS
  62
7
  10
 455.000
  20
 586.000
  30
0.0
  40
 3.00000
   0
CIRCLE
   8
LEVEL001
   6
CONTINUOUS
  62
7
  10
 455.000
  20
 586.000
  30
0.0
  40
 7.47500
   0
CIRCLE
   8
LEVEL001
   6
CONTINUOUS
  62
3
  10
 455.000
  20
 586.000
  30
0.0
  40
 8.33100
   0
LINE
   8
LEVEL001
   6
DASHDOT
  62
1
  10
 466.331
  20
 586.000
  30
0.0
  11
 443.669
  21
 586.000
  31
0.0
   0
LINE
   8
LEVEL001
   6
DASHDOT
  62
1
  10
 455.000
  20
 597.331
  30
0.0
  11
 455.000
  21
 574.669
  31
0.0
   0
ARC
   8
LEVEL003
   6
CONTINUOUS
  62
7
  10
 460.750
  20
 1371.39
  30
0.0
  40
 16.6080
  50
 69.7438
  51
 110.256
   0
ARC
   8
LEVEL003
   6
CONTINUOUS
  62
7
  10
 449.250
  20
 1371.39
  30
0.0
  40
 16.6080
  50
 69.7438
  51
 110.256
   0
LINE
   8
LEVEL003
   6
CONTINUOUS
  62
7
  10
 466.500
  20
 1377.00
  30
0.0
  11
 466.500
  21
 1388.00
  31
0.0
   0
LINE
   8
LEVEL003
   6
CONTINUOUS
  62
7
  10
 466.500
  20
 1388.00
  30
0.0
  11
 443.500
  21
 1388.00
  31
0.0
   0
LINE
   8
LEVEL003
   6
CONTINUOUS
  62
7
  10
 443.500
  20
 1388.00
  30
0.0
  11
 443.500
  21
 1377.00
  31
0.0
   0
LINE
   8
LEVEL001
   6
CONTINUOUS
  62
7
  10
 442.792
  20
 1396.59
  30
0.0
  11
 450.000
  21
 1396.59
  31
0.0
   0
LINE
   8
LEVEL001
   6
CONTINUOUS
  62
7
  10
 460.000
  20
 1396.59
  30
0.0
  11
 467.208
  21
 1396.59
  31
0.0
   0
ARC
   8
LEVEL001
   6
CONTINUOUS
  62
7
  10
 437.415
  20
 1403.59
  30
0.0
  40
 3.00000
  50
 8.53108
  51
 89.9986
   0
ARC
   8
LEVEL001
   6
CONTINUOUS
  62
7
  10
 432.143
  20
 1415.82
  30
0.0
  40
 2.00000
  50
 98.8840
  51
 180.000
   0
LINE
   8
LEVEL001
   6
CONTINUOUS
  62
7
  10
 437.707
  20
 1418.59
  30
0.0
  11
 472.290
  21
 1418.59
  31
0.0
   0
ARC
   8
LEVEL001
   6
CONTINUOUS
  62
7
  10
 454.999
  20
 1269.59
  30
0.0
  40
 150.000
  50
 96.6196
  51
 98.8839
   0
LINE
   8
LEVEL001
   6
CONTINUOUS
  62
7
  10
 430.143
  20
 1407.59
  30
0.0
  11
 430.143
  21
 1415.82
  31
0.0
   0
ARC
   8
LEVEL001
   6
CONTINUOUS
  62
7
  10
 431.143
  20
 1407.59
  30
0.0
  40
 1.00000
  50
 180.000
  51
 270.000
   0
LINE
   8
LEVEL001
   6
CONTINUOUS
  62
7
  10
 431.143
  20
 1406.59
  30
0.0
  11
 455.000
  21
 1406.59
  31
0.0
   0
ARC
   8
LEVEL010
   6
CONTINUOUS
  62
7
  10
 442.526
  20
 1407.59
  30
0.0
  40
 1.00000
  50
 180.000
  51
 270.000
   0
ARC
   8
LEVEL010
   6
CONTINUOUS
  62
7
  10
 443.526
  20
 1415.79
  30
0.0
  40
 2.00000
  50
 90.0000
  51
 180.000
   0
LINE
   8
LEVEL010
   6
CONTINUOUS
  62
7
  10
 451.500
  20
 1418.59
  30
0.0
  11
 443.329
  21
 1417.78
  31
0.0
   0
ARC
   8
LEVEL010
   6
CONTINUOUS
  62
7
  10
 440.526
  20
 1407.59
  30
0.0
  40
 1.00000
  50
 270.000
  51
0.0
   0
ARC
   8
LEVEL010
   6
CONTINUOUS
  62
7
  10
 439.526
  20
 1415.79
  30
0.0
  40
 2.00000
  50
0.0
  51
 90.0000
   0
LINE
   8
LEVEL010
   6
CONTINUOUS
  62
7
  10
 441.526
  20
 1407.59
  30
0.0
  11
 441.526
  21
 1415.79
  31
0.0
   0
LINE
   8
LEVEL010
   6
CONTINUOUS
  62
7
  10
 439.526
  20
 1417.79
  30
0.0
  11
 434.025
  21
 1417.79
  31
0.0
   0
LINE
   8
LEVEL010
   6
CONTINUOUS
  62
7
  10
 451.500
  20
 1407.59
  30
0.0
  11
 451.500
  21
 1415.79
  31
0.0
   0
ARC
   8
LEVEL001
   6
CONTINUOUS
  62
7
  10
 472.582
  20
 1403.59
  30
0.0
  40
 3.00000
  50
 89.9990
  51
 171.469
   0
ARC
   8
LEVEL001
   6
CONTINUOUS
  62
7
  10
 478.855
  20
 1407.59
  30
0.0
  40
 1.00000
  50
 270.000
  51
0.0
   0
ARC
   8
LEVEL001
   6
CONTINUOUS
  62
7
  10
 477.855
  20
 1415.82
  30
0.0
  40
 2.00000
  50
0.0
  51
 81.1169
   0
LINE
   8
LEVEL001
   6
CONTINUOUS
  62
7
  10
 479.855
  20
 1407.59
  30
0.0
  11
 479.855
  21
 1415.82
  31
0.0
   0
ARC
   8
LEVEL001
   6
CONTINUOUS
  62
7
  10
 454.999
  20
 1269.59
  30
0.0
  40
 150.000
  50
 81.1161
  51
 83.3804
   0
LINE
   8
LEVEL001
   6
CONTINUOUS
  62
7
  10
 455.000
  20
 1406.59
  30
0.0
  11
 478.855
  21
 1406.59
  31
0.0
   0
ARC
   8
LEVEL010
   6
CONTINUOUS
  62
7
  10
 467.474
  20
 1407.59
  30
0.0
  40
 1.00000
  50
 270.000
  51
0.0
   0
ARC
   8
LEVEL010
   6
CONTINUOUS
  62
7
  10
 466.474
  20
 1415.79
  30
0.0
  40
 2.00000
  50
0.0
  51
 90.0000
   0
LINE
   8
LEVEL010
   6
CONTINUOUS
  62
7
  10
 458.500
  20
 1418.59
  30
0.0
  11
 466.671
  21
 1417.78
  31
0.0
   0
ARC
   8
LEVEL010
   6
CONTINUOUS
  62
7
  10
 469.474
  20
 1407.59
  30
0.0
  40
 1.00000
  50
 180.000
  51
 270.000
   0
ARC
   8
LEVEL010
   6
CONTINUOUS
  62
7
  10
 470.474
  20
 1415.79
  30
0.0
  40
 2.00000
  50
 90.0000
  51
 180.000
   0
LINE
   8
LEVEL010
   6
CONTINUOUS
  62
7
  10
 468.474
  20
 1407.59
  30
0.0
  11
 468.474
  21
 1415.79
  31
0.0
   0
LINE
   8
LEVEL010
   6
CONTINUOUS
  62
7
  10
 470.474
  20
 1417.79
  30
0.0
  11
 475.975
  21
 1417.79
  31
0.0
   0
LINE
   8
LEVEL010
   6
CONTINUOUS
  62
7
  10
 458.500
  20
 1407.59
  30
0.0
  11
 458.500
  21
 1415.79
  31
0.0
   0
ARC
   8
LEVEL001
   6
CONTINUOUS
  62
7
  10
 466.776
  20
 1398.59
  30
0.0
  40
 2.00000
  50
 270.001
  51
 351.469
   0
LINE
   8
LEVEL001
   6
CONTINUOUS
  62
7
  10
 468.754
  20
 1398.30
  30
0.0
  11
 469.615
  21
 1404.04
  31
0.0
   0
LINE
   8
LEVEL001
   6
CONTINUOUS
  62
7
  10
 455.000
  20
 1396.59
  30
0.0
  11
 466.776
  21
 1396.59
  31
0.0
   0
ARC
   8
LEVEL001
   6
CONTINUOUS
  62
7
  10
 443.221
  20
 1398.59
  30
0.0
  40
 2.00000
  50
 188.531
  51
 270.001
   0
LINE
   8
LEVEL001
   6
CONTINUOUS
  62
7
  10
 441.243
  20
 1398.30
  30
0.0
  11
 440.382
  21
 1404.04
  31
0.0
   0
LINE
   8
LEVEL001
   6
CONTINUOUS
  62
7
  10
 443.221
  20
 1396.59
  30
0.0
  11
 455.000
  21
 1396.59
  31
0.0
   0
ARC
   8
LEVEL001
   6
CONTINUOUS
  62
7
  10
 455.000
  20
 1269.59
  30
0.0
  40
 150.000
  50
 80.9510
  51
 99.0490
   0
LINE
   8
LEVEL001
   6
CONTINUOUS
  62
7
  10
 448.649
  20
 1396.59
  30
0.0
  11
 448.649
  21
 1388.00
  31
0.0
   0
LINE
   8
LEVEL001
   6
CONTINUOUS
  62
7
  10
 461.349
  20
 1396.59
  30
0.0
  11
 461.349
  21
 1388.00
  31
0.0
   0
LINE
   8
LEVEL003
   6
CONTINUOUS
  62
7
  10
 455.000
  20
 1377.00
  30
0.0
  11
 455.000
  21
 1386.97
  31
0.0
   0
LINE
   8
LEVEL001
   6
DASHDOT
  62
1
  10
 465.505
  20
 1347.00
  30
0.0
  11
 465.505
  21
 1267.00
  31
0.0
   0
LINE
   8
LEVEL003
   6
CONTINUOUS
  62
7
  10
 435.000
  20
 1336.62
  30
0.0
  11
 439.000
  21
 1334.31
  31
0.0
   0
LINE
   8
LEVEL003
   6
CONTINUOUS
  62
7
  10
 439.000
  20
 1334.31
  30
0.0
  11
 439.000
  21
 1329.69
  31
0.0
   0
LINE
   8
LEVEL003
   6
CONTINUOUS
  62
7
  10
 439.000
  20
 1329.69
  30
0.0
  11
 435.000
  21
 1327.38
  31
0.0
   0
LINE
   8
LEVEL003
   6
CONTINUOUS
  62
7
  10
 435.000
  20
 1327.38
  30
0.0
  11
 431.000
  21
 1329.69
  31
0.0
   0
LINE
   8
LEVEL003
   6
CONTINUOUS
  62
7
  10
 431.000
  20
 1329.69
  30
0.0
  11
 431.000
  21
 1334.31
  31
0.0
   0
LINE
   8
LEVEL003
   6
CONTINUOUS
  62
7
  10
 431.000
  20
 1334.31
  30
0.0
  11
 435.000
  21
 1336.62
  31
0.0
   0
CIRCLE
   8
LEVEL003
   6
CONTINUOUS
  62
7
  10
 435.000
  20
 1332.00
  30
0.0
  40
 8.00000
   0
CIRCLE
   8
LEVEL003
   6
CONTINUOUS
  62
7
  10
 435.000
  20
 1332.00
  30
0.0
  40
 7.13397
   0
LINE
   8
LEVEL003
   6
DASHDOT
  62
1
  10
 446.000
  20
 1332.00
  30
0.0
  11
 424.000
  21
 1332.00
  31
0.0
   0
LINE
   8
LEVEL003
   6
DASHDOT
  62
1
  10
 435.000
  20
 1343.00
  30
0.0
  11
 435.000
  21
 1321.00
  31
0.0
   0
LINE
   8
LEVEL001
   6
DASHDOT
  62
1
  10
 465.505
  20
 1348.75
  30
0.0
  11
 465.505
  21
 1265.10
  31
0.0
   0
ARC
   8
LEVEL003
   6
CONTINUOUS
  62
7
  10
 430.000
  20
 1337.00
  30
0.0
  40
 5.00000
  50
 90.0000
  51
 180.000
   0
CIRCLE
   8
LEVEL001
   6
CONTINUOUS
  62
7
  10
 435.000
  20
 1332.00
  30
0.0
  40
 9.00000
   0
LINE
   8
LEVEL001
   6
CONTINUOUS
  62
7
  10
 450.780
  20
 1339.00
  30
0.0
  11
 528.000
  21
 1339.00
  31
0.0
   0
ARC
   8
LEVEL003
   6
CONTINUOUS
  62
7
  10
 482.088
  20
 1342.00
  30
0.0
  40
 3.00000
  50
 203.578
  51
 270.000
   0
ARC
   8
LEVEL003
   6
CONTINUOUS
  62
7
  10
 477.505
  20
 1340.00
  30
0.0
  40
 2.00000
  50
 23.5782
  51
 90.0000
   0
LINE
   8
LEVEL003
   6
CONTINUOUS
  62
7
  10
 449.505
  20
 1337.00
  30
0.0
  11
 449.505
  21
 1329.50
  31
0.0
   0
ARC
   8
LEVEL001
   6
CONTINUOUS
  62
7
  10
 451.505
  20
 1337.00
  30
0.0
  40
 2.00000
  50
 125.176
  51
 180.000
   0
ARC
   8
LEVEL001
   6
CONTINUOUS
  62
7
  10
 448.625
  20
 1341.09
  30
0.0
  40
 3.00000
  50
 305.176
  51
 347.444
   0
ARC
   8
LEVEL001
   6
CONTINUOUS
  62
7
  10
 453.505
  20
 1340.00
  30
0.0
  40
 2.00000
  50
 90.0000
  51
 167.444
   0
LINE
   8
LEVEL003
   6
CONTINUOUS
  62
7
  10
 425.000
  20
 1337.00
  30
0.0
  11
 425.000
  21
 1277.00
  31
0.0
   0
ARC
   8
LEVEL001
   6
CONTINUOUS
  62
7
  10
 461.505
  20
 1312.50
  30
0.0
  40
 3.00000
  50
0.0
  51
 90.0000
   0
LINE
   8
LEVEL003
   6
CONTINUOUS
  62
7
  10
 464.505
  20
 1312.50
  30
0.0
  11
 464.505
  21
 1301.50
  31
0.0
   0
LINE
   8
LEVEL003
   6
CONTINUOUS
  62
7
  10
 464.505
  20
 1312.50
  30
0.0
  11
 464.927
  21
 1324.57
  31
0.0
   0
ARC
   8
LEVEL003
   6
CONTINUOUS
  62
7
  10
 466.925
  20
 1324.50
  30
0.0
  40
 2.00000
  50
 90.0000
  51
 178.000
   0
LINE
   8
LEVEL003
   6
CONTINUOUS
  62
7
  10
 461.629
  20
 1315.50
  30
0.0
  11
 461.629
  21
 1316.50
  31
0.0
   0
LINE
   8
LEVEL003
   6
CONTINUOUS
  62
7
  10
 449.505
  20
 1316.50
  30
0.0
  11
 461.629
  21
 1316.50
  31
0.0
   0
ARC
   8
LEVEL003
   6
CONTINUOUS
  62
7
  10
 451.821
  20
 1324.50
  30
0.0
  40
 2.00000
  50
 90.0000
  51
 178.000
   0
LINE
   8
LEVEL003
   6
CONTINUOUS
  62
7
  10
 451.821
  20
 1326.50
  30
0.0
  11
 520.144
  21
 1326.50
  31
0.0
   0
LINE
   8
LEVEL003
   6
CONTINUOUS
  62
7
  10
 449.962
  20
 1328.57
  30
0.0
  11
 449.540
  21
 1316.50
  31
0.0
   0
ARC
   8
LEVEL003
   6
CONTINUOUS
  62
7
  10
 451.960
  20
 1328.50
  30
0.0
  40
 2.00000
  50
 150.000
  51
 178.000
   0
LINE
   8
LEVEL003
   6
CONTINUOUS
  62
7
  10
 449.505
  20
 1329.50
  30
0.0
  11
 505.222
  21
 1329.50
  31
0.0
   0
LINE
   8
LEVEL003
   6
CONTINUOUS
  62
7
  10
 435.000
  20
 1286.62
  30
0.0
  11
 439.000
  21
 1284.31
  31
0.0
   0
LINE
   8
LEVEL003
   6
CONTINUOUS
  62
7
  10
 439.000
  20
 1284.31
  30
0.0
  11
 439.000
  21
 1279.69
  31
0.0
   0
LINE
   8
LEVEL003
   6
CONTINUOUS
  62
7
  10
 439.000
  20
 1279.69
  30
0.0
  11
 435.000
  21
 1277.38
  31
0.0
   0
LINE
   8
LEVEL003
   6
CONTINUOUS
  62
7
  10
 435.000
  20
 1277.38
  30
0.0
  11
 431.000
  21
 1279.69
  31
0.0
   0
LINE
   8
LEVEL003
   6
CONTINUOUS
  62
7
  10
 431.000
  20
 1279.69
  30
0.0
  11
 431.000
  21
 1284.31
  31
0.0
   0
LINE
   8
LEVEL003
   6
CONTINUOUS
  62
7
  10
 431.000
  20
 1284.31
  30
0.0
  11
 435.000
  21
 1286.62
  31
0.0
   0
CIRCLE
   8
LEVEL003
   6
CONTINUOUS
  62
7
  10
 435.000
  20
 1282.00
  30
0.0
  40
 8.00000
   0
CIRCLE
   8
LEVEL003
   6
CONTINUOUS
  62
7
  10
 435.000
  20
 1282.00
  30
0.0
  40
 7.13397
   0
LINE
   8
LEVEL003
   6
DASHDOT
  62
1
  10
 446.000
  20
 1282.00
  30
0.0
  11
 424.000
  21
 1282.00
  31
0.0
   0
ARC
   8
LEVEL003
   6
CONTINUOUS
  62
7
  10
 430.000
  20
 1277.00
  30
0.0
  40
 5.00000
  50
 180.000
  51
 270.000
   0
CIRCLE
   8
LEVEL001
   6
CONTINUOUS
  62
7
  10
 435.000
  20
 1282.00
  30
0.0
  40
 9.00000
   0
ARC
   8
LEVEL003
   6
CONTINUOUS
  62
7
  10
 550.000
  20
 1277.00
  30
0.0
  40
 5.00000
  50
 270.000
  51
0.0
   0
LINE
   8
LEVEL003
   6
CONTINUOUS
  62
7
  10
 449.505
  20
 1277.00
  30
0.0
  11
 449.505
  21
 1284.50
  31
0.0
   0
ARC
   8
LEVEL001
   6
CONTINUOUS
  62
7
  10
 451.505
  20
 1277.00
  30
0.0
  40
 2.00000
  50
 180.000
  51
 234.824
   0
ARC
   8
LEVEL001
   6
CONTINUOUS
  62
7
  10
 448.625
  20
 1272.91
  30
0.0
  40
 3.00000
  50
 12.5558
  51
 54.8244
   0
ARC
   8
LEVEL001
   6
CONTINUOUS
  62
7
  10
 453.505
  20
 1274.00
  30
0.0
  40
 2.00000
  50
 192.556
  51
 270.000
   0
LINE
   8
LEVEL001
   6
CONTINUOUS
  62
7
  10
 450.780
  20
 1275.00
  30
0.0
  11
 528.000
  21
 1275.00
  31
0.0
   0
ARC
   8
LEVEL003
   6
CONTINUOUS
  62
7
  10
 482.088
  20
 1272.00
  30
0.0
  40
 3.00000
  50
 90.0000
  51
 156.422
   0
ARC
   8
LEVEL001
   6
CONTINUOUS
  62
7
  10
 528.000
  20
 1272.00
  30
0.0
  40
 3.00000
  50
0.0
  51
 90.0000
   0
LINE
   8
LEVEL003
   6
CONTINUOUS
  62
7
  10
 531.000
  20
 1275.00
  30
0.0
  11
 531.000
  21
 1283.50
  31
0.0
   0
LINE
   8
LEVEL001
   6
CONTINUOUS
  62
7
  10
 493.730
  20
 1283.50
  30
0.0
  11
 528.000
  21
 1283.50
  31
0.0
   0
ARC
   8
LEVEL001
   6
CONTINUOUS
  62
7
  10
 493.730
  20
 1284.50
  30
0.0
  40
 1.00000
  50
 180.000
  51
 270.000
   0
ARC
   8
LEVEL001
   6
CONTINUOUS
  62
7
  10
 534.505
  20
 1294.00
  30
0.0
  40
 3.00000
  50
 90.0000
  51
 131.142
   0
ARC
   8
LEVEL003
   6
CONTINUOUS
  62
7
  10
 461.505
  20
 1301.50
  30
0.0
  40
 3.00000
  50
 270.000
  51
0.0
   0
LINE
   8
LEVEL003
   6
CONTINUOUS
  62
7
  10
 464.927
  20
 1289.43
  30
0.0
  11
 464.505
  21
 1301.50
  31
0.0
   0
ARC
   8
LEVEL003
   6
CONTINUOUS
  62
7
  10
 466.925
  20
 1289.50
  30
0.0
  40
 2.00000
  50
 182.000
  51
 270.000
   0
LINE
   8
LEVEL003
   6
CONTINUOUS
  62
7
  10
 583.005
  20
 1297.00
  30
0.0
  11
 534.505
  21
 1297.00
  31
0.0
   0
LINE
   8
LEVEL003
   6
CONTINUOUS
  62
7
  10
 461.629
  20
 1298.50
  30
0.0
  11
 461.629
  21
 1297.50
  31
0.0
   0
LINE
   8
LEVEL003
   6
CONTINUOUS
  62
7
  10
 449.505
  20
 1297.50
  30
0.0
  11
 461.629
  21
 1297.50
  31
0.0
   0
ARC
   8
LEVEL003
   6
CONTINUOUS
  62
7
  10
 520.144
  20
 1277.50
  30
0.0
  40
 10.0000
  50
 63.4349
  51
 90.0000
   0
LINE
   8
LEVEL001
   6
CONTINUOUS
  62
7
  10
 524.617
  20
 1286.44
  30
0.0
  11
 530.449
  21
 1283.53
  31
0.0
   0
ARC
   8
LEVEL001
   6
CONTINUOUS
  62
7
  10
 532.685
  20
 1288.00
  30
0.0
  40
 5.00000
  50
 243.435
  51
 270.000
   0
LINE
   8
LEVEL001
   6
CONTINUOUS
  62
7
  10
 532.685
  20
 1283.00
  30
0.0
  11
 571.005
  21
 1283.00
  31
0.0
   0
LINE
   8
LEVEL003
   6
CONTINUOUS
  62
7
  10
 523.070
  20
 1287.99
  30
0.0
  11
 532.531
  21
 1296.26
  31
0.0
   0
ARC
   8
LEVEL003
   6
CONTINUOUS
  62
7
  10
 521.755
  20
 1289.50
  30
0.0
  40
 2.00000
  50
 270.000
  51
 311.142
   0
ARC
   8
LEVEL003
   6
CONTINUOUS
  62
7
  10
 451.821
  20
 1289.50
  30
0.0
  40
 2.00000
  50
 182.000
  51
 270.000
   0
LINE
   8
LEVEL003
   6
CONTINUOUS
  62
7
  10
 451.821
  20
 1287.50
  30
0.0
  11
 520.144
  21
 1287.50
  31
0.0
   0
LINE
   8
LEVEL003
   6
CONTINUOUS
  62
7
  10
 449.962
  20
 1285.43
  30
0.0
  11
 449.540
  21
 1297.50
  31
0.0
   0
ARC
   8
LEVEL003
   6
CONTINUOUS
  62
7
  10
 451.960
  20
 1285.50
  30
0.0
  40
 2.00000
  50
 182.000
  51
 210.000
   0
ARC
   8
LEVEL001
   6
CONTINUOUS
  62
7
  10
 508.389
  20
 1284.50
  30
0.0
  40
 3.00000
  50
 90.0000
  51
 168.463
   0
ARC
   8
LEVEL001
   6
CONTINUOUS
  62
7
  10
 503.490
  20
 1285.50
  30
0.0
  40
 2.00000
  50
 330.000
  51
 348.463
   0
LINE
   8
LEVEL003
   6
CONTINUOUS
  62
7
  10
 449.505
  20
 1284.50
  30
0.0
  11
 505.222
  21
 1284.50
  31
0.0
   0
ARC
   8
LEVEL001
   6
CONTINUOUS
  62
7
  10
 528.000
  20
 1286.50
  30
0.0
  40
 3.00000
  50
 270.000
  51
 302.036
   0
LINE
   8
LEVEL003
   6
CONTINUOUS
  62
7
  10
 549.000
  20
 1283.00
  30
0.0
  11
 549.000
  21
 1279.69
  31
0.0
   0
LINE
   8
LEVEL003
   6
CONTINUOUS
  62
7
  10
 549.000
  20
 1279.69
  30
0.0
  11
 545.000
  21
 1277.38
  31
0.0
   0
LINE
   8
LEVEL003
   6
CONTINUOUS
  62
7
  10
 545.000
  20
 1277.38
  30
0.0
  11
 541.000
  21
 1279.69
  31
0.0
   0
LINE
   8
LEVEL003
   6
CONTINUOUS
  62
7
  10
 541.000
  20
 1279.69
  30
0.0
  11
 541.000
  21
 1283.00
  31
0.0
   0
ARC
   8
LEVEL003
   6
CONTINUOUS
  62
7
  10
 545.000
  20
 1282.00
  30
0.0
  40
 7.13397
  50
 171.942
  51
 8.05793
   0
ARC
   8
LEVEL003
   6
CONTINUOUS
  62
7
  10
 545.000
  20
 1282.00
  30
0.0
  40
 8.00000
  50
 172.819
  51
 7.18076
   0
ARC
   8
LEVEL001
   6
CONTINUOUS
  62
7
  10
 545.000
  20
 1282.00
  30
0.0
  40
 9.00000
  50
 173.621
  51
 6.37937
   0
LINE
   8
LEVEL003
   6
CONTINUOUS
  62
7
  10
 555.000
  20
 1277.00
  30
0.0
  11
 555.000
  21
 1283.00
  31
0.0
   0
LINE
   8
LEVEL003
   6
DASHDOT
  62
1
  10
 556.000
  20
 1282.00
  30
0.0
  11
 534.000
  21
 1282.00
  31
0.0
   0
LINE
   8
LEVEL003
   6
DASHDOT
  62
1
  10
 545.000
  20
 1293.00
  30
0.0
  11
 545.000
  21
 1271.00
  31
0.0
   0
LINE
   8
LEVEL003
   6
DASHDOT
  62
1
  10
 435.000
  20
 1293.00
  30
0.0
  11
 435.000
  21
 1271.00
  31
0.0
   0
LINE
   8
LEVEL003
   6
CONTINUOUS
  62
7
  10
 471.505
  20
 1272.00
  30
0.0
  11
 550.000
  21
 1272.00
  31
0.0
   0
ARC
   8
LEVEL003
   6
CONTINUOUS
  62
7
  10
 477.505
  20
 1274.00
  30
0.0
  40
 2.00000
  50
 270.000
  51
 336.422
   0
LINE
   8
LEVEL003
   6
CONTINUOUS
  62
7
  10
 550.000
  20
 1342.00
  30
0.0
  11
 430.000
  21
 1342.00
  31
0.0
   0
LINE
   8
LEVEL001
   6
CONTINUOUS
  62
7
  10
 460.505
  20
 1347.00
  30
0.0
  11
 459.505
  21
 1346.00
  31
0.0
   0
LINE
   8
LEVEL001
   6
CONTINUOUS
  62
7
  10
 460.505
  20
 1347.00
  30
0.0
  11
 470.505
  21
 1347.00
  31
0.0
   0
LINE
   8
LEVEL001
   6
CONTINUOUS
  62
7
  10
 470.505
  20
 1347.00
  30
0.0
  11
 471.505
  21
 1346.00
  31
0.0
   0
LINE
   8
LEVEL001
   6
CONTINUOUS
  62
7
  10
 459.505
  20
 1346.00
  30
0.0
  11
 471.505
  21
 1346.00
  31
0.0
   0
LINE
   8
LEVEL001
   6
DASHDOT
  62
1
  10
 454.272
  20
 1343.50
  30
0.0
  11
 476.051
  21
 1343.50
  31
0.0
   0
LINE
   8
LEVEL001
   6
CONTINUOUS
  62
7
  10
 459.505
  20
 1342.00
  30
0.0
  11
 459.505
  21
 1346.00
  31
0.0
   0
LINE
   8
LEVEL001
   6
CONTINUOUS
  62
7
  10
 471.505
  20
 1346.00
  30
0.0
  11
 471.505
  21
 1342.00
  31
0.0
   0
LINE
   8
LEVEL001
   6
DASHDOT
  62
1
  10
 456.493
  20
 1270.50
  30
0.0
  11
 474.365
  21
 1270.50
  31
0.0
   0
LINE
   8
LEVEL001
   6
CONTINUOUS
  62
7
  10
 459.505
  20
 1272.00
  30
0.0
  11
 459.505
  21
 1268.00
  31
0.0
   0
LINE
   8
LEVEL001
   6
CONTINUOUS
  62
7
  10
 471.505
  20
 1272.00
  30
0.0
  11
 471.505
  21
 1268.00
  31
0.0
   0
LINE
   8
LEVEL001
   6
CONTINUOUS
  62
7
  10
 460.505
  20
 1267.00
  30
0.0
  11
 470.505
  21
 1267.00
  31
0.0
   0
LINE
   8
LEVEL001
   6
CONTINUOUS
  62
7
  10
 471.505
  20
 1268.00
  30
0.0
  11
 459.505
  21
 1268.00
  31
0.0
   0
ARC
   8
LEVEL003
   6
CONTINUOUS
  62
7
  10
 550.000
  20
 1337.00
  30
0.0
  40
 5.00000
  50
 0.521102E-11
  51
 90.0000
   0
ARC
   8
LEVEL001
   6
CONTINUOUS
  62
7
  10
 528.000
  20
 1342.00
  30
0.0
  40
 3.00000
  50
 270.000
  51
0.0
   0
LINE
   8
LEVEL003
   6
CONTINUOUS
  62
7
  10
 531.000
  20
 1339.00
  30
0.0
  11
 531.000
  21
 1330.50
  31
0.0
   0
LINE
   8
LEVEL001
   6
CONTINUOUS
  62
7
  10
 493.730
  20
 1330.50
  30
0.0
  11
 528.000
  21
 1330.50
  31
0.0
   0
ARC
   8
LEVEL001
   6
CONTINUOUS
  62
7
  10
 493.730
  20
 1329.50
  30
0.0
  40
 1.00000
  50
 90.0000
  51
 180.000
   0
ARC
   8
LEVEL001
   6
CONTINUOUS
  62
7
  10
 534.505
  20
 1320.00
  30
0.0
  40
 3.00000
  50
 228.858
  51
 270.000
   0
LINE
   8
LEVEL003
   6
CONTINUOUS
  62
7
  10
 583.005
  20
 1317.00
  30
0.0
  11
 534.505
  21
 1317.00
  31
0.0
   0
ARC
   8
LEVEL003
   6
CONTINUOUS
  62
7
  10
 520.144
  20
 1336.50
  30
0.0
  40
 10.0000
  50
 270.000
  51
 296.565
   0
LINE
   8
LEVEL001
   6
CONTINUOUS
  62
7
  10
 524.617
  20
 1327.56
  30
0.0
  11
 530.449
  21
 1330.47
  31
0.0
   0
ARC
   8
LEVEL001
   6
CONTINUOUS
  62
7
  10
 532.685
  20
 1326.00
  30
0.0
  40
 5.00000
  50
 90.0000
  51
 116.565
   0
LINE
   8
LEVEL001
   6
CONTINUOUS
  62
7
  10
 532.685
  20
 1331.00
  30
0.0
  11
 571.005
  21
 1331.00
  31
0.0
   0
ARC
   8
LEVEL003
   6
CONTINUOUS
  62
7
  10
 521.755
  20
 1324.50
  30
0.0
  40
 2.00000
  50
 48.8584
  51
 90.0000
   0
LINE
   8
LEVEL003
   6
CONTINUOUS
  62
7
  10
 523.070
  20
 1326.01
  30
0.0
  11
 532.531
  21
 1317.74
  31
0.0
   0
ARC
   8
LEVEL001
   6
CONTINUOUS
  62
7
  10
 508.389
  20
 1329.50
  30
0.0
  40
 3.00000
  50
 191.537
  51
 270.000
   0
ARC
   8
LEVEL001
   6
CONTINUOUS
  62
7
  10
 503.490
  20
 1328.50
  30
0.0
  40
 2.00000
  50
 11.5370
  51
 30.0000
   0
ARC
   8
LEVEL001
   6
CONTINUOUS
  62
7
  10
 528.000
  20
 1327.50
  30
0.0
  40
 3.00000
  50
 57.9636
  51
 90.0000
   0
LINE
   8
LEVEL003
   6
CONTINUOUS
  62
7
  10
 541.000
  20
 1331.00
  30
0.0
  11
 541.000
  21
 1334.31
  31
0.0
   0
LINE
   8
LEVEL003
   6
CONTINUOUS
  62
7
  10
 541.000
  20
 1334.31
  30
0.0
  11
 545.000
  21
 1336.62
  31
0.0
   0
LINE
   8
LEVEL003
   6
CONTINUOUS
  62
7
  10
 545.000
  20
 1336.62
  30
0.0
  11
 549.000
  21
 1334.31
  31
0.0
   0
LINE
   8
LEVEL003
   6
CONTINUOUS
  62
7
  10
 549.000
  20
 1334.31
  30
0.0
  11
 549.000
  21
 1331.00
  31
0.0
   0
ARC
   8
LEVEL003
   6
CONTINUOUS
  62
7
  10
 545.000
  20
 1332.00
  30
0.0
  40
 7.13397
  50
 351.942
  51
 188.058
   0
ARC
   8
LEVEL003
   6
CONTINUOUS
  62
7
  10
 545.000
  20
 1332.00
  30
0.0
  40
 8.00000
  50
 352.819
  51
 187.181
   0
ARC
   8
LEVEL001
   6
CONTINUOUS
  62
7
  10
 545.000
  20
 1332.00
  30
0.0
  40
 9.00000
  50
 353.621
  51
 186.379
   0
LINE
   8
LEVEL003
   6
CONTINUOUS
  62
7
  10
 555.000
  20
 1331.00
  30
0.0
  11
 555.000
  21
 1337.00
  31
0.0
   0
ARC
   8
LEVEL003
   6
CONTINUOUS
  62
7
  10
 569.005
  20
 1294.00
  30
0.0
  40
 3.00000
  50
 0.356086E-9
  51
 90.0000
   0
ARC
   8
LEVEL003
   6
CONTINUOUS
  62
7
  10
 569.005
  20
 1320.00
  30
0.0
  40
 3.00000
  50
 270.000
  51
0.0
   0
LINE
   8
LEVEL001
   6
CONTINUOUS
  62
7
  10
 583.505
  20
 1332.00
  30
0.0
  11
 584.505
  21
 1331.00
  31
0.0
   0
LINE
   8
LEVEL001
   6
CONTINUOUS
  62
7
  10
 572.005
  20
 1320.00
  30
0.0
  11
 572.005
  21
 1330.00
  31
0.0
   0
LINE
   8
LEVEL001
   6
CONTINUOUS
  62
7
  10
 583.505
  20
 1332.00
  30
0.0
  11
 574.005
  21
 1332.00
  31
0.0
   0
ARC
   8
LEVEL001
   6
CONTINUOUS
  62
7
  10
 571.005
  20
 1334.00
  30
0.0
  40
 3.00000
  50
 270.000
  51
 306.870
   0
ARC
   8
LEVEL001
   6
CONTINUOUS
  62
7
  10
 574.005
  20
 1330.00
  30
0.0
  40
 2.00000
  50
 90.0000
  51
 126.870
   0
LINE
   8
LEVEL001
   6
CONTINUOUS
  62
7
  10
 583.505
  20
 1282.00
  30
0.0
  11
 574.005
  21
 1282.00
  31
0.0
   0
ARC
   8
LEVEL001
   6
CONTINUOUS
  62
7
  10
 571.005
  20
 1280.00
  30
0.0
  40
 3.00000
  50
 53.1301
  51
 90.0000
   0
ARC
   8
LEVEL001
   6
CONTINUOUS
  62
7
  10
 574.005
  20
 1284.00
  30
0.0
  40
 2.00000
  50
 233.130
  51
 270.000
   0
LINE
   8
LEVEL001
   6
CONTINUOUS
  62
7
  10
 583.505
  20
 1282.00
  30
0.0
  11
 584.505
  21
 1283.00
  31
0.0
   0
LINE
   8
LEVEL003
   6
CONTINUOUS
  62
7
  10
 583.505
  20
 1332.00
  30
0.0
  11
 583.505
  21
 1282.00
  31
0.0
   0
LINE
   8
LEVEL003
   6
CONTINUOUS
  62
7
  10
 584.505
  20
 1331.00
  30
0.0
  11
 584.505
  21
 1283.00
  31
0.0
   0
LINE
   8
LEVEL001
   6
CONTINUOUS
  62
7
  10
 572.005
  20
 1294.00
  30
0.0
  11
 572.005
  21
 1283.85
  31
0.0
   0
LINE
   8
LEVEL001
   6
DASHDOT
  62
1
  10
 559.505
  20
 1318.00
  30
0.0
  11
 559.505
  21
 1296.00
  31
0.0
   0
LINE
   8
LEVEL003
   6
DASHDOT
  62
1
  10
 556.000
  20
 1332.00
  30
0.0
  11
 534.000
  21
 1332.00
  31
0.0
   0
LINE
   8
LEVEL003
   6
DASHDOT
  62
1
  10
 545.000
  20
 1343.00
  30
0.0
  11
 545.000
  21
 1321.00
  31
0.0
   0
LINE
   8
LEVEL001
   6
CONTINUOUS
  62
7
  10
 459.505
  20
 1268.00
  30
0.0
  11
 460.505
  21
 1267.00
  31
0.0
   0
LINE
   8
LEVEL001
   6
CONTINUOUS
  62
7
  10
 471.505
  20
 1268.00
  30
0.0
  11
 470.505
  21
 1267.00
  31
0.0
   0
LINE
   8
LEVEL001
   6
CONTINUOUS
  62
7
  10
 430.000
  20
 1272.00
  30
0.0
  11
 550.000
  21
 1272.00
  31
0.0
   0
LINE
   8
LEVEL001
   6
CONTINUOUS
  62
7
  10
 556.618
  20
 1307.00
  30
0.0
  11
 558.062
  21
 1309.50
  31
0.0
   0
LINE
   8
LEVEL001
   6
CONTINUOUS
  62
7
  10
 558.062
  20
 1309.50
  30
0.0
  11
 560.948
  21
 1309.50
  31
0.0
   0
LINE
   8
LEVEL001
   6
CONTINUOUS
  62
7
  10
 560.948
  20
 1309.50
  30
0.0
  11
 562.392
  21
 1307.00
  31
0.0
   0
LINE
   8
LEVEL001
   6
CONTINUOUS
  62
7
  10
 562.392
  20
 1307.00
  30
0.0
  11
 560.948
  21
 1304.50
  31
0.0
   0
LINE
   8
LEVEL001
   6
CONTINUOUS
  62
7
  10
 560.948
  20
 1304.50
  30
0.0
  11
 558.062
  21
 1304.50
  31
0.0
   0
LINE
   8
LEVEL001
   6
CONTINUOUS
  62
7
  10
 558.062
  20
 1304.50
  30
0.0
  11
 556.618
  21
 1307.00
  31
0.0
   0
CIRCLE
   8
LEVEL001
   6
CONTINUOUS
  62
7
  10
 559.505
  20
 1307.00
  30
0.0
  40
 5.00000
   0
CIRCLE
   8
LEVEL001
   6
CONTINUOUS
  62
3
  10
 559.505
  20
 1307.00
  30
0.0
  40
 4.25000
   0
LINE
   8
LEVEL003
   6
CONTINUOUS
  62
7
  10
 560.000
  20
 1331.00
  30
0.0
  11
 560.000
  21
 1377.00
  31
0.0
   0
LINE
   8
LEVEL003
   6
CONTINUOUS
  62
7
  10
 560.000
  20
 1237.00
  30
0.0
  11
 560.000
  21
 1283.00
  31
0.0
   0
LINE
   8
LEVEL001
   6
CONTINUOUS
  62
7
  10
 443.500
  20
 1382.00
  30
0.0
  11
 415.000
  21
 1382.00
  31
0.0
   0
LINE
   8
LEVEL001
   6
CONTINUOUS
  62
7
  10
 415.000
  20
 1382.00
  30
0.0
  11
 415.000
  21
 1232.00
  31
0.0
   0
LINE
   8
LEVEL001
   6
CONTINUOUS
  62
7
  10
 415.000
  20
 1232.00
  30
0.0
  11
 565.000
  21
 1232.00
  31
0.0
   0
LINE
   8
LEVEL001
   6
CONTINUOUS
  62
7
  10
 565.000
  20
 1232.00
  30
0.0
  11
 565.000
  21
 1283.00
  31
0.0
   0
LINE
   8
LEVEL003
   6
CONTINUOUS
  62
7
  10
 410.000
  20
 1387.00
  30
0.0
  11
 443.500
  21
 1387.00
  31
0.0
   0
LINE
   8
LEVEL003
   6
CONTINUOUS
  62
7
  10
 466.500
  20
 1387.00
  30
0.0
  11
 710.000
  21
 1387.00
  31
0.0
   0
LINE
   8
LEVEL001
   6
CONTINUOUS
  62
7
  10
 565.000
  20
 1331.00
  30
0.0
  11
 565.000
  21
 1382.00
  31
0.0
   0
LINE
   8
LEVEL001
   6
CONTINUOUS
  62
7
  10
 565.000
  20
 1382.00
  30
0.0
  11
 466.500
  21
 1382.00
  31
0.0
   0
CIRCLE
   8
LEVEL003
   6
CONTINUOUS
  62
7
  10
 465.505
  20
 690.000
  30
0.0
  40
 6.00000
   0
ARC
   8
LEVEL001
   6
CONTINUOUS
  62
7
  10
 426.000
  20
 612.000
  30
0.0
  40
 1.00000
  50
 90.0000
  51
 180.000
   0
LINE
   8
LEVEL003
   6
CONTINUOUS
  62
7
  10
 425.000
  20
 612.000
  30
0.0
  11
 425.000
  21
 600.000
  31
0.0
   0
ARC
   8
LEVEL003
   6
CONTINUOUS
  62
7
  10
 450.833
  20
 688.318
  30
0.0
  40
 2.00000
  50
 167.974
  51
 233.923
   0
ARC
   8
LEVEL003
   6
CONTINUOUS
  62
7
  10
 453.030
  20
 698.634
  30
0.0
  40
 2.00000
  50
 107.974
  51
 167.974
   0
LINE
   8
LEVEL003
   6
CONTINUOUS
  62
7
  10
 448.876
  20
 688.734
  30
0.0
  11
 451.074
  21
 699.051
  31
0.0
   0
LINE
   8
LEVEL003
   6
CONTINUOUS
  62
7
  10
 553.000
  20
 621.500
  30
0.0
  11
 537.000
  21
 621.500
  31
0.0
   0
ARC
   8
LEVEL001
   6
CONTINUOUS
  62
7
  10
 554.000
  20
 612.000
  30
0.0
  40
 1.00000
  50
0.0
  51
 90.0000
   0
LINE
   8
LEVEL003
   6
CONTINUOUS
  62
7
  10
 555.000
  20
 612.000
  30
0.0
  11
 555.000
  21
 600.000
  31
0.0
   0
ARC
   8
LEVEL001
   6
CONTINUOUS
  62
7
  10
 533.813
  20
 618.000
  30
0.0
  40
 5.00000
  50
 211.277
  51
 270.000
   0
LINE
   8
LEVEL003
   6
CONTINUOUS
  62
7
  10
 537.000
  20
 613.000
  30
0.0
  11
 537.000
  21
 621.500
  31
0.0
   0
LINE
   8
LEVEL003
   6
CONTINUOUS
  62
7
  10
 537.000
  20
 621.500
  30
0.0
  11
 537.866
  21
 622.000
  31
0.0
   0
LINE
   8
LEVEL003
   6
CONTINUOUS
  62
7
  10
 537.866
  20
 622.000
  30
0.0
  11
 552.134
  21
 622.000
  31
0.0
   0
LINE
   8
LEVEL003
   6
CONTINUOUS
  62
7
  10
 552.134
  20
 622.000
  30
0.0
  11
 553.000
  21
 621.500
  31
0.0
   0
LINE
   8
LEVEL003
   6
CONTINUOUS
  62
7
  10
 553.000
  20
 621.500
  30
0.0
  11
 553.000
  21
 613.000
  31
0.0
   0
LINE
   8
LEVEL001
   6
CONTINUOUS
  62
7
  10
 512.382
  20
 650.874
  30
0.0
  11
 563.241
  21
 640.040
  31
0.0
   0
ARC
   8
LEVEL001
   6
CONTINUOUS
  62
7
  10
 562.127
  20
 637.210
  30
0.0
  40
 3.00000
  50
 41.1044
  51
 77.9743
   0
ARC
   8
LEVEL001
   6
CONTINUOUS
  62
7
  10
 565.894
  20
 640.497
  30
0.0
  40
 2.00000
  50
 221.104
  51
 257.974
   0
LINE
   8
LEVEL003
   6
CONTINUOUS
  62
7
  10
 575.956
  20
 637.332
  30
0.0
  11
 574.769
  21
 636.562
  31
0.0
   0
LINE
   8
LEVEL001
   6
CONTINUOUS
  62
7
  10
 565.478
  20
 638.541
  30
0.0
  11
 574.769
  21
 636.562
  31
0.0
   0
LINE
   8
LEVEL050
   6
DASHDOT
  62
1
  10
 562.859
  20
 695.844
  30
0.0
  11
 558.276
  21
 674.327
  31
0.0
   0
LINE
   8
LEVEL003
   6
DASHDOT
  62
1
  10
 563.398
  20
 698.372
  30
0.0
  11
 558.276
  21
 674.327
  31
0.0
   0
LINE
   8
LEVEL050
   6
CONTINUOUS
  62
7
  10
 566.968
  20
 691.135
  30
0.0
  11
 557.188
  21
 693.218
  31
0.0
   0
LINE
   8
LEVEL001
   6
CONTINUOUS
  62
7
  10
 585.187
  20
 685.465
  30
0.0
  11
 585.956
  21
 684.278
  31
0.0
   0
ARC
   8
LEVEL001
   6
DASHDOT
  62
1
  10
 540.666
  20
 770.457
  30
0.0
  40
 3.00000
  50
 116.704
  51
 153.574
   0
ARC
   8
LEVEL001
   6
DASHDOT
  62
1
  10
 538.419
  20
 774.924
  30
0.0
  40
 2.00000
  50
 296.704
  51
 333.574
   0
LINE
   8
LEVEL003
   6
DASHDOT
  62
1
  10
 501.003
  20
 805.244
  30
0.0
  11
 543.988
  21
 783.882
  31
0.0
   0
LINE
   8
LEVEL003
   6
DASHDOT
  62
1
  10
 543.988
  20
 783.882
  30
0.0
  11
 544.438
  21
 782.541
  31
0.0
   0
LINE
   8
LEVEL001
   6
DASHDOT
  62
1
  10
 540.210
  20
 774.034
  30
0.0
  11
 544.438
  21
 782.541
  31
0.0
   0
LINE
   8
LEVEL001
   6
DASHDOT
  62
1
  10
 447.592
  20
 700.019
  30
0.0
  11
 499.663
  21
 804.793
  31
0.0
   0
LINE
   8
LEVEL001
   6
DASHDOT
  62
1
  10
 515.060
  20
 725.674
  30
0.0
  11
 538.202
  21
 772.240
  31
0.0
   0
LINE
   8
LEVEL001
   6
DASHDOT
  62
1
  10
 499.663
  20
 804.793
  30
0.0
  11
 501.003
  21
 805.244
  31
0.0
   0
LINE
   8
LEVEL001
   6
DASHDOT
  62
1
  10
 474.505
  20
 690.000
  30
0.0
  11
 456.505
  21
 690.000
  31
0.0
   0
LINE
   8
LEVEL001
   6
DASHDOT
  62
1
  10
 465.505
  20
 699.000
  30
0.0
  11
 465.505
  21
 623.341
  31
0.0
   0
LINE
   8
LEVEL003
   6
DASHDOT
  62
1
  10
 435.000
  20
 625.000
  30
0.0
  11
 435.000
  21
 578.000
  31
0.0
   0
LINE
   8
LEVEL003
   6
DASHDOT
  62
1
  10
 435.000
  20
 619.316
  30
0.0
  11
 435.000
  21
 596.816
  31
0.0
   0
LINE
   8
LEVEL003
   6
DASHDOT
  62
1
  10
 545.000
  20
 625.000
  30
0.0
  11
 545.000
  21
 578.000
  31
0.0
   0
CIRCLE
   8
LEVEL003
   6
CONTINUOUS
  62
7
  10
 490.000
  20
 631.000
  30
0.0
  40
 6.00000
   0
LINE
   8
LEVEL003
   6
DASHDOT
  62
1
  10
 500.500
  20
 631.000
  30
0.0
  11
 481.500
  21
 631.000
  31
0.0
   0
LINE
   8
LEVEL003
   6
DASHDOT
  62
1
  10
 500.500
  20
 671.000
  30
0.0
  11
 481.500
  21
 671.000
  31
0.0
   0
LINE
   8
LEVEL001
   6
CONTINUOUS
  62
7
  10
 468.382
  20
 708.302
  30
0.0
  11
 468.151
  21
 707.219
  31
0.0
   0
ARC
   8
LEVEL001
   6
CONTINUOUS
  62
7
  10
 470.338
  20
 707.886
  30
0.0
  40
 2.00000
  50
 77.9742
  51
 167.974
   0
LINE
   8
LEVEL001
   6
CONTINUOUS
  62
7
  10
 511.000
  20
 613.000
  30
0.0
  11
 554.000
  21
 613.000
  31
0.0
   0
LINE
   8
LEVEL001
   6
CONTINUOUS
  62
7
  10
 426.000
  20
 613.000
  30
0.0
  11
 430.000
  21
 613.000
  31
0.0
   0
LINE
   8
LEVEL003
   6
CONTINUOUS
  62
7
  10
 427.000
  20
 613.000
  30
0.0
  11
 427.000
  21
 621.500
  31
0.0
   0
LINE
   8
LEVEL003
   6
CONTINUOUS
  62
7
  10
 427.000
  20
 621.500
  30
0.0
  11
 427.866
  21
 622.000
  31
0.0
   0
LINE
   8
LEVEL003
   6
CONTINUOUS
  62
7
  10
 427.866
  20
 622.000
  30
0.0
  11
 433.500
  21
 622.000
  31
0.0
   0
LINE
   8
LEVEL003
   6
CONTINUOUS
  62
7
  10
 433.500
  20
 621.500
  30
0.0
  11
 427.000
  21
 621.500
  31
0.0
   0
ARC
   8
LEVEL001
   6
CONTINUOUS
  62
7
  10
 444.505
  20
 618.000
  30
0.0
  40
 5.00000
  50
 336.422
  51
 0.299634E-10
   0
ARC
   8
LEVEL001
   6
CONTINUOUS
  62
7
  10
 452.505
  20
 618.000
  30
0.0
  40
 5.00000
  50
 336.422
  51
0.0
   0
LINE
   8
LEVEL001
   6
CONTINUOUS
  62
7
  10
 457.505
  20
 618.000
  30
0.0
  11
 457.505
  21
 677.039
  31
0.0
   0
CIRCLE
   8
LEVEL001
   6
CONTINUOUS
  62
7
  10
 490.000
  20
 632.000
  30
0.0
  40
 10.0000
   0
LINE
   8
LEVEL001
   6
CONTINUOUS
  62
7
  10
 473.505
  20
 677.039
  30
0.0
  11
 473.505
  21
 624.000
  31
0.0
   0
ARC
   8
LEVEL001
   6
CONTINUOUS
  62
7
  10
 497.328
  20
 679.131
  30
0.0
  40
 32.6149
  50
 308.311
  51
 27.2986
   0
LINE
   8
LEVEL001
   6
CONTINUOUS
  62
7
  10
 515.733
  20
 652.206
  30
0.0
  11
 525.109
  21
 696.218
  31
0.0
   0
ARC
   8
LEVEL003
   6
CONTINUOUS
  62
7
  10
 490.000
  20
 671.000
  30
0.0
  40
 12.0000
  50
 347.974
  51
 52.2003
   0
LINE
   8
LEVEL001
   6
CONTINUOUS
  62
7
  10
 512.382
  20
 650.874
  30
0.0
  11
 506.876
  21
 652.713
  31
0.0
   0
LINE
   8
LEVEL001
   6
CONTINUOUS
  62
7
  10
 529.540
  20
 615.404
  30
0.0
  11
 479.180
  21
 698.307
  31
0.0
   0
LINE
   8
LEVEL001
   6
CONTINUOUS
  62
7
  10
 500.581
  20
 663.076
  30
0.0
  11
 501.737
  21
 668.500
  31
0.0
   0
LINE
   8
LEVEL003
   6
CONTINUOUS
  62
7
  10
 483.461
  20
 691.259
  30
0.0
  11
 497.355
  21
 680.482
  31
0.0
   0
ARC
   8
LEVEL003
   6
CONTINUOUS
  62
7
  10
 465.505
  20
 690.000
  30
0.0
  40
 16.0000
  50
 31.2769
  51
 180.000
   0
LINE
   8
LEVEL001
   6
CONTINUOUS
  62
7
  10
 449.505
  20
 690.000
  30
0.0
  11
 449.505
  21
 618.000
  31
0.0
   0
ARC
   8
LEVEL001
   6
CONTINUOUS
  62
7
  10
 476.505
  20
 677.039
  30
0.0
  40
 3.00000
  50
 130.320
  51
 180.000
   0
ARC
   8
LEVEL001
   6
CONTINUOUS
  62
7
  10
 454.505
  20
 677.039
  30
0.0
  40
 3.00000
  50
 0.781653E-10
  51
 49.6798
   0
ARC
   8
LEVEL001
   6
CONTINUOUS
  62
7
  10
 465.505
  20
 690.000
  30
0.0
  40
 14.0000
  50
 310.320
  51
 229.680
   0
ARC
   8
LEVEL001
   6
CONTINUOUS
  62
7
  10
 465.217
  20
 707.844
  30
0.0
  40
 3.00000
  50
 319.039
  51
 347.974
   0
LINE
   8
LEVEL003
   6
CONTINUOUS
  62
7
  10
 452.413
  20
 700.536
  30
0.0
  11
 453.906
  21
 701.021
  31
0.0
   0
ARC
   8
LEVEL001
   6
CONTINUOUS
  62
7
  10
 575.478
  20
 685.488
  30
0.0
  40
 2.00000
  50
 77.9742
  51
 167.974
   0
LINE
   8
LEVEL001
   6
CONTINUOUS
  62
7
  10
 573.522
  20
 685.905
  30
0.0
  11
 564.000
  21
 641.206
  31
0.0
   0
LINE
   8
LEVEL001
   6
CONTINUOUS
  62
7
  10
 470.754
  20
 709.842
  30
0.0
  11
 585.187
  21
 685.465
  31
0.0
   0
LINE
   8
LEVEL050
   6
CONTINUOUS
  62
3
  10
 565.870
  20
 689.580
  30
0.0
  11
 566.391
  21
 692.025
  31
0.0
   0
LINE
   8
LEVEL050
   6
CONTINUOUS
  62
3
  10
 558.078
  20
 693.796
  30
0.0
  11
 557.557
  21
 691.351
  31
0.0
   0
LINE
   8
LEVEL050
   6
CONTINUOUS
  62
7
  10
 556.823
  20
 691.507
  30
0.0
  11
 557.188
  21
 693.218
  31
0.0
   0
LINE
   8
LEVEL050
   6
CONTINUOUS
  62
7
  10
 557.188
  20
 693.218
  30
0.0
  11
 558.078
  21
 693.796
  31
0.0
   0
LINE
   8
LEVEL050
   6
CONTINUOUS
  62
7
  10
 558.078
  20
 693.796
  30
0.0
  11
 566.391
  21
 692.025
  31
0.0
   0
LINE
   8
LEVEL050
   6
CONTINUOUS
  62
7
  10
 566.391
  20
 692.025
  30
0.0
  11
 566.968
  21
 691.135
  31
0.0
   0
LINE
   8
LEVEL050
   6
CONTINUOUS
  62
7
  10
 566.968
  20
 691.135
  30
0.0
  11
 566.604
  21
 689.423
  31
0.0
   0
LINE
   8
LEVEL003
   6
CONTINUOUS
  62
7
  10
 585.956
  20
 684.278
  30
0.0
  11
 575.956
  21
 637.332
  31
0.0
   0
LINE
   8
LEVEL003
   6
CONTINUOUS
  62
7
  10
 585.187
  20
 685.465
  30
0.0
  11
 574.769
  21
 636.562
  31
0.0
   0
LINE
   8
LEVEL003
   6
CONTINUOUS
  62
7
  10
 638.661
  20
 1329.00
  30
0.0
  11
 584.505
  21
 1329.00
  31
0.0
   0
LINE
   8
LEVEL003
   6
CONTINUOUS
  62
7
  10
 638.661
  20
 1285.00
  30
0.0
  11
 584.505
  21
 1285.00
  31
0.0
   0
LINE
   8
LEVEL001
   6
DASHDOT
  62
1
  10
 455.000
  20
 1424.74
  30
0.0
  11
 455.000
  21
 1232.92
  31
0.0
   0
LINE
   8
LEVEL003
   6
CONTINUOUS
  62
3
  10
 449.000
  20
 1419.59
  30
0.0
  11
 258.000
  21
 1419.59
  31
0.0
   0
LINE
   8
LEVEL003
   6
CONTINUOUS
  62
3
  10
 523.500
  20
 1122.84
  30
0.0
  11
 258.000
  21
 1122.84
  31
0.0
   0
LINE
   8
LEVEL003
   6
CONTINUOUS
  62
3
  10
 270.000
  20
 1419.59
  30
0.0
  11
 270.000
  21
 1122.84
  31
0.0
   0
LINE
   8
LEVEL003
   6
CONTINUOUS
  62
3
  10
 270.000
  20
 1419.59
  30
0.0
  11
 266.826
  21
 1401.59
  31
0.0
   0
LINE
   8
LEVEL003
   6
CONTINUOUS
  62
3
  10
 270.000
  20
 1419.59
  30
0.0
  11
 273.174
  21
 1401.59
  31
0.0
   0
LINE
   8
LEVEL003
   6
CONTINUOUS
  62
3
  10
 270.000
  20
 1122.84
  30
0.0
  11
 273.174
  21
 1140.84
  31
0.0
   0
LINE
   8
LEVEL003
   6
CONTINUOUS
  62
3
  10
 270.000
  20
 1122.84
  30
0.0
  11
 266.826
  21
 1140.84
  31
0.0
   0
TEXT
   8
LEVEL003
  62
3
  10
 265.200
  20
 1241.22
  30
0.0
  40
 24.0000
   1
約300
  50
 90.0000
   7
STANDARD
  72
1
  11
 265.200
  21
 1271.22
  31
0.0
   0
LINE
   8
LEVEL003
   6
DASHDOT
  62
1
  10
 503.239
  20
 805.249
  30
0.0
  11
 529.052
  21
 857.189
  31
0.0
   0
LINE
   8
LEVEL003
   6
DASHDOT
  62
1
  10
 542.642
  20
 785.667
  30
0.0
  11
 568.454
  21
 837.607
  31
0.0
   0
LINE
   8
LEVEL003
   6
DASHDOT
  62
1
  10
 530.393
  20
 857.639
  30
0.0
  11
 529.052
  21
 857.189
  31
0.0
   0
LINE
   8
LEVEL003
   6
DASHDOT
  62
1
  10
 530.393
  20
 857.639
  30
0.0
  11
 568.004
  21
 838.947
  31
0.0
   0
LINE
   8
LEVEL001
   6
DASHDOT
  62
1
  10
 529.052
  20
 857.189
  30
0.0
  11
 568.454
  21
 837.607
  31
0.0
   0
LINE
   8
LEVEL003
   6
DASHDOT
  62
1
  10
 568.004
  20
 838.947
  30
0.0
  11
 568.454
  21
 837.607
  31
0.0
   0
LINE
   8
LEVEL003
   6
DASHDOT
  62
1
  10
 493.763
  20
 736.749
  30
0.0
  11
 570.054
  21
 890.259
  31
0.0
   0
LINE
   8
LEVEL003
   6
DASHDOT
  62
1
  10
 533.975
  20
 855.859
  30
0.0
  11
 554.831
  21
 897.825
  31
0.0
   0
LINE
   8
LEVEL003
   6
DASHDOT
  62
1
  10
 564.422
  20
 840.727
  30
0.0
  11
 585.278
  21
 882.693
  31
0.0
   0
LINE
   8
LEVEL003
   6
CONTINUOUS
  62
3
  10
 452.324
  20
 704.919
  30
0.0
  11
 466.805
  21
 772.896
  31
0.0
   0
LINE
   8
LEVEL003
   6
CONTINUOUS
  62
3
  10
 1315.38
  20
 527.870
  30
0.0
  11
 1328.47
  21
 589.338
  31
0.0
   0
LINE
   8
LEVEL003
   6
CONTINUOUS
  62
3
  10
 464.305
  20
 761.159
  30
0.0
  11
 1325.97
  21
 577.602
  31
0.0
   0
LINE
   8
LEVEL003
   6
CONTINUOUS
  62
3
  10
 464.305
  20
 761.159
  30
0.0
  11
 481.249
  21
 754.305
  31
0.0
   0
LINE
   8
LEVEL003
   6
CONTINUOUS
  62
3
  10
 464.305
  20
 761.159
  30
0.0
  11
 482.571
  21
 760.513
  31
0.0
   0
LINE
   8
LEVEL003
   6
CONTINUOUS
  62
3
  10
 1325.97
  20
 577.602
  30
0.0
  11
 1309.03
  21
 584.456
  31
0.0
   0
LINE
   8
LEVEL003
   6
CONTINUOUS
  62
3
  10
 1325.97
  20
 577.602
  30
0.0
  11
 1307.70
  21
 578.248
  31
0.0
   0
TEXT
   8
LEVEL003
  62
3
  10
 843.323
  20
 685.326
  30
0.0
  40
 24.0000
   1
MIN.≒880
  50
 347.974
   7
STANDARD
  72
1
  11
 896.138
  21
 674.075
  31
0.0
   0
TEXT
   8
LEVEL003
  62
3
  10
 759.632
  20
 540.325
  30
0.0
  40
 24.0000
   1
把　手
   7
STANDARD
   0
LINE
   8
LEVEL003
   6
CONTINUOUS
  62
7
  10
 427.000
  20
 352.000
  30
0.0
  11
 427.000
  21
 287.000
  31
0.0
   0
LINE
   8
LEVEL003
   6
CONTINUOUS
  62
7
  10
 415.000
  20
 352.000
  30
0.0
  11
 415.000
  21
 287.000
  31
0.0
   0
LINE
   8
LEVEL003
   6
CONTINUOUS
  62
7
  10
 415.000
  20
 287.000
  30
0.0
  11
 427.000
  21
 287.000
  31
0.0
   0
LINE
   8
LEVEL003
   6
CONTINUOUS
  62
7
  10
 1215.00
  20
 352.000
  30
0.0
  11
 1215.00
  21
 287.000
  31
0.0
   0
LINE
   8
LEVEL003
   6
CONTINUOUS
  62
7
  10
 1203.00
  20
 352.000
  30
0.0
  11
 1203.00
  21
 287.000
  31
0.0
   0
LINE
   8
LEVEL003
   6
CONTINUOUS
  62
7
  10
 1215.00
  20
 287.000
  30
0.0
  11
 1203.00
  21
 287.000
  31
0.0
   0
LINE
   8
LEVEL003
   6
CONTINUOUS
  62
3
  10
 437.669
  20
 586.000
  30
0.0
  11
 288.000
  21
 586.000
  31
0.0
   0
LINE
   8
LEVEL003
   6
CONTINUOUS
  62
3
  10
 409.000
  20
 287.000
  30
0.0
  11
 288.000
  21
 287.000
  31
0.0
   0
LINE
   8
LEVEL003
   6
CONTINUOUS
  62
3
  10
 300.000
  20
 586.000
  30
0.0
  11
 300.000
  21
 287.000
  31
0.0
   0
LINE
   8
LEVEL003
   6
CONTINUOUS
  62
3
  10
 300.000
  20
 586.000
  30
0.0
  11
 296.826
  21
 568.000
  31
0.0
   0
LINE
   8
LEVEL003
   6
CONTINUOUS
  62
3
  10
 300.000
  20
 586.000
  30
0.0
  11
 303.174
  21
 568.000
  31
0.0
   0
LINE
   8
LEVEL003
   6
CONTINUOUS
  62
3
  10
 300.000
  20
 287.000
  30
0.0
  11
 303.174
  21
 305.000
  31
0.0
   0
LINE
   8
LEVEL003
   6
CONTINUOUS
  62
3
  10
 300.000
  20
 287.000
  30
0.0
  11
 296.826
  21
 305.000
  31
0.0
   0
TEXT
   8
LEVEL003
  62
3
  10
 295.200
  20
 406.500
  30
0.0
  40
 24.0000
   1
約300
  50
 90.0000
   7
STANDARD
  72
1
  11
 295.200
  21
 436.500
  31
0.0
   0
LINE
   8
LEVEL003
   6
CONTINUOUS
  62
3
  10
 464.754
  20
 709.842
  30
0.0
  11
 228.000
  21
 709.842
  31
0.0
   0
LINE
   8
LEVEL003
   6
CONTINUOUS
  62
3
  10
 409.000
  20
 287.000
  30
0.0
  11
 228.000
  21
 287.000
  31
0.0
   0
LINE
   8
LEVEL003
   6
CONTINUOUS
  62
3
  10
 240.000
  20
 709.842
  30
0.0
  11
 240.000
  21
 287.000
  31
0.0
   0
LINE
   8
LEVEL003
   6
CONTINUOUS
  62
3
  10
 240.000
  20
 709.842
  30
0.0
  11
 236.826
  21
 691.842
  31
0.0
   0
LINE
   8
LEVEL003
   6
CONTINUOUS
  62
3
  10
 240.000
  20
 709.842
  30
0.0
  11
 243.174
  21
 691.842
  31
0.0
   0
LINE
   8
LEVEL003
   6
CONTINUOUS
  62
3
  10
 240.000
  20
 287.000
  30
0.0
  11
 243.174
  21
 305.000
  31
0.0
   0
LINE
   8
LEVEL003
   6
CONTINUOUS
  62
3
  10
 240.000
  20
 287.000
  30
0.0
  11
 236.826
  21
 305.000
  31
0.0
   0
TEXT
   8
LEVEL003
  62
3
  10
 235.200
  20
 468.421
  30
0.0
  40
 24.0000
   1
約430
  50
 90.0000
   7
STANDARD
  72
1
  11
 235.200
  21
 498.421
  31
0.0
   0
CIRCLE
   8
LEVEL003
   6
CONTINUOUS
  62
7
  10
 1681.04
  20
 115.830
  30
0.0
  40
 13.5000
   0
LINE
   8
LEVEL003
   6
CONTINUOUS
  62
7
  10
 1707.53
  20
 129.330
  30
0.0
  11
 1690.39
  21
 99.6299
  31
0.0
   0
LINE
   8
LEVEL003
   6
CONTINUOUS
  62
7
  10
 1690.39
  20
 99.6299
  30
0.0
  11
 1656.10
  21
 99.6299
  31
0.0
   0
LINE
   8
LEVEL003
   6
CONTINUOUS
  62
7
  10
 1652.20
  20
 92.8804
  30
0.0
  11
 1713.50
  21
 92.8804
  31
0.0
   0
LINE
   8
LEVEL003
   6
CONTINUOUS
  62
7
  10
 1713.50
  20
 92.8804
  30
0.0
  11
 1734.53
  21
 129.330
  31
0.0
   0
LINE
   8
LEVEL003
   6
CONTINUOUS
  62
7
  10
 1734.53
  20
 129.330
  30
0.0
  11
 1707.53
  21
 129.330
  31
0.0
   0
LINE
   8
LEVEL003
   6
CONTINUOUS
  62
7
  10
 1656.10
  20
 99.6299
  30
0.0
  11
 1652.20
  21
 92.8804
  31
0.0
   0
TEXT
   8
LEVEL003
  62
7
  10
 1751.23
  20
 82.2916
  30
0.0
  40
 30.0000
   1
ＯＳＡＫＡ ＪＡＣＫ
   7
STANDARD
   0
TEXT
   8
LEVEL003
  62
7
  10
 1787.75
  20
 144.202
  30
0.0
  40
 20.0000
   1
Model : ＴＷＡ－８
   7
STANDARD
   0
ENDSEC
   0
EOF
