   0
SECTION
   2
HEADER
   9
$LIMMIN
  10
-66.0000
  20
0.0
   9
$LIMMAX
  10
 1680.00
  20
 1188.00
   9
$EXTMIN
  10
-66.0000
  20
0.0
   9
$EXTMAX
  10
 1680.00
  20
 1188.00
   9
$LTSCALE
  40
 34.9200
   0
ENDSEC
   0
SECTION
   2
TABLES
  0
TABLE
  2
LTYPE
 70
    25
  0
LTYPE
  2
CONTINUOUS
 70
    64
  3
Solid line
 72
    65
 73
     0
 40
0.0
  0
LTYPE
  2
BORDER
 70
    64
  3
__ __ . __ __ . __ __ . __ __ . __ __ . __ __ .
 72
    65
 73
     6
 40
1.75
 49
0.5
 49
-0.25
 49
0.5
 49
-0.25
 49
0.0
 49
-0.25
  0
LTYPE
  2
BORDER2
 70
    64
  3
__.__.__.__.__.__.__.__.__.__.__.__.__.__.__.__
 72
    65
 73
     6
 40
0.875
 49
0.25
 49
-0.125
 49
0.25
 49
-0.125
 49
0.0
 49
-0.125
  0
LTYPE
  2
BORDERX2
 70
    64
  3
____  ____  .  ____  ____  .  ____  ____  .  __
 72
    65
 73
     6
 40
3.5
 49
1.0
 49
-0.5
 49
1.0
 49
-0.5
 49
0.0
 49
-0.5
  0
LTYPE
  2
CENTER
 70
    64
  3
____ _ ____ _ ____ _ ____ _ ____ _ ____ _ ____ 
 72
    65
 73
     4
 40
2.0
 49
1.25
 49
-0.25
 49
0.25
 49
-0.25
  0
LTYPE
  2
CENTER2
 70
    64
  3
___ _ ___ _ ___ _ ___ _ ___ _ ___ _ ___ _ ___ _
 72
    65
 73
     4
 40
1.125
 49
0.75
 49
-0.125
 49
0.125
 49
-0.125
  0
LTYPE
  2
CENTERX2
 70
    64
  3
________  __  ________  __  ________  __  _____
 72
    65
 73
     4
 40
4.0
 49
2.5
 49
-0.5
 49
0.5
 49
-0.5
  0
LTYPE
  2
DASHDOT
 70
    64
  3
__ . __ . __ . __ . __ . __ . __ . __ . __ . __
 72
    65
 73
     4
 40
1.0
 49
0.5
 49
-0.25
 49
0.0
 49
-0.25
  0
LTYPE
  2
DASHDOT2
 70
    64
  3
_._._._._._._._._._._._._._._._._._._._._._._._
 72
    65
 73
     4
 40
0.5
 49
0.25
 49
-0.125
 49
0.0
 49
-0.125
  0
LTYPE
  2
DASHDOTX2
 70
    64
  3
____  .  ____  .  ____  .  ____  .  ____  .  __
 72
    65
 73
     4
 40
2.0
 49
1.0
 49
-0.5
 49
0.0
 49
-0.5
  0
LTYPE
  2
DASHED
 70
    64
  3
__ __ __ __ __ __ __ __ __ __ __ __ __ __ __ __
 72
    65
 73
     2
 40
0.75
 49
0.5
 49
-0.25
  0
LTYPE
  2
DASHED2
 70
    64
  3
_ _ _ _ _ _ _ _ _ _ _ _ _ _ _ _ _ _ _ _ _ _ _ _
 72
    65
 73
     2
 40
0.375
 49
0.25
 49
-0.125
  0
LTYPE
  2
DASHEDX2
 70
    64
  3
____  ____  ____  ____  ____  ____  ____  ____ 
 72
    65
 73
     2
 40
1.5
 49
1.0
 49
-0.5
  0
LTYPE
  2
DIVIDE
 70
    64
  3
____ . . ____ . . ____ . . ____ . . ____ . . __
 72
    65
 73
     6
 40
1.25
 49
0.5
 49
-0.25
 49
0.0
 49
-0.25
 49
0.0
 49
-0.25
  0
LTYPE
  2
DIVIDE2
 70
    64
  3
__..__..__..__..__..__..__..__..__..__..__..__.
 72
    65
 73
     6
 40
0.625
 49
0.25
 49
-0.125
 49
0.0
 49
-0.125
 49
0.0
 49
-0.125
  0
LTYPE
  2
DIVIDEX2
 70
    64
  3
________  .  .  ________  .  .  ________  .  . 
 72
    65
 73
     6
 40
2.5
 49
1.0
 49
-0.5
 49
0.0
 49
-0.5
 49
0.0
 49
-0.5
  0
LTYPE
  2
DOT
 70
    64
  3
. . . . . . . . . . . . . . . . . . . . . . . .
 72
    65
 73
     2
 40
0.25
 49
0.0
 49
-0.25
  0
LTYPE
  2
DOT2
 70
    64
  3
...............................................
 72
    65
 73
     2
 40
0.125
 49
0.0
 49
-0.125
  0
LTYPE
  2
DOTX2
 70
    64
  3
.  .  .  .  .  .  .  .  .  .  .  .  .  .  .  . 
 72
    65
 73
     2
 40
0.5
 49
0.0
 49
-0.5
  0
LTYPE
  2
HIDDEN
 70
    64
  3
__ __ __ __ __ __ __ __ __ __ __ __ __ __ __ __
 72
    65
 73
     2
 40
0.375
 49
0.25
 49
-0.125
  0
LTYPE
  2
HIDDEN2
 70
    64
  3
_ _ _ _ _ _ _ _ _ _ _ _ _ _ _ _ _ _ _ _ _ _ _ _
 72
    65
 73
     2
 40
0.1875
 49
0.125
 49
-0.0625
  0
LTYPE
  2
HIDDENX2
 70
    64
  3
____ ____ ____ ____ ____ ____ ____ ____ ____ __
 72
    65
 73
     2
 40
0.75
 49
0.5
 49
-0.25
  0
LTYPE
  2
PHANTOM
 70
    64
  3
______  __  __  ______  __  __  ______  __  __ 
 72
    65
 73
     6
 40
2.5
 49
1.25
 49
-0.25
 49
0.25
 49
-0.25
 49
0.25
 49
-0.25
  0
LTYPE
  2
PHANTOM2
 70
    64
  3
___ _ _ ___ _ _ ___ _ _ ___ _ _ ___ _ _ ___ _ _
 72
    65
 73
     6
 40
1.25
 49
0.625
 49
-0.125
 49
0.125
 49
-0.125
 49
0.125
 49
-0.125
  0
LTYPE
  2
PHANTOMX2
 70
    64
  3
____________    ____    ____    ____________   
 72
    65
 73
     6
 40
5.0
 49
2.5
 49
-0.5
 49
0.5
 49
-0.5
 49
0.5
 49
-0.5
  0
ENDTAB
  0
TABLE
  2
STYLE
 70
     2
  0
STYLE
  2
STANDARD
 70
0
 40
0.0
 41
1.0
 50
0.0
 71
0
 42
0.2
  3
TXT
  4
BIGFONT
  0
STYLE
  2
STANDARD1
 70
     4
 40
0.0
 41
1.0
 50
0.0
 71
     0
 42
0.2
  3
TXT
  4
BIGFONT
  0
ENDTAB
   0
TABLE
   2
LAYER
  70
12
   0
LAYER
   2
0
  70
0
  62
7
   6
CONTINUOUS
   0
LAYER
   2
LEVEL001
  70
0
  62
7
   6
CONTINUOUS
   0
LAYER
   2
LEVEL003
  70
0
  62
7
   6
CONTINUOUS
   0
LAYER
   2
LEVEL010
  70
0
  62
7
   6
CONTINUOUS
   0
LAYER
   2
LEVEL011
  70
0
  62
7
   6
CONTINUOUS
   0
LAYER
   2
LEVEL012
  70
0
  62
7
   6
CONTINUOUS
   0
LAYER
   2
LEVEL014
  70
0
  62
7
   6
CONTINUOUS
   0
LAYER
   2
LEVEL020
  70
0
  62
7
   6
CONTINUOUS
   0
LAYER
   2
LEVEL022
  70
0
  62
7
   6
CONTINUOUS
   0
LAYER
   2
LEVEL030
  70
0
  62
7
   6
CONTINUOUS
   0
LAYER
   2
LEVEL050
  70
0
  62
7
   6
CONTINUOUS
   0
LAYER
   2
LEVEL100
  70
0
  62
-7
   6
CONTINUOUS
   0
ENDTAB
   0
ENDSEC
   0
SECTION
   2
ENTITIES
   0
LINE
   8
LEVEL100
   6
CONTINUOUS
  62
7
  10
 1145.00
  20
 216.000
  30
0.0
  11
 1145.00
  21
 188.000
  31
0.0
   0
LINE
   8
LEVEL100
   6
CONTINUOUS
  62
7
  10
 1265.00
  20
 216.000
  30
0.0
  11
 1265.00
  21
 124.000
  31
0.0
   0
LINE
   8
LEVEL100
   6
CONTINUOUS
  62
7
  10
 1345.00
  20
 216.000
  30
0.0
  11
 1345.00
  21
 188.000
  31
0.0
   0
LINE
   8
LEVEL100
   6
CONTINUOUS
  62
7
  10
 1377.00
  20
 216.000
  30
0.0
  11
 1377.00
  21
 188.000
  31
0.0
   0
LINE
   8
LEVEL100
   6
CONTINUOUS
  62
7
  10
 1423.00
  20
 216.000
  30
0.0
  11
 1423.00
  21
 188.000
  31
0.0
   0
LINE
   8
LEVEL100
   6
CONTINUOUS
  62
7
  10
 1227.00
  20
 188.000
  30
0.0
  11
 1227.00
  21
 124.000
  31
0.0
   0
LINE
   8
LEVEL100
   6
CONTINUOUS
  62
7
  10
 1161.00
  20
 66.0000
  30
0.0
  11
 1181.00
  21
 86.0000
  31
0.0
   0
CIRCLE
   8
LEVEL100
   6
CONTINUOUS
  62
7
  10
 1133.00
  20
 6.00000
  30
0.0
  40
 1.60000
   0
CIRCLE
   8
LEVEL100
   6
CONTINUOUS
  62
7
  10
 1161.00
  20
 6.00000
  30
0.0
  40
 1.60000
   0
CIRCLE
   8
LEVEL100
   6
CONTINUOUS
  62
7
  10
 1133.00
  20
 6.00000
  30
0.0
  40
 1.00000
   0
CIRCLE
   8
LEVEL100
   6
CONTINUOUS
  62
7
  10
 1161.00
  20
 6.00000
  30
0.0
  40
 1.00000
   0
LINE
   8
LEVEL100
   6
CONTINUOUS
  62
7
  10
 1284.00
  20
 22.0000
  30
0.0
  11
 1284.00
  21
 26.0000
  31
0.0
   0
LINE
   8
LEVEL100
   6
CONTINUOUS
  62
7
  10
 1284.00
  20
 26.0000
  30
0.0
  11
 1296.00
  21
 26.0000
  31
0.0
   0
LINE
   8
LEVEL100
   6
CONTINUOUS
  62
7
  10
 1296.00
  20
 26.0000
  30
0.0
  11
 1296.00
  21
 22.0000
  31
0.0
   0
LINE
   8
LEVEL100
   6
CONTINUOUS
  62
7
  10
 1296.00
  20
 22.0000
  30
0.0
  11
 1284.00
  21
 22.0000
  31
0.0
   0
LINE
   8
LEVEL100
   6
CONTINUOUS
  62
7
  10
 1105.00
  20
0.0
  30
0.0
  11
 1105.00
  21
 216.000
  31
0.0
   0
LINE
   8
LEVEL100
   6
CONTINUOUS
  62
7
  10
 1189.00
  20
 188.000
  30
0.0
  11
 1189.00
  21
0.0
  31
0.0
   0
LINE
   8
LEVEL100
   6
CONTINUOUS
  62
7
  10
 1105.00
  20
 92.0000
  30
0.0
  11
 1189.00
  21
 92.0000
  31
0.0
   0
TEXT
   8
LEVEL100
  62
7
  10
 1203.00
  20
 14.0000
  30
0.0
  40
 20.0000
   1
ＯＪ
  41
 0.700000
   7
STANDARD
   0
LINE
   8
LEVEL100
   6
CONTINUOUS
  62
7
  10
 1105.00
  20
 188.000
  30
0.0
  11
 1532.60
  21
 188.000
  31
0.0
   0
LINE
   8
LEVEL100
   6
CONTINUOUS
  62
7
  10
 1105.00
  20
 172.000
  30
0.0
  11
 1532.60
  21
 172.000
  31
0.0
   0
LINE
   8
LEVEL100
   6
CONTINUOUS
  62
7
  10
 1105.00
  20
 216.000
  30
0.0
  11
 1532.60
  21
 216.000
  31
0.0
   0
LINE
   8
LEVEL100
   6
CONTINUOUS
  62
7
  10
 1208.60
  20
 1012.00
  30
0.0
  11
 1208.60
  21
 1112.00
  31
0.0
   0
LINE
   8
LEVEL100
   6
CONTINUOUS
  62
7
  10
 1208.60
  20
 1092.00
  30
0.0
  11
 1532.60
  21
 1092.00
  31
0.0
   0
LINE
   8
LEVEL100
   6
CONTINUOUS
  62
7
  10
 1208.60
  20
 1072.00
  30
0.0
  11
 1532.60
  21
 1072.00
  31
0.0
   0
LINE
   8
LEVEL100
   6
CONTINUOUS
  62
7
  10
 1244.60
  20
 1092.00
  30
0.0
  11
 1244.60
  21
 1072.00
  31
0.0
   0
LINE
   8
LEVEL100
   6
CONTINUOUS
  62
7
  10
 1452.60
  20
 1092.00
  30
0.0
  11
 1452.60
  21
 1072.00
  31
0.0
   0
LINE
   8
LEVEL100
   6
CONTINUOUS
  62
7
  10
 1500.60
  20
 1092.00
  30
0.0
  11
 1500.60
  21
 1072.00
  31
0.0
   0
LINE
   8
LEVEL100
   6
CONTINUOUS
  62
7
  10
 1105.00
  20
 124.000
  30
0.0
  11
 1532.60
  21
 124.000
  31
0.0
   0
LINE
   8
LEVEL100
   6
CONTINUOUS
  62
7
  10
 1105.00
  20
 60.0000
  30
0.0
  11
 1532.60
  21
 60.0000
  31
0.0
   0
LINE
   8
LEVEL100
   6
CONTINUOUS
  62
7
  10
 1420.60
  20
 60.0000
  30
0.0
  11
 1420.60
  21
0.0
  31
0.0
   0
LINE
   8
LEVEL100
   6
CONTINUOUS
  62
7
  10
 1436.60
  20
0.0
  30
0.0
  11
 1504.60
  21
 40.0000
  31
0.0
   0
LINE
   8
LEVEL100
   6
CONTINUOUS
  62
7
  10
0.0
  20
 1112.00
  30
0.0
  11
 1532.60
  21
 1112.00
  31
0.0
   0
LINE
   8
LEVEL100
   6
CONTINUOUS
  62
7
  10
 1532.60
  20
 1112.00
  30
0.0
  11
 1532.60
  21
0.0
  31
0.0
   0
LINE
   8
LEVEL100
   6
CONTINUOUS
  62
7
  10
 1532.60
  20
0.0
  30
0.0
  11
0.0
  21
0.0
  31
0.0
   0
LINE
   8
LEVEL100
   6
CONTINUOUS
  62
7
  10
0.0
  20
 1076.80
  30
0.0
  11
 200.600
  21
 1076.80
  31
0.0
   0
LINE
   8
LEVEL100
   6
CONTINUOUS
  62
7
  10
 200.600
  20
 1076.80
  30
0.0
  11
 200.600
  21
 1112.00
  31
0.0
   0
TEXT
   8
LEVEL100
  62
7
  10
 196.600
  20
 1104.40
  30
0.0
  40
 20.0000
   1
ＯＪ．
  50
 180.000
  41
 0.900000
   7
STANDARD
   0
LINE
   8
LEVEL100
   6
CONTINUOUS
  62
7
  10
 128.600
  20
 1096.40
  30
0.0
  11
 116.600
  21
 1096.40
  31
0.0
   0
LINE
   8
LEVEL100
   6
CONTINUOUS
  62
7
  10
 116.600
  20
 1096.40
  30
0.0
  11
 116.600
  21
 1092.40
  31
0.0
   0
LINE
   8
LEVEL100
   6
CONTINUOUS
  62
7
  10
 116.600
  20
 1092.40
  30
0.0
  11
 128.600
  21
 1092.40
  31
0.0
   0
LINE
   8
LEVEL100
   6
CONTINUOUS
  62
7
  10
 128.600
  20
 1092.40
  30
0.0
  11
 128.600
  21
 1096.40
  31
0.0
   0
TEXT
   8
LEVEL100
  62
7
  10
 1149.00
  20
 192.000
  30
0.0
  40
 16.0000
   1
Ｓ．ＩＭＡＮＩＳＨＩ
  41
 0.625000
   7
STANDARD
   0
TEXT
   8
LEVEL100
  62
3
  10
 1265.00
  20
 124.000
  30
0.0
  40
 20.0000
   1
＊＊＊＊＊＊＊＊＊＊＊＊＊＊
  41
 0.700000
   7
STANDARD
   0
TEXT
   8
LEVEL100
  62
3
  10
 1437.79
  20
 21.2000
  30
0.0
  40
 20.0000
   1
＊＊
  41
 0.630000
   7
STANDARD
  72
1
  11
 1450.39
  21
 21.2000
  31
0.0
   0
LINE
   8
LEVEL003
   6
CONTINUOUS
  62
3
  10
 58.0987
  20
 354.000
  30
0.0
  11
 32.0000
  21
 354.000
  31
0.0
   0
LINE
   8
LEVEL003
   6
CONTINUOUS
  62
3
  10
 100.947
  20
 305.000
  30
0.0
  11
 32.0000
  21
 305.000
  31
0.0
   0
LINE
   8
LEVEL003
   6
CONTINUOUS
  62
3
  10
 40.0000
  20
 354.000
  30
0.0
  11
 40.0000
  21
 305.000
  31
0.0
   0
LINE
   8
LEVEL003
   6
CONTINUOUS
  62
3
  10
 40.0000
  20
 354.000
  30
0.0
  11
 37.8841
  21
 342.000
  31
0.0
   0
LINE
   8
LEVEL003
   6
CONTINUOUS
  62
3
  10
 40.0000
  20
 354.000
  30
0.0
  11
 42.1159
  21
 342.000
  31
0.0
   0
LINE
   8
LEVEL003
   6
CONTINUOUS
  62
3
  10
 40.0000
  20
 305.000
  30
0.0
  11
 42.1159
  21
 317.000
  31
0.0
   0
LINE
   8
LEVEL003
   6
CONTINUOUS
  62
3
  10
 40.0000
  20
 305.000
  30
0.0
  11
 37.8841
  21
 317.000
  31
0.0
   0
TEXT
   8
LEVEL003
  62
3
  10
 36.8000
  20
 321.500
  30
0.0
  40
 16.0000
   1
49
  50
 90.0000
  41
 0.500000
   7
STANDARD
  72
1
  11
 36.8000
  21
 329.500
  31
0.0
   0
TEXT
   8
LEVEL003
  62
3
  10
 214.906
  20
 918.263
  30
0.0
  40
 16.0000
   1
Ｎ
   7
STANDARD
   0
TEXT
   8
LEVEL003
  62
3
  10
 294.906
  20
 898.263
  30
0.0
  40
 16.0000
   1
Ａ
   7
STANDARD
   0
LINE
   8
LEVEL003
   6
CONTINUOUS
  62
3
  10
 310.594
  20
 865.276
  30
0.0
  11
 294.906
  21
 898.263
  31
0.0
   0
LINE
   8
LEVEL003
   6
CONTINUOUS
  62
3
  10
 294.906
  20
 898.263
  30
0.0
  11
 314.906
  21
 898.263
  31
0.0
   0
LINE
   8
LEVEL003
   6
CONTINUOUS
  62
3
  10
 310.594
  20
 865.276
  30
0.0
  11
 307.351
  21
 877.022
  31
0.0
   0
LINE
   8
LEVEL003
   6
CONTINUOUS
  62
3
  10
 310.594
  20
 865.276
  30
0.0
  11
 303.529
  21
 875.204
  31
0.0
   0
LINE
   8
LEVEL003
   6
CONTINUOUS
  62
3
  10
 251.895
  20
 888.917
  30
0.0
  11
 234.906
  21
 918.263
  31
0.0
   0
LINE
   8
LEVEL003
   6
CONTINUOUS
  62
3
  10
 234.906
  20
 918.263
  30
0.0
  11
 214.906
  21
 918.263
  31
0.0
   0
LINE
   8
LEVEL003
   6
CONTINUOUS
  62
3
  10
 251.895
  20
 888.917
  30
0.0
  11
 247.714
  21
 900.362
  31
0.0
   0
LINE
   8
LEVEL003
   6
CONTINUOUS
  62
3
  10
 251.895
  20
 888.917
  30
0.0
  11
 244.052
  21
 898.242
  31
0.0
   0
LINE
   8
LEVEL003
   6
CONTINUOUS
  62
3
  10
 193.961
  20
 864.927
  30
0.0
  11
 174.906
  21
 898.263
  31
0.0
   0
LINE
   8
LEVEL003
   6
CONTINUOUS
  62
3
  10
 174.906
  20
 898.263
  30
0.0
  11
 154.906
  21
 898.263
  31
0.0
   0
LINE
   8
LEVEL003
   6
CONTINUOUS
  62
3
  10
 193.961
  20
 864.927
  30
0.0
  11
 189.842
  21
 876.395
  31
0.0
   0
LINE
   8
LEVEL003
   6
CONTINUOUS
  62
3
  10
 193.961
  20
 864.927
  30
0.0
  11
 186.169
  21
 874.295
  31
0.0
   0
LINE
   8
LEVEL022
   6
CONTINUOUS
  62
3
  10
 293.289
  20
 790.651
  30
0.0
  11
 293.289
  21
 805.875
  31
0.0
   0
ARC
   8
LEVEL022
   6
CONTINUOUS
  62
7
  10
 310.625
  20
 803.013
  30
0.0
  40
 13.7196
  50
 159.744
  51
 200.256
   0
ARC
   8
LEVEL022
   6
CONTINUOUS
  62
7
  10
 310.625
  20
 793.513
  30
0.0
  40
 13.7196
  50
 159.744
  51
 200.256
   0
LINE
   8
LEVEL022
   6
CONTINUOUS
  62
7
  10
 296.906
  20
 788.763
  30
0.0
  11
 296.906
  21
 807.763
  31
0.0
   0
LINE
   8
LEVEL022
   6
CONTINUOUS
  62
7
  10
 296.906
  20
 807.763
  30
0.0
  11
 306.906
  21
 807.763
  31
0.0
   0
LINE
   8
LEVEL022
   6
CONTINUOUS
  62
7
  10
 306.906
  20
 807.763
  30
0.0
  11
 306.906
  21
 788.763
  31
0.0
   0
LINE
   8
LEVEL022
   6
CONTINUOUS
  62
7
  10
 306.906
  20
 788.763
  30
0.0
  11
 296.906
  21
 788.763
  31
0.0
   0
LINE
   8
LEVEL022
   6
CONTINUOUS
  62
7
  10
 297.754
  20
 798.263
  30
0.0
  11
 306.057
  21
 798.263
  31
0.0
   0
LINE
   8
LEVEL022
   6
CONTINUOUS
  62
7
  10
 296.906
  20
 789.682
  30
0.0
  11
 288.906
  21
 789.932
  31
0.0
   0
LINE
   8
LEVEL022
   6
CONTINUOUS
  62
7
  10
 296.906
  20
 806.844
  30
0.0
  11
 288.906
  21
 806.594
  31
0.0
   0
POINT
   8
LEVEL022
  62
7
  10
 288.906
  20
 798.263
  30
0.0
   0
LINE
   8
LEVEL022
   6
CONTINUOUS
  62
7
  10
 275.087
  20
 806.596
  30
0.0
  11
 265.996
  21
 826.429
  31
0.0
   0
LINE
   8
LEVEL022
   6
CONTINUOUS
  62
7
  10
 238.725
  20
 789.929
  30
0.0
  11
 247.815
  21
 770.096
  31
0.0
   0
LINE
   8
LEVEL022
   6
CONTINUOUS
  62
7
  10
 238.725
  20
 806.596
  30
0.0
  11
 247.815
  21
 826.429
  31
0.0
   0
ARC
   8
LEVEL022
   6
CONTINUOUS
  62
7
  10
 256.906
  20
 798.263
  30
0.0
  40
 20.0000
  50
 335.376
  51
 24.6244
   0
ARC
   8
LEVEL022
   6
CONTINUOUS
  62
7
  10
 256.906
  20
 798.263
  30
0.0
  40
 20.0000
  50
 155.375
  51
 204.624
   0
ARC
   8
LEVEL022
   6
CONTINUOUS
  62
7
  10
 256.906
  20
 774.263
  30
0.0
  40
 10.0000
  50
 204.624
  51
 335.376
   0
ARC
   8
LEVEL022
   6
CONTINUOUS
  62
7
  10
 278.766
  20
 785.956
  30
0.0
  40
 5.00000
  50
 97.1244
  51
 155.376
   0
ARC
   8
LEVEL022
   6
CONTINUOUS
  62
7
  10
 283.906
  20
 792.645
  30
0.0
  40
 1.00000
  50
 277.124
  51
 0.173500E-2
   0
LINE
   8
LEVEL022
   6
CONTINUOUS
  62
7
  10
 284.030
  20
 791.653
  30
0.0
  11
 278.146
  21
 790.918
  31
0.0
   0
LINE
   8
LEVEL022
   6
CONTINUOUS
  62
7
  10
 275.087
  20
 789.929
  30
0.0
  11
 265.996
  21
 770.096
  31
0.0
   0
ARC
   8
LEVEL022
   6
CONTINUOUS
  62
7
  10
 283.906
  20
 803.880
  30
0.0
  40
 1.00000
  50
 0.176206E-2
  51
 82.8756
   0
LINE
   8
LEVEL022
   6
CONTINUOUS
  62
7
  10
 284.030
  20
 804.872
  30
0.0
  11
 278.146
  21
 805.608
  31
0.0
   0
ARC
   8
LEVEL022
   6
CONTINUOUS
  62
7
  10
 278.766
  20
 810.569
  30
0.0
  40
 5.00000
  50
 204.624
  51
 262.876
   0
LINE
   8
LEVEL022
   6
CONTINUOUS
  62
7
  10
 243.827
  20
 817.727
  30
0.0
  11
 243.277
  21
 817.727
  31
0.0
   0
LINE
   8
LEVEL022
   6
CONTINUOUS
  62
7
  10
 243.827
  20
 778.798
  30
0.0
  11
 243.277
  21
 778.798
  31
0.0
   0
LINE
   8
LEVEL022
   6
CONTINUOUS
  62
7
  10
 238.270
  20
 806.804
  30
0.0
  11
 243.277
  21
 817.727
  31
0.0
   0
LINE
   8
LEVEL022
   6
CONTINUOUS
  62
7
  10
 238.270
  20
 789.721
  30
0.0
  11
 243.277
  21
 778.798
  31
0.0
   0
ARC
   8
LEVEL022
   6
CONTINUOUS
  62
7
  10
 256.906
  20
 798.263
  30
0.0
  40
 20.5000
  50
 155.376
  51
 204.624
   0
LINE
   8
LEVEL022
   6
CONTINUOUS
  62
7
  10
 246.906
  20
 769.679
  30
0.0
  11
 237.816
  21
 789.513
  31
0.0
   0
LINE
   8
LEVEL022
   6
CONTINUOUS
  62
7
  10
 237.816
  20
 807.013
  30
0.0
  11
 246.906
  21
 826.846
  31
0.0
   0
LINE
   8
LEVEL022
   6
CONTINUOUS
  62
7
  10
 266.905
  20
 826.846
  30
0.0
  11
 275.996
  21
 807.013
  31
0.0
   0
ARC
   8
LEVEL022
   6
CONTINUOUS
  62
7
  10
 256.906
  20
 774.263
  30
0.0
  40
 11.0000
  50
 204.625
  51
 335.375
   0
POINT
   8
LEVEL022
  62
7
  10
 230.906
  20
 780.763
  30
0.0
   0
POINT
   8
LEVEL022
  62
7
  10
 230.906
  20
 815.763
  30
0.0
   0
ARC
   8
LEVEL022
   6
CONTINUOUS
  62
7
  10
 256.906
  20
 798.263
  30
0.0
  40
 21.0000
  50
 155.375
  51
 204.624
   0
ARC
   8
LEVEL022
   6
CONTINUOUS
  62
7
  10
 231.906
  20
 827.763
  30
0.0
  40
 1.00000
  50
 90.0000
  51
 180.000
   0
ARC
   8
LEVEL022
   6
CONTINUOUS
  62
7
  10
 231.906
  20
 768.763
  30
0.0
  40
 1.00000
  50
 180.000
  51
 270.000
   0
LINE
   8
LEVEL022
   6
CONTINUOUS
  62
7
  10
 230.906
  20
 827.763
  30
0.0
  11
 230.906
  21
 768.763
  31
0.0
   0
ARC
   8
LEVEL022
   6
CONTINUOUS
  62
7
  10
 246.622
  20
 831.763
  30
0.0
  40
 3.00000
  50
 270.000
  51
 317.268
   0
ARC
   8
LEVEL022
   6
CONTINUOUS
  62
7
  10
 246.622
  20
 764.763
  30
0.0
  40
 3.00000
  50
 42.7319
  51
 90.0000
   0
LINE
   8
LEVEL022
   6
CONTINUOUS
  62
7
  10
 246.622
  20
 767.763
  30
0.0
  11
 231.906
  21
 767.763
  31
0.0
   0
LINE
   8
LEVEL022
   6
CONTINUOUS
  62
7
  10
 246.622
  20
 828.763
  30
0.0
  11
 231.906
  21
 828.763
  31
0.0
   0
ARC
   8
LEVEL022
   6
CONTINUOUS
  62
7
  10
 287.906
  20
 810.263
  30
0.0
  40
 1.00000
  50
 0.651378E-10
  51
 90.0000
   0
ARC
   8
LEVEL022
   6
CONTINUOUS
  62
7
  10
 287.906
  20
 786.263
  30
0.0
  40
 1.00000
  50
 270.000
  51
0.0
   0
LINE
   8
LEVEL022
   6
CONTINUOUS
  62
7
  10
 288.906
  20
 810.263
  30
0.0
  11
 288.906
  21
 786.263
  31
0.0
   0
POINT
   8
LEVEL022
  62
7
  10
 288.906
  20
 798.263
  30
0.0
   0
ARC
   8
LEVEL022
   6
CONTINUOUS
  62
7
  10
 267.189
  20
 831.763
  30
0.0
  40
 3.00000
  50
 222.732
  51
 270.000
   0
ARC
   8
LEVEL022
   6
CONTINUOUS
  62
7
  10
 279.906
  20
 827.763
  30
0.0
  40
 1.00000
  50
0.0
  51
 90.0000
   0
LINE
   8
LEVEL022
   6
CONTINUOUS
  62
7
  10
 267.189
  20
 828.763
  30
0.0
  11
 279.906
  21
 828.763
  31
0.0
   0
ARC
   8
LEVEL022
   6
CONTINUOUS
  62
7
  10
 282.906
  20
 813.263
  30
0.0
  40
 2.00000
  50
 180.000
  51
 270.000
   0
LINE
   8
LEVEL022
   6
CONTINUOUS
  62
7
  10
 282.906
  20
 811.263
  30
0.0
  11
 287.906
  21
 811.263
  31
0.0
   0
LINE
   8
LEVEL022
   6
CONTINUOUS
  62
7
  10
 280.906
  20
 827.763
  30
0.0
  11
 280.906
  21
 813.263
  31
0.0
   0
POINT
   8
LEVEL022
  62
7
  10
 280.906
  20
 820.263
  30
0.0
   0
ARC
   8
LEVEL022
   6
CONTINUOUS
  62
7
  10
 275.973
  20
 782.263
  30
0.0
  40
 3.00000
  50
 89.9989
  51
 155.376
   0
LINE
   8
LEVEL022
   6
CONTINUOUS
  62
7
  10
 275.973
  20
 785.263
  30
0.0
  11
 287.906
  21
 785.263
  31
0.0
   0
LINE
   8
LEVEL022
   6
CONTINUOUS
  62
7
  10
 273.246
  20
 783.513
  30
0.0
  11
 266.905
  21
 769.679
  31
0.0
   0
LINE
   8
LEVEL022
   6
DASHDOT
  62
1
  10
 245.906
  20
 774.263
  30
0.0
  11
 267.906
  21
 774.263
  31
0.0
   0
ARC
   8
LEVEL022
   6
CONTINUOUS
  62
7
  10
 276.104
  20
 809.996
  30
0.0
  40
 10.0000
  50
 183.018
  51
 211.431
   0
ARC
   8
LEVEL022
   6
CONTINUOUS
  62
7
  10
 237.707
  20
 809.996
  30
0.0
  40
 10.0000
  50
 328.569
  51
 356.983
   0
LINE
   8
LEVEL022
   6
CONTINUOUS
  62
7
  10
 272.031
  20
 813.263
  30
0.0
  11
 265.918
  21
 813.263
  31
0.0
   0
LINE
   8
LEVEL022
   6
CONTINUOUS
  62
7
  10
 247.893
  20
 813.263
  30
0.0
  11
 241.780
  21
 813.263
  31
0.0
   0
ARC
   8
LEVEL022
   6
CONTINUOUS
  62
7
  10
 256.906
  20
 798.263
  30
0.0
  40
 14.0000
  50
 16.6010
  51
 48.4987
   0
ARC
   8
LEVEL022
   6
CONTINUOUS
  62
7
  10
 256.906
  20
 798.263
  30
0.0
  40
 14.0000
  50
 131.501
  51
 163.399
   0
ARC
   8
LEVEL022
   6
CONTINUOUS
  62
7
  10
 244.366
  20
 793.263
  30
0.0
  40
 1.00000
  50
 21.7379
  51
 90.0004
   0
ARC
   8
LEVEL022
   6
CONTINUOUS
  62
7
  10
 244.366
  20
 803.263
  30
0.0
  40
 1.00000
  50
 270.003
  51
 338.262
   0
ARC
   8
LEVEL022
   6
CONTINUOUS
  62
7
  10
 269.446
  20
 803.263
  30
0.0
  40
 1.00000
  50
 201.738
  51
 269.997
   0
ARC
   8
LEVEL022
   6
CONTINUOUS
  62
7
  10
 269.446
  20
 793.263
  30
0.0
  40
 1.00000
  50
 90.0031
  51
 158.262
   0
ARC
   8
LEVEL022
   6
CONTINUOUS
  62
7
  10
 247.544
  20
 783.477
  30
0.0
  40
 5.00000
  50
 29.9996
  51
 57.6603
   0
LINE
   8
LEVEL022
   6
CONTINUOUS
  62
7
  10
 255.174
  20
 780.263
  30
0.0
  11
 251.875
  21
 785.977
  31
0.0
   0
ARC
   8
LEVEL022
   6
CONTINUOUS
  62
7
  10
 266.267
  20
 783.477
  30
0.0
  40
 5.00000
  50
 122.338
  51
 150.000
   0
LINE
   8
LEVEL022
   6
CONTINUOUS
  62
7
  10
 258.638
  20
 780.263
  30
0.0
  11
 261.937
  21
 785.977
  31
0.0
   0
ARC
   8
LEVEL022
   6
CONTINUOUS
  62
7
  10
 256.906
  20
 781.263
  30
0.0
  40
 2.00000
  50
 210.000
  51
 330.000
   0
ARC
   8
LEVEL022
   6
CONTINUOUS
  62
7
  10
 256.906
  20
 774.263
  30
0.0
  40
 8.00000
  50
 109.193
  51
 70.8068
   0
ARC
   8
LEVEL022
   6
CONTINUOUS
  62
7
  10
 256.906
  20
 774.263
  30
0.0
  40
 7.13397
  50
 107.862
  51
 72.1377
   0
ARC
   8
LEVEL022
   6
CONTINUOUS
  62
7
  10
 256.906
  20
 798.263
  30
0.0
  40
 14.0000
  50
 196.602
  51
 251.410
   0
ARC
   8
LEVEL022
   6
CONTINUOUS
  62
7
  10
 256.906
  20
 798.263
  30
0.0
  40
 14.0000
  50
 288.590
  51
 343.398
   0
ARC
   8
LEVEL022
   6
CONTINUOUS
  62
7
  10
 256.906
  20
 798.263
  30
0.0
  40
 15.0000
  50
 127.723
  51
 255.573
   0
ARC
   8
LEVEL022
   6
CONTINUOUS
  62
7
  10
 256.906
  20
 798.263
  30
0.0
  40
 15.0000
  50
 284.427
  51
 52.2766
   0
LINE
   8
LEVEL022
   6
CONTINUOUS
  62
7
  10
 272.031
  20
 783.263
  30
0.0
  11
 260.370
  21
 783.263
  31
0.0
   0
LINE
   8
LEVEL022
   6
CONTINUOUS
  62
7
  10
 253.442
  20
 783.263
  30
0.0
  11
 241.780
  21
 783.263
  31
0.0
   0
ARC
   8
LEVEL022
   6
CONTINUOUS
  62
7
  10
 256.906
  20
 798.263
  30
0.0
  40
 12.5000
  50
 246.266
  51
 293.734
   0
ARC
   8
LEVEL022
   6
CONTINUOUS
  62
7
  10
 256.906
  20
 798.263
  30
0.0
  40
 12.5000
  50
 201.739
  51
 237.661
   0
ARC
   8
LEVEL022
   6
CONTINUOUS
  62
7
  10
 256.906
  20
 798.263
  30
0.0
  40
 12.5000
  50
 148.569
  51
 158.262
   0
ARC
   8
LEVEL022
   6
CONTINUOUS
  62
7
  10
 256.906
  20
 798.263
  30
0.0
  40
 12.5000
  50
 166.216
  51
 193.784
   0
ARC
   8
LEVEL022
   6
CONTINUOUS
  62
7
  10
 256.906
  20
 798.263
  30
0.0
  40
 12.5000
  50
 21.7380
  51
 31.4306
   0
ARC
   8
LEVEL022
   6
CONTINUOUS
  62
7
  10
 256.906
  20
 798.263
  30
0.0
  40
 12.5000
  50
 302.339
  51
 338.261
   0
ARC
   8
LEVEL022
   6
CONTINUOUS
  62
7
  10
 256.906
  20
 798.263
  30
0.0
  40
 12.5000
  50
 346.216
  51
 13.7843
   0
LINE
   8
LEVEL022
   6
DASHDOT
  62
1
  10
 245.906
  20
 822.263
  30
0.0
  11
 267.906
  21
 822.263
  31
0.0
   0
ARC
   8
LEVEL022
   6
CONTINUOUS
  62
7
  10
 273.025
  20
 868.423
  30
0.0
  40
 10.0000
  50
 143.703
  51
 183.017
   0
ARC
   8
LEVEL022
   6
CONTINUOUS
  62
7
  10
 240.787
  20
 868.423
  30
0.0
  40
 10.0000
  50
 356.983
  51
 36.2973
   0
LINE
   8
LEVEL022
   6
CONTINUOUS
  62
7
  10
 247.693
  20
 809.470
  30
0.0
  11
 250.773
  21
 867.897
  31
0.0
   0
LINE
   8
LEVEL022
   6
CONTINUOUS
  62
7
  10
 263.039
  20
 867.897
  30
0.0
  11
 266.118
  21
 809.469
  31
0.0
   0
ARC
   8
LEVEL022
   6
CONTINUOUS
  62
7
  10
 256.906
  20
 880.263
  30
0.0
  40
 10.0000
  50
 239.793
  51
 300.207
   0
ARC
   8
LEVEL022
   6
CONTINUOUS
  62
7
  10
 256.906
  20
 880.263
  30
0.0
  40
 10.0000
  50
 323.703
  51
 216.297
   0
LINE
   8
LEVEL022
   6
DASHDOT
  62
1
  10
 256.906
  20
 758.263
  30
0.0
  11
 256.906
  21
 893.263
  31
0.0
   0
LINE
   8
LEVEL022
   6
DASHDOT
  62
1
  10
 270.906
  20
 880.263
  30
0.0
  11
 242.906
  21
 880.263
  31
0.0
   0
LINE
   8
LEVEL022
   6
DASHDOT
  62
1
  10
 230.906
  20
 815.763
  30
0.0
  11
 245.906
  21
 815.763
  31
0.0
   0
LINE
   8
LEVEL022
   6
DASHDOT
  62
1
  10
 230.906
  20
 780.763
  30
0.0
  11
 245.906
  21
 780.763
  31
0.0
   0
ARC
   8
LEVEL022
   6
CONTINUOUS
  62
7
  10
 256.906
  20
 822.263
  30
0.0
  40
 10.0000
  50
 24.6247
  51
 34.5185
   0
ARC
   8
LEVEL022
   6
CONTINUOUS
  62
7
  10
 256.906
  20
 822.263
  30
0.0
  40
 10.0000
  50
 145.483
  51
 155.377
   0
TEXT
   8
LEVEL022
  62
7
  10
 232.906
  20
 783.263
  30
0.0
  40
 5.00000
   1
Ｂ
  50
 270.000
   7
STANDARD
  72
1
  11
 232.906
  21
 780.763
  31
0.0
   0
TEXT
   8
LEVEL022
  62
7
  10
 232.906
  20
 818.263
  30
0.0
  40
 5.00000
   1
Ａ
  50
 270.000
   7
STANDARD
  72
1
  11
 232.906
  21
 815.763
  31
0.0
   0
TEXT
   8
LEVEL022
  62
7
  10
 278.906
  20
 817.763
  30
0.0
  40
 5.00000
   1
Ｔ
  50
 90.0000
   7
STANDARD
  72
1
  11
 278.906
  21
 820.263
  31
0.0
   0
TEXT
   8
LEVEL022
  62
7
  10
 286.906
  20
 795.763
  30
0.0
  40
 5.00000
   1
Ｐ
  50
 90.0000
   7
STANDARD
  72
1
  11
 286.906
  21
 798.263
  31
0.0
   0
LINE
   8
LEVEL022
   6
CONTINUOUS
  62
7
  10
 310.906
  20
 813.263
  30
0.0
  11
 310.906
  21
 827.263
  31
0.0
   0
LINE
   8
LEVEL022
   6
CONTINUOUS
  62
7
  10
 310.906
  20
 827.263
  30
0.0
  11
 303.906
  21
 827.263
  31
0.0
   0
LINE
   8
LEVEL022
   6
CONTINUOUS
  62
7
  10
 303.906
  20
 827.263
  30
0.0
  11
 303.906
  21
 813.263
  31
0.0
   0
LINE
   8
LEVEL022
   6
CONTINUOUS
  62
7
  10
 303.906
  20
 813.263
  30
0.0
  11
 310.906
  21
 813.263
  31
0.0
   0
ARC
   8
LEVEL022
   6
CONTINUOUS
  62
7
  10
 314.015
  20
 816.763
  30
0.0
  40
 10.1093
  50
 159.744
  51
 200.256
   0
ARC
   8
LEVEL022
   6
CONTINUOUS
  62
7
  10
 314.015
  20
 823.763
  30
0.0
  40
 10.1093
  50
 159.744
  51
 200.256
   0
LINE
   8
LEVEL022
   6
CONTINUOUS
  62
3
  10
 281.906
  20
 826.017
  30
0.0
  11
 281.906
  21
 814.509
  31
0.0
   0
ARC
   8
LEVEL022
   6
CONTINUOUS
  62
7
  10
 290.406
  20
 824.263
  30
0.0
  40
 0.500000
  50
 180.000
  51
 270.000
   0
ARC
   8
LEVEL022
   6
CONTINUOUS
  62
7
  10
 290.406
  20
 816.263
  30
0.0
  40
 0.500000
  50
 90.0000
  51
 180.000
   0
LINE
   8
LEVEL022
   6
CONTINUOUS
  62
7
  10
 290.406
  20
 823.763
  30
0.0
  11
 303.906
  21
 823.763
  31
0.0
   0
LINE
   8
LEVEL022
   6
CONTINUOUS
  62
7
  10
 290.406
  20
 816.763
  30
0.0
  11
 303.906
  21
 816.763
  31
0.0
   0
LINE
   8
LEVEL022
   6
CONTINUOUS
  62
7
  10
 289.906
  20
 813.263
  30
0.0
  11
 289.906
  21
 827.263
  31
0.0
   0
LINE
   8
LEVEL022
   6
CONTINUOUS
  62
7
  10
 289.906
  20
 827.263
  30
0.0
  11
 284.906
  21
 827.263
  31
0.0
   0
LINE
   8
LEVEL022
   6
CONTINUOUS
  62
7
  10
 284.906
  20
 827.263
  30
0.0
  11
 284.906
  21
 813.263
  31
0.0
   0
LINE
   8
LEVEL022
   6
CONTINUOUS
  62
7
  10
 284.906
  20
 813.263
  30
0.0
  11
 289.906
  21
 813.263
  31
0.0
   0
LINE
   8
LEVEL022
   6
CONTINUOUS
  62
7
  10
 289.281
  20
 820.263
  30
0.0
  11
 285.531
  21
 820.263
  31
0.0
   0
ARC
   8
LEVEL022
   6
CONTINUOUS
  62
7
  10
 295.015
  20
 823.763
  30
0.0
  40
 10.1093
  50
 159.744
  51
 200.256
   0
ARC
   8
LEVEL022
   6
CONTINUOUS
  62
7
  10
 295.015
  20
 816.763
  30
0.0
  40
 10.1093
  50
 159.744
  51
 200.256
   0
LINE
   8
LEVEL022
   6
CONTINUOUS
  62
7
  10
 280.906
  20
 813.684
  30
0.0
  11
 284.906
  21
 813.559
  31
0.0
   0
LINE
   8
LEVEL022
   6
CONTINUOUS
  62
7
  10
 280.906
  20
 826.841
  30
0.0
  11
 284.906
  21
 826.966
  31
0.0
   0
POINT
   8
LEVEL022
  62
7
  10
 280.906
  20
 820.263
  30
0.0
   0
LINE
   8
LEVEL022
   6
DASHDOT
  62
1
  10
 265.444
  20
 820.263
  30
0.0
  11
 323.906
  21
 820.263
  31
0.0
   0
LINE
   8
LEVEL022
   6
DASHDOT
  62
1
  10
 314.906
  20
 798.263
  30
0.0
  11
 226.906
  21
 798.263
  31
0.0
   0
ARC
   8
LEVEL022
   6
DASHDOT
  62
1
  10
 295.119
  20
 859.272
  30
0.0
  40
 10.0000
  50
 311.983
  51
 351.297
   0
LINE
   8
LEVEL022
   6
DASHDOT
  62
1
  10
 283.502
  20
 835.366
  30
0.0
  11
 301.808
  21
 851.838
  31
0.0
   0
LINE
   8
LEVEL022
   6
DASHDOT
  62
1
  10
 310.481
  20
 843.165
  30
0.0
  11
 294.009
  21
 824.859
  31
0.0
   0
LINE
   8
LEVEL022
   6
DASHDOT
  62
1
  10
 289.186
  20
 830.543
  30
0.0
  11
 324.081
  21
 865.438
  31
0.0
   0
ARC
   8
LEVEL022
   6
DASHDOT
  62
1
  10
 218.693
  20
 859.272
  30
0.0
  40
 10.0000
  50
 188.703
  51
 228.017
   0
ARC
   8
LEVEL022
   6
DASHDOT
  62
1
  10
 195.897
  20
 836.476
  30
0.0
  40
 10.0000
  50
 41.9827
  51
 81.2970
   0
ARC
   8
LEVEL022
   6
DASHDOT
  62
1
  10
 198.923
  20
 856.245
  30
0.0
  40
 10.0000
  50
 284.793
  51
 345.207
   0
ARC
   8
LEVEL022
   6
DASHDOT
  62
1
  10
 198.923
  20
 856.245
  30
0.0
  40
 10.0000
  50
 8.70245
  51
 261.297
   0
LINE
   8
LEVEL022
   6
DASHDOT
  62
1
  10
 208.823
  20
 866.145
  30
0.0
  11
 189.023
  21
 846.346
  31
0.0
   0
LINE
   8
LEVEL022
   6
DASHDOT
  62
1
  10
 212.004
  20
 851.838
  30
0.0
  11
 230.309
  21
 835.366
  31
0.0
   0
LINE
   8
LEVEL022
   6
DASHDOT
  62
1
  10
 219.803
  20
 824.859
  30
0.0
  11
 203.330
  21
 843.165
  31
0.0
   0
LINE
   8
LEVEL022
   6
DASHDOT
  62
1
  10
 224.626
  20
 830.543
  30
0.0
  11
 189.731
  21
 865.438
  31
0.0
   0
LINE
   8
LEVEL022
   6
CONTINUOUS
  62
3
  10
 296.906
  20
 806.844
  30
0.0
  11
 293.289
  21
 805.875
  31
0.0
   0
LINE
   8
LEVEL022
   6
CONTINUOUS
  62
3
  10
 293.289
  20
 805.875
  30
0.0
  11
 288.906
  21
 805.738
  31
0.0
   0
LINE
   8
LEVEL022
   6
CONTINUOUS
  62
3
  10
 288.906
  20
 790.788
  30
0.0
  11
 293.289
  21
 790.651
  31
0.0
   0
LINE
   8
LEVEL022
   6
CONTINUOUS
  62
3
  10
 293.289
  20
 790.651
  30
0.0
  11
 296.906
  21
 789.682
  31
0.0
   0
LINE
   8
LEVEL022
   6
CONTINUOUS
  62
3
  10
 280.906
  20
 825.985
  30
0.0
  11
 281.906
  21
 826.017
  31
0.0
   0
LINE
   8
LEVEL022
   6
CONTINUOUS
  62
3
  10
 281.906
  20
 826.017
  30
0.0
  11
 284.906
  21
 826.966
  31
0.0
   0
LINE
   8
LEVEL022
   6
CONTINUOUS
  62
3
  10
 280.906
  20
 814.540
  30
0.0
  11
 281.906
  21
 814.509
  31
0.0
   0
LINE
   8
LEVEL022
   6
CONTINUOUS
  62
3
  10
 281.906
  20
 814.509
  30
0.0
  11
 284.906
  21
 813.559
  31
0.0
   0
LINE
   8
LEVEL022
   6
CONTINUOUS
  62
7
  10
 269.446
  20
 802.263
  30
0.0
  11
 270.906
  21
 802.263
  31
0.0
   0
LINE
   8
LEVEL022
   6
CONTINUOUS
  62
7
  10
 270.906
  20
 802.263
  30
0.0
  11
 270.906
  21
 794.263
  31
0.0
   0
LINE
   8
LEVEL022
   6
CONTINUOUS
  62
7
  10
 270.906
  20
 794.263
  30
0.0
  11
 269.446
  21
 794.263
  31
0.0
   0
LINE
   8
LEVEL022
   6
CONTINUOUS
  62
7
  10
 244.366
  20
 802.263
  30
0.0
  11
 242.906
  21
 802.263
  31
0.0
   0
LINE
   8
LEVEL022
   6
CONTINUOUS
  62
7
  10
 242.906
  20
 802.263
  30
0.0
  11
 242.906
  21
 794.263
  31
0.0
   0
LINE
   8
LEVEL022
   6
CONTINUOUS
  62
7
  10
 242.906
  20
 794.263
  30
0.0
  11
 244.366
  21
 794.263
  31
0.0
   0
ARC
   8
LEVEL022
   6
CONTINUOUS
  62
7
  10
 256.906
  20
 822.263
  30
0.0
  40
 11.0000
  50
 24.6247
  51
 42.2014
   0
ARC
   8
LEVEL022
   6
CONTINUOUS
  62
7
  10
 256.906
  20
 822.263
  30
0.0
  40
 11.0000
  50
 137.799
  51
 155.375
   0
LINE
   8
LEVEL022
   6
CONTINUOUS
  62
7
  10
 274.214
  20
 808.500
  30
0.0
  11
 271.906
  21
 806.192
  31
0.0
   0
LINE
   8
LEVEL022
   6
CONTINUOUS
  62
7
  10
 271.906
  20
 806.192
  30
0.0
  11
 271.511
  21
 801.681
  31
0.0
   0
LINE
   8
LEVEL022
   6
CONTINUOUS
  62
7
  10
 239.597
  20
 808.500
  30
0.0
  11
 241.906
  21
 806.192
  31
0.0
   0
LINE
   8
LEVEL022
   6
CONTINUOUS
  62
7
  10
 241.906
  20
 806.192
  30
0.0
  11
 242.300
  21
 801.681
  31
0.0
   0
LINE
   8
LEVEL022
   6
CONTINUOUS
  62
7
  10
 239.597
  20
 788.025
  30
0.0
  11
 241.906
  21
 790.334
  31
0.0
   0
LINE
   8
LEVEL022
   6
CONTINUOUS
  62
7
  10
 241.906
  20
 790.334
  30
0.0
  11
 242.300
  21
 794.845
  31
0.0
   0
LINE
   8
LEVEL022
   6
CONTINUOUS
  62
7
  10
 271.511
  20
 794.845
  30
0.0
  11
 271.906
  21
 790.334
  31
0.0
   0
LINE
   8
LEVEL022
   6
CONTINUOUS
  62
7
  10
 271.906
  20
 790.334
  30
0.0
  11
 274.214
  21
 788.025
  31
0.0
   0
LINE
   8
LEVEL022
   6
CONTINUOUS
  62
7
  10
 256.906
  20
 769.644
  30
0.0
  11
 252.906
  21
 771.953
  31
0.0
   0
LINE
   8
LEVEL022
   6
CONTINUOUS
  62
7
  10
 252.906
  20
 771.953
  30
0.0
  11
 252.906
  21
 776.572
  31
0.0
   0
LINE
   8
LEVEL022
   6
CONTINUOUS
  62
7
  10
 252.906
  20
 776.572
  30
0.0
  11
 256.906
  21
 778.882
  31
0.0
   0
LINE
   8
LEVEL022
   6
CONTINUOUS
  62
7
  10
 256.906
  20
 778.882
  30
0.0
  11
 260.906
  21
 776.572
  31
0.0
   0
LINE
   8
LEVEL022
   6
CONTINUOUS
  62
7
  10
 260.906
  20
 776.572
  30
0.0
  11
 260.906
  21
 771.953
  31
0.0
   0
LINE
   8
LEVEL022
   6
CONTINUOUS
  62
7
  10
 260.906
  20
 771.953
  30
0.0
  11
 256.906
  21
 769.644
  31
0.0
   0
LINE
   8
LEVEL022
   6
CONTINUOUS
  62
7
  10
 284.906
  20
 803.880
  30
0.0
  11
 284.906
  21
 792.645
  31
0.0
   0
ARC
   8
LEVEL022
   6
CONTINUOUS
  62
7
  10
 279.796
  20
 823.763
  30
0.0
  40
 10.1093
  50
 339.744
  51
 20.2558
   0
ARC
   8
LEVEL022
   6
CONTINUOUS
  62
7
  10
 279.796
  20
 816.763
  30
0.0
  40
 10.1093
  50
 339.744
  51
 20.2560
   0
TEXT
   8
LEVEL003
  62
3
  10
 154.906
  20
 898.263
  30
0.0
  40
 16.0000
   1
Ｂ
   7
STANDARD
   0
LINE
   8
LEVEL003
   6
CONTINUOUS
  62
3
  10
 346.749
  20
 848.263
  30
0.0
  11
 176.449
  21
 848.263
  31
0.0
   0
LINE
   8
LEVEL003
   6
CONTINUOUS
  62
3
  10
 222.906
  20
 805.263
  30
0.0
  11
 176.449
  21
 805.263
  31
0.0
   0
LINE
   8
LEVEL003
   6
CONTINUOUS
  62
3
  10
 184.449
  20
 848.263
  30
0.0
  11
 184.449
  21
 805.263
  31
0.0
   0
LINE
   8
LEVEL003
   6
CONTINUOUS
  62
3
  10
 184.449
  20
 848.263
  30
0.0
  11
 182.333
  21
 836.263
  31
0.0
   0
LINE
   8
LEVEL003
   6
CONTINUOUS
  62
3
  10
 184.449
  20
 848.263
  30
0.0
  11
 186.565
  21
 836.263
  31
0.0
   0
LINE
   8
LEVEL003
   6
CONTINUOUS
  62
3
  10
 184.449
  20
 805.263
  30
0.0
  11
 186.565
  21
 817.263
  31
0.0
   0
LINE
   8
LEVEL003
   6
CONTINUOUS
  62
3
  10
 184.449
  20
 805.263
  30
0.0
  11
 182.333
  21
 817.263
  31
0.0
   0
TEXT
   8
LEVEL003
  62
3
  10
 181.249
  20
 818.763
  30
0.0
  40
 16.0000
   1
43
  50
 90.0000
  41
 0.500000
   7
STANDARD
  72
1
  11
 181.249
  21
 826.763
  31
0.0
   0
LINE
   8
LEVEL003
   6
CONTINUOUS
  62
3
  10
 222.906
  20
 805.263
  30
0.0
  11
 176.449
  21
 805.263
  31
0.0
   0
LINE
   8
LEVEL003
   6
CONTINUOUS
  62
3
  10
 347.532
  20
 753.263
  30
0.0
  11
 176.449
  21
 753.263
  31
0.0
   0
LINE
   8
LEVEL003
   6
CONTINUOUS
  62
3
  10
 184.449
  20
 805.263
  30
0.0
  11
 184.449
  21
 753.263
  31
0.0
   0
LINE
   8
LEVEL003
   6
CONTINUOUS
  62
3
  10
 184.449
  20
 805.263
  30
0.0
  11
 182.333
  21
 793.263
  31
0.0
   0
LINE
   8
LEVEL003
   6
CONTINUOUS
  62
3
  10
 184.449
  20
 805.263
  30
0.0
  11
 186.565
  21
 793.263
  31
0.0
   0
LINE
   8
LEVEL003
   6
CONTINUOUS
  62
3
  10
 184.449
  20
 753.263
  30
0.0
  11
 186.565
  21
 765.263
  31
0.0
   0
LINE
   8
LEVEL003
   6
CONTINUOUS
  62
3
  10
 184.449
  20
 753.263
  30
0.0
  11
 182.333
  21
 765.263
  31
0.0
   0
TEXT
   8
LEVEL003
  62
3
  10
 181.249
  20
 771.263
  30
0.0
  40
 16.0000
   1
52
  50
 90.0000
  41
 0.500000
   7
STANDARD
  72
1
  11
 181.249
  21
 779.263
  31
0.0
   0
LINE
   8
LEVEL003
   6
CONTINUOUS
  62
3
  10
 346.749
  20
 848.263
  30
0.0
  11
 136.449
  21
 848.263
  31
0.0
   0
LINE
   8
LEVEL003
   6
CONTINUOUS
  62
3
  10
 347.532
  20
 753.263
  30
0.0
  11
 136.449
  21
 753.263
  31
0.0
   0
LINE
   8
LEVEL003
   6
CONTINUOUS
  62
3
  10
 144.449
  20
 848.263
  30
0.0
  11
 144.449
  21
 753.263
  31
0.0
   0
LINE
   8
LEVEL003
   6
CONTINUOUS
  62
3
  10
 144.449
  20
 848.263
  30
0.0
  11
 142.333
  21
 836.263
  31
0.0
   0
LINE
   8
LEVEL003
   6
CONTINUOUS
  62
3
  10
 144.449
  20
 848.263
  30
0.0
  11
 146.565
  21
 836.263
  31
0.0
   0
LINE
   8
LEVEL003
   6
CONTINUOUS
  62
3
  10
 144.449
  20
 753.263
  30
0.0
  11
 146.565
  21
 765.263
  31
0.0
   0
LINE
   8
LEVEL003
   6
CONTINUOUS
  62
3
  10
 144.449
  20
 753.263
  30
0.0
  11
 142.333
  21
 765.263
  31
0.0
   0
TEXT
   8
LEVEL003
  62
3
  10
 141.249
  20
 792.763
  30
0.0
  40
 16.0000
   1
95
  50
 90.0000
  41
 0.500000
   7
STANDARD
  72
1
  11
 141.249
  21
 800.763
  31
0.0
   0
ARC
   8
LEVEL022
   6
DASHDOT
  62
1
  10
 314.889
  20
 856.245
  30
0.0
  40
 10.0000
  50
 194.793
  51
 255.207
   0
ARC
   8
LEVEL022
   6
DASHDOT
  62
1
  10
 314.889
  20
 856.246
  30
0.0
  40
 10.0000
  50
 278.702
  51
 171.297
   0
LINE
   8
LEVEL022
   6
DASHDOT
  62
1
  10
 324.788
  20
 846.346
  30
0.0
  11
 304.989
  21
 866.145
  31
0.0
   0
ARC
   8
LEVEL022
   6
DASHDOT
  62
1
  10
 317.915
  20
 836.476
  30
0.0
  40
 10.0000
  50
 98.7026
  51
 138.017
   0
LINE
   8
LEVEL022
   6
CONTINUOUS
  62
7
  10
 306.906
  20
 789.682
  30
0.0
  11
 314.906
  21
 789.932
  31
0.0
   0
LINE
   8
LEVEL022
   6
CONTINUOUS
  62
7
  10
 306.906
  20
 806.844
  30
0.0
  11
 314.906
  21
 806.594
  31
0.0
   0
ARC
   8
LEVEL022
   6
CONTINUOUS
  62
7
  10
 293.186
  20
 793.513
  30
0.0
  40
 13.7196
  50
 339.744
  51
 20.2563
   0
ARC
   8
LEVEL022
   6
CONTINUOUS
  62
7
  10
 293.186
  20
 803.013
  30
0.0
  40
 13.7196
  50
 339.744
  51
 20.2563
   0
LINE
   8
LEVEL022
   6
CONTINUOUS
  62
7
  10
 310.281
  20
 820.263
  30
0.0
  11
 304.531
  21
 820.263
  31
0.0
   0
LINE
   8
LEVEL022
   6
CONTINUOUS
  62
7
  10
 314.906
  20
 813.684
  30
0.0
  11
 310.906
  21
 813.559
  31
0.0
   0
LINE
   8
LEVEL022
   6
CONTINUOUS
  62
7
  10
 314.906
  20
 826.841
  30
0.0
  11
 310.906
  21
 826.966
  31
0.0
   0
ARC
   8
LEVEL022
   6
CONTINUOUS
  62
7
  10
 300.797
  20
 816.763
  30
0.0
  40
 10.1093
  50
 339.744
  51
 20.2560
   0
ARC
   8
LEVEL022
   6
CONTINUOUS
  62
7
  10
 300.797
  20
 823.763
  30
0.0
  40
 10.1093
  50
 339.744
  51
 20.2558
   0
LINE
   8
LEVEL022
   6
CONTINUOUS
  62
3
  10
 306.906
  20
 789.682
  30
0.0
  11
 310.522
  21
 790.651
  31
0.0
   0
LINE
   8
LEVEL022
   6
CONTINUOUS
  62
3
  10
 310.522
  20
 790.651
  30
0.0
  11
 314.906
  21
 790.788
  31
0.0
   0
LINE
   8
LEVEL022
   6
CONTINUOUS
  62
3
  10
 306.906
  20
 806.844
  30
0.0
  11
 310.522
  21
 805.875
  31
0.0
   0
LINE
   8
LEVEL022
   6
CONTINUOUS
  62
3
  10
 310.522
  20
 805.875
  30
0.0
  11
 314.906
  21
 805.738
  31
0.0
   0
LINE
   8
LEVEL022
   6
CONTINUOUS
  62
3
  10
 310.522
  20
 790.651
  30
0.0
  11
 310.522
  21
 805.875
  31
0.0
   0
LINE
   8
LEVEL022
   6
CONTINUOUS
  62
3
  10
 313.906
  20
 826.017
  30
0.0
  11
 313.906
  21
 814.509
  31
0.0
   0
LINE
   8
LEVEL022
   6
CONTINUOUS
  62
3
  10
 310.906
  20
 826.966
  30
0.0
  11
 313.906
  21
 826.017
  31
0.0
   0
LINE
   8
LEVEL022
   6
CONTINUOUS
  62
3
  10
 313.906
  20
 826.017
  30
0.0
  11
 314.906
  21
 825.985
  31
0.0
   0
LINE
   8
LEVEL022
   6
CONTINUOUS
  62
3
  10
 314.906
  20
 814.540
  30
0.0
  11
 313.906
  21
 814.509
  31
0.0
   0
LINE
   8
LEVEL022
   6
CONTINUOUS
  62
3
  10
 313.906
  20
 814.509
  30
0.0
  11
 310.906
  21
 813.559
  31
0.0
   0
LINE
   8
LEVEL003
   6
CONTINUOUS
  62
3
  10
 330.951
  20
 887.690
  30
0.0
  11
 311.256
  21
 955.781
  31
0.0
   0
LINE
   8
LEVEL003
   6
CONTINUOUS
  62
3
  10
 311.256
  20
 955.781
  30
0.0
  11
 191.956
  21
 955.781
  31
0.0
   0
LINE
   8
LEVEL003
   6
CONTINUOUS
  62
3
  10
 330.951
  20
 887.690
  30
0.0
  11
 329.867
  21
 897.786
  31
0.0
   0
LINE
   8
LEVEL003
   6
CONTINUOUS
  62
3
  10
 330.951
  20
 887.690
  30
0.0
  11
 326.479
  21
 896.806
  31
0.0
   0
TEXT
   8
LEVEL003
  62
3
  10
 196.363
  20
 957.460
  30
0.0
  40
 16.0000
   1
レリースバルブ
   7
STANDARD
   0
TEXT
   8
LEVEL003
  62
3
  10
 27.4235
  20
 499.841
  30
0.0
  40
 16.0000
   1
Ｒｃ３／８
   7
STANDARD
   0
TEXT
   8
LEVEL003
  62
3
  10
 27.4235
  20
 478.507
  30
0.0
  40
 16.0000
   1
　（Ａ）
   7
STANDARD
   0
TEXT
   8
LEVEL003
  62
3
  10
 204.696
  20
 501.250
  30
0.0
  40
 16.0000
   1
Ｒｃ３／８
   7
STANDARD
   0
TEXT
   8
LEVEL003
  62
3
  10
 204.696
  20
 479.917
  30
0.0
  40
 16.0000
   1
　（Ｂ）
   7
STANDARD
   0
POINT
   8
LEVEL001
  62
7
  10
 313.769
  20
 353.344
  30
0.0
   0
LINE
   8
LEVEL003
   6
CONTINUOUS
  62
3
  10
 174.200
  20
 359.523
  30
0.0
  11
 204.696
  21
 501.250
  31
0.0
   0
LINE
   8
LEVEL003
   6
CONTINUOUS
  62
3
  10
 204.696
  20
 501.250
  30
0.0
  11
 286.798
  21
 501.250
  31
0.0
   0
LINE
   8
LEVEL003
   6
CONTINUOUS
  62
3
  10
 174.200
  20
 359.523
  30
0.0
  11
 178.793
  21
 370.810
  31
0.0
   0
LINE
   8
LEVEL003
   6
CONTINUOUS
  62
3
  10
 174.200
  20
 359.523
  30
0.0
  11
 174.656
  21
 371.700
  31
0.0
   0
LINE
   8
LEVEL003
   6
CONTINUOUS
  62
3
  10
 135.589
  20
 359.500
  30
0.0
  11
 103.418
  21
 500.121
  31
0.0
   0
LINE
   8
LEVEL003
   6
CONTINUOUS
  62
3
  10
 103.418
  20
 500.121
  30
0.0
  11
 26.4479
  21
 500.121
  31
0.0
   0
LINE
   8
LEVEL003
   6
CONTINUOUS
  62
3
  10
 135.589
  20
 359.500
  30
0.0
  11
 134.976
  21
 371.670
  31
0.0
   0
LINE
   8
LEVEL003
   6
CONTINUOUS
  62
3
  10
 135.589
  20
 359.500
  30
0.0
  11
 130.850
  21
 370.726
  31
0.0
   0
LINE
   8
LEVEL003
   6
CONTINUOUS
  62
3
  10
 63.0909
  20
 422.687
  30
0.0
  11
 63.0909
  21
 252.000
  31
0.0
   0
LINE
   8
LEVEL003
   6
CONTINUOUS
  62
3
  10
 199.947
  20
 301.000
  30
0.0
  11
 199.947
  21
 252.000
  31
0.0
   0
LINE
   8
LEVEL003
   6
CONTINUOUS
  62
3
  10
 63.0909
  20
 260.000
  30
0.0
  11
 199.947
  21
 260.000
  31
0.0
   0
LINE
   8
LEVEL003
   6
CONTINUOUS
  62
3
  10
 63.0909
  20
 260.000
  30
0.0
  11
 75.0909
  21
 257.884
  31
0.0
   0
LINE
   8
LEVEL003
   6
CONTINUOUS
  62
3
  10
 63.0909
  20
 260.000
  30
0.0
  11
 75.0909
  21
 262.116
  31
0.0
   0
LINE
   8
LEVEL003
   6
CONTINUOUS
  62
3
  10
 199.947
  20
 260.000
  30
0.0
  11
 187.947
  21
 262.116
  31
0.0
   0
LINE
   8
LEVEL003
   6
CONTINUOUS
  62
3
  10
 199.947
  20
 260.000
  30
0.0
  11
 187.947
  21
 257.884
  31
0.0
   0
TEXT
   8
LEVEL003
  62
3
  10
 111.519
  20
 263.200
  30
0.0
  40
 16.0000
   1
約140
   7
STANDARD
  72
1
  11
 131.519
  21
 263.200
  31
0.0
   0
LINE
   8
LEVEL003
   6
CONTINUOUS
  62
3
  10
 276.235
  20
 410.649
  30
0.0
  11
 314.872
  21
 524.844
  31
0.0
   0
LINE
   8
LEVEL003
   6
CONTINUOUS
  62
3
  10
 276.235
  20
 410.649
  30
0.0
  11
 282.085
  21
 421.338
  31
0.0
   0
LINE
   8
LEVEL003
   6
CONTINUOUS
  62
3
  10
 276.235
  20
 410.649
  30
0.0
  11
 278.076
  21
 422.695
  31
0.0
   0
TEXT
   8
LEVEL003
  62
3
  10
 311.200
  20
 530.400
  30
0.0
  40
 16.4571
   1
2
  41
 0.500000
   7
STANDARD
   0
CIRCLE
   8
LEVEL003
   6
CONTINUOUS
  62
3
  10
 320.000
  20
 540.000
  30
0.0
  40
 16.0000
   0
LINE
   8
LEVEL003
   6
CONTINUOUS
  62
3
  10
 370.716
  20
 446.864
  30
0.0
  11
 361.829
  21
 524.105
  31
0.0
   0
LINE
   8
LEVEL003
   6
CONTINUOUS
  62
3
  10
 370.716
  20
 446.864
  30
0.0
  11
 371.447
  21
 459.027
  31
0.0
   0
LINE
   8
LEVEL003
   6
CONTINUOUS
  62
3
  10
 370.716
  20
 446.864
  30
0.0
  11
 367.243
  21
 458.543
  31
0.0
   0
TEXT
   8
LEVEL003
  62
3
  10
 351.200
  20
 530.400
  30
0.0
  40
 16.4571
   1
1
  41
 0.500000
   7
STANDARD
   0
CIRCLE
   8
LEVEL003
   6
CONTINUOUS
  62
3
  10
 360.000
  20
 540.000
  30
0.0
  40
 16.0000
   0
TEXT
   8
LEVEL003
  62
3
  10
 415.000
  20
 880.000
  30
0.0
  40
 16.0000
   1
低圧安全弁
   7
STANDARD
   0
TEXT
   8
LEVEL003
  62
3
  10
 435.000
  20
 720.000
  30
0.0
  40
 16.0000
   1
サクション＆デリベリ（低圧）
   7
STANDARD
   0
TEXT
   8
LEVEL003
  62
3
  10
 435.000
  20
 680.000
  30
0.0
  40
 16.0000
   1
サクション＆デリベリ（高圧）
   7
STANDARD
   0
TEXT
   8
LEVEL003
  62
3
  10
 415.000
  20
 920.000
  30
0.0
  40
 16.0000
   1
高圧安全弁
   7
STANDARD
   0
LINE
   8
LEVEL001
   6
CONTINUOUS
  62
3
  10
 377.785
  20
 769.026
  30
0.0
  11
 377.785
  21
 769.263
  31
0.0
   0
LINE
   8
LEVEL001
   6
CONTINUOUS
  62
3
  10
 377.785
  20
 769.026
  30
0.0
  11
 377.785
  21
 769.263
  31
0.0
   0
LINE
   8
LEVEL001
   6
CONTINUOUS
  62
3
  10
 377.781
  20
 769.026
  30
0.0
  11
 377.781
  21
 769.263
  31
0.0
   0
LINE
   8
LEVEL003
   6
CONTINUOUS
  62
3
  10
 359.638
  20
 841.034
  30
0.0
  11
 411.527
  21
 919.654
  31
0.0
   0
LINE
   8
LEVEL003
   6
CONTINUOUS
  62
3
  10
 411.527
  20
 919.654
  30
0.0
  11
 499.382
  21
 919.654
  31
0.0
   0
LINE
   8
LEVEL003
   6
CONTINUOUS
  62
3
  10
 359.638
  20
 841.034
  30
0.0
  11
 368.014
  21
 849.884
  31
0.0
   0
LINE
   8
LEVEL003
   6
CONTINUOUS
  62
3
  10
 359.638
  20
 841.034
  30
0.0
  11
 364.482
  21
 852.215
  31
0.0
   0
LINE
   8
LEVEL003
   6
CONTINUOUS
  62
3
  10
 380.452
  20
 840.177
  30
0.0
  11
 413.472
  21
 878.915
  31
0.0
   0
LINE
   8
LEVEL003
   6
CONTINUOUS
  62
3
  10
 413.472
  20
 878.915
  30
0.0
  11
 498.381
  21
 878.915
  31
0.0
   0
LINE
   8
LEVEL003
   6
CONTINUOUS
  62
3
  10
 380.452
  20
 840.177
  30
0.0
  11
 389.847
  21
 847.936
  31
0.0
   0
LINE
   8
LEVEL003
   6
CONTINUOUS
  62
3
  10
 380.452
  20
 840.177
  30
0.0
  11
 386.626
  21
 850.682
  31
0.0
   0
LINE
   8
LEVEL003
   6
CONTINUOUS
  62
3
  10
 380.309
  20
 767.369
  30
0.0
  11
 434.771
  21
 718.483
  31
0.0
   0
LINE
   8
LEVEL003
   6
CONTINUOUS
  62
3
  10
 434.771
  20
 718.483
  30
0.0
  11
 651.275
  21
 718.483
  31
0.0
   0
LINE
   8
LEVEL003
   6
CONTINUOUS
  62
3
  10
 380.309
  20
 767.369
  30
0.0
  11
 387.826
  21
 757.779
  31
0.0
   0
LINE
   8
LEVEL003
   6
CONTINUOUS
  62
3
  10
 380.309
  20
 767.369
  30
0.0
  11
 390.653
  21
 760.928
  31
0.0
   0
LINE
   8
LEVEL003
   6
CONTINUOUS
  62
3
  10
 358.725
  20
 767.369
  30
0.0
  11
 435.057
  21
 679.459
  31
0.0
   0
LINE
   8
LEVEL003
   6
CONTINUOUS
  62
3
  10
 435.057
  20
 679.459
  30
0.0
  11
 652.705
  21
 679.459
  31
0.0
   0
LINE
   8
LEVEL003
   6
CONTINUOUS
  62
3
  10
 358.725
  20
 767.369
  30
0.0
  11
 364.995
  21
 756.921
  31
0.0
   0
LINE
   8
LEVEL003
   6
CONTINUOUS
  62
3
  10
 358.725
  20
 767.369
  30
0.0
  11
 368.190
  21
 759.696
  31
0.0
   0
POINT
   8
LEVEL001
  62
7
  10
 314.906
  20
 798.263
  30
0.0
   0
TEXT
   8
LEVEL003
  62
3
  10
 930.110
  20
 702.244
  30
0.0
  40
 16.0000
   1
エア抜きプラグ
   7
STANDARD
   0
TEXT
   8
LEVEL003
  62
3
  10
 930.110
  20
 680.910
  30
0.0
  40
 16.0000
   1
検油棒及び給油口兼用
   7
STANDARD
   0
LINE
   8
LEVEL003
   6
CONTINUOUS
  62
3
  10
 944.406
  20
 857.763
  30
0.0
  11
 1069.00
  21
 857.763
  31
0.0
   0
LINE
   8
LEVEL003
   6
CONTINUOUS
  62
3
  10
 944.406
  20
 752.763
  30
0.0
  11
 1069.00
  21
 752.763
  31
0.0
   0
LINE
   8
LEVEL003
   6
CONTINUOUS
  62
3
  10
 1061.00
  20
 857.763
  30
0.0
  11
 1061.00
  21
 752.763
  31
0.0
   0
LINE
   8
LEVEL003
   6
CONTINUOUS
  62
3
  10
 1061.00
  20
 857.763
  30
0.0
  11
 1058.88
  21
 845.763
  31
0.0
   0
LINE
   8
LEVEL003
   6
CONTINUOUS
  62
3
  10
 1061.00
  20
 857.763
  30
0.0
  11
 1063.12
  21
 845.763
  31
0.0
   0
LINE
   8
LEVEL003
   6
CONTINUOUS
  62
3
  10
 1061.00
  20
 752.763
  30
0.0
  11
 1063.12
  21
 764.763
  31
0.0
   0
LINE
   8
LEVEL003
   6
CONTINUOUS
  62
3
  10
 1061.00
  20
 752.763
  30
0.0
  11
 1058.88
  21
 764.763
  31
0.0
   0
TEXT
   8
LEVEL003
  62
3
  10
 1057.80
  20
 793.263
  30
0.0
  40
 16.0000
   1
105
  50
 90.0000
  41
 0.500000
   7
STANDARD
  72
1
  11
 1057.80
  21
 805.263
  31
0.0
   0
LINE
   8
LEVEL003
   6
CONTINUOUS
  62
3
  10
 910.961
  20
 757.934
  30
0.0
  11
 927.889
  21
 699.545
  31
0.0
   0
LINE
   8
LEVEL003
   6
CONTINUOUS
  62
3
  10
 927.889
  20
 699.545
  30
0.0
  11
 1090.00
  21
 699.545
  31
0.0
   0
LINE
   8
LEVEL003
   6
CONTINUOUS
  62
3
  10
 910.961
  20
 757.934
  30
0.0
  11
 912.270
  21
 745.820
  31
0.0
   0
LINE
   8
LEVEL003
   6
CONTINUOUS
  62
3
  10
 910.961
  20
 757.934
  30
0.0
  11
 916.335
  21
 746.998
  31
0.0
   0
LINE
   8
LEVEL001
   6
CONTINUOUS
  62
3
  10
 377.785
  20
 769.026
  30
0.0
  11
 377.785
  21
 769.263
  31
0.0
   0
LINE
   8
LEVEL001
   6
CONTINUOUS
  62
3
  10
 377.785
  20
 769.026
  30
0.0
  11
 377.785
  21
 769.263
  31
0.0
   0
LINE
   8
LEVEL001
   6
CONTINUOUS
  62
3
  10
 377.781
  20
 769.026
  30
0.0
  11
 377.781
  21
 769.263
  31
0.0
   0
LINE
   8
LEVEL001
   6
CONTINUOUS
  62
7
  10
 388.906
  20
 838.263
  30
0.0
  11
 388.406
  21
 838.763
  31
0.0
   0
LINE
   8
LEVEL001
   6
DASHDOT
  62
1
  10
 311.406
  20
 798.263
  30
0.0
  11
 341.406
  21
 798.263
  31
0.0
   0
LINE
   8
LEVEL001
   6
CONTINUOUS
  62
3
  10
 377.781
  20
 769.026
  30
0.0
  11
 377.781
  21
 769.263
  31
0.0
   0
LINE
   8
LEVEL001
   6
DASHDOT
  62
1
  10
 329.406
  20
 820.263
  30
0.0
  11
 313.406
  21
 820.263
  31
0.0
   0
LINE
   8
LEVEL001
   6
DASHDOT
  62
1
  10
 361.406
  20
 783.427
  30
0.0
  11
 361.406
  21
 827.780
  31
0.0
   0
ARC
   8
LEVEL001
   6
CONTINUOUS
  62
7
  10
 321.332
  20
 812.263
  30
0.0
  40
 3.00000
  50
 270.000
  51
 355.000
   0
ARC
   8
LEVEL001
   6
CONTINUOUS
  62
7
  10
 319.406
  20
 807.263
  30
0.0
  40
 2.00000
  50
 90.0000
  51
 180.000
   0
LINE
   8
LEVEL001
   6
CONTINUOUS
  62
7
  10
 317.406
  20
 807.263
  30
0.0
  11
 317.406
  21
 803.263
  31
0.0
   0
ARC
   8
LEVEL001
   6
CONTINUOUS
  62
7
  10
 319.406
  20
 803.263
  30
0.0
  40
 2.00000
  50
 180.000
  51
 270.000
   0
LINE
   8
LEVEL001
   6
CONTINUOUS
  62
7
  10
 314.906
  20
 831.325
  30
0.0
  11
 314.906
  21
 776.688
  31
0.0
   0
ARC
   8
LEVEL001
   6
CONTINUOUS
  62
7
  10
 316.601
  20
 830.263
  30
0.0
  40
 2.00000
  50
 90.0000
  51
 147.933
   0
LINE
   8
LEVEL001
   6
CONTINUOUS
  62
7
  10
 345.513
  20
 769.691
  30
0.0
  11
 346.551
  21
 757.827
  31
0.0
   0
ARC
   8
LEVEL001
   6
CONTINUOUS
  62
7
  10
 351.532
  20
 758.263
  30
0.0
  40
 5.00000
  50
 185.000
  51
 270.000
   0
ARC
   8
LEVEL001
   6
CONTINUOUS
  62
7
  10
 373.275
  20
 758.263
  30
0.0
  40
 5.00000
  50
 270.000
  51
 355.000
   0
LINE
   8
LEVEL001
   6
CONTINUOUS
  62
7
  10
 351.532
  20
 753.263
  30
0.0
  11
 373.275
  21
 753.263
  31
0.0
   0
ARC
   8
LEVEL001
   6
CONTINUOUS
  62
7
  10
 325.694
  20
 812.263
  30
0.0
  40
 3.00000
  50
 270.000
  51
 355.000
   0
LINE
   8
LEVEL001
   6
CONTINUOUS
  62
7
  10
 319.406
  20
 809.263
  30
0.0
  11
 325.694
  21
 809.263
  31
0.0
   0
ARC
   8
LEVEL001
   6
CONTINUOUS
  62
7
  10
 325.694
  20
 798.263
  30
0.0
  40
 3.00000
  50
 5.00000
  51
 90.0000
   0
LINE
   8
LEVEL001
   6
CONTINUOUS
  62
7
  10
 319.406
  20
 801.263
  30
0.0
  11
 325.694
  21
 801.263
  31
0.0
   0
LINE
   8
LEVEL001
   6
DASHDOT
  62
1
  10
 354.406
  20
 850.263
  30
0.0
  11
 354.406
  21
 764.179
  31
0.0
   0
ARC
   8
LEVEL001
   6
CONTINUOUS
  62
7
  10
 323.906
  20
 823.763
  30
0.0
  40
 2.00000
  50
 270.000
  51
 0.162844E-9
   0
ARC
   8
LEVEL001
   6
CONTINUOUS
  62
7
  10
 317.203
  20
 819.763
  30
0.0
  40
 2.00000
  50
 90.0001
  51
 178.000
   0
ARC
   8
LEVEL001
   6
CONTINUOUS
  62
7
  10
 429.075
  20
 819.763
  30
0.0
  40
 2.00000
  50
 2.00010
  51
 90.0001
   0
LINE
   8
LEVEL001
   6
CONTINUOUS
  62
7
  10
 431.074
  20
 819.833
  30
0.0
  11
 431.377
  21
 811.158
  31
0.0
   0
ARC
   8
LEVEL001
   6
CONTINUOUS
  62
7
  10
 374.406
  20
 823.763
  30
0.0
  40
 2.00000
  50
 180.000
  51
 270.000
   0
LINE
   8
LEVEL001
   6
CONTINUOUS
  62
7
  10
 325.906
  20
 823.763
  30
0.0
  11
 372.406
  21
 823.763
  31
0.0
   0
ARC
   8
LEVEL001
   6
CONTINUOUS
  62
7
  10
 466.478
  20
 821.763
  30
0.0
  40
 1.00000
  50
 90.0006
  51
 179.999
   0
LINE
   8
LEVEL001
   6
CONTINUOUS
  62
7
  10
 465.478
  20
 821.763
  30
0.0
  11
 465.478
  21
 788.763
  31
0.0
   0
LINE
   8
LEVEL001
   6
CONTINUOUS
  62
7
  10
 317.203
  20
 821.763
  30
0.0
  11
 465.478
  21
 821.763
  31
0.0
   0
LINE
   8
LEVEL001
   6
CONTINUOUS
  62
7
  10
 466.478
  20
 822.763
  30
0.0
  11
 472.978
  21
 822.763
  31
0.0
   0
LINE
   8
LEVEL001
   6
CONTINUOUS
  62
7
  10
 472.978
  20
 822.763
  30
0.0
  11
 473.978
  21
 821.763
  31
0.0
   0
LINE
   8
LEVEL001
   6
CONTINUOUS
  62
7
  10
 472.978
  20
 822.763
  30
0.0
  11
 472.978
  21
 787.763
  31
0.0
   0
ARC
   8
LEVEL001
   6
CONTINUOUS
  62
7
  10
 323.906
  20
 786.763
  30
0.0
  40
 2.00000
  50
 0.125267E-3
  51
 90.0000
   0
ARC
   8
LEVEL001
   6
CONTINUOUS
  62
7
  10
 317.203
  20
 790.763
  30
0.0
  40
 2.00000
  50
 182.000
  51
 270.000
   0
ARC
   8
LEVEL001
   6
CONTINUOUS
  62
7
  10
 429.075
  20
 790.763
  30
0.0
  40
 2.00000
  50
 270.000
  51
 358.000
   0
LINE
   8
LEVEL001
   6
CONTINUOUS
  62
7
  10
 431.377
  20
 799.368
  30
0.0
  11
 431.074
  21
 790.693
  31
0.0
   0
ARC
   8
LEVEL001
   6
CONTINUOUS
  62
7
  10
 374.406
  20
 786.763
  30
0.0
  40
 2.00000
  50
 90.0000
  51
 180.000
   0
LINE
   8
LEVEL001
   6
CONTINUOUS
  62
7
  10
 325.906
  20
 786.763
  30
0.0
  11
 372.406
  21
 786.763
  31
0.0
   0
ARC
   8
LEVEL001
   6
CONTINUOUS
  62
7
  10
 466.478
  20
 788.763
  30
0.0
  40
 1.00000
  50
 180.001
  51
 270.000
   0
LINE
   8
LEVEL001
   6
CONTINUOUS
  62
7
  10
 317.203
  20
 788.763
  30
0.0
  11
 465.478
  21
 788.763
  31
0.0
   0
LINE
   8
LEVEL001
   6
CONTINUOUS
  62
7
  10
 473.978
  20
 821.763
  30
0.0
  11
 473.978
  21
 788.763
  31
0.0
   0
LINE
   8
LEVEL001
   6
CONTINUOUS
  62
7
  10
 473.978
  20
 788.763
  30
0.0
  11
 472.978
  21
 787.763
  31
0.0
   0
LINE
   8
LEVEL001
   6
CONTINUOUS
  62
7
  10
 466.478
  20
 787.763
  30
0.0
  11
 472.978
  21
 787.763
  31
0.0
   0
ARC
   8
LEVEL001
   6
CONTINUOUS
  62
7
  10
 434.375
  20
 811.263
  30
0.0
  40
 3.00000
  50
 182.000
  51
 270.000
   0
ARC
   8
LEVEL001
   6
CONTINUOUS
  62
7
  10
 434.375
  20
 799.263
  30
0.0
  40
 3.00000
  50
 90.0001
  51
 178.000
   0
LINE
   8
LEVEL001
   6
CONTINUOUS
  62
7
  10
 386.360
  20
 776.217
  30
0.0
  11
 387.458
  21
 788.763
  31
0.0
   0
LINE
   8
LEVEL003
   6
CONTINUOUS
  62
7
  10
 363.406
  20
 773.364
  30
0.0
  11
 363.336
  21
 774.418
  31
0.0
   0
LINE
   8
LEVEL003
   6
CONTINUOUS
  62
7
  10
 363.336
  20
 774.418
  30
0.0
  11
 363.126
  21
 775.456
  31
0.0
   0
LINE
   8
LEVEL003
   6
CONTINUOUS
  62
7
  10
 363.126
  20
 775.456
  30
0.0
  11
 362.780
  21
 776.461
  31
0.0
   0
LINE
   8
LEVEL003
   6
CONTINUOUS
  62
7
  10
 362.780
  20
 776.461
  30
0.0
  11
 362.304
  21
 777.418
  31
0.0
   0
LINE
   8
LEVEL003
   6
CONTINUOUS
  62
7
  10
 362.304
  20
 777.418
  30
0.0
  11
 361.704
  21
 778.312
  31
0.0
   0
LINE
   8
LEVEL003
   6
CONTINUOUS
  62
7
  10
 361.704
  20
 778.312
  30
0.0
  11
 360.991
  21
 779.128
  31
0.0
   0
LINE
   8
LEVEL003
   6
CONTINUOUS
  62
7
  10
 360.991
  20
 779.128
  30
0.0
  11
 360.175
  21
 779.855
  31
0.0
   0
LINE
   8
LEVEL003
   6
CONTINUOUS
  62
7
  10
 360.175
  20
 779.855
  30
0.0
  11
 359.269
  21
 780.480
  31
0.0
   0
LINE
   8
LEVEL003
   6
CONTINUOUS
  62
7
  10
 359.269
  20
 780.480
  30
0.0
  11
 358.286
  21
 780.994
  31
0.0
   0
LINE
   8
LEVEL003
   6
CONTINUOUS
  62
7
  10
 358.286
  20
 780.994
  30
0.0
  11
 357.244
  21
 781.389
  31
0.0
   0
LINE
   8
LEVEL003
   6
CONTINUOUS
  62
7
  10
 357.244
  20
 781.389
  30
0.0
  11
 356.157
  21
 781.659
  31
0.0
   0
LINE
   8
LEVEL003
   6
CONTINUOUS
  62
7
  10
 356.157
  20
 781.659
  30
0.0
  11
 355.042
  21
 781.800
  31
0.0
   0
LINE
   8
LEVEL003
   6
CONTINUOUS
  62
7
  10
 355.042
  20
 781.800
  30
0.0
  11
 353.918
  21
 781.808
  31
0.0
   0
LINE
   8
LEVEL003
   6
CONTINUOUS
  62
7
  10
 353.918
  20
 781.808
  30
0.0
  11
 352.802
  21
 781.685
  31
0.0
   0
LINE
   8
LEVEL003
   6
CONTINUOUS
  62
7
  10
 352.802
  20
 781.685
  30
0.0
  11
 351.710
  21
 781.433
  31
0.0
   0
LINE
   8
LEVEL003
   6
CONTINUOUS
  62
7
  10
 351.710
  20
 781.433
  30
0.0
  11
 350.660
  21
 781.054
  31
0.0
   0
LINE
   8
LEVEL003
   6
CONTINUOUS
  62
7
  10
 350.660
  20
 781.054
  30
0.0
  11
 349.669
  21
 780.555
  31
0.0
   0
LINE
   8
LEVEL003
   6
CONTINUOUS
  62
7
  10
 349.669
  20
 780.555
  30
0.0
  11
 348.752
  21
 779.944
  31
0.0
   0
LINE
   8
LEVEL003
   6
CONTINUOUS
  62
7
  10
 348.752
  20
 779.944
  30
0.0
  11
 347.923
  21
 779.230
  31
0.0
   0
LINE
   8
LEVEL003
   6
CONTINUOUS
  62
7
  10
 347.923
  20
 779.230
  30
0.0
  11
 347.196
  21
 778.425
  31
0.0
   0
LINE
   8
LEVEL003
   6
CONTINUOUS
  62
7
  10
 347.196
  20
 778.425
  30
0.0
  11
 346.580
  21
 777.541
  31
0.0
   0
LINE
   8
LEVEL003
   6
CONTINUOUS
  62
7
  10
 346.580
  20
 777.541
  30
0.0
  11
 346.087
  21
 776.591
  31
0.0
   0
LINE
   8
LEVEL003
   6
CONTINUOUS
  62
7
  10
 346.087
  20
 776.591
  30
0.0
  11
 345.724
  21
 775.592
  31
0.0
   0
LINE
   8
LEVEL003
   6
CONTINUOUS
  62
7
  10
 345.724
  20
 775.592
  30
0.0
  11
 345.496
  21
 774.557
  31
0.0
   0
LINE
   8
LEVEL003
   6
CONTINUOUS
  62
7
  10
 345.496
  20
 774.557
  30
0.0
  11
 345.407
  21
 773.504
  31
0.0
   0
LINE
   8
LEVEL003
   6
CONTINUOUS
  62
7
  10
 345.407
  20
 773.504
  30
0.0
  11
 345.459
  21
 772.449
  31
0.0
   0
LINE
   8
LEVEL003
   6
CONTINUOUS
  62
7
  10
 345.459
  20
 772.449
  30
0.0
  11
 345.650
  21
 771.408
  31
0.0
   0
LINE
   8
LEVEL003
   6
CONTINUOUS
  62
7
  10
 345.650
  20
 771.408
  30
0.0
  11
 345.978
  21
 770.397
  31
0.0
   0
LINE
   8
LEVEL003
   6
CONTINUOUS
  62
7
  10
 345.978
  20
 770.397
  30
0.0
  11
 346.437
  21
 769.433
  31
0.0
   0
LINE
   8
LEVEL003
   6
CONTINUOUS
  62
7
  10
 346.437
  20
 769.433
  30
0.0
  11
 347.021
  21
 768.530
  31
0.0
   0
LINE
   8
LEVEL003
   6
CONTINUOUS
  62
7
  10
 347.021
  20
 768.530
  30
0.0
  11
 347.720
  21
 767.702
  31
0.0
   0
LINE
   8
LEVEL003
   6
CONTINUOUS
  62
7
  10
 347.720
  20
 767.702
  30
0.0
  11
 348.523
  21
 766.963
  31
0.0
   0
LINE
   8
LEVEL003
   6
CONTINUOUS
  62
7
  10
 348.523
  20
 766.963
  30
0.0
  11
 349.418
  21
 766.324
  31
0.0
   0
LINE
   8
LEVEL003
   6
CONTINUOUS
  62
7
  10
 349.418
  20
 766.324
  30
0.0
  11
 350.391
  21
 765.795
  31
0.0
   0
LINE
   8
LEVEL003
   6
CONTINUOUS
  62
7
  10
 350.391
  20
 765.795
  30
0.0
  11
 351.427
  21
 765.383
  31
0.0
   0
LINE
   8
LEVEL003
   6
CONTINUOUS
  62
7
  10
 351.427
  20
 765.383
  30
0.0
  11
 352.509
  21
 765.096
  31
0.0
   0
LINE
   8
LEVEL003
   6
CONTINUOUS
  62
7
  10
 352.509
  20
 765.096
  30
0.0
  11
 353.620
  21
 764.939
  31
0.0
   0
LINE
   8
LEVEL003
   6
CONTINUOUS
  62
7
  10
 353.620
  20
 764.939
  30
0.0
  11
 354.744
  21
 764.912
  31
0.0
   0
LINE
   8
LEVEL003
   6
CONTINUOUS
  62
7
  10
 354.744
  20
 764.912
  30
0.0
  11
 355.863
  21
 765.018
  31
0.0
   0
LINE
   8
LEVEL003
   6
CONTINUOUS
  62
7
  10
 355.863
  20
 765.018
  30
0.0
  11
 356.959
  21
 765.254
  31
0.0
   0
LINE
   8
LEVEL003
   6
CONTINUOUS
  62
7
  10
 356.959
  20
 765.254
  30
0.0
  11
 358.015
  21
 765.616
  31
0.0
   0
LINE
   8
LEVEL003
   6
CONTINUOUS
  62
7
  10
 358.015
  20
 765.616
  30
0.0
  11
 359.015
  21
 766.099
  31
0.0
   0
LINE
   8
LEVEL003
   6
CONTINUOUS
  62
7
  10
 359.015
  20
 766.099
  30
0.0
  11
 359.942
  21
 766.696
  31
0.0
   0
LINE
   8
LEVEL003
   6
CONTINUOUS
  62
7
  10
 359.942
  20
 766.696
  30
0.0
  11
 360.784
  21
 767.397
  31
0.0
   0
LINE
   8
LEVEL003
   6
CONTINUOUS
  62
7
  10
 360.784
  20
 767.397
  30
0.0
  11
 361.526
  21
 768.191
  31
0.0
   0
LINE
   8
LEVEL003
   6
CONTINUOUS
  62
7
  10
 361.526
  20
 768.191
  30
0.0
  11
 362.157
  21
 769.065
  31
0.0
   0
LINE
   8
LEVEL003
   6
CONTINUOUS
  62
7
  10
 362.157
  20
 769.065
  30
0.0
  11
 362.666
  21
 770.007
  31
0.0
   0
LINE
   8
LEVEL003
   6
CONTINUOUS
  62
7
  10
 362.666
  20
 770.007
  30
0.0
  11
 363.047
  21
 771.001
  31
0.0
   0
LINE
   8
LEVEL003
   6
CONTINUOUS
  62
7
  10
 363.047
  20
 771.001
  30
0.0
  11
 363.293
  21
 772.031
  31
0.0
   0
LINE
   8
LEVEL003
   6
CONTINUOUS
  62
7
  10
 363.293
  20
 772.031
  30
0.0
  11
 363.401
  21
 773.083
  31
0.0
   0
LINE
   8
LEVEL003
   6
CONTINUOUS
  62
7
  10
 363.401
  20
 773.083
  30
0.0
  11
 363.406
  21
 773.364
  31
0.0
   0
LINE
   8
LEVEL003
   6
CONTINUOUS
  62
7
  10
 345.406
  20
 773.364
  30
0.0
  11
 345.406
  21
 777.263
  31
0.0
   0
LINE
   8
LEVEL003
   6
CONTINUOUS
  62
7
  10
 363.406
  20
 773.364
  30
0.0
  11
 363.406
  21
 777.263
  31
0.0
   0
LINE
   8
LEVEL003
   6
CONTINUOUS
  62
7
  10
 362.406
  20
 773.158
  30
0.0
  11
 362.343
  21
 774.096
  31
0.0
   0
LINE
   8
LEVEL003
   6
CONTINUOUS
  62
7
  10
 362.343
  20
 774.096
  30
0.0
  11
 362.157
  21
 775.018
  31
0.0
   0
LINE
   8
LEVEL003
   6
CONTINUOUS
  62
7
  10
 362.157
  20
 775.018
  30
0.0
  11
 361.850
  21
 775.912
  31
0.0
   0
LINE
   8
LEVEL003
   6
CONTINUOUS
  62
7
  10
 361.850
  20
 775.912
  30
0.0
  11
 361.426
  21
 776.763
  31
0.0
   0
LINE
   8
LEVEL003
   6
CONTINUOUS
  62
7
  10
 361.426
  20
 776.763
  30
0.0
  11
 360.894
  21
 777.557
  31
0.0
   0
LINE
   8
LEVEL003
   6
CONTINUOUS
  62
7
  10
 360.894
  20
 777.557
  30
0.0
  11
 360.259
  21
 778.283
  31
0.0
   0
LINE
   8
LEVEL003
   6
CONTINUOUS
  62
7
  10
 360.259
  20
 778.283
  30
0.0
  11
 359.534
  21
 778.929
  31
0.0
   0
LINE
   8
LEVEL003
   6
CONTINUOUS
  62
7
  10
 359.534
  20
 778.929
  30
0.0
  11
 358.728
  21
 779.484
  31
0.0
   0
LINE
   8
LEVEL003
   6
CONTINUOUS
  62
7
  10
 358.728
  20
 779.484
  30
0.0
  11
 357.855
  21
 779.941
  31
0.0
   0
LINE
   8
LEVEL003
   6
CONTINUOUS
  62
7
  10
 357.855
  20
 779.941
  30
0.0
  11
 356.928
  21
 780.293
  31
0.0
   0
LINE
   8
LEVEL003
   6
CONTINUOUS
  62
7
  10
 356.928
  20
 780.293
  30
0.0
  11
 355.962
  21
 780.532
  31
0.0
   0
LINE
   8
LEVEL003
   6
CONTINUOUS
  62
7
  10
 355.962
  20
 780.532
  30
0.0
  11
 354.972
  21
 780.657
  31
0.0
   0
LINE
   8
LEVEL003
   6
CONTINUOUS
  62
7
  10
 354.972
  20
 780.657
  30
0.0
  11
 353.972
  21
 780.665
  31
0.0
   0
LINE
   8
LEVEL003
   6
CONTINUOUS
  62
7
  10
 353.972
  20
 780.665
  30
0.0
  11
 352.980
  21
 780.556
  31
0.0
   0
LINE
   8
LEVEL003
   6
CONTINUOUS
  62
7
  10
 352.980
  20
 780.556
  30
0.0
  11
 352.010
  21
 780.331
  31
0.0
   0
LINE
   8
LEVEL003
   6
CONTINUOUS
  62
7
  10
 352.010
  20
 780.331
  30
0.0
  11
 351.077
  21
 779.994
  31
0.0
   0
LINE
   8
LEVEL003
   6
CONTINUOUS
  62
7
  10
 351.077
  20
 779.994
  30
0.0
  11
 350.196
  21
 779.551
  31
0.0
   0
LINE
   8
LEVEL003
   6
CONTINUOUS
  62
7
  10
 350.196
  20
 779.551
  30
0.0
  11
 349.380
  21
 779.008
  31
0.0
   0
LINE
   8
LEVEL003
   6
CONTINUOUS
  62
7
  10
 349.380
  20
 779.008
  30
0.0
  11
 348.644
  21
 778.373
  31
0.0
   0
LINE
   8
LEVEL003
   6
CONTINUOUS
  62
7
  10
 348.644
  20
 778.373
  30
0.0
  11
 347.997
  21
 777.658
  31
0.0
   0
LINE
   8
LEVEL003
   6
CONTINUOUS
  62
7
  10
 347.997
  20
 777.658
  30
0.0
  11
 347.450
  21
 776.872
  31
0.0
   0
LINE
   8
LEVEL003
   6
CONTINUOUS
  62
7
  10
 347.450
  20
 776.872
  30
0.0
  11
 347.011
  21
 776.028
  31
0.0
   0
LINE
   8
LEVEL003
   6
CONTINUOUS
  62
7
  10
 347.011
  20
 776.028
  30
0.0
  11
 346.688
  21
 775.139
  31
0.0
   0
LINE
   8
LEVEL003
   6
CONTINUOUS
  62
7
  10
 346.688
  20
 775.139
  30
0.0
  11
 346.486
  21
 774.219
  31
0.0
   0
LINE
   8
LEVEL003
   6
CONTINUOUS
  62
7
  10
 346.486
  20
 774.219
  30
0.0
  11
 346.407
  21
 773.283
  31
0.0
   0
LINE
   8
LEVEL003
   6
CONTINUOUS
  62
7
  10
 346.407
  20
 773.283
  30
0.0
  11
 346.453
  21
 772.345
  31
0.0
   0
LINE
   8
LEVEL003
   6
CONTINUOUS
  62
7
  10
 346.453
  20
 772.345
  30
0.0
  11
 346.623
  21
 771.420
  31
0.0
   0
LINE
   8
LEVEL003
   6
CONTINUOUS
  62
7
  10
 346.623
  20
 771.420
  30
0.0
  11
 346.914
  21
 770.521
  31
0.0
   0
LINE
   8
LEVEL003
   6
CONTINUOUS
  62
7
  10
 346.914
  20
 770.521
  30
0.0
  11
 347.322
  21
 769.664
  31
0.0
   0
LINE
   8
LEVEL003
   6
CONTINUOUS
  62
7
  10
 347.322
  20
 769.664
  30
0.0
  11
 347.841
  21
 768.862
  31
0.0
   0
LINE
   8
LEVEL003
   6
CONTINUOUS
  62
7
  10
 347.841
  20
 768.862
  30
0.0
  11
 348.463
  21
 768.126
  31
0.0
   0
LINE
   8
LEVEL003
   6
CONTINUOUS
  62
7
  10
 348.463
  20
 768.126
  30
0.0
  11
 349.177
  21
 767.469
  31
0.0
   0
LINE
   8
LEVEL003
   6
CONTINUOUS
  62
7
  10
 349.177
  20
 767.469
  30
0.0
  11
 349.972
  21
 766.901
  31
0.0
   0
LINE
   8
LEVEL003
   6
CONTINUOUS
  62
7
  10
 349.972
  20
 766.901
  30
0.0
  11
 350.837
  21
 766.430
  31
0.0
   0
LINE
   8
LEVEL003
   6
CONTINUOUS
  62
7
  10
 350.837
  20
 766.430
  30
0.0
  11
 351.758
  21
 766.065
  31
0.0
   0
LINE
   8
LEVEL003
   6
CONTINUOUS
  62
7
  10
 351.758
  20
 766.065
  30
0.0
  11
 352.719
  21
 765.810
  31
0.0
   0
LINE
   8
LEVEL003
   6
CONTINUOUS
  62
7
  10
 352.719
  20
 765.810
  30
0.0
  11
 353.708
  21
 765.670
  31
0.0
   0
LINE
   8
LEVEL003
   6
CONTINUOUS
  62
7
  10
 353.708
  20
 765.670
  30
0.0
  11
 354.707
  21
 765.646
  31
0.0
   0
LINE
   8
LEVEL003
   6
CONTINUOUS
  62
7
  10
 354.707
  20
 765.646
  30
0.0
  11
 355.701
  21
 765.740
  31
0.0
   0
LINE
   8
LEVEL003
   6
CONTINUOUS
  62
7
  10
 355.701
  20
 765.740
  30
0.0
  11
 356.675
  21
 765.950
  31
0.0
   0
LINE
   8
LEVEL003
   6
CONTINUOUS
  62
7
  10
 356.675
  20
 765.950
  30
0.0
  11
 357.614
  21
 766.272
  31
0.0
   0
LINE
   8
LEVEL003
   6
CONTINUOUS
  62
7
  10
 357.614
  20
 766.272
  30
0.0
  11
 358.502
  21
 766.701
  31
0.0
   0
LINE
   8
LEVEL003
   6
CONTINUOUS
  62
7
  10
 358.502
  20
 766.701
  30
0.0
  11
 359.327
  21
 767.232
  31
0.0
   0
LINE
   8
LEVEL003
   6
CONTINUOUS
  62
7
  10
 359.327
  20
 767.232
  30
0.0
  11
 360.075
  21
 767.855
  31
0.0
   0
LINE
   8
LEVEL003
   6
CONTINUOUS
  62
7
  10
 360.075
  20
 767.855
  30
0.0
  11
 360.735
  21
 768.560
  31
0.0
   0
LINE
   8
LEVEL003
   6
CONTINUOUS
  62
7
  10
 360.735
  20
 768.560
  30
0.0
  11
 361.295
  21
 769.337
  31
0.0
   0
LINE
   8
LEVEL003
   6
CONTINUOUS
  62
7
  10
 361.295
  20
 769.337
  30
0.0
  11
 361.749
  21
 770.174
  31
0.0
   0
LINE
   8
LEVEL003
   6
CONTINUOUS
  62
7
  10
 361.749
  20
 770.174
  30
0.0
  11
 362.087
  21
 771.058
  31
0.0
   0
LINE
   8
LEVEL003
   6
CONTINUOUS
  62
7
  10
 362.087
  20
 771.058
  30
0.0
  11
 362.306
  21
 771.974
  31
0.0
   0
LINE
   8
LEVEL003
   6
CONTINUOUS
  62
7
  10
 362.306
  20
 771.974
  30
0.0
  11
 362.401
  21
 772.909
  31
0.0
   0
LINE
   8
LEVEL003
   6
CONTINUOUS
  62
7
  10
 362.401
  20
 772.909
  30
0.0
  11
 362.406
  21
 773.158
  31
0.0
   0
LINE
   8
LEVEL003
   6
CONTINUOUS
  62
7
  10
 354.406
  20
 778.389
  30
0.0
  11
 359.406
  21
 776.045
  31
0.0
   0
LINE
   8
LEVEL003
   6
CONTINUOUS
  62
7
  10
 359.406
  20
 776.045
  30
0.0
  11
 359.406
  21
 770.272
  31
0.0
   0
LINE
   8
LEVEL003
   6
CONTINUOUS
  62
7
  10
 359.406
  20
 770.272
  30
0.0
  11
 354.406
  21
 767.928
  31
0.0
   0
LINE
   8
LEVEL003
   6
CONTINUOUS
  62
7
  10
 354.406
  20
 767.928
  30
0.0
  11
 349.406
  21
 770.272
  31
0.0
   0
LINE
   8
LEVEL003
   6
CONTINUOUS
  62
7
  10
 349.406
  20
 770.272
  30
0.0
  11
 349.406
  21
 776.045
  31
0.0
   0
LINE
   8
LEVEL003
   6
CONTINUOUS
  62
7
  10
 349.406
  20
 776.045
  30
0.0
  11
 354.406
  21
 778.389
  31
0.0
   0
LINE
   8
LEVEL003
   6
CONTINUOUS
  62
7
  10
 383.406
  20
 773.364
  30
0.0
  11
 383.336
  21
 774.418
  31
0.0
   0
LINE
   8
LEVEL003
   6
CONTINUOUS
  62
7
  10
 383.336
  20
 774.418
  30
0.0
  11
 383.126
  21
 775.456
  31
0.0
   0
LINE
   8
LEVEL003
   6
CONTINUOUS
  62
7
  10
 383.126
  20
 775.456
  30
0.0
  11
 382.780
  21
 776.461
  31
0.0
   0
LINE
   8
LEVEL003
   6
CONTINUOUS
  62
7
  10
 382.780
  20
 776.461
  30
0.0
  11
 382.304
  21
 777.418
  31
0.0
   0
LINE
   8
LEVEL003
   6
CONTINUOUS
  62
7
  10
 382.304
  20
 777.418
  30
0.0
  11
 381.704
  21
 778.312
  31
0.0
   0
LINE
   8
LEVEL003
   6
CONTINUOUS
  62
7
  10
 381.704
  20
 778.312
  30
0.0
  11
 380.991
  21
 779.128
  31
0.0
   0
LINE
   8
LEVEL003
   6
CONTINUOUS
  62
7
  10
 380.991
  20
 779.128
  30
0.0
  11
 380.175
  21
 779.855
  31
0.0
   0
LINE
   8
LEVEL003
   6
CONTINUOUS
  62
7
  10
 380.175
  20
 779.855
  30
0.0
  11
 379.269
  21
 780.480
  31
0.0
   0
LINE
   8
LEVEL003
   6
CONTINUOUS
  62
7
  10
 379.269
  20
 780.480
  30
0.0
  11
 378.286
  21
 780.994
  31
0.0
   0
LINE
   8
LEVEL003
   6
CONTINUOUS
  62
7
  10
 378.286
  20
 780.994
  30
0.0
  11
 377.244
  21
 781.389
  31
0.0
   0
LINE
   8
LEVEL003
   6
CONTINUOUS
  62
7
  10
 377.244
  20
 781.389
  30
0.0
  11
 376.157
  21
 781.659
  31
0.0
   0
LINE
   8
LEVEL003
   6
CONTINUOUS
  62
7
  10
 376.157
  20
 781.659
  30
0.0
  11
 375.042
  21
 781.800
  31
0.0
   0
LINE
   8
LEVEL003
   6
CONTINUOUS
  62
7
  10
 375.042
  20
 781.800
  30
0.0
  11
 373.918
  21
 781.808
  31
0.0
   0
LINE
   8
LEVEL003
   6
CONTINUOUS
  62
7
  10
 373.918
  20
 781.808
  30
0.0
  11
 372.802
  21
 781.685
  31
0.0
   0
LINE
   8
LEVEL003
   6
CONTINUOUS
  62
7
  10
 372.802
  20
 781.685
  30
0.0
  11
 371.710
  21
 781.433
  31
0.0
   0
LINE
   8
LEVEL003
   6
CONTINUOUS
  62
7
  10
 371.710
  20
 781.433
  30
0.0
  11
 370.660
  21
 781.054
  31
0.0
   0
LINE
   8
LEVEL003
   6
CONTINUOUS
  62
7
  10
 370.660
  20
 781.054
  30
0.0
  11
 369.669
  21
 780.555
  31
0.0
   0
LINE
   8
LEVEL003
   6
CONTINUOUS
  62
7
  10
 369.669
  20
 780.555
  30
0.0
  11
 368.752
  21
 779.944
  31
0.0
   0
LINE
   8
LEVEL003
   6
CONTINUOUS
  62
7
  10
 368.752
  20
 779.944
  30
0.0
  11
 367.923
  21
 779.230
  31
0.0
   0
LINE
   8
LEVEL003
   6
CONTINUOUS
  62
7
  10
 367.923
  20
 779.230
  30
0.0
  11
 367.196
  21
 778.425
  31
0.0
   0
LINE
   8
LEVEL003
   6
CONTINUOUS
  62
7
  10
 367.196
  20
 778.425
  30
0.0
  11
 366.580
  21
 777.541
  31
0.0
   0
LINE
   8
LEVEL003
   6
CONTINUOUS
  62
7
  10
 366.580
  20
 777.541
  30
0.0
  11
 366.087
  21
 776.591
  31
0.0
   0
LINE
   8
LEVEL003
   6
CONTINUOUS
  62
7
  10
 366.087
  20
 776.591
  30
0.0
  11
 365.724
  21
 775.592
  31
0.0
   0
LINE
   8
LEVEL003
   6
CONTINUOUS
  62
7
  10
 365.724
  20
 775.592
  30
0.0
  11
 365.496
  21
 774.557
  31
0.0
   0
LINE
   8
LEVEL003
   6
CONTINUOUS
  62
7
  10
 365.496
  20
 774.557
  30
0.0
  11
 365.407
  21
 773.504
  31
0.0
   0
LINE
   8
LEVEL003
   6
CONTINUOUS
  62
7
  10
 365.407
  20
 773.504
  30
0.0
  11
 365.459
  21
 772.449
  31
0.0
   0
LINE
   8
LEVEL003
   6
CONTINUOUS
  62
7
  10
 365.459
  20
 772.449
  30
0.0
  11
 365.650
  21
 771.408
  31
0.0
   0
LINE
   8
LEVEL003
   6
CONTINUOUS
  62
7
  10
 365.650
  20
 771.408
  30
0.0
  11
 365.978
  21
 770.397
  31
0.0
   0
LINE
   8
LEVEL003
   6
CONTINUOUS
  62
7
  10
 365.978
  20
 770.397
  30
0.0
  11
 366.437
  21
 769.433
  31
0.0
   0
LINE
   8
LEVEL003
   6
CONTINUOUS
  62
7
  10
 366.437
  20
 769.433
  30
0.0
  11
 367.021
  21
 768.530
  31
0.0
   0
LINE
   8
LEVEL003
   6
CONTINUOUS
  62
7
  10
 367.021
  20
 768.530
  30
0.0
  11
 367.720
  21
 767.702
  31
0.0
   0
LINE
   8
LEVEL003
   6
CONTINUOUS
  62
7
  10
 367.720
  20
 767.702
  30
0.0
  11
 368.523
  21
 766.963
  31
0.0
   0
LINE
   8
LEVEL003
   6
CONTINUOUS
  62
7
  10
 368.523
  20
 766.963
  30
0.0
  11
 369.418
  21
 766.324
  31
0.0
   0
LINE
   8
LEVEL003
   6
CONTINUOUS
  62
7
  10
 369.418
  20
 766.324
  30
0.0
  11
 370.391
  21
 765.795
  31
0.0
   0
LINE
   8
LEVEL003
   6
CONTINUOUS
  62
7
  10
 370.391
  20
 765.795
  30
0.0
  11
 371.427
  21
 765.383
  31
0.0
   0
LINE
   8
LEVEL003
   6
CONTINUOUS
  62
7
  10
 371.427
  20
 765.383
  30
0.0
  11
 372.509
  21
 765.096
  31
0.0
   0
LINE
   8
LEVEL003
   6
CONTINUOUS
  62
7
  10
 372.509
  20
 765.096
  30
0.0
  11
 373.620
  21
 764.939
  31
0.0
   0
LINE
   8
LEVEL003
   6
CONTINUOUS
  62
7
  10
 373.620
  20
 764.939
  30
0.0
  11
 374.744
  21
 764.912
  31
0.0
   0
LINE
   8
LEVEL003
   6
CONTINUOUS
  62
7
  10
 374.744
  20
 764.912
  30
0.0
  11
 375.863
  21
 765.018
  31
0.0
   0
LINE
   8
LEVEL003
   6
CONTINUOUS
  62
7
  10
 375.863
  20
 765.018
  30
0.0
  11
 376.959
  21
 765.254
  31
0.0
   0
LINE
   8
LEVEL003
   6
CONTINUOUS
  62
7
  10
 376.959
  20
 765.254
  30
0.0
  11
 378.015
  21
 765.616
  31
0.0
   0
LINE
   8
LEVEL003
   6
CONTINUOUS
  62
7
  10
 378.015
  20
 765.616
  30
0.0
  11
 379.015
  21
 766.099
  31
0.0
   0
LINE
   8
LEVEL003
   6
CONTINUOUS
  62
7
  10
 379.015
  20
 766.099
  30
0.0
  11
 379.942
  21
 766.696
  31
0.0
   0
LINE
   8
LEVEL003
   6
CONTINUOUS
  62
7
  10
 379.942
  20
 766.696
  30
0.0
  11
 380.784
  21
 767.397
  31
0.0
   0
LINE
   8
LEVEL003
   6
CONTINUOUS
  62
7
  10
 380.784
  20
 767.397
  30
0.0
  11
 381.526
  21
 768.191
  31
0.0
   0
LINE
   8
LEVEL003
   6
CONTINUOUS
  62
7
  10
 381.526
  20
 768.191
  30
0.0
  11
 382.157
  21
 769.065
  31
0.0
   0
LINE
   8
LEVEL003
   6
CONTINUOUS
  62
7
  10
 382.157
  20
 769.065
  30
0.0
  11
 382.666
  21
 770.007
  31
0.0
   0
LINE
   8
LEVEL003
   6
CONTINUOUS
  62
7
  10
 382.666
  20
 770.007
  30
0.0
  11
 383.047
  21
 771.001
  31
0.0
   0
LINE
   8
LEVEL003
   6
CONTINUOUS
  62
7
  10
 383.047
  20
 771.001
  30
0.0
  11
 383.293
  21
 772.031
  31
0.0
   0
LINE
   8
LEVEL003
   6
CONTINUOUS
  62
7
  10
 383.293
  20
 772.031
  30
0.0
  11
 383.401
  21
 773.083
  31
0.0
   0
LINE
   8
LEVEL003
   6
CONTINUOUS
  62
7
  10
 383.401
  20
 773.083
  30
0.0
  11
 383.406
  21
 773.364
  31
0.0
   0
LINE
   8
LEVEL003
   6
CONTINUOUS
  62
7
  10
 365.406
  20
 773.364
  30
0.0
  11
 365.406
  21
 777.263
  31
0.0
   0
LINE
   8
LEVEL003
   6
CONTINUOUS
  62
7
  10
 383.406
  20
 773.364
  30
0.0
  11
 383.406
  21
 777.263
  31
0.0
   0
LINE
   8
LEVEL003
   6
CONTINUOUS
  62
7
  10
 382.406
  20
 773.158
  30
0.0
  11
 382.343
  21
 774.096
  31
0.0
   0
LINE
   8
LEVEL003
   6
CONTINUOUS
  62
7
  10
 382.343
  20
 774.096
  30
0.0
  11
 382.157
  21
 775.018
  31
0.0
   0
LINE
   8
LEVEL003
   6
CONTINUOUS
  62
7
  10
 382.157
  20
 775.018
  30
0.0
  11
 381.850
  21
 775.912
  31
0.0
   0
LINE
   8
LEVEL003
   6
CONTINUOUS
  62
7
  10
 381.850
  20
 775.912
  30
0.0
  11
 381.426
  21
 776.763
  31
0.0
   0
LINE
   8
LEVEL003
   6
CONTINUOUS
  62
7
  10
 381.426
  20
 776.763
  30
0.0
  11
 380.894
  21
 777.557
  31
0.0
   0
LINE
   8
LEVEL003
   6
CONTINUOUS
  62
7
  10
 380.894
  20
 777.557
  30
0.0
  11
 380.259
  21
 778.283
  31
0.0
   0
LINE
   8
LEVEL003
   6
CONTINUOUS
  62
7
  10
 380.259
  20
 778.283
  30
0.0
  11
 379.534
  21
 778.929
  31
0.0
   0
LINE
   8
LEVEL003
   6
CONTINUOUS
  62
7
  10
 379.534
  20
 778.929
  30
0.0
  11
 378.728
  21
 779.484
  31
0.0
   0
LINE
   8
LEVEL003
   6
CONTINUOUS
  62
7
  10
 378.728
  20
 779.484
  30
0.0
  11
 377.855
  21
 779.941
  31
0.0
   0
LINE
   8
LEVEL003
   6
CONTINUOUS
  62
7
  10
 377.855
  20
 779.941
  30
0.0
  11
 376.928
  21
 780.293
  31
0.0
   0
LINE
   8
LEVEL003
   6
CONTINUOUS
  62
7
  10
 376.928
  20
 780.293
  30
0.0
  11
 375.962
  21
 780.532
  31
0.0
   0
LINE
   8
LEVEL003
   6
CONTINUOUS
  62
7
  10
 375.962
  20
 780.532
  30
0.0
  11
 374.972
  21
 780.657
  31
0.0
   0
LINE
   8
LEVEL003
   6
CONTINUOUS
  62
7
  10
 374.972
  20
 780.657
  30
0.0
  11
 373.972
  21
 780.665
  31
0.0
   0
LINE
   8
LEVEL003
   6
CONTINUOUS
  62
7
  10
 373.972
  20
 780.665
  30
0.0
  11
 372.980
  21
 780.556
  31
0.0
   0
LINE
   8
LEVEL003
   6
CONTINUOUS
  62
7
  10
 372.980
  20
 780.556
  30
0.0
  11
 372.010
  21
 780.331
  31
0.0
   0
LINE
   8
LEVEL003
   6
CONTINUOUS
  62
7
  10
 372.010
  20
 780.331
  30
0.0
  11
 371.077
  21
 779.994
  31
0.0
   0
LINE
   8
LEVEL003
   6
CONTINUOUS
  62
7
  10
 371.077
  20
 779.994
  30
0.0
  11
 370.196
  21
 779.551
  31
0.0
   0
LINE
   8
LEVEL003
   6
CONTINUOUS
  62
7
  10
 370.196
  20
 779.551
  30
0.0
  11
 369.380
  21
 779.008
  31
0.0
   0
LINE
   8
LEVEL003
   6
CONTINUOUS
  62
7
  10
 369.380
  20
 779.008
  30
0.0
  11
 368.644
  21
 778.373
  31
0.0
   0
LINE
   8
LEVEL003
   6
CONTINUOUS
  62
7
  10
 368.644
  20
 778.373
  30
0.0
  11
 367.997
  21
 777.658
  31
0.0
   0
LINE
   8
LEVEL003
   6
CONTINUOUS
  62
7
  10
 367.997
  20
 777.658
  30
0.0
  11
 367.450
  21
 776.872
  31
0.0
   0
LINE
   8
LEVEL003
   6
CONTINUOUS
  62
7
  10
 367.450
  20
 776.872
  30
0.0
  11
 367.011
  21
 776.028
  31
0.0
   0
LINE
   8
LEVEL003
   6
CONTINUOUS
  62
7
  10
 367.011
  20
 776.028
  30
0.0
  11
 366.688
  21
 775.139
  31
0.0
   0
LINE
   8
LEVEL003
   6
CONTINUOUS
  62
7
  10
 366.688
  20
 775.139
  30
0.0
  11
 366.486
  21
 774.219
  31
0.0
   0
LINE
   8
LEVEL003
   6
CONTINUOUS
  62
7
  10
 366.486
  20
 774.219
  30
0.0
  11
 366.407
  21
 773.283
  31
0.0
   0
LINE
   8
LEVEL003
   6
CONTINUOUS
  62
7
  10
 366.407
  20
 773.283
  30
0.0
  11
 366.453
  21
 772.345
  31
0.0
   0
LINE
   8
LEVEL003
   6
CONTINUOUS
  62
7
  10
 366.453
  20
 772.345
  30
0.0
  11
 366.623
  21
 771.420
  31
0.0
   0
LINE
   8
LEVEL003
   6
CONTINUOUS
  62
7
  10
 366.623
  20
 771.420
  30
0.0
  11
 366.914
  21
 770.521
  31
0.0
   0
LINE
   8
LEVEL003
   6
CONTINUOUS
  62
7
  10
 366.914
  20
 770.521
  30
0.0
  11
 367.322
  21
 769.664
  31
0.0
   0
LINE
   8
LEVEL003
   6
CONTINUOUS
  62
7
  10
 367.322
  20
 769.664
  30
0.0
  11
 367.841
  21
 768.862
  31
0.0
   0
LINE
   8
LEVEL003
   6
CONTINUOUS
  62
7
  10
 367.841
  20
 768.862
  30
0.0
  11
 368.463
  21
 768.126
  31
0.0
   0
LINE
   8
LEVEL003
   6
CONTINUOUS
  62
7
  10
 368.463
  20
 768.126
  30
0.0
  11
 369.177
  21
 767.469
  31
0.0
   0
LINE
   8
LEVEL003
   6
CONTINUOUS
  62
7
  10
 369.177
  20
 767.469
  30
0.0
  11
 369.972
  21
 766.901
  31
0.0
   0
LINE
   8
LEVEL003
   6
CONTINUOUS
  62
7
  10
 369.972
  20
 766.901
  30
0.0
  11
 370.837
  21
 766.430
  31
0.0
   0
LINE
   8
LEVEL003
   6
CONTINUOUS
  62
7
  10
 370.837
  20
 766.430
  30
0.0
  11
 371.758
  21
 766.065
  31
0.0
   0
LINE
   8
LEVEL003
   6
CONTINUOUS
  62
7
  10
 371.758
  20
 766.065
  30
0.0
  11
 372.719
  21
 765.810
  31
0.0
   0
LINE
   8
LEVEL003
   6
CONTINUOUS
  62
7
  10
 372.719
  20
 765.810
  30
0.0
  11
 373.708
  21
 765.670
  31
0.0
   0
LINE
   8
LEVEL003
   6
CONTINUOUS
  62
7
  10
 373.708
  20
 765.670
  30
0.0
  11
 374.707
  21
 765.646
  31
0.0
   0
LINE
   8
LEVEL003
   6
CONTINUOUS
  62
7
  10
 374.707
  20
 765.646
  30
0.0
  11
 375.701
  21
 765.740
  31
0.0
   0
LINE
   8
LEVEL003
   6
CONTINUOUS
  62
7
  10
 375.701
  20
 765.740
  30
0.0
  11
 376.675
  21
 765.950
  31
0.0
   0
LINE
   8
LEVEL003
   6
CONTINUOUS
  62
7
  10
 376.675
  20
 765.950
  30
0.0
  11
 377.614
  21
 766.272
  31
0.0
   0
LINE
   8
LEVEL003
   6
CONTINUOUS
  62
7
  10
 377.614
  20
 766.272
  30
0.0
  11
 378.502
  21
 766.701
  31
0.0
   0
LINE
   8
LEVEL003
   6
CONTINUOUS
  62
7
  10
 378.502
  20
 766.701
  30
0.0
  11
 379.327
  21
 767.232
  31
0.0
   0
LINE
   8
LEVEL003
   6
CONTINUOUS
  62
7
  10
 379.327
  20
 767.232
  30
0.0
  11
 380.075
  21
 767.855
  31
0.0
   0
LINE
   8
LEVEL003
   6
CONTINUOUS
  62
7
  10
 380.075
  20
 767.855
  30
0.0
  11
 380.735
  21
 768.560
  31
0.0
   0
LINE
   8
LEVEL003
   6
CONTINUOUS
  62
7
  10
 380.735
  20
 768.560
  30
0.0
  11
 381.295
  21
 769.337
  31
0.0
   0
LINE
   8
LEVEL003
   6
CONTINUOUS
  62
7
  10
 381.295
  20
 769.337
  30
0.0
  11
 381.749
  21
 770.174
  31
0.0
   0
LINE
   8
LEVEL003
   6
CONTINUOUS
  62
7
  10
 381.749
  20
 770.174
  30
0.0
  11
 382.087
  21
 771.058
  31
0.0
   0
LINE
   8
LEVEL003
   6
CONTINUOUS
  62
7
  10
 382.087
  20
 771.058
  30
0.0
  11
 382.306
  21
 771.974
  31
0.0
   0
LINE
   8
LEVEL003
   6
CONTINUOUS
  62
7
  10
 382.306
  20
 771.974
  30
0.0
  11
 382.401
  21
 772.909
  31
0.0
   0
LINE
   8
LEVEL003
   6
CONTINUOUS
  62
7
  10
 382.401
  20
 772.909
  30
0.0
  11
 382.406
  21
 773.158
  31
0.0
   0
LINE
   8
LEVEL003
   6
CONTINUOUS
  62
7
  10
 383.406
  20
 777.263
  30
0.0
  11
 383.336
  21
 778.317
  31
0.0
   0
LINE
   8
LEVEL003
   6
CONTINUOUS
  62
7
  10
 383.336
  20
 778.317
  30
0.0
  11
 383.126
  21
 779.355
  31
0.0
   0
LINE
   8
LEVEL003
   6
CONTINUOUS
  62
7
  10
 383.126
  20
 779.355
  30
0.0
  11
 382.780
  21
 780.360
  31
0.0
   0
LINE
   8
LEVEL003
   6
CONTINUOUS
  62
7
  10
 382.780
  20
 780.360
  30
0.0
  11
 382.304
  21
 781.317
  31
0.0
   0
LINE
   8
LEVEL003
   6
CONTINUOUS
  62
7
  10
 382.304
  20
 781.317
  30
0.0
  11
 381.704
  21
 782.211
  31
0.0
   0
LINE
   8
LEVEL003
   6
CONTINUOUS
  62
7
  10
 381.704
  20
 782.211
  30
0.0
  11
 380.991
  21
 783.028
  31
0.0
   0
LINE
   8
LEVEL003
   6
CONTINUOUS
  62
7
  10
 380.991
  20
 783.028
  30
0.0
  11
 380.175
  21
 783.754
  31
0.0
   0
LINE
   8
LEVEL003
   6
CONTINUOUS
  62
7
  10
 380.175
  20
 783.754
  30
0.0
  11
 379.269
  21
 784.379
  31
0.0
   0
LINE
   8
LEVEL003
   6
CONTINUOUS
  62
7
  10
 379.269
  20
 784.379
  30
0.0
  11
 378.286
  21
 784.893
  31
0.0
   0
LINE
   8
LEVEL003
   6
CONTINUOUS
  62
7
  10
 378.286
  20
 784.893
  30
0.0
  11
 377.244
  21
 785.289
  31
0.0
   0
LINE
   8
LEVEL003
   6
CONTINUOUS
  62
7
  10
 377.244
  20
 785.289
  30
0.0
  11
 376.157
  21
 785.558
  31
0.0
   0
LINE
   8
LEVEL003
   6
CONTINUOUS
  62
7
  10
 376.157
  20
 785.558
  30
0.0
  11
 375.042
  21
 785.699
  31
0.0
   0
LINE
   8
LEVEL003
   6
CONTINUOUS
  62
7
  10
 375.042
  20
 785.699
  30
0.0
  11
 373.918
  21
 785.708
  31
0.0
   0
LINE
   8
LEVEL003
   6
CONTINUOUS
  62
7
  10
 373.918
  20
 785.708
  30
0.0
  11
 372.802
  21
 785.585
  31
0.0
   0
LINE
   8
LEVEL003
   6
CONTINUOUS
  62
7
  10
 372.802
  20
 785.585
  30
0.0
  11
 371.710
  21
 785.332
  31
0.0
   0
LINE
   8
LEVEL003
   6
CONTINUOUS
  62
7
  10
 371.710
  20
 785.332
  30
0.0
  11
 370.660
  21
 784.953
  31
0.0
   0
LINE
   8
LEVEL003
   6
CONTINUOUS
  62
7
  10
 370.660
  20
 784.953
  30
0.0
  11
 369.669
  21
 784.454
  31
0.0
   0
LINE
   8
LEVEL003
   6
CONTINUOUS
  62
7
  10
 369.669
  20
 784.454
  30
0.0
  11
 368.752
  21
 783.843
  31
0.0
   0
LINE
   8
LEVEL003
   6
CONTINUOUS
  62
7
  10
 368.752
  20
 783.843
  30
0.0
  11
 367.923
  21
 783.129
  31
0.0
   0
LINE
   8
LEVEL003
   6
CONTINUOUS
  62
7
  10
 367.923
  20
 783.129
  30
0.0
  11
 367.196
  21
 782.324
  31
0.0
   0
LINE
   8
LEVEL003
   6
CONTINUOUS
  62
7
  10
 367.196
  20
 782.324
  30
0.0
  11
 366.580
  21
 781.440
  31
0.0
   0
LINE
   8
LEVEL003
   6
CONTINUOUS
  62
7
  10
 366.580
  20
 781.440
  30
0.0
  11
 366.087
  21
 780.491
  31
0.0
   0
LINE
   8
LEVEL003
   6
CONTINUOUS
  62
7
  10
 366.087
  20
 780.491
  30
0.0
  11
 365.724
  21
 779.491
  31
0.0
   0
LINE
   8
LEVEL003
   6
CONTINUOUS
  62
7
  10
 365.724
  20
 779.491
  30
0.0
  11
 365.496
  21
 778.456
  31
0.0
   0
LINE
   8
LEVEL003
   6
CONTINUOUS
  62
7
  10
 365.496
  20
 778.456
  30
0.0
  11
 365.407
  21
 777.403
  31
0.0
   0
LINE
   8
LEVEL003
   6
CONTINUOUS
  62
7
  10
 365.407
  20
 777.403
  30
0.0
  11
 365.406
  21
 777.263
  31
0.0
   0
LINE
   8
LEVEL003
   6
CONTINUOUS
  62
7
  10
 374.406
  20
 778.389
  30
0.0
  11
 379.406
  21
 776.045
  31
0.0
   0
LINE
   8
LEVEL003
   6
CONTINUOUS
  62
7
  10
 379.406
  20
 776.045
  30
0.0
  11
 379.406
  21
 770.272
  31
0.0
   0
LINE
   8
LEVEL003
   6
CONTINUOUS
  62
7
  10
 379.406
  20
 770.272
  30
0.0
  11
 374.406
  21
 767.928
  31
0.0
   0
LINE
   8
LEVEL003
   6
CONTINUOUS
  62
7
  10
 374.406
  20
 767.928
  30
0.0
  11
 369.406
  21
 770.272
  31
0.0
   0
LINE
   8
LEVEL003
   6
CONTINUOUS
  62
7
  10
 369.406
  20
 770.272
  30
0.0
  11
 369.406
  21
 776.045
  31
0.0
   0
LINE
   8
LEVEL003
   6
CONTINUOUS
  62
7
  10
 369.406
  20
 776.045
  30
0.0
  11
 374.406
  21
 778.389
  31
0.0
   0
LINE
   8
LEVEL003
   6
DASHDOT
  62
1
  10
 386.406
  20
 773.158
  30
0.0
  11
 362.406
  21
 773.158
  31
0.0
   0
LINE
   8
LEVEL003
   6
DASHDOT
  62
1
  10
 366.406
  20
 773.158
  30
0.0
  11
 342.406
  21
 773.158
  31
0.0
   0
LINE
   8
LEVEL001
   6
CONTINUOUS
  62
7
  10
 388.906
  20
 772.263
  30
0.0
  11
 388.906
  21
 788.763
  31
0.0
   0
LINE
   8
LEVEL001
   6
CONTINUOUS
  62
7
  10
 388.906
  20
 821.763
  30
0.0
  11
 388.906
  21
 838.263
  31
0.0
   0
LINE
   8
LEVEL001
   6
CONTINUOUS
  62
7
  10
 356.406
  20
 824.013
  30
0.0
  11
 366.406
  21
 824.013
  31
0.0
   0
LINE
   8
LEVEL001
   6
CONTINUOUS
  62
7
  10
 366.406
  20
 824.013
  30
0.0
  11
 366.406
  21
 823.763
  31
0.0
   0
LINE
   8
LEVEL001
   6
CONTINUOUS
  62
7
  10
 366.406
  20
 824.013
  30
0.0
  11
 365.406
  21
 825.013
  31
0.0
   0
LINE
   8
LEVEL001
   6
CONTINUOUS
  62
7
  10
 356.406
  20
 824.013
  30
0.0
  11
 356.406
  21
 823.763
  31
0.0
   0
LINE
   8
LEVEL001
   6
CONTINUOUS
  62
7
  10
 356.406
  20
 824.013
  30
0.0
  11
 357.406
  21
 825.013
  31
0.0
   0
LINE
   8
LEVEL001
   6
CONTINUOUS
  62
7
  10
 357.406
  20
 825.013
  30
0.0
  11
 365.406
  21
 825.013
  31
0.0
   0
LINE
   8
LEVEL001
   6
CONTINUOUS
  62
7
  10
 356.406
  20
 786.513
  30
0.0
  11
 366.406
  21
 786.513
  31
0.0
   0
LINE
   8
LEVEL001
   6
CONTINUOUS
  62
7
  10
 356.406
  20
 786.513
  30
0.0
  11
 356.406
  21
 786.763
  31
0.0
   0
LINE
   8
LEVEL001
   6
CONTINUOUS
  62
7
  10
 356.406
  20
 786.513
  30
0.0
  11
 357.406
  21
 785.513
  31
0.0
   0
LINE
   8
LEVEL001
   6
CONTINUOUS
  62
7
  10
 366.406
  20
 786.513
  30
0.0
  11
 366.406
  21
 786.763
  31
0.0
   0
LINE
   8
LEVEL001
   6
CONTINUOUS
  62
7
  10
 366.406
  20
 786.513
  30
0.0
  11
 365.406
  21
 785.513
  31
0.0
   0
LINE
   8
LEVEL001
   6
CONTINUOUS
  62
7
  10
 357.406
  20
 785.513
  30
0.0
  11
 365.406
  21
 785.513
  31
0.0
   0
ARC
   8
LEVEL001
   6
CONTINUOUS
  62
7
  10
 361.406
  20
 805.263
  30
0.0
  40
 20.0000
  50
 102.108
  51
 112.332
   0
ARC
   8
LEVEL001
   6
CONTINUOUS
  62
7
  10
 361.406
  20
 805.263
  30
0.0
  40
 20.0000
  50
 67.6685
  51
 77.8932
   0
ARC
   8
LEVEL001
   6
CONTINUOUS
  62
7
  10
 361.406
  20
 805.263
  30
0.0
  40
 20.0000
  50
 80.9313
  51
 99.0687
   0
ARC
   8
LEVEL001
   6
CONTINUOUS
  62
7
  10
 361.406
  20
 805.263
  30
0.0
  40
 20.0000
  50
 247.668
  51
 257.892
   0
ARC
   8
LEVEL001
   6
CONTINUOUS
  62
7
  10
 361.406
  20
 805.263
  30
0.0
  40
 20.0000
  50
 260.931
  51
 279.069
   0
ARC
   8
LEVEL001
   6
CONTINUOUS
  62
7
  10
 361.406
  20
 805.263
  30
0.0
  40
 20.0000
  50
 282.107
  51
 292.332
   0
LINE
   8
LEVEL001
   6
CONTINUOUS
  62
7
  10
 342.457
  20
 776.217
  30
0.0
  11
 342.689
  21
 774.826
  31
0.0
   0
LINE
   8
LEVEL001
   6
CONTINUOUS
  62
7
  10
 342.689
  20
 774.826
  30
0.0
  11
 343.104
  21
 773.472
  31
0.0
   0
LINE
   8
LEVEL001
   6
CONTINUOUS
  62
7
  10
 343.104
  20
 773.472
  30
0.0
  11
 343.695
  21
 772.178
  31
0.0
   0
LINE
   8
LEVEL001
   6
CONTINUOUS
  62
7
  10
 343.695
  20
 772.178
  30
0.0
  11
 344.453
  21
 770.962
  31
0.0
   0
LINE
   8
LEVEL001
   6
CONTINUOUS
  62
7
  10
 344.453
  20
 770.962
  30
0.0
  11
 345.367
  21
 769.846
  31
0.0
   0
LINE
   8
LEVEL001
   6
CONTINUOUS
  62
7
  10
 345.367
  20
 769.846
  30
0.0
  11
 346.422
  21
 768.845
  31
0.0
   0
LINE
   8
LEVEL001
   6
CONTINUOUS
  62
7
  10
 346.422
  20
 768.845
  30
0.0
  11
 347.295
  21
 768.179
  31
0.0
   0
LINE
   8
LEVEL001
   6
CONTINUOUS
  62
7
  10
 358.807
  20
 765.986
  30
0.0
  11
 370.005
  21
 765.986
  31
0.0
   0
LINE
   8
LEVEL001
   6
CONTINUOUS
  62
7
  10
 381.517
  20
 768.179
  30
0.0
  11
 382.666
  21
 769.083
  31
0.0
   0
LINE
   8
LEVEL001
   6
CONTINUOUS
  62
7
  10
 382.666
  20
 769.083
  30
0.0
  11
 383.687
  21
 770.115
  31
0.0
   0
LINE
   8
LEVEL001
   6
CONTINUOUS
  62
7
  10
 383.687
  20
 770.115
  30
0.0
  11
 384.563
  21
 771.258
  31
0.0
   0
LINE
   8
LEVEL001
   6
CONTINUOUS
  62
7
  10
 384.563
  20
 771.258
  30
0.0
  11
 385.280
  21
 772.495
  31
0.0
   0
LINE
   8
LEVEL001
   6
CONTINUOUS
  62
7
  10
 385.280
  20
 772.495
  30
0.0
  11
 385.828
  21
 773.806
  31
0.0
   0
LINE
   8
LEVEL001
   6
CONTINUOUS
  62
7
  10
 385.828
  20
 773.806
  30
0.0
  11
 386.198
  21
 775.171
  31
0.0
   0
LINE
   8
LEVEL001
   6
CONTINUOUS
  62
7
  10
 386.198
  20
 775.171
  30
0.0
  11
 386.354
  21
 776.217
  31
0.0
   0
LINE
   8
LEVEL001
   6
DASHDOT
  62
1
  10
 338.406
  20
 777.316
  30
0.0
  11
 338.406
  21
 832.316
  31
0.0
   0
LINE
   8
LEVEL001
   6
CONTINUOUS
  62
7
  10
 333.406
  20
 828.763
  30
0.0
  11
 334.406
  21
 829.763
  31
0.0
   0
LINE
   8
LEVEL001
   6
CONTINUOUS
  62
7
  10
 334.406
  20
 829.763
  30
0.0
  11
 342.406
  21
 829.763
  31
0.0
   0
LINE
   8
LEVEL001
   6
CONTINUOUS
  62
7
  10
 342.406
  20
 829.763
  30
0.0
  11
 343.406
  21
 828.763
  31
0.0
   0
LINE
   8
LEVEL001
   6
CONTINUOUS
  62
7
  10
 333.406
  20
 828.763
  30
0.0
  11
 343.406
  21
 828.763
  31
0.0
   0
LINE
   8
LEVEL001
   6
CONTINUOUS
  62
7
  10
 342.451
  20
 776.217
  30
0.0
  11
 342.054
  21
 780.763
  31
0.0
   0
ARC
   8
LEVEL001
   6
CONTINUOUS
  62
7
  10
 324.791
  20
 826.263
  30
0.0
  40
 0.800000
  50
 90.0000
  51
 270.000
   0
LINE
   8
LEVEL001
   6
CONTINUOUS
  62
7
  10
 324.791
  20
 827.063
  30
0.0
  11
 351.702
  21
 827.063
  31
0.0
   0
LINE
   8
LEVEL001
   6
CONTINUOUS
  62
7
  10
 324.791
  20
 825.463
  30
0.0
  11
 351.702
  21
 825.463
  31
0.0
   0
LINE
   8
LEVEL001
   6
DASHDOT
  62
1
  10
 323.248
  20
 826.263
  30
0.0
  11
 352.620
  21
 826.263
  31
0.0
   0
LINE
   8
LEVEL001
   6
CONTINUOUS
  62
7
  10
 351.702
  20
 827.063
  30
0.0
  11
 351.702
  21
 825.463
  31
0.0
   0
ARC
   8
LEVEL001
   6
CONTINUOUS
  62
7
  10
 349.520
  20
 826.263
  30
0.0
  40
 0.800000
  50
 270.000
  51
 90.0000
   0
LINE
   8
LEVEL001
   6
CONTINUOUS
  62
7
  10
 343.406
  20
 827.063
  30
0.0
  11
 343.406
  21
 828.763
  31
0.0
   0
LINE
   8
LEVEL001
   6
CONTINUOUS
  62
7
  10
 333.406
  20
 828.763
  30
0.0
  11
 333.406
  21
 827.063
  31
0.0
   0
LINE
   8
LEVEL001
   6
CONTINUOUS
  62
7
  10
 333.406
  20
 825.463
  30
0.0
  11
 333.406
  21
 823.763
  31
0.0
   0
LINE
   8
LEVEL001
   6
CONTINUOUS
  62
7
  10
 333.406
  20
 781.763
  30
0.0
  11
 334.406
  21
 780.763
  31
0.0
   0
LINE
   8
LEVEL001
   6
CONTINUOUS
  62
7
  10
 334.406
  20
 780.763
  30
0.0
  11
 342.406
  21
 780.763
  31
0.0
   0
LINE
   8
LEVEL001
   6
CONTINUOUS
  62
7
  10
 333.406
  20
 781.763
  30
0.0
  11
 343.406
  21
 781.763
  31
0.0
   0
LINE
   8
LEVEL001
   6
CONTINUOUS
  62
7
  10
 324.791
  20
 783.463
  30
0.0
  11
 351.702
  21
 783.463
  31
0.0
   0
LINE
   8
LEVEL001
   6
CONTINUOUS
  62
7
  10
 324.791
  20
 785.063
  30
0.0
  11
 351.702
  21
 785.063
  31
0.0
   0
LINE
   8
LEVEL001
   6
DASHDOT
  62
1
  10
 323.248
  20
 784.263
  30
0.0
  11
 352.620
  21
 784.263
  31
0.0
   0
LINE
   8
LEVEL001
   6
CONTINUOUS
  62
7
  10
 333.406
  20
 781.763
  30
0.0
  11
 333.406
  21
 783.463
  31
0.0
   0
LINE
   8
LEVEL001
   6
CONTINUOUS
  62
7
  10
 333.406
  20
 785.063
  30
0.0
  11
 333.406
  21
 786.763
  31
0.0
   0
LINE
   8
LEVEL001
   6
CONTINUOUS
  62
7
  10
 342.406
  20
 780.763
  30
0.0
  11
 343.406
  21
 781.763
  31
0.0
   0
LINE
   8
LEVEL001
   6
CONTINUOUS
  62
7
  10
 343.406
  20
 783.463
  30
0.0
  11
 343.406
  21
 781.763
  31
0.0
   0
LINE
   8
LEVEL001
   6
CONTINUOUS
  62
7
  10
 351.702
  20
 783.463
  30
0.0
  11
 351.702
  21
 785.063
  31
0.0
   0
ARC
   8
LEVEL001
   6
CONTINUOUS
  62
7
  10
 349.520
  20
 784.263
  30
0.0
  40
 0.800000
  50
 270.000
  51
 90.0000
   0
ARC
   8
LEVEL001
   6
CONTINUOUS
  62
7
  10
 324.791
  20
 784.263
  30
0.0
  40
 0.800000
  50
 90.0000
  51
 270.000
   0
LINE
   8
LEVEL001
   6
CONTINUOUS
  62
7
  10
 343.406
  20
 823.763
  30
0.0
  11
 343.406
  21
 825.463
  31
0.0
   0
LINE
   8
LEVEL001
   6
CONTINUOUS
  62
7
  10
 343.406
  20
 786.763
  30
0.0
  11
 343.406
  21
 785.063
  31
0.0
   0
LINE
   8
LEVEL003
   6
CONTINUOUS
  62
7
  10
 363.406
  20
 777.263
  30
0.0
  11
 363.336
  21
 778.317
  31
0.0
   0
LINE
   8
LEVEL003
   6
CONTINUOUS
  62
7
  10
 363.336
  20
 778.317
  30
0.0
  11
 363.126
  21
 779.355
  31
0.0
   0
LINE
   8
LEVEL003
   6
CONTINUOUS
  62
7
  10
 363.126
  20
 779.355
  30
0.0
  11
 362.780
  21
 780.360
  31
0.0
   0
LINE
   8
LEVEL003
   6
CONTINUOUS
  62
7
  10
 362.780
  20
 780.360
  30
0.0
  11
 362.304
  21
 781.317
  31
0.0
   0
LINE
   8
LEVEL003
   6
CONTINUOUS
  62
7
  10
 362.304
  20
 781.317
  30
0.0
  11
 361.704
  21
 782.211
  31
0.0
   0
LINE
   8
LEVEL003
   6
CONTINUOUS
  62
7
  10
 361.704
  20
 782.211
  30
0.0
  11
 360.991
  21
 783.028
  31
0.0
   0
LINE
   8
LEVEL003
   6
CONTINUOUS
  62
7
  10
 360.991
  20
 783.028
  30
0.0
  11
 360.175
  21
 783.754
  31
0.0
   0
LINE
   8
LEVEL003
   6
CONTINUOUS
  62
7
  10
 360.175
  20
 783.754
  30
0.0
  11
 359.269
  21
 784.379
  31
0.0
   0
LINE
   8
LEVEL003
   6
CONTINUOUS
  62
7
  10
 359.269
  20
 784.379
  30
0.0
  11
 358.286
  21
 784.893
  31
0.0
   0
LINE
   8
LEVEL003
   6
CONTINUOUS
  62
7
  10
 358.286
  20
 784.893
  30
0.0
  11
 357.244
  21
 785.289
  31
0.0
   0
LINE
   8
LEVEL003
   6
CONTINUOUS
  62
7
  10
 357.244
  20
 785.289
  30
0.0
  11
 356.157
  21
 785.558
  31
0.0
   0
LINE
   8
LEVEL003
   6
CONTINUOUS
  62
7
  10
 356.157
  20
 785.558
  30
0.0
  11
 355.042
  21
 785.699
  31
0.0
   0
LINE
   8
LEVEL003
   6
CONTINUOUS
  62
7
  10
 355.042
  20
 785.699
  30
0.0
  11
 353.918
  21
 785.708
  31
0.0
   0
LINE
   8
LEVEL003
   6
CONTINUOUS
  62
7
  10
 353.918
  20
 785.708
  30
0.0
  11
 352.802
  21
 785.585
  31
0.0
   0
LINE
   8
LEVEL003
   6
CONTINUOUS
  62
7
  10
 352.802
  20
 785.585
  30
0.0
  11
 351.710
  21
 785.332
  31
0.0
   0
LINE
   8
LEVEL003
   6
CONTINUOUS
  62
7
  10
 351.710
  20
 785.332
  30
0.0
  11
 350.927
  21
 785.063
  31
0.0
   0
LINE
   8
LEVEL003
   6
CONTINUOUS
  62
7
  10
 348.285
  20
 783.463
  30
0.0
  11
 347.510
  21
 782.697
  31
0.0
   0
LINE
   8
LEVEL003
   6
CONTINUOUS
  62
7
  10
 347.510
  20
 782.697
  30
0.0
  11
 346.843
  21
 781.847
  31
0.0
   0
LINE
   8
LEVEL003
   6
CONTINUOUS
  62
7
  10
 346.843
  20
 781.847
  30
0.0
  11
 346.293
  21
 780.925
  31
0.0
   0
LINE
   8
LEVEL003
   6
CONTINUOUS
  62
7
  10
 346.293
  20
 780.925
  30
0.0
  11
 345.871
  21
 779.946
  31
0.0
   0
LINE
   8
LEVEL003
   6
CONTINUOUS
  62
7
  10
 345.871
  20
 779.946
  30
0.0
  11
 345.581
  21
 778.925
  31
0.0
   0
LINE
   8
LEVEL003
   6
CONTINUOUS
  62
7
  10
 345.581
  20
 778.925
  30
0.0
  11
 345.430
  21
 777.878
  31
0.0
   0
LINE
   8
LEVEL003
   6
CONTINUOUS
  62
7
  10
 345.430
  20
 777.878
  30
0.0
  11
 345.406
  21
 777.263
  31
0.0
   0
LINE
   8
LEVEL001
   6
CONTINUOUS
  62
7
  10
 343.946
  20
 836.178
  30
0.0
  11
 343.306
  21
 828.863
  31
0.0
   0
ARC
   8
LEVEL001
   6
CONTINUOUS
  62
7
  10
 339.058
  20
 837.263
  30
0.0
  40
 5.00000
  50
 270.000
  51
 355.000
   0
LINE
   8
LEVEL001
   6
CONTINUOUS
  62
7
  10
 316.601
  20
 832.263
  30
0.0
  11
 339.058
  21
 832.263
  31
0.0
   0
LINE
   8
LEVEL001
   6
CONTINUOUS
  62
7
  10
 315.204
  20
 819.832
  30
0.0
  11
 315.027
  21
 814.762
  31
0.0
   0
LINE
   8
LEVEL001
   6
CONTINUOUS
  62
7
  10
 315.027
  20
 795.763
  30
0.0
  11
 315.204
  21
 790.693
  31
0.0
   0
LINE
   8
LEVEL001
   6
CONTINUOUS
  62
7
  10
 324.562
  20
 814.763
  30
0.0
  11
 324.321
  21
 812.001
  31
0.0
   0
LINE
   8
LEVEL001
   6
CONTINUOUS
  62
7
  10
 328.683
  20
 812.001
  30
0.0
  11
 328.925
  21
 814.763
  31
0.0
   0
LINE
   8
LEVEL001
   6
CONTINUOUS
  62
7
  10
 328.406
  20
 805.263
  30
0.0
  11
 329.237
  21
 814.763
  31
0.0
   0
LINE
   8
LEVEL001
   6
CONTINUOUS
  62
7
  10
 315.010
  20
 795.763
  30
0.0
  11
 338.978
  21
 795.763
  31
0.0
   0
LINE
   8
LEVEL001
   6
CONTINUOUS
  62
7
  10
 315.010
  20
 814.763
  30
0.0
  11
 338.978
  21
 814.763
  31
0.0
   0
LINE
   8
LEVEL001
   6
CONTINUOUS
  62
7
  10
 338.978
  20
 814.763
  30
0.0
  11
 338.978
  21
 795.763
  31
0.0
   0
LINE
   8
LEVEL001
   6
CONTINUOUS
  62
7
  10
 328.683
  20
 798.524
  30
0.0
  11
 328.925
  21
 795.763
  31
0.0
   0
LINE
   8
LEVEL001
   6
CONTINUOUS
  62
7
  10
 328.406
  20
 805.263
  30
0.0
  11
 329.237
  21
 795.763
  31
0.0
   0
LINE
   8
LEVEL001
   6
CONTINUOUS
  62
7
  10
 351.906
  20
 848.263
  30
0.0
  11
 374.062
  21
 848.263
  31
0.0
   0
LINE
   8
LEVEL001
   6
CONTINUOUS
  62
7
  10
 388.406
  20
 771.263
  30
0.0
  11
 388.906
  21
 771.763
  31
0.0
   0
LINE
   8
LEVEL001
   6
CONTINUOUS
  62
7
  10
 388.906
  20
 771.763
  30
0.0
  11
 388.906
  21
 772.763
  31
0.0
   0
ARC
   8
LEVEL001
   6
CONTINUOUS
  62
7
  10
 317.301
  20
 772.263
  30
0.0
  40
 2.00000
  50
 185.000
  51
 270.000
   0
LINE
   8
LEVEL001
   6
CONTINUOUS
  62
7
  10
 314.906
  20
 776.688
  30
0.0
  11
 315.308
  21
 772.088
  31
0.0
   0
LINE
   8
LEVEL001
   6
CONTINUOUS
  62
7
  10
 317.301
  20
 770.263
  30
0.0
  11
 344.998
  21
 770.263
  31
0.0
   0
LINE
   8
LEVEL001
   6
DASHDOT
  62
1
  10
 313.030
  20
 777.263
  30
0.0
  11
 382.283
  21
 777.263
  31
0.0
   0
LINE
   8
LEVEL001
   6
CONTINUOUS
  62
7
  10
 378.978
  20
 766.079
  30
0.0
  11
 378.256
  21
 757.827
  31
0.0
   0
LINE
   8
LEVEL003
   6
CONTINUOUS
  62
7
  10
 384.566
  20
 771.263
  30
0.0
  11
 388.406
  21
 771.263
  31
0.0
   0
LINE
   8
LEVEL001
   6
CONTINUOUS
  62
7
  10
 326.231
  20
 845.267
  30
0.0
  11
 325.493
  21
 836.827
  31
0.0
   0
ARC
   8
LEVEL001
   6
CONTINUOUS
  62
7
  10
 320.512
  20
 837.263
  30
0.0
  40
 5.00000
  50
 270.000
  51
 355.000
   0
LINE
   8
LEVEL001
   6
CONTINUOUS
  62
7
  10
 327.318
  20
 846.263
  30
0.0
  11
 326.231
  21
 845.267
  31
0.0
   0
LINE
   8
LEVEL001
   6
CONTINUOUS
  62
7
  10
 353.493
  20
 846.263
  30
0.0
  11
 354.580
  21
 845.267
  31
0.0
   0
LINE
   8
LEVEL001
   6
CONTINUOUS
  62
7
  10
 327.318
  20
 846.263
  30
0.0
  11
 340.406
  21
 846.263
  31
0.0
   0
LINE
   8
LEVEL001
   6
CONTINUOUS
  62
7
  10
 353.493
  20
 846.263
  30
0.0
  11
 340.406
  21
 846.263
  31
0.0
   0
LINE
   8
LEVEL001
   6
CONTINUOUS
  62
7
  10
 326.231
  20
 845.267
  30
0.0
  11
 354.580
  21
 845.267
  31
0.0
   0
LINE
   8
LEVEL003
   6
CONTINUOUS
  62
7
  10
 340.406
  20
 846.263
  30
0.0
  11
 340.406
  21
 856.236
  31
0.0
   0
ARC
   8
LEVEL003
   6
CONTINUOUS
  62
7
  10
 346.156
  20
 840.655
  30
0.0
  40
 16.6080
  50
 69.7438
  51
 110.256
   0
ARC
   8
LEVEL003
   6
CONTINUOUS
  62
7
  10
 334.656
  20
 840.655
  30
0.0
  40
 16.6080
  50
 69.7438
  51
 110.256
   0
LINE
   8
LEVEL003
   6
CONTINUOUS
  62
7
  10
 351.906
  20
 846.263
  30
0.0
  11
 351.906
  21
 857.263
  31
0.0
   0
LINE
   8
LEVEL003
   6
CONTINUOUS
  62
7
  10
 351.906
  20
 857.263
  30
0.0
  11
 328.906
  21
 857.263
  31
0.0
   0
LINE
   8
LEVEL003
   6
CONTINUOUS
  62
7
  10
 328.906
  20
 857.263
  30
0.0
  11
 328.906
  21
 846.263
  31
0.0
   0
LINE
   8
LEVEL001
   6
DASHDOT
  62
1
  10
 340.406
  20
 892.951
  30
0.0
  11
 340.406
  21
 835.000
  31
0.0
   0
LINE
   8
LEVEL001
   6
CONTINUOUS
  62
7
  10
 328.198
  20
 865.855
  30
0.0
  11
 335.406
  21
 865.855
  31
0.0
   0
LINE
   8
LEVEL001
   6
CONTINUOUS
  62
7
  10
 345.406
  20
 865.855
  30
0.0
  11
 352.614
  21
 865.855
  31
0.0
   0
ARC
   8
LEVEL001
   6
CONTINUOUS
  62
7
  10
 322.821
  20
 872.855
  30
0.0
  40
 3.00000
  50
 8.53108
  51
 89.9986
   0
ARC
   8
LEVEL001
   6
CONTINUOUS
  62
7
  10
 317.548
  20
 885.080
  30
0.0
  40
 2.00000
  50
 98.8840
  51
 180.000
   0
LINE
   8
LEVEL001
   6
CONTINUOUS
  62
7
  10
 323.113
  20
 887.855
  30
0.0
  11
 357.696
  21
 887.855
  31
0.0
   0
ARC
   8
LEVEL001
   6
CONTINUOUS
  62
7
  10
 340.404
  20
 738.855
  30
0.0
  40
 150.000
  50
 96.6196
  51
 98.8839
   0
LINE
   8
LEVEL001
   6
CONTINUOUS
  62
7
  10
 315.548
  20
 876.855
  30
0.0
  11
 315.548
  21
 885.080
  31
0.0
   0
ARC
   8
LEVEL001
   6
CONTINUOUS
  62
7
  10
 316.548
  20
 876.855
  30
0.0
  40
 1.00000
  50
 180.000
  51
 270.000
   0
LINE
   8
LEVEL001
   6
CONTINUOUS
  62
7
  10
 316.548
  20
 875.855
  30
0.0
  11
 340.406
  21
 875.855
  31
0.0
   0
ARC
   8
LEVEL010
   6
CONTINUOUS
  62
7
  10
 327.932
  20
 876.855
  30
0.0
  40
 1.00000
  50
 180.000
  51
 270.000
   0
ARC
   8
LEVEL010
   6
CONTINUOUS
  62
7
  10
 328.932
  20
 885.056
  30
0.0
  40
 2.00000
  50
 90.0000
  51
 180.000
   0
LINE
   8
LEVEL010
   6
CONTINUOUS
  62
7
  10
 336.906
  20
 887.855
  30
0.0
  11
 328.735
  21
 887.046
  31
0.0
   0
ARC
   8
LEVEL010
   6
CONTINUOUS
  62
7
  10
 325.932
  20
 876.855
  30
0.0
  40
 1.00000
  50
 270.000
  51
0.0
   0
ARC
   8
LEVEL010
   6
CONTINUOUS
  62
7
  10
 324.932
  20
 885.056
  30
0.0
  40
 2.00000
  50
0.0
  51
 90.0000
   0
LINE
   8
LEVEL010
   6
CONTINUOUS
  62
7
  10
 326.932
  20
 876.855
  30
0.0
  11
 326.932
  21
 885.056
  31
0.0
   0
LINE
   8
LEVEL010
   6
CONTINUOUS
  62
7
  10
 324.932
  20
 887.056
  30
0.0
  11
 319.431
  21
 887.056
  31
0.0
   0
LINE
   8
LEVEL010
   6
CONTINUOUS
  62
7
  10
 336.906
  20
 876.855
  30
0.0
  11
 336.906
  21
 885.056
  31
0.0
   0
ARC
   8
LEVEL001
   6
CONTINUOUS
  62
7
  10
 357.988
  20
 872.855
  30
0.0
  40
 3.00000
  50
 89.9990
  51
 171.469
   0
ARC
   8
LEVEL001
   6
CONTINUOUS
  62
7
  10
 364.261
  20
 876.855
  30
0.0
  40
 1.00000
  50
 270.000
  51
 0.168055E-8
   0
ARC
   8
LEVEL001
   6
CONTINUOUS
  62
7
  10
 363.261
  20
 885.080
  30
0.0
  40
 2.00000
  50
 0.651378E-10
  51
 81.1169
   0
LINE
   8
LEVEL001
   6
CONTINUOUS
  62
7
  10
 365.261
  20
 876.855
  30
0.0
  11
 365.261
  21
 885.080
  31
0.0
   0
ARC
   8
LEVEL001
   6
CONTINUOUS
  62
7
  10
 340.405
  20
 738.855
  30
0.0
  40
 150.000
  50
 81.1161
  51
 83.3804
   0
LINE
   8
LEVEL001
   6
CONTINUOUS
  62
7
  10
 340.406
  20
 875.855
  30
0.0
  11
 364.261
  21
 875.855
  31
0.0
   0
ARC
   8
LEVEL010
   6
CONTINUOUS
  62
7
  10
 352.879
  20
 876.855
  30
0.0
  40
 1.00000
  50
 270.000
  51
 0.781653E-9
   0
ARC
   8
LEVEL010
   6
CONTINUOUS
  62
7
  10
 351.879
  20
 885.056
  30
0.0
  40
 2.00000
  50
0.0
  51
 90.0000
   0
LINE
   8
LEVEL010
   6
CONTINUOUS
  62
7
  10
 343.906
  20
 887.855
  30
0.0
  11
 352.077
  21
 887.046
  31
0.0
   0
ARC
   8
LEVEL010
   6
CONTINUOUS
  62
7
  10
 354.879
  20
 876.855
  30
0.0
  40
 1.00000
  50
 180.000
  51
 270.000
   0
ARC
   8
LEVEL010
   6
CONTINUOUS
  62
7
  10
 355.879
  20
 885.056
  30
0.0
  40
 2.00000
  50
 90.0000
  51
 180.000
   0
LINE
   8
LEVEL010
   6
CONTINUOUS
  62
7
  10
 353.879
  20
 876.855
  30
0.0
  11
 353.879
  21
 885.056
  31
0.0
   0
LINE
   8
LEVEL010
   6
CONTINUOUS
  62
7
  10
 355.879
  20
 887.056
  30
0.0
  11
 361.381
  21
 887.056
  31
0.0
   0
LINE
   8
LEVEL010
   6
CONTINUOUS
  62
7
  10
 343.906
  20
 876.855
  30
0.0
  11
 343.906
  21
 885.056
  31
0.0
   0
ARC
   8
LEVEL001
   6
CONTINUOUS
  62
7
  10
 352.182
  20
 867.855
  30
0.0
  40
 2.00000
  50
 270.001
  51
 351.469
   0
LINE
   8
LEVEL001
   6
CONTINUOUS
  62
7
  10
 354.160
  20
 867.559
  30
0.0
  11
 355.021
  21
 873.300
  31
0.0
   0
LINE
   8
LEVEL001
   6
CONTINUOUS
  62
7
  10
 340.406
  20
 865.855
  30
0.0
  11
 352.182
  21
 865.855
  31
0.0
   0
ARC
   8
LEVEL001
   6
CONTINUOUS
  62
7
  10
 328.627
  20
 867.855
  30
0.0
  40
 2.00000
  50
 188.531
  51
 270.001
   0
LINE
   8
LEVEL001
   6
CONTINUOUS
  62
7
  10
 326.649
  20
 867.559
  30
0.0
  11
 325.788
  21
 873.300
  31
0.0
   0
LINE
   8
LEVEL001
   6
CONTINUOUS
  62
7
  10
 328.627
  20
 865.855
  30
0.0
  11
 340.406
  21
 865.855
  31
0.0
   0
ARC
   8
LEVEL001
   6
CONTINUOUS
  62
7
  10
 340.406
  20
 738.855
  30
0.0
  40
 150.000
  50
 80.9510
  51
 99.0490
   0
LINE
   8
LEVEL001
   6
CONTINUOUS
  62
7
  10
 334.054
  20
 865.855
  30
0.0
  11
 334.054
  21
 857.263
  31
0.0
   0
LINE
   8
LEVEL001
   6
CONTINUOUS
  62
7
  10
 346.754
  20
 865.855
  30
0.0
  11
 346.754
  21
 857.263
  31
0.0
   0
POINT
   8
LEVEL001
  62
7
  10
 342.406
  20
 805.263
  30
0.0
   0
POINT
   8
LEVEL001
  62
7
  10
 314.906
  20
 798.263
  30
0.0
   0
LINE
   8
LEVEL001
   6
CONTINUOUS
  62
7
  10
 409.406
  20
 833.263
  30
0.0
  11
 409.406
  21
 833.463
  31
0.0
   0
LINE
   8
LEVEL001
   6
CONTINUOUS
  62
7
  10
 405.406
  20
 837.763
  30
0.0
  11
 406.406
  21
 836.763
  31
0.0
   0
LINE
   8
LEVEL001
   6
CONTINUOUS
  62
7
  10
 406.406
  20
 836.763
  30
0.0
  11
 406.406
  21
 821.763
  31
0.0
   0
ARC
   8
LEVEL001
   6
CONTINUOUS
  62
7
  10
 405.406
  20
 829.688
  30
0.0
  40
 5.50000
  50
 43.3418
  51
 79.5243
   0
LINE
   8
LEVEL001
   6
CONTINUOUS
  62
7
  10
 406.406
  20
 833.263
  30
0.0
  11
 415.406
  21
 833.263
  31
0.0
   0
LINE
   8
LEVEL003
   6
CONTINUOUS
  62
7
  10
 415.406
  20
 821.763
  30
0.0
  11
 415.406
  21
 833.763
  31
0.0
   0
LINE
   8
LEVEL001
   6
CONTINUOUS
  62
7
  10
 405.406
  20
 837.763
  30
0.0
  11
 405.406
  21
 821.763
  31
0.0
   0
LINE
   8
LEVEL001
   6
CONTINUOUS
  62
7
  10
 406.406
  20
 777.263
  30
0.0
  11
 415.406
  21
 777.263
  31
0.0
   0
LINE
   8
LEVEL001
   6
CONTINUOUS
  62
7
  10
 406.406
  20
 788.763
  30
0.0
  11
 406.406
  21
 773.763
  31
0.0
   0
LINE
   8
LEVEL001
   6
CONTINUOUS
  62
7
  10
 406.406
  20
 773.763
  30
0.0
  11
 405.406
  21
 772.763
  31
0.0
   0
LINE
   8
LEVEL003
   6
CONTINUOUS
  62
7
  10
 415.406
  20
 776.763
  30
0.0
  11
 415.406
  21
 788.763
  31
0.0
   0
LINE
   8
LEVEL001
   6
CONTINUOUS
  62
7
  10
 405.406
  20
 788.763
  30
0.0
  11
 405.406
  21
 772.763
  31
0.0
   0
LINE
   8
LEVEL001
   6
CONTINUOUS
  62
7
  10
 405.406
  20
 837.763
  30
0.0
  11
 388.906
  21
 837.763
  31
0.0
   0
LINE
   8
LEVEL001
   6
CONTINUOUS
  62
7
  10
 388.906
  20
 772.763
  30
0.0
  11
 405.406
  21
 772.763
  31
0.0
   0
CIRCLE
   8
LEVEL001
   6
CONTINUOUS
  62
7
  10
 354.406
  20
 835.263
  30
0.0
  40
 7.50000
   0
LINE
   8
LEVEL001
   6
CONTINUOUS
  62
7
  10
 354.406
  20
 825.801
  30
0.0
  11
 345.906
  21
 830.355
  31
0.0
   0
LINE
   8
LEVEL001
   6
CONTINUOUS
  62
7
  10
 345.906
  20
 830.355
  30
0.0
  11
 345.906
  21
 839.636
  31
0.0
   0
LINE
   8
LEVEL001
   6
CONTINUOUS
  62
7
  10
 345.906
  20
 839.636
  30
0.0
  11
 354.406
  21
 844.247
  31
0.0
   0
LINE
   8
LEVEL001
   6
CONTINUOUS
  62
7
  10
 354.406
  20
 844.247
  30
0.0
  11
 362.906
  21
 839.636
  31
0.0
   0
LINE
   8
LEVEL001
   6
CONTINUOUS
  62
7
  10
 362.906
  20
 839.636
  30
0.0
  11
 362.906
  21
 830.355
  31
0.0
   0
LINE
   8
LEVEL001
   6
CONTINUOUS
  62
7
  10
 362.906
  20
 830.355
  30
0.0
  11
 354.406
  21
 825.801
  31
0.0
   0
LINE
   8
LEVEL001
   6
CONTINUOUS
  62
7
  10
 345.906
  20
 834.998
  30
0.0
  11
 345.972
  21
 834.002
  31
0.0
   0
LINE
   8
LEVEL001
   6
CONTINUOUS
  62
7
  10
 345.972
  20
 834.002
  30
0.0
  11
 346.170
  21
 833.022
  31
0.0
   0
LINE
   8
LEVEL001
   6
CONTINUOUS
  62
7
  10
 346.170
  20
 833.022
  30
0.0
  11
 346.496
  21
 832.073
  31
0.0
   0
LINE
   8
LEVEL001
   6
CONTINUOUS
  62
7
  10
 346.496
  20
 832.073
  30
0.0
  11
 346.946
  21
 831.169
  31
0.0
   0
LINE
   8
LEVEL001
   6
CONTINUOUS
  62
7
  10
 346.946
  20
 831.169
  30
0.0
  11
 347.513
  21
 830.325
  31
0.0
   0
LINE
   8
LEVEL001
   6
CONTINUOUS
  62
7
  10
 347.513
  20
 830.325
  30
0.0
  11
 348.186
  21
 829.554
  31
0.0
   0
LINE
   8
LEVEL001
   6
CONTINUOUS
  62
7
  10
 348.186
  20
 829.554
  30
0.0
  11
 348.957
  21
 828.867
  31
0.0
   0
LINE
   8
LEVEL001
   6
CONTINUOUS
  62
7
  10
 348.957
  20
 828.867
  30
0.0
  11
 349.813
  21
 828.277
  31
0.0
   0
LINE
   8
LEVEL001
   6
CONTINUOUS
  62
7
  10
 349.813
  20
 828.277
  30
0.0
  11
 350.741
  21
 827.791
  31
0.0
   0
LINE
   8
LEVEL001
   6
CONTINUOUS
  62
7
  10
 350.741
  20
 827.791
  30
0.0
  11
 351.726
  21
 827.418
  31
0.0
   0
LINE
   8
LEVEL001
   6
CONTINUOUS
  62
7
  10
 351.726
  20
 827.418
  30
0.0
  11
 352.752
  21
 827.163
  31
0.0
   0
LINE
   8
LEVEL001
   6
CONTINUOUS
  62
7
  10
 352.752
  20
 827.163
  30
0.0
  11
 353.805
  21
 827.031
  31
0.0
   0
LINE
   8
LEVEL001
   6
CONTINUOUS
  62
7
  10
 353.805
  20
 827.031
  30
0.0
  11
 354.866
  21
 827.022
  31
0.0
   0
LINE
   8
LEVEL001
   6
CONTINUOUS
  62
7
  10
 354.866
  20
 827.022
  30
0.0
  11
 355.921
  21
 827.139
  31
0.0
   0
LINE
   8
LEVEL001
   6
CONTINUOUS
  62
7
  10
 355.921
  20
 827.139
  30
0.0
  11
 356.952
  21
 827.377
  31
0.0
   0
LINE
   8
LEVEL001
   6
CONTINUOUS
  62
7
  10
 356.952
  20
 827.377
  30
0.0
  11
 357.943
  21
 827.735
  31
0.0
   0
LINE
   8
LEVEL001
   6
CONTINUOUS
  62
7
  10
 357.943
  20
 827.735
  30
0.0
  11
 358.879
  21
 828.206
  31
0.0
   0
LINE
   8
LEVEL001
   6
CONTINUOUS
  62
7
  10
 358.879
  20
 828.206
  30
0.0
  11
 359.745
  21
 828.783
  31
0.0
   0
LINE
   8
LEVEL001
   6
CONTINUOUS
  62
7
  10
 359.745
  20
 828.783
  30
0.0
  11
 360.528
  21
 829.457
  31
0.0
   0
LINE
   8
LEVEL001
   6
CONTINUOUS
  62
7
  10
 360.528
  20
 829.457
  30
0.0
  11
 361.216
  21
 830.218
  31
0.0
   0
LINE
   8
LEVEL001
   6
CONTINUOUS
  62
7
  10
 361.216
  20
 830.218
  30
0.0
  11
 361.797
  21
 831.053
  31
0.0
   0
LINE
   8
LEVEL001
   6
CONTINUOUS
  62
7
  10
 361.797
  20
 831.053
  30
0.0
  11
 362.262
  21
 831.950
  31
0.0
   0
LINE
   8
LEVEL001
   6
CONTINUOUS
  62
7
  10
 362.262
  20
 831.950
  30
0.0
  11
 362.606
  21
 832.894
  31
0.0
   0
LINE
   8
LEVEL001
   6
CONTINUOUS
  62
7
  10
 362.606
  20
 832.894
  30
0.0
  11
 362.821
  21
 833.871
  31
0.0
   0
LINE
   8
LEVEL001
   6
CONTINUOUS
  62
7
  10
 362.821
  20
 833.871
  30
0.0
  11
 362.905
  21
 834.866
  31
0.0
   0
LINE
   8
LEVEL001
   6
CONTINUOUS
  62
7
  10
 362.905
  20
 834.866
  30
0.0
  11
 362.856
  21
 835.862
  31
0.0
   0
LINE
   8
LEVEL001
   6
CONTINUOUS
  62
7
  10
 362.856
  20
 835.862
  30
0.0
  11
 362.675
  21
 836.846
  31
0.0
   0
LINE
   8
LEVEL001
   6
CONTINUOUS
  62
7
  10
 362.675
  20
 836.846
  30
0.0
  11
 362.366
  21
 837.800
  31
0.0
   0
LINE
   8
LEVEL001
   6
CONTINUOUS
  62
7
  10
 362.366
  20
 837.800
  30
0.0
  11
 361.932
  21
 838.711
  31
0.0
   0
LINE
   8
LEVEL001
   6
CONTINUOUS
  62
7
  10
 361.932
  20
 838.711
  30
0.0
  11
 361.381
  21
 839.563
  31
0.0
   0
LINE
   8
LEVEL001
   6
CONTINUOUS
  62
7
  10
 361.381
  20
 839.563
  30
0.0
  11
 360.720
  21
 840.345
  31
0.0
   0
LINE
   8
LEVEL001
   6
CONTINUOUS
  62
7
  10
 360.720
  20
 840.345
  30
0.0
  11
 359.962
  21
 841.043
  31
0.0
   0
LINE
   8
LEVEL001
   6
CONTINUOUS
  62
7
  10
 359.962
  20
 841.043
  30
0.0
  11
 359.116
  21
 841.647
  31
0.0
   0
LINE
   8
LEVEL001
   6
CONTINUOUS
  62
7
  10
 359.116
  20
 841.647
  30
0.0
  11
 358.198
  21
 842.147
  31
0.0
   0
LINE
   8
LEVEL001
   6
CONTINUOUS
  62
7
  10
 358.198
  20
 842.147
  30
0.0
  11
 357.220
  21
 842.535
  31
0.0
   0
LINE
   8
LEVEL001
   6
CONTINUOUS
  62
7
  10
 357.220
  20
 842.535
  30
0.0
  11
 356.198
  21
 842.806
  31
0.0
   0
LINE
   8
LEVEL001
   6
CONTINUOUS
  62
7
  10
 356.198
  20
 842.806
  30
0.0
  11
 355.148
  21
 842.955
  31
0.0
   0
LINE
   8
LEVEL001
   6
CONTINUOUS
  62
7
  10
 355.148
  20
 842.955
  30
0.0
  11
 354.086
  21
 842.980
  31
0.0
   0
LINE
   8
LEVEL001
   6
CONTINUOUS
  62
7
  10
 354.086
  20
 842.980
  30
0.0
  11
 353.030
  21
 842.880
  31
0.0
   0
LINE
   8
LEVEL001
   6
CONTINUOUS
  62
7
  10
 353.030
  20
 842.880
  30
0.0
  11
 351.995
  21
 842.657
  31
0.0
   0
LINE
   8
LEVEL001
   6
CONTINUOUS
  62
7
  10
 351.995
  20
 842.657
  30
0.0
  11
 350.997
  21
 842.315
  31
0.0
   0
LINE
   8
LEVEL001
   6
CONTINUOUS
  62
7
  10
 350.997
  20
 842.315
  30
0.0
  11
 350.053
  21
 841.859
  31
0.0
   0
LINE
   8
LEVEL001
   6
CONTINUOUS
  62
7
  10
 350.053
  20
 841.859
  30
0.0
  11
 349.177
  21
 841.295
  31
0.0
   0
LINE
   8
LEVEL001
   6
CONTINUOUS
  62
7
  10
 349.177
  20
 841.295
  30
0.0
  11
 348.382
  21
 840.634
  31
0.0
   0
LINE
   8
LEVEL001
   6
CONTINUOUS
  62
7
  10
 348.382
  20
 840.634
  30
0.0
  11
 347.681
  21
 839.884
  31
0.0
   0
LINE
   8
LEVEL001
   6
CONTINUOUS
  62
7
  10
 347.681
  20
 839.884
  30
0.0
  11
 347.086
  21
 839.058
  31
0.0
   0
LINE
   8
LEVEL001
   6
CONTINUOUS
  62
7
  10
 347.086
  20
 839.058
  30
0.0
  11
 346.604
  21
 838.169
  31
0.0
   0
LINE
   8
LEVEL001
   6
CONTINUOUS
  62
7
  10
 346.604
  20
 838.169
  30
0.0
  11
 346.244
  21
 837.230
  31
0.0
   0
LINE
   8
LEVEL001
   6
CONTINUOUS
  62
7
  10
 346.244
  20
 837.230
  30
0.0
  11
 346.012
  21
 836.256
  31
0.0
   0
LINE
   8
LEVEL001
   6
CONTINUOUS
  62
7
  10
 346.012
  20
 836.256
  30
0.0
  11
 345.910
  21
 835.263
  31
0.0
   0
LINE
   8
LEVEL001
   6
CONTINUOUS
  62
7
  10
 345.910
  20
 835.263
  30
0.0
  11
 345.906
  21
 834.998
  31
0.0
   0
LINE
   8
LEVEL001
   6
CONTINUOUS
  62
7
  10
 344.039
  20
 836.827
  30
0.0
  11
 343.912
  21
 835.600
  31
0.0
   0
LINE
   8
LEVEL001
   6
CONTINUOUS
  62
7
  10
 343.912
  20
 835.600
  30
0.0
  11
 343.949
  21
 834.368
  31
0.0
   0
LINE
   8
LEVEL001
   6
CONTINUOUS
  62
7
  10
 343.949
  20
 834.368
  30
0.0
  11
 344.149
  21
 833.150
  31
0.0
   0
LINE
   8
LEVEL001
   6
CONTINUOUS
  62
7
  10
 344.149
  20
 833.150
  30
0.0
  11
 344.510
  21
 831.965
  31
0.0
   0
LINE
   8
LEVEL001
   6
CONTINUOUS
  62
7
  10
 344.510
  20
 831.965
  30
0.0
  11
 345.024
  21
 830.831
  31
0.0
   0
LINE
   8
LEVEL001
   6
CONTINUOUS
  62
7
  10
 345.024
  20
 830.831
  30
0.0
  11
 345.686
  21
 829.767
  31
0.0
   0
LINE
   8
LEVEL001
   6
CONTINUOUS
  62
7
  10
 345.686
  20
 829.767
  30
0.0
  11
 345.906
  21
 829.470
  31
0.0
   0
LINE
   8
LEVEL001
   6
CONTINUOUS
  62
7
  10
 346.734
  20
 827.063
  30
0.0
  11
 345.906
  21
 827.512
  31
0.0
   0
LINE
   8
LEVEL001
   6
CONTINUOUS
  62
7
  10
 345.906
  20
 827.512
  30
0.0
  11
 345.906
  21
 830.355
  31
0.0
   0
LINE
   8
LEVEL001
   6
CONTINUOUS
  62
7
  10
 363.462
  20
 840.256
  30
0.0
  11
 362.729
  21
 841.278
  31
0.0
   0
LINE
   8
LEVEL001
   6
CONTINUOUS
  62
7
  10
 362.729
  20
 841.278
  30
0.0
  11
 361.866
  21
 842.206
  31
0.0
   0
LINE
   8
LEVEL001
   6
CONTINUOUS
  62
7
  10
 361.866
  20
 842.206
  30
0.0
  11
 360.887
  21
 843.026
  31
0.0
   0
LINE
   8
LEVEL001
   6
CONTINUOUS
  62
7
  10
 360.887
  20
 843.026
  30
0.0
  11
 359.806
  21
 843.725
  31
0.0
   0
LINE
   8
LEVEL001
   6
CONTINUOUS
  62
7
  10
 359.806
  20
 843.725
  30
0.0
  11
 358.641
  21
 844.291
  31
0.0
   0
LINE
   8
LEVEL001
   6
CONTINUOUS
  62
7
  10
 358.641
  20
 844.291
  30
0.0
  11
 357.410
  21
 844.717
  31
0.0
   0
LINE
   8
LEVEL001
   6
CONTINUOUS
  62
7
  10
 357.410
  20
 844.717
  30
0.0
  11
 356.132
  21
 844.995
  31
0.0
   0
LINE
   8
LEVEL001
   6
CONTINUOUS
  62
7
  10
 356.132
  20
 844.995
  30
0.0
  11
 354.828
  21
 845.122
  31
0.0
   0
LINE
   8
LEVEL001
   6
CONTINUOUS
  62
7
  10
 354.828
  20
 845.122
  30
0.0
  11
 353.516
  21
 845.094
  31
0.0
   0
LINE
   8
LEVEL001
   6
CONTINUOUS
  62
7
  10
 353.516
  20
 845.094
  30
0.0
  11
 352.219
  21
 844.913
  31
0.0
   0
LINE
   8
LEVEL001
   6
CONTINUOUS
  62
7
  10
 352.219
  20
 844.913
  30
0.0
  11
 350.956
  21
 844.582
  31
0.0
   0
LINE
   8
LEVEL001
   6
CONTINUOUS
  62
7
  10
 350.956
  20
 844.582
  30
0.0
  11
 349.746
  21
 844.105
  31
0.0
   0
LINE
   8
LEVEL001
   6
CONTINUOUS
  62
7
  10
 349.746
  20
 844.105
  30
0.0
  11
 348.609
  21
 843.490
  31
0.0
   0
LINE
   8
LEVEL001
   6
CONTINUOUS
  62
7
  10
 348.609
  20
 843.490
  30
0.0
  11
 347.563
  21
 842.747
  31
0.0
   0
LINE
   8
LEVEL001
   6
CONTINUOUS
  62
7
  10
 347.563
  20
 842.747
  30
0.0
  11
 346.624
  21
 841.887
  31
0.0
   0
LINE
   8
LEVEL001
   6
CONTINUOUS
  62
7
  10
 346.624
  20
 841.887
  30
0.0
  11
 345.805
  21
 840.923
  31
0.0
   0
LINE
   8
LEVEL001
   6
CONTINUOUS
  62
7
  10
 345.805
  20
 840.923
  30
0.0
  11
 345.122
  21
 839.871
  31
0.0
   0
LINE
   8
LEVEL001
   6
CONTINUOUS
  62
7
  10
 345.122
  20
 839.871
  30
0.0
  11
 344.583
  21
 838.748
  31
0.0
   0
LINE
   8
LEVEL001
   6
CONTINUOUS
  62
7
  10
 344.583
  20
 838.748
  30
0.0
  11
 344.197
  21
 837.570
  31
0.0
   0
LINE
   8
LEVEL001
   6
CONTINUOUS
  62
7
  10
 344.197
  20
 837.570
  30
0.0
  11
 343.970
  21
 836.356
  31
0.0
   0
LINE
   8
LEVEL001
   6
CONTINUOUS
  62
7
  10
 343.970
  20
 836.356
  30
0.0
  11
 343.951
  21
 836.177
  31
0.0
   0
ARC
   8
LEVEL001
   6
CONTINUOUS
  62
7
  10
 364.356
  20
 843.663
  30
0.0
  40
 3.00000
  50
 231.910
  51
 308.090
   0
LINE
   8
LEVEL001
   6
CONTINUOUS
  62
7
  10
 387.861
  20
 836.177
  30
0.0
  11
 387.658
  21
 837.395
  31
0.0
   0
LINE
   8
LEVEL001
   6
CONTINUOUS
  62
7
  10
 387.658
  20
 837.395
  30
0.0
  11
 387.295
  21
 838.580
  31
0.0
   0
LINE
   8
LEVEL001
   6
CONTINUOUS
  62
7
  10
 387.295
  20
 838.580
  30
0.0
  11
 386.778
  21
 839.712
  31
0.0
   0
LINE
   8
LEVEL001
   6
CONTINUOUS
  62
7
  10
 386.778
  20
 839.712
  30
0.0
  11
 386.114
  21
 840.775
  31
0.0
   0
LINE
   8
LEVEL001
   6
CONTINUOUS
  62
7
  10
 386.114
  20
 840.775
  30
0.0
  11
 385.315
  21
 841.753
  31
0.0
   0
LINE
   8
LEVEL001
   6
CONTINUOUS
  62
7
  10
 385.315
  20
 841.753
  30
0.0
  11
 384.392
  21
 842.629
  31
0.0
   0
LINE
   8
LEVEL001
   6
CONTINUOUS
  62
7
  10
 384.392
  20
 842.629
  30
0.0
  11
 383.360
  21
 843.390
  31
0.0
   0
LINE
   8
LEVEL001
   6
CONTINUOUS
  62
7
  10
 383.360
  20
 843.390
  30
0.0
  11
 382.235
  21
 844.024
  31
0.0
   0
LINE
   8
LEVEL001
   6
CONTINUOUS
  62
7
  10
 382.235
  20
 844.024
  30
0.0
  11
 381.035
  21
 844.521
  31
0.0
   0
LINE
   8
LEVEL001
   6
CONTINUOUS
  62
7
  10
 381.035
  20
 844.521
  30
0.0
  11
 379.779
  21
 844.874
  31
0.0
   0
LINE
   8
LEVEL001
   6
CONTINUOUS
  62
7
  10
 379.779
  20
 844.874
  30
0.0
  11
 378.485
  21
 845.077
  31
0.0
   0
LINE
   8
LEVEL001
   6
CONTINUOUS
  62
7
  10
 378.485
  20
 845.077
  30
0.0
  11
 377.174
  21
 845.127
  31
0.0
   0
LINE
   8
LEVEL001
   6
CONTINUOUS
  62
7
  10
 377.174
  20
 845.127
  30
0.0
  11
 375.867
  21
 845.023
  31
0.0
   0
LINE
   8
LEVEL001
   6
CONTINUOUS
  62
7
  10
 375.867
  20
 845.023
  30
0.0
  11
 374.584
  21
 844.767
  31
0.0
   0
LINE
   8
LEVEL001
   6
CONTINUOUS
  62
7
  10
 374.584
  20
 844.767
  30
0.0
  11
 373.346
  21
 844.362
  31
0.0
   0
LINE
   8
LEVEL001
   6
CONTINUOUS
  62
7
  10
 373.346
  20
 844.362
  30
0.0
  11
 372.170
  21
 843.815
  31
0.0
   0
LINE
   8
LEVEL001
   6
CONTINUOUS
  62
7
  10
 372.170
  20
 843.815
  30
0.0
  11
 371.076
  21
 843.135
  31
0.0
   0
LINE
   8
LEVEL001
   6
CONTINUOUS
  62
7
  10
 371.076
  20
 843.135
  30
0.0
  11
 370.081
  21
 842.332
  31
0.0
   0
LINE
   8
LEVEL001
   6
CONTINUOUS
  62
7
  10
 370.081
  20
 842.332
  30
0.0
  11
 369.200
  21
 841.419
  31
0.0
   0
LINE
   8
LEVEL001
   6
CONTINUOUS
  62
7
  10
 369.200
  20
 841.419
  30
0.0
  11
 368.447
  21
 840.410
  31
0.0
   0
LINE
   8
LEVEL001
   6
CONTINUOUS
  62
7
  10
 368.447
  20
 840.410
  30
0.0
  11
 368.383
  21
 840.308
  31
0.0
   0
LINE
   8
LEVEL001
   6
CONTINUOUS
  62
7
  10
 374.356
  20
 845.130
  30
0.0
  11
 373.047
  21
 845.053
  31
0.0
   0
LINE
   8
LEVEL001
   6
CONTINUOUS
  62
7
  10
 373.047
  20
 845.053
  30
0.0
  11
 371.758
  21
 844.823
  31
0.0
   0
LINE
   8
LEVEL001
   6
CONTINUOUS
  62
7
  10
 371.758
  20
 844.823
  30
0.0
  11
 370.510
  21
 844.444
  31
0.0
   0
LINE
   8
LEVEL001
   6
CONTINUOUS
  62
7
  10
 370.510
  20
 844.444
  30
0.0
  11
 369.322
  21
 843.922
  31
0.0
   0
LINE
   8
LEVEL001
   6
CONTINUOUS
  62
7
  10
 369.322
  20
 843.922
  30
0.0
  11
 368.212
  21
 843.264
  31
0.0
   0
LINE
   8
LEVEL001
   6
CONTINUOUS
  62
7
  10
 368.212
  20
 843.264
  30
0.0
  11
 367.199
  21
 842.482
  31
0.0
   0
LINE
   8
LEVEL001
   6
CONTINUOUS
  62
7
  10
 367.199
  20
 842.482
  30
0.0
  11
 366.297
  21
 841.587
  31
0.0
   0
LINE
   8
LEVEL001
   6
CONTINUOUS
  62
7
  10
 366.297
  20
 841.587
  30
0.0
  11
 366.111
  21
 841.372
  31
0.0
   0
CIRCLE
   8
LEVEL001
   6
CONTINUOUS
  62
7
  10
 377.456
  20
 835.263
  30
0.0
  40
 7.50000
   0
LINE
   8
LEVEL001
   6
CONTINUOUS
  62
7
  10
 377.456
  20
 825.801
  30
0.0
  11
 368.956
  21
 830.355
  31
0.0
   0
LINE
   8
LEVEL001
   6
CONTINUOUS
  62
7
  10
 368.956
  20
 830.355
  30
0.0
  11
 368.956
  21
 839.636
  31
0.0
   0
LINE
   8
LEVEL001
   6
CONTINUOUS
  62
7
  10
 368.956
  20
 839.636
  30
0.0
  11
 377.456
  21
 844.247
  31
0.0
   0
LINE
   8
LEVEL001
   6
CONTINUOUS
  62
7
  10
 377.456
  20
 844.247
  30
0.0
  11
 385.956
  21
 839.636
  31
0.0
   0
LINE
   8
LEVEL001
   6
CONTINUOUS
  62
7
  10
 385.956
  20
 839.636
  30
0.0
  11
 385.956
  21
 830.355
  31
0.0
   0
LINE
   8
LEVEL001
   6
CONTINUOUS
  62
7
  10
 385.956
  20
 830.355
  30
0.0
  11
 377.456
  21
 825.801
  31
0.0
   0
LINE
   8
LEVEL001
   6
CONTINUOUS
  62
7
  10
 368.956
  20
 834.998
  30
0.0
  11
 369.022
  21
 834.002
  31
0.0
   0
LINE
   8
LEVEL001
   6
CONTINUOUS
  62
7
  10
 369.022
  20
 834.002
  30
0.0
  11
 369.220
  21
 833.022
  31
0.0
   0
LINE
   8
LEVEL001
   6
CONTINUOUS
  62
7
  10
 369.220
  20
 833.022
  30
0.0
  11
 369.546
  21
 832.073
  31
0.0
   0
LINE
   8
LEVEL001
   6
CONTINUOUS
  62
7
  10
 369.546
  20
 832.073
  30
0.0
  11
 369.996
  21
 831.169
  31
0.0
   0
LINE
   8
LEVEL001
   6
CONTINUOUS
  62
7
  10
 369.996
  20
 831.169
  30
0.0
  11
 370.562
  21
 830.325
  31
0.0
   0
LINE
   8
LEVEL001
   6
CONTINUOUS
  62
7
  10
 370.562
  20
 830.325
  30
0.0
  11
 371.236
  21
 829.554
  31
0.0
   0
LINE
   8
LEVEL001
   6
CONTINUOUS
  62
7
  10
 371.236
  20
 829.554
  30
0.0
  11
 372.007
  21
 828.867
  31
0.0
   0
LINE
   8
LEVEL001
   6
CONTINUOUS
  62
7
  10
 372.007
  20
 828.867
  30
0.0
  11
 372.863
  21
 828.277
  31
0.0
   0
LINE
   8
LEVEL001
   6
CONTINUOUS
  62
7
  10
 372.863
  20
 828.277
  30
0.0
  11
 373.791
  21
 827.791
  31
0.0
   0
LINE
   8
LEVEL001
   6
CONTINUOUS
  62
7
  10
 373.791
  20
 827.791
  30
0.0
  11
 374.775
  21
 827.418
  31
0.0
   0
LINE
   8
LEVEL001
   6
CONTINUOUS
  62
7
  10
 374.775
  20
 827.418
  30
0.0
  11
 375.802
  21
 827.163
  31
0.0
   0
LINE
   8
LEVEL001
   6
CONTINUOUS
  62
7
  10
 375.802
  20
 827.163
  30
0.0
  11
 376.854
  21
 827.031
  31
0.0
   0
LINE
   8
LEVEL001
   6
CONTINUOUS
  62
7
  10
 376.854
  20
 827.031
  30
0.0
  11
 377.916
  21
 827.022
  31
0.0
   0
LINE
   8
LEVEL001
   6
CONTINUOUS
  62
7
  10
 377.916
  20
 827.022
  30
0.0
  11
 378.971
  21
 827.139
  31
0.0
   0
LINE
   8
LEVEL001
   6
CONTINUOUS
  62
7
  10
 378.971
  20
 827.139
  30
0.0
  11
 380.002
  21
 827.377
  31
0.0
   0
LINE
   8
LEVEL001
   6
CONTINUOUS
  62
7
  10
 380.002
  20
 827.377
  30
0.0
  11
 380.993
  21
 827.735
  31
0.0
   0
LINE
   8
LEVEL001
   6
CONTINUOUS
  62
7
  10
 380.993
  20
 827.735
  30
0.0
  11
 381.929
  21
 828.206
  31
0.0
   0
LINE
   8
LEVEL001
   6
CONTINUOUS
  62
7
  10
 381.929
  20
 828.206
  30
0.0
  11
 382.795
  21
 828.783
  31
0.0
   0
LINE
   8
LEVEL001
   6
CONTINUOUS
  62
7
  10
 382.795
  20
 828.783
  30
0.0
  11
 383.578
  21
 829.457
  31
0.0
   0
LINE
   8
LEVEL001
   6
CONTINUOUS
  62
7
  10
 383.578
  20
 829.457
  30
0.0
  11
 384.265
  21
 830.218
  31
0.0
   0
LINE
   8
LEVEL001
   6
CONTINUOUS
  62
7
  10
 384.265
  20
 830.218
  30
0.0
  11
 384.846
  21
 831.053
  31
0.0
   0
LINE
   8
LEVEL001
   6
CONTINUOUS
  62
7
  10
 384.846
  20
 831.053
  30
0.0
  11
 385.312
  21
 831.950
  31
0.0
   0
LINE
   8
LEVEL001
   6
CONTINUOUS
  62
7
  10
 385.312
  20
 831.950
  30
0.0
  11
 385.655
  21
 832.894
  31
0.0
   0
LINE
   8
LEVEL001
   6
CONTINUOUS
  62
7
  10
 385.655
  20
 832.894
  30
0.0
  11
 385.871
  21
 833.871
  31
0.0
   0
LINE
   8
LEVEL001
   6
CONTINUOUS
  62
7
  10
 385.871
  20
 833.871
  30
0.0
  11
 385.954
  21
 834.866
  31
0.0
   0
LINE
   8
LEVEL001
   6
CONTINUOUS
  62
7
  10
 385.954
  20
 834.866
  30
0.0
  11
 385.906
  21
 835.862
  31
0.0
   0
LINE
   8
LEVEL001
   6
CONTINUOUS
  62
7
  10
 385.906
  20
 835.862
  30
0.0
  11
 385.725
  21
 836.846
  31
0.0
   0
LINE
   8
LEVEL001
   6
CONTINUOUS
  62
7
  10
 385.725
  20
 836.846
  30
0.0
  11
 385.416
  21
 837.800
  31
0.0
   0
LINE
   8
LEVEL001
   6
CONTINUOUS
  62
7
  10
 385.416
  20
 837.800
  30
0.0
  11
 384.982
  21
 838.711
  31
0.0
   0
LINE
   8
LEVEL001
   6
CONTINUOUS
  62
7
  10
 384.982
  20
 838.711
  30
0.0
  11
 384.430
  21
 839.563
  31
0.0
   0
LINE
   8
LEVEL001
   6
CONTINUOUS
  62
7
  10
 384.430
  20
 839.563
  30
0.0
  11
 383.770
  21
 840.345
  31
0.0
   0
LINE
   8
LEVEL001
   6
CONTINUOUS
  62
7
  10
 383.770
  20
 840.345
  30
0.0
  11
 383.012
  21
 841.043
  31
0.0
   0
LINE
   8
LEVEL001
   6
CONTINUOUS
  62
7
  10
 383.012
  20
 841.043
  30
0.0
  11
 382.166
  21
 841.647
  31
0.0
   0
LINE
   8
LEVEL001
   6
CONTINUOUS
  62
7
  10
 382.166
  20
 841.647
  30
0.0
  11
 381.247
  21
 842.147
  31
0.0
   0
LINE
   8
LEVEL001
   6
CONTINUOUS
  62
7
  10
 381.247
  20
 842.147
  30
0.0
  11
 380.269
  21
 842.535
  31
0.0
   0
LINE
   8
LEVEL001
   6
CONTINUOUS
  62
7
  10
 380.269
  20
 842.535
  30
0.0
  11
 379.247
  21
 842.806
  31
0.0
   0
LINE
   8
LEVEL001
   6
CONTINUOUS
  62
7
  10
 379.247
  20
 842.806
  30
0.0
  11
 378.198
  21
 842.955
  31
0.0
   0
LINE
   8
LEVEL001
   6
CONTINUOUS
  62
7
  10
 378.198
  20
 842.955
  30
0.0
  11
 377.136
  21
 842.980
  31
0.0
   0
LINE
   8
LEVEL001
   6
CONTINUOUS
  62
7
  10
 377.136
  20
 842.980
  30
0.0
  11
 376.080
  21
 842.880
  31
0.0
   0
LINE
   8
LEVEL001
   6
CONTINUOUS
  62
7
  10
 376.080
  20
 842.880
  30
0.0
  11
 375.045
  21
 842.657
  31
0.0
   0
LINE
   8
LEVEL001
   6
CONTINUOUS
  62
7
  10
 375.045
  20
 842.657
  30
0.0
  11
 374.047
  21
 842.315
  31
0.0
   0
LINE
   8
LEVEL001
   6
CONTINUOUS
  62
7
  10
 374.047
  20
 842.315
  30
0.0
  11
 373.103
  21
 841.859
  31
0.0
   0
LINE
   8
LEVEL001
   6
CONTINUOUS
  62
7
  10
 373.103
  20
 841.859
  30
0.0
  11
 372.227
  21
 841.295
  31
0.0
   0
LINE
   8
LEVEL001
   6
CONTINUOUS
  62
7
  10
 372.227
  20
 841.295
  30
0.0
  11
 371.432
  21
 840.634
  31
0.0
   0
LINE
   8
LEVEL001
   6
CONTINUOUS
  62
7
  10
 371.432
  20
 840.634
  30
0.0
  11
 370.731
  21
 839.884
  31
0.0
   0
LINE
   8
LEVEL001
   6
CONTINUOUS
  62
7
  10
 370.731
  20
 839.884
  30
0.0
  11
 370.136
  21
 839.058
  31
0.0
   0
LINE
   8
LEVEL001
   6
CONTINUOUS
  62
7
  10
 370.136
  20
 839.058
  30
0.0
  11
 369.654
  21
 838.169
  31
0.0
   0
LINE
   8
LEVEL001
   6
CONTINUOUS
  62
7
  10
 369.654
  20
 838.169
  30
0.0
  11
 369.294
  21
 837.230
  31
0.0
   0
LINE
   8
LEVEL001
   6
CONTINUOUS
  62
7
  10
 369.294
  20
 837.230
  30
0.0
  11
 369.062
  21
 836.256
  31
0.0
   0
LINE
   8
LEVEL001
   6
CONTINUOUS
  62
7
  10
 369.062
  20
 836.256
  30
0.0
  11
 368.960
  21
 835.263
  31
0.0
   0
LINE
   8
LEVEL001
   6
CONTINUOUS
  62
7
  10
 368.960
  20
 835.263
  30
0.0
  11
 368.956
  21
 834.998
  31
0.0
   0
LINE
   8
LEVEL001
   6
CONTINUOUS
  62
7
  10
 362.906
  20
 829.470
  30
0.0
  11
 363.608
  21
 830.511
  31
0.0
   0
LINE
   8
LEVEL001
   6
CONTINUOUS
  62
7
  10
 363.608
  20
 830.511
  30
0.0
  11
 364.167
  21
 831.626
  31
0.0
   0
LINE
   8
LEVEL001
   6
CONTINUOUS
  62
7
  10
 364.167
  20
 831.626
  30
0.0
  11
 364.573
  21
 832.798
  31
0.0
   0
LINE
   8
LEVEL001
   6
CONTINUOUS
  62
7
  10
 364.573
  20
 832.798
  30
0.0
  11
 364.821
  21
 834.009
  31
0.0
   0
LINE
   8
LEVEL001
   6
CONTINUOUS
  62
7
  10
 364.821
  20
 834.009
  30
0.0
  11
 364.906
  21
 835.238
  31
0.0
   0
LINE
   8
LEVEL001
   6
CONTINUOUS
  62
7
  10
 364.906
  20
 835.238
  30
0.0
  11
 364.827
  21
 836.469
  31
0.0
   0
LINE
   8
LEVEL001
   6
CONTINUOUS
  62
7
  10
 364.827
  20
 836.469
  30
0.0
  11
 364.586
  21
 837.680
  31
0.0
   0
LINE
   8
LEVEL001
   6
CONTINUOUS
  62
7
  10
 364.586
  20
 837.680
  30
0.0
  11
 364.186
  21
 838.854
  31
0.0
   0
LINE
   8
LEVEL001
   6
CONTINUOUS
  62
7
  10
 364.186
  20
 838.854
  30
0.0
  11
 363.813
  21
 839.646
  31
0.0
   0
LINE
   8
LEVEL001
   6
CONTINUOUS
  62
7
  10
 368.383
  20
 840.308
  30
0.0
  11
 367.784
  21
 839.212
  31
0.0
   0
LINE
   8
LEVEL001
   6
CONTINUOUS
  62
7
  10
 367.784
  20
 839.212
  30
0.0
  11
 367.335
  21
 838.054
  31
0.0
   0
LINE
   8
LEVEL001
   6
CONTINUOUS
  62
7
  10
 367.335
  20
 838.054
  30
0.0
  11
 367.043
  21
 836.852
  31
0.0
   0
LINE
   8
LEVEL001
   6
CONTINUOUS
  62
7
  10
 367.043
  20
 836.852
  30
0.0
  11
 366.913
  21
 835.626
  31
0.0
   0
LINE
   8
LEVEL001
   6
CONTINUOUS
  62
7
  10
 366.913
  20
 835.626
  30
0.0
  11
 366.947
  21
 834.393
  31
0.0
   0
LINE
   8
LEVEL001
   6
CONTINUOUS
  62
7
  10
 366.947
  20
 834.393
  30
0.0
  11
 367.144
  21
 833.175
  31
0.0
   0
LINE
   8
LEVEL001
   6
CONTINUOUS
  62
7
  10
 367.144
  20
 833.175
  30
0.0
  11
 367.501
  21
 831.989
  31
0.0
   0
LINE
   8
LEVEL001
   6
CONTINUOUS
  62
7
  10
 367.501
  20
 831.989
  30
0.0
  11
 368.012
  21
 830.854
  31
0.0
   0
LINE
   8
LEVEL001
   6
CONTINUOUS
  62
7
  10
 368.012
  20
 830.854
  30
0.0
  11
 368.671
  21
 829.788
  31
0.0
   0
LINE
   8
LEVEL001
   6
CONTINUOUS
  62
7
  10
 368.671
  20
 829.788
  30
0.0
  11
 368.956
  21
 829.406
  31
0.0
   0
LINE
   8
LEVEL001
   6
DASHDOT
  62
1
  10
 342.906
  20
 835.263
  30
0.0
  11
 365.906
  21
 835.263
  31
0.0
   0
LINE
   8
LEVEL001
   6
DASHDOT
  62
1
  10
 387.189
  20
 835.263
  30
0.0
  11
 367.947
  21
 835.263
  31
0.0
   0
LINE
   8
LEVEL001
   6
DASHDOT
  62
1
  10
 377.406
  20
 850.263
  30
0.0
  11
 377.406
  21
 820.017
  31
0.0
   0
LINE
   8
LEVEL001
   6
CONTINUOUS
  62
7
  10
 377.406
  20
 845.130
  30
0.0
  11
 374.356
  21
 845.130
  31
0.0
   0
LINE
   8
LEVEL001
   6
CONTINUOUS
  62
7
  10
 387.866
  20
 836.178
  30
0.0
  11
 388.906
  21
 824.291
  31
0.0
   0
LINE
   8
LEVEL001
   6
CONTINUOUS
  62
7
  10
 385.956
  20
 830.355
  30
0.0
  11
 385.956
  21
 827.512
  31
0.0
   0
LINE
   8
LEVEL001
   6
CONTINUOUS
  62
7
  10
 385.956
  20
 827.512
  30
0.0
  11
 377.456
  21
 822.901
  31
0.0
   0
LINE
   8
LEVEL001
   6
CONTINUOUS
  62
7
  10
 377.456
  20
 822.901
  30
0.0
  11
 368.956
  21
 827.512
  31
0.0
   0
LINE
   8
LEVEL001
   6
CONTINUOUS
  62
7
  10
 368.956
  20
 827.512
  30
0.0
  11
 368.956
  21
 830.355
  31
0.0
   0
LINE
   8
LEVEL001
   6
CONTINUOUS
  62
7
  10
 385.956
  20
 829.535
  30
0.0
  11
 386.649
  21
 830.582
  31
0.0
   0
LINE
   8
LEVEL001
   6
CONTINUOUS
  62
7
  10
 386.649
  20
 830.582
  30
0.0
  11
 387.198
  21
 831.701
  31
0.0
   0
LINE
   8
LEVEL001
   6
CONTINUOUS
  62
7
  10
 387.198
  20
 831.701
  30
0.0
  11
 387.594
  21
 832.876
  31
0.0
   0
LINE
   8
LEVEL001
   6
CONTINUOUS
  62
7
  10
 387.594
  20
 832.876
  30
0.0
  11
 387.831
  21
 834.088
  31
0.0
   0
LINE
   8
LEVEL001
   6
CONTINUOUS
  62
7
  10
 387.831
  20
 834.088
  30
0.0
  11
 387.906
  21
 835.319
  31
0.0
   0
LINE
   8
LEVEL001
   6
CONTINUOUS
  62
7
  10
 387.906
  20
 835.319
  30
0.0
  11
 387.861
  21
 836.177
  31
0.0
   0
LINE
   8
LEVEL001
   6
CONTINUOUS
  62
7
  10
 362.906
  20
 830.355
  30
0.0
  11
 362.906
  21
 827.512
  31
0.0
   0
LINE
   8
LEVEL001
   6
CONTINUOUS
  62
7
  10
 362.906
  20
 827.512
  30
0.0
  11
 358.264
  21
 824.994
  31
0.0
   0
LINE
   8
LEVEL001
   6
CONTINUOUS
  62
7
  10
 352.817
  20
 823.763
  30
0.0
  11
 349.660
  21
 825.475
  31
0.0
   0
LINE
   8
LEVEL001
   6
CONTINUOUS
  62
7
  10
 388.406
  20
 838.763
  30
0.0
  11
 387.223
  21
 838.763
  31
0.0
   0
ARC
   8
LEVEL001
   6
CONTINUOUS
  62
7
  10
 374.062
  20
 843.263
  30
0.0
  40
 5.00000
  50
 20.9505
  51
 90.0000
   0
LINE
   8
LEVEL001
   6
DASHDOT
  62
1
  10
 374.406
  20
 787.495
  30
0.0
  11
 374.406
  21
 764.179
  31
0.0
   0
LINE
   8
LEVEL001
   6
DASHDOT
  62
1
  10
 313.406
  20
 805.263
  30
0.0
  11
 1033.19
  21
 805.263
  31
0.0
   0
LINE
   8
LEVEL014
   6
CONTINUOUS
  62
3
  10
 947.734
  20
 794.267
  30
0.0
  11
 949.734
  21
 794.113
  31
0.0
   0
LINE
   8
LEVEL014
   6
CONTINUOUS
  62
3
  10
 949.734
  20
 792.609
  30
0.0
  11
 949.734
  21
 817.917
  31
0.0
   0
LINE
   8
LEVEL014
   6
CONTINUOUS
  62
3
  10
 949.734
  20
 817.917
  30
0.0
  11
 951.734
  21
 818.070
  31
0.0
   0
LINE
   8
LEVEL014
   6
CONTINUOUS
  62
3
  10
 951.734
  20
 818.070
  30
0.0
  11
 951.734
  21
 792.455
  31
0.0
   0
LINE
   8
LEVEL014
   6
CONTINUOUS
  62
3
  10
 951.734
  20
 792.455
  30
0.0
  11
 949.734
  21
 792.609
  31
0.0
   0
LINE
   8
LEVEL014
   6
CONTINUOUS
  62
3
  10
 947.734
  20
 816.258
  30
0.0
  11
 949.734
  21
 816.412
  31
0.0
   0
LINE
   8
LEVEL014
   6
CONTINUOUS
  62
3
  10
 951.734
  20
 793.960
  30
0.0
  11
 953.734
  21
 793.806
  31
0.0
   0
LINE
   8
LEVEL014
   6
CONTINUOUS
  62
3
  10
 955.734
  20
 793.652
  30
0.0
  11
 957.734
  21
 793.498
  31
0.0
   0
LINE
   8
LEVEL014
   6
CONTINUOUS
  62
3
  10
 959.734
  20
 793.344
  30
0.0
  11
 961.734
  21
 793.190
  31
0.0
   0
LINE
   8
LEVEL014
   6
CONTINUOUS
  62
3
  10
 963.734
  20
 793.036
  30
0.0
  11
 965.734
  21
 792.883
  31
0.0
   0
LINE
   8
LEVEL014
   6
CONTINUOUS
  62
3
  10
 967.734
  20
 792.729
  30
0.0
  11
 969.734
  21
 792.575
  31
0.0
   0
LINE
   8
LEVEL014
   6
CONTINUOUS
  62
3
  10
 971.734
  20
 792.421
  30
0.0
  11
 973.734
  21
 792.267
  31
0.0
   0
LINE
   8
LEVEL014
   6
CONTINUOUS
  62
3
  10
 953.734
  20
 792.301
  30
0.0
  11
 953.734
  21
 818.224
  31
0.0
   0
LINE
   8
LEVEL014
   6
CONTINUOUS
  62
3
  10
 953.734
  20
 818.224
  30
0.0
  11
 955.734
  21
 818.378
  31
0.0
   0
LINE
   8
LEVEL014
   6
CONTINUOUS
  62
3
  10
 955.734
  20
 818.378
  30
0.0
  11
 955.734
  21
 792.147
  31
0.0
   0
LINE
   8
LEVEL014
   6
CONTINUOUS
  62
3
  10
 955.734
  20
 792.147
  30
0.0
  11
 953.734
  21
 792.301
  31
0.0
   0
LINE
   8
LEVEL014
   6
CONTINUOUS
  62
3
  10
 957.734
  20
 791.994
  30
0.0
  11
 957.734
  21
 818.532
  31
0.0
   0
LINE
   8
LEVEL014
   6
CONTINUOUS
  62
3
  10
 957.734
  20
 818.532
  30
0.0
  11
 959.734
  21
 818.686
  31
0.0
   0
LINE
   8
LEVEL014
   6
CONTINUOUS
  62
3
  10
 959.734
  20
 818.686
  30
0.0
  11
 959.734
  21
 791.840
  31
0.0
   0
LINE
   8
LEVEL014
   6
CONTINUOUS
  62
3
  10
 959.734
  20
 791.840
  30
0.0
  11
 957.734
  21
 791.994
  31
0.0
   0
LINE
   8
LEVEL014
   6
CONTINUOUS
  62
3
  10
 961.734
  20
 791.686
  30
0.0
  11
 961.734
  21
 818.840
  31
0.0
   0
LINE
   8
LEVEL014
   6
CONTINUOUS
  62
3
  10
 961.734
  20
 818.840
  30
0.0
  11
 963.734
  21
 818.994
  31
0.0
   0
LINE
   8
LEVEL014
   6
CONTINUOUS
  62
3
  10
 963.734
  20
 818.994
  30
0.0
  11
 963.734
  21
 791.532
  31
0.0
   0
LINE
   8
LEVEL014
   6
CONTINUOUS
  62
3
  10
 963.734
  20
 791.532
  30
0.0
  11
 961.734
  21
 791.686
  31
0.0
   0
LINE
   8
LEVEL014
   6
CONTINUOUS
  62
3
  10
 965.734
  20
 791.378
  30
0.0
  11
 965.734
  21
 819.147
  31
0.0
   0
LINE
   8
LEVEL014
   6
CONTINUOUS
  62
3
  10
 965.734
  20
 819.147
  30
0.0
  11
 967.734
  21
 819.301
  31
0.0
   0
LINE
   8
LEVEL014
   6
CONTINUOUS
  62
3
  10
 967.734
  20
 819.301
  30
0.0
  11
 967.734
  21
 791.224
  31
0.0
   0
LINE
   8
LEVEL014
   6
CONTINUOUS
  62
3
  10
 967.734
  20
 791.224
  30
0.0
  11
 965.734
  21
 791.378
  31
0.0
   0
LINE
   8
LEVEL014
   6
CONTINUOUS
  62
3
  10
 969.734
  20
 791.070
  30
0.0
  11
 969.734
  21
 819.455
  31
0.0
   0
LINE
   8
LEVEL014
   6
CONTINUOUS
  62
3
  10
 969.734
  20
 819.455
  30
0.0
  11
 971.734
  21
 819.609
  31
0.0
   0
LINE
   8
LEVEL014
   6
CONTINUOUS
  62
3
  10
 971.734
  20
 819.609
  30
0.0
  11
 971.734
  21
 790.917
  31
0.0
   0
LINE
   8
LEVEL014
   6
CONTINUOUS
  62
3
  10
 971.734
  20
 790.917
  30
0.0
  11
 969.734
  21
 791.070
  31
0.0
   0
LINE
   8
LEVEL014
   6
CONTINUOUS
  62
3
  10
 973.734
  20
 790.763
  30
0.0
  11
 973.734
  21
 819.763
  31
0.0
   0
LINE
   8
LEVEL014
   6
CONTINUOUS
  62
3
  10
 973.734
  20
 819.763
  30
0.0
  11
 975.734
  21
 819.917
  31
0.0
   0
LINE
   8
LEVEL014
   6
CONTINUOUS
  62
3
  10
 975.734
  20
 819.917
  30
0.0
  11
 975.734
  21
 790.609
  31
0.0
   0
LINE
   8
LEVEL014
   6
CONTINUOUS
  62
3
  10
 975.734
  20
 790.609
  30
0.0
  11
 973.734
  21
 790.763
  31
0.0
   0
LINE
   8
LEVEL014
   6
CONTINUOUS
  62
3
  10
 951.734
  20
 816.566
  30
0.0
  11
 953.734
  21
 816.720
  31
0.0
   0
LINE
   8
LEVEL014
   6
CONTINUOUS
  62
3
  10
 955.734
  20
 816.874
  30
0.0
  11
 957.734
  21
 817.028
  31
0.0
   0
LINE
   8
LEVEL014
   6
CONTINUOUS
  62
3
  10
 959.734
  20
 817.181
  30
0.0
  11
 961.734
  21
 817.335
  31
0.0
   0
LINE
   8
LEVEL014
   6
CONTINUOUS
  62
3
  10
 963.734
  20
 817.489
  30
0.0
  11
 965.734
  21
 817.643
  31
0.0
   0
LINE
   8
LEVEL014
   6
CONTINUOUS
  62
3
  10
 967.734
  20
 817.797
  30
0.0
  11
 969.734
  21
 817.951
  31
0.0
   0
LINE
   8
LEVEL014
   6
CONTINUOUS
  62
3
  10
 971.734
  20
 818.104
  30
0.0
  11
 973.734
  21
 818.258
  31
0.0
   0
LINE
   8
LEVEL014
   6
CONTINUOUS
  62
3
  10
 995.734
  20
 793.082
  30
0.0
  11
 997.734
  21
 793.251
  31
0.0
   0
LINE
   8
LEVEL014
   6
CONTINUOUS
  62
3
  10
 999.734
  20
 793.421
  30
0.0
  11
 1001.73
  21
 793.590
  31
0.0
   0
LINE
   8
LEVEL014
   6
CONTINUOUS
  62
3
  10
 1003.73
  20
 793.760
  30
0.0
  11
 1005.73
  21
 793.929
  31
0.0
   0
LINE
   8
LEVEL014
   6
CONTINUOUS
  62
3
  10
 1007.73
  20
 794.099
  30
0.0
  11
 1009.73
  21
 794.268
  31
0.0
   0
LINE
   8
LEVEL014
   6
CONTINUOUS
  62
3
  10
 975.734
  20
 792.113
  30
0.0
  11
 977.734
  21
 791.960
  31
0.0
   0
LINE
   8
LEVEL014
   6
CONTINUOUS
  62
3
  10
 979.734
  20
 791.726
  30
0.0
  11
 981.734
  21
 791.895
  31
0.0
   0
LINE
   8
LEVEL014
   6
CONTINUOUS
  62
3
  10
 983.734
  20
 792.065
  30
0.0
  11
 985.734
  21
 792.234
  31
0.0
   0
LINE
   8
LEVEL014
   6
CONTINUOUS
  62
3
  10
 987.734
  20
 792.404
  30
0.0
  11
 989.734
  21
 792.573
  31
0.0
   0
LINE
   8
LEVEL014
   6
CONTINUOUS
  62
3
  10
 991.734
  20
 792.743
  30
0.0
  11
 993.734
  21
 792.912
  31
0.0
   0
LINE
   8
LEVEL014
   6
CONTINUOUS
  62
3
  10
 985.734
  20
 790.729
  30
0.0
  11
 985.734
  21
 819.797
  31
0.0
   0
LINE
   8
LEVEL014
   6
CONTINUOUS
  62
3
  10
 985.734
  20
 819.797
  30
0.0
  11
 987.734
  21
 819.627
  31
0.0
   0
LINE
   8
LEVEL014
   6
CONTINUOUS
  62
3
  10
 987.734
  20
 819.627
  30
0.0
  11
 987.734
  21
 790.898
  31
0.0
   0
LINE
   8
LEVEL014
   6
CONTINUOUS
  62
3
  10
 987.734
  20
 790.898
  30
0.0
  11
 985.734
  21
 790.729
  31
0.0
   0
LINE
   8
LEVEL014
   6
CONTINUOUS
  62
3
  10
 989.734
  20
 791.068
  30
0.0
  11
 989.734
  21
 819.458
  31
0.0
   0
LINE
   8
LEVEL014
   6
CONTINUOUS
  62
3
  10
 989.734
  20
 819.458
  30
0.0
  11
 991.734
  21
 819.288
  31
0.0
   0
LINE
   8
LEVEL014
   6
CONTINUOUS
  62
3
  10
 991.734
  20
 819.288
  30
0.0
  11
 991.734
  21
 791.237
  31
0.0
   0
LINE
   8
LEVEL014
   6
CONTINUOUS
  62
3
  10
 991.734
  20
 791.237
  30
0.0
  11
 989.734
  21
 791.068
  31
0.0
   0
LINE
   8
LEVEL014
   6
CONTINUOUS
  62
3
  10
 993.734
  20
 791.407
  30
0.0
  11
 993.734
  21
 819.119
  31
0.0
   0
LINE
   8
LEVEL014
   6
CONTINUOUS
  62
3
  10
 993.734
  20
 819.119
  30
0.0
  11
 995.734
  21
 818.949
  31
0.0
   0
LINE
   8
LEVEL014
   6
CONTINUOUS
  62
3
  10
 995.734
  20
 818.949
  30
0.0
  11
 995.734
  21
 791.576
  31
0.0
   0
LINE
   8
LEVEL014
   6
CONTINUOUS
  62
3
  10
 995.734
  20
 791.576
  30
0.0
  11
 993.734
  21
 791.407
  31
0.0
   0
LINE
   8
LEVEL014
   6
CONTINUOUS
  62
3
  10
 997.734
  20
 791.746
  30
0.0
  11
 997.734
  21
 818.780
  31
0.0
   0
LINE
   8
LEVEL014
   6
CONTINUOUS
  62
3
  10
 997.734
  20
 818.780
  30
0.0
  11
 999.734
  21
 818.610
  31
0.0
   0
LINE
   8
LEVEL014
   6
CONTINUOUS
  62
3
  10
 999.734
  20
 818.610
  30
0.0
  11
 999.734
  21
 791.915
  31
0.0
   0
LINE
   8
LEVEL014
   6
CONTINUOUS
  62
3
  10
 999.734
  20
 791.915
  30
0.0
  11
 997.734
  21
 791.746
  31
0.0
   0
LINE
   8
LEVEL014
   6
CONTINUOUS
  62
3
  10
 1001.73
  20
 792.085
  30
0.0
  11
 1001.73
  21
 818.441
  31
0.0
   0
LINE
   8
LEVEL014
   6
CONTINUOUS
  62
3
  10
 1001.73
  20
 818.441
  30
0.0
  11
 1003.73
  21
 818.271
  31
0.0
   0
LINE
   8
LEVEL014
   6
CONTINUOUS
  62
3
  10
 1003.73
  20
 818.271
  30
0.0
  11
 1003.73
  21
 792.254
  31
0.0
   0
LINE
   8
LEVEL014
   6
CONTINUOUS
  62
3
  10
 1003.73
  20
 792.254
  30
0.0
  11
 1001.73
  21
 792.085
  31
0.0
   0
LINE
   8
LEVEL014
   6
CONTINUOUS
  62
3
  10
 1005.73
  20
 792.424
  30
0.0
  11
 1005.73
  21
 818.102
  31
0.0
   0
LINE
   8
LEVEL014
   6
CONTINUOUS
  62
3
  10
 1005.73
  20
 818.102
  30
0.0
  11
 1007.73
  21
 817.932
  31
0.0
   0
LINE
   8
LEVEL014
   6
CONTINUOUS
  62
3
  10
 1007.73
  20
 817.932
  30
0.0
  11
 1007.73
  21
 792.593
  31
0.0
   0
LINE
   8
LEVEL014
   6
CONTINUOUS
  62
3
  10
 1007.73
  20
 792.593
  30
0.0
  11
 1005.73
  21
 792.424
  31
0.0
   0
LINE
   8
LEVEL014
   6
CONTINUOUS
  62
3
  10
 975.734
  20
 818.412
  30
0.0
  11
 977.734
  21
 818.566
  31
0.0
   0
LINE
   8
LEVEL014
   6
CONTINUOUS
  62
3
  10
 979.734
  20
 818.800
  30
0.0
  11
 981.734
  21
 818.630
  31
0.0
   0
LINE
   8
LEVEL014
   6
CONTINUOUS
  62
3
  10
 983.734
  20
 818.461
  30
0.0
  11
 985.734
  21
 818.291
  31
0.0
   0
LINE
   8
LEVEL014
   6
CONTINUOUS
  62
3
  10
 987.734
  20
 818.122
  30
0.0
  11
 989.734
  21
 817.952
  31
0.0
   0
LINE
   8
LEVEL014
   6
CONTINUOUS
  62
3
  10
 991.734
  20
 817.783
  30
0.0
  11
 993.734
  21
 817.613
  31
0.0
   0
LINE
   8
LEVEL014
   6
CONTINUOUS
  62
3
  10
 995.734
  20
 817.444
  30
0.0
  11
 997.734
  21
 817.274
  31
0.0
   0
LINE
   8
LEVEL014
   6
CONTINUOUS
  62
3
  10
 999.734
  20
 817.105
  30
0.0
  11
 1001.73
  21
 816.935
  31
0.0
   0
LINE
   8
LEVEL014
   6
CONTINUOUS
  62
3
  10
 1003.73
  20
 816.766
  30
0.0
  11
 1005.73
  21
 816.596
  31
0.0
   0
LINE
   8
LEVEL014
   6
CONTINUOUS
  62
3
  10
 1007.73
  20
 816.427
  30
0.0
  11
 1009.73
  21
 816.257
  31
0.0
   0
ARC
   8
LEVEL014
   6
CONTINUOUS
  62
7
  10
 990.859
  20
 805.263
  30
0.0
  40
 31.8750
  50
 334.942
  51
 25.0576
   0
LINE
   8
LEVEL014
   6
CONTINUOUS
  62
7
  10
 1009.73
  20
 792.763
  30
0.0
  11
 1009.73
  21
 817.763
  31
0.0
   0
LINE
   8
LEVEL014
   6
CONTINUOUS
  62
7
  10
 1009.73
  20
 817.763
  30
0.0
  11
 1019.73
  21
 818.763
  31
0.0
   0
LINE
   8
LEVEL014
   6
CONTINUOUS
  62
7
  10
 1019.73
  20
 818.763
  30
0.0
  11
 1019.73
  21
 791.763
  31
0.0
   0
LINE
   8
LEVEL014
   6
CONTINUOUS
  62
7
  10
 1019.73
  20
 791.763
  30
0.0
  11
 1009.73
  21
 792.763
  31
0.0
   0
LINE
   8
LEVEL014
   6
CONTINUOUS
  62
7
  10
 937.734
  20
 791.763
  30
0.0
  11
 937.734
  21
 818.763
  31
0.0
   0
LINE
   8
LEVEL014
   6
CONTINUOUS
  62
7
  10
 937.734
  20
 818.763
  30
0.0
  11
 947.734
  21
 817.763
  31
0.0
   0
LINE
   8
LEVEL014
   6
CONTINUOUS
  62
7
  10
 947.734
  20
 817.763
  30
0.0
  11
 947.734
  21
 792.763
  31
0.0
   0
LINE
   8
LEVEL014
   6
CONTINUOUS
  62
7
  10
 947.734
  20
 792.763
  30
0.0
  11
 937.734
  21
 791.763
  31
0.0
   0
LINE
   8
LEVEL014
   6
CONTINUOUS
  62
7
  10
 912.989
  20
 794.513
  30
0.0
  11
 912.989
  21
 816.013
  31
0.0
   0
LINE
   8
LEVEL014
   6
CONTINUOUS
  62
7
  10
 915.739
  20
 797.263
  30
0.0
  11
 915.739
  21
 813.263
  31
0.0
   0
LINE
   8
LEVEL014
   6
CONTINUOUS
  62
3
  10
 981.734
  20
 805.263
  30
0.0
  11
 981.734
  21
 820.136
  31
0.0
   0
LINE
   8
LEVEL014
   6
CONTINUOUS
  62
3
  10
 981.734
  20
 820.136
  30
0.0
  11
 983.734
  21
 819.966
  31
0.0
   0
LINE
   8
LEVEL014
   6
CONTINUOUS
  62
3
  10
 983.734
  20
 819.966
  30
0.0
  11
 983.734
  21
 805.263
  31
0.0
   0
LINE
   8
LEVEL014
   6
CONTINUOUS
  62
3
  10
 981.734
  20
 805.263
  30
0.0
  11
 981.734
  21
 790.390
  31
0.0
   0
LINE
   8
LEVEL014
   6
CONTINUOUS
  62
3
  10
 981.734
  20
 790.390
  30
0.0
  11
 983.734
  21
 790.559
  31
0.0
   0
LINE
   8
LEVEL014
   6
CONTINUOUS
  62
3
  10
 983.734
  20
 790.559
  30
0.0
  11
 983.734
  21
 805.263
  31
0.0
   0
LINE
   8
LEVEL014
   6
CONTINUOUS
  62
3
  10
 977.734
  20
 805.263
  30
0.0
  11
 977.734
  21
 820.070
  31
0.0
   0
LINE
   8
LEVEL014
   6
CONTINUOUS
  62
3
  10
 977.734
  20
 820.070
  30
0.0
  11
 979.734
  21
 820.224
  31
0.0
   0
LINE
   8
LEVEL014
   6
CONTINUOUS
  62
3
  10
 979.734
  20
 820.224
  30
0.0
  11
 979.734
  21
 805.263
  31
0.0
   0
LINE
   8
LEVEL014
   6
CONTINUOUS
  62
3
  10
 977.734
  20
 805.263
  30
0.0
  11
 977.734
  21
 790.455
  31
0.0
   0
LINE
   8
LEVEL014
   6
CONTINUOUS
  62
3
  10
 977.734
  20
 790.455
  30
0.0
  11
 979.734
  21
 790.301
  31
0.0
   0
LINE
   8
LEVEL014
   6
CONTINUOUS
  62
3
  10
 979.734
  20
 790.301
  30
0.0
  11
 979.734
  21
 805.263
  31
0.0
   0
LINE
   8
LEVEL003
   6
CONTINUOUS
  62
7
  10
 415.406
  20
 833.763
  30
0.0
  11
 866.545
  21
 833.763
  31
0.0
   0
LINE
   8
LEVEL003
   6
CONTINUOUS
  62
7
  10
 415.406
  20
 776.763
  30
0.0
  11
 866.545
  21
 776.763
  31
0.0
   0
LINE
   8
LEVEL003
   6
CONTINUOUS
  62
7
  10
 866.545
  20
 816.013
  30
0.0
  11
 866.545
  21
 833.763
  31
0.0
   0
LINE
   8
LEVEL003
   6
CONTINUOUS
  62
7
  10
 866.545
  20
 794.513
  30
0.0
  11
 866.545
  21
 776.763
  31
0.0
   0
LINE
   8
LEVEL050
   6
DASHDOT
  62
1
  10
 922.545
  20
 766.793
  30
0.0
  11
 892.545
  21
 766.793
  31
0.0
   0
LINE
   8
LEVEL003
   6
DASHDOT
  62
1
  10
 916.545
  20
 766.793
  30
0.0
  11
 916.475
  21
 767.877
  31
0.0
   0
LINE
   8
LEVEL003
   6
DASHDOT
  62
1
  10
 916.475
  20
 767.877
  30
0.0
  11
 916.265
  21
 768.943
  31
0.0
   0
LINE
   8
LEVEL003
   6
DASHDOT
  62
1
  10
 916.265
  20
 768.943
  30
0.0
  11
 915.919
  21
 769.977
  31
0.0
   0
LINE
   8
LEVEL003
   6
DASHDOT
  62
1
  10
 915.919
  20
 769.977
  30
0.0
  11
 915.443
  21
 770.961
  31
0.0
   0
LINE
   8
LEVEL003
   6
DASHDOT
  62
1
  10
 915.443
  20
 770.961
  30
0.0
  11
 914.844
  21
 771.879
  31
0.0
   0
LINE
   8
LEVEL003
   6
DASHDOT
  62
1
  10
 914.844
  20
 771.879
  30
0.0
  11
 914.130
  21
 772.718
  31
0.0
   0
LINE
   8
LEVEL003
   6
DASHDOT
  62
1
  10
 914.130
  20
 772.718
  30
0.0
  11
 913.314
  21
 773.465
  31
0.0
   0
LINE
   8
LEVEL003
   6
DASHDOT
  62
1
  10
 913.314
  20
 773.465
  30
0.0
  11
 912.408
  21
 774.108
  31
0.0
   0
LINE
   8
LEVEL003
   6
DASHDOT
  62
1
  10
 912.408
  20
 774.108
  30
0.0
  11
 911.425
  21
 774.636
  31
0.0
   0
LINE
   8
LEVEL003
   6
DASHDOT
  62
1
  10
 911.425
  20
 774.636
  30
0.0
  11
 910.383
  21
 775.043
  31
0.0
   0
LINE
   8
LEVEL003
   6
DASHDOT
  62
1
  10
 910.383
  20
 775.043
  30
0.0
  11
 909.296
  21
 775.320
  31
0.0
   0
LINE
   8
LEVEL003
   6
DASHDOT
  62
1
  10
 909.296
  20
 775.320
  30
0.0
  11
 908.182
  21
 775.464
  31
0.0
   0
LINE
   8
LEVEL003
   6
DASHDOT
  62
1
  10
 908.182
  20
 775.464
  30
0.0
  11
 907.057
  21
 775.473
  31
0.0
   0
LINE
   8
LEVEL003
   6
DASHDOT
  62
1
  10
 907.057
  20
 775.473
  30
0.0
  11
 905.941
  21
 775.347
  31
0.0
   0
LINE
   8
LEVEL003
   6
DASHDOT
  62
1
  10
 905.941
  20
 775.347
  30
0.0
  11
 904.849
  21
 775.087
  31
0.0
   0
LINE
   8
LEVEL003
   6
DASHDOT
  62
1
  10
 904.849
  20
 775.087
  30
0.0
  11
 903.800
  21
 774.698
  31
0.0
   0
LINE
   8
LEVEL003
   6
DASHDOT
  62
1
  10
 903.800
  20
 774.698
  30
0.0
  11
 902.808
  21
 774.185
  31
0.0
   0
LINE
   8
LEVEL003
   6
DASHDOT
  62
1
  10
 902.808
  20
 774.185
  30
0.0
  11
 901.891
  21
 773.557
  31
0.0
   0
LINE
   8
LEVEL003
   6
DASHDOT
  62
1
  10
 901.891
  20
 773.557
  30
0.0
  11
 901.062
  21
 772.823
  31
0.0
   0
LINE
   8
LEVEL003
   6
DASHDOT
  62
1
  10
 901.062
  20
 772.823
  30
0.0
  11
 900.335
  21
 771.995
  31
0.0
   0
LINE
   8
LEVEL003
   6
DASHDOT
  62
1
  10
 900.335
  20
 771.995
  30
0.0
  11
 899.719
  21
 771.087
  31
0.0
   0
LINE
   8
LEVEL003
   6
DASHDOT
  62
1
  10
 899.719
  20
 771.087
  30
0.0
  11
 899.226
  21
 770.111
  31
0.0
   0
LINE
   8
LEVEL003
   6
DASHDOT
  62
1
  10
 899.226
  20
 770.111
  30
0.0
  11
 898.863
  21
 769.083
  31
0.0
   0
LINE
   8
LEVEL003
   6
DASHDOT
  62
1
  10
 898.863
  20
 769.083
  30
0.0
  11
 898.635
  21
 768.020
  31
0.0
   0
LINE
   8
LEVEL003
   6
DASHDOT
  62
1
  10
 898.635
  20
 768.020
  30
0.0
  11
 898.546
  21
 766.937
  31
0.0
   0
LINE
   8
LEVEL003
   6
DASHDOT
  62
1
  10
 898.546
  20
 766.937
  30
0.0
  11
 898.598
  21
 765.852
  31
0.0
   0
LINE
   8
LEVEL003
   6
DASHDOT
  62
1
  10
 898.598
  20
 765.852
  30
0.0
  11
 898.789
  21
 764.782
  31
0.0
   0
LINE
   8
LEVEL003
   6
DASHDOT
  62
1
  10
 898.789
  20
 764.782
  30
0.0
  11
 899.117
  21
 763.743
  31
0.0
   0
LINE
   8
LEVEL003
   6
DASHDOT
  62
1
  10
 899.117
  20
 763.743
  30
0.0
  11
 899.576
  21
 762.752
  31
0.0
   0
LINE
   8
LEVEL003
   6
DASHDOT
  62
1
  10
 899.576
  20
 762.752
  30
0.0
  11
 900.160
  21
 761.824
  31
0.0
   0
LINE
   8
LEVEL003
   6
DASHDOT
  62
1
  10
 900.160
  20
 761.824
  30
0.0
  11
 900.859
  21
 760.973
  31
0.0
   0
LINE
   8
LEVEL003
   6
DASHDOT
  62
1
  10
 900.859
  20
 760.973
  30
0.0
  11
 901.662
  21
 760.214
  31
0.0
   0
LINE
   8
LEVEL003
   6
DASHDOT
  62
1
  10
 901.662
  20
 760.214
  30
0.0
  11
 902.557
  21
 759.556
  31
0.0
   0
LINE
   8
LEVEL003
   6
DASHDOT
  62
1
  10
 902.557
  20
 759.556
  30
0.0
  11
 903.530
  21
 759.012
  31
0.0
   0
LINE
   8
LEVEL003
   6
DASHDOT
  62
1
  10
 903.530
  20
 759.012
  30
0.0
  11
 904.566
  21
 758.590
  31
0.0
   0
LINE
   8
LEVEL003
   6
DASHDOT
  62
1
  10
 904.566
  20
 758.590
  30
0.0
  11
 905.648
  21
 758.295
  31
0.0
   0
LINE
   8
LEVEL003
   6
DASHDOT
  62
1
  10
 905.648
  20
 758.295
  30
0.0
  11
 906.759
  21
 758.133
  31
0.0
   0
LINE
   8
LEVEL003
   6
DASHDOT
  62
1
  10
 906.759
  20
 758.133
  30
0.0
  11
 907.883
  21
 758.106
  31
0.0
   0
LINE
   8
LEVEL003
   6
DASHDOT
  62
1
  10
 907.883
  20
 758.106
  30
0.0
  11
 909.002
  21
 758.214
  31
0.0
   0
LINE
   8
LEVEL003
   6
DASHDOT
  62
1
  10
 909.002
  20
 758.214
  30
0.0
  11
 910.098
  21
 758.456
  31
0.0
   0
LINE
   8
LEVEL003
   6
DASHDOT
  62
1
  10
 910.098
  20
 758.456
  30
0.0
  11
 911.154
  21
 758.829
  31
0.0
   0
LINE
   8
LEVEL003
   6
DASHDOT
  62
1
  10
 911.154
  20
 758.829
  30
0.0
  11
 912.154
  21
 759.326
  31
0.0
   0
LINE
   8
LEVEL003
   6
DASHDOT
  62
1
  10
 912.154
  20
 759.326
  30
0.0
  11
 913.081
  21
 759.939
  31
0.0
   0
LINE
   8
LEVEL003
   6
DASHDOT
  62
1
  10
 913.081
  20
 759.939
  30
0.0
  11
 913.923
  21
 760.659
  31
0.0
   0
LINE
   8
LEVEL003
   6
DASHDOT
  62
1
  10
 913.923
  20
 760.659
  30
0.0
  11
 914.665
  21
 761.475
  31
0.0
   0
LINE
   8
LEVEL003
   6
DASHDOT
  62
1
  10
 914.665
  20
 761.475
  30
0.0
  11
 915.296
  21
 762.374
  31
0.0
   0
LINE
   8
LEVEL003
   6
DASHDOT
  62
1
  10
 915.296
  20
 762.374
  30
0.0
  11
 915.805
  21
 763.342
  31
0.0
   0
LINE
   8
LEVEL003
   6
DASHDOT
  62
1
  10
 915.805
  20
 763.342
  30
0.0
  11
 916.186
  21
 764.364
  31
0.0
   0
LINE
   8
LEVEL003
   6
DASHDOT
  62
1
  10
 916.186
  20
 764.364
  30
0.0
  11
 916.433
  21
 765.423
  31
0.0
   0
LINE
   8
LEVEL003
   6
DASHDOT
  62
1
  10
 916.433
  20
 765.423
  30
0.0
  11
 916.540
  21
 766.504
  31
0.0
   0
LINE
   8
LEVEL003
   6
DASHDOT
  62
1
  10
 916.540
  20
 766.504
  30
0.0
  11
 916.545
  21
 766.793
  31
0.0
   0
LINE
   8
LEVEL050
   6
DASHDOT
  62
1
  10
 907.545
  20
 781.793
  30
0.0
  11
 907.545
  21
 751.793
  31
0.0
   0
LINE
   8
LEVEL003
   6
CONTINUOUS
  62
7
  10
 917.545
  20
 769.453
  30
0.0
  11
 917.545
  21
 766.793
  31
0.0
   0
LINE
   8
LEVEL003
   6
CONTINUOUS
  62
7
  10
 917.545
  20
 769.453
  30
0.0
  11
 917.467
  21
 770.657
  31
0.0
   0
LINE
   8
LEVEL003
   6
CONTINUOUS
  62
7
  10
 917.467
  20
 770.657
  30
0.0
  11
 917.234
  21
 771.842
  31
0.0
   0
LINE
   8
LEVEL003
   6
CONTINUOUS
  62
7
  10
 917.234
  20
 771.842
  30
0.0
  11
 916.850
  21
 772.991
  31
0.0
   0
LINE
   8
LEVEL003
   6
CONTINUOUS
  62
7
  10
 916.850
  20
 772.991
  30
0.0
  11
 916.321
  21
 774.084
  31
0.0
   0
LINE
   8
LEVEL003
   6
CONTINUOUS
  62
7
  10
 916.321
  20
 774.084
  30
0.0
  11
 915.655
  21
 775.104
  31
0.0
   0
LINE
   8
LEVEL003
   6
CONTINUOUS
  62
7
  10
 915.655
  20
 775.104
  30
0.0
  11
 914.862
  21
 776.037
  31
0.0
   0
LINE
   8
LEVEL003
   6
CONTINUOUS
  62
7
  10
 914.862
  20
 776.037
  30
0.0
  11
 913.955
  21
 776.867
  31
0.0
   0
LINE
   8
LEVEL003
   6
CONTINUOUS
  62
7
  10
 913.955
  20
 776.867
  30
0.0
  11
 912.948
  21
 777.581
  31
0.0
   0
LINE
   8
LEVEL003
   6
CONTINUOUS
  62
7
  10
 912.948
  20
 777.581
  30
0.0
  11
 911.857
  21
 778.168
  31
0.0
   0
LINE
   8
LEVEL003
   6
CONTINUOUS
  62
7
  10
 911.857
  20
 778.168
  30
0.0
  11
 910.698
  21
 778.619
  31
0.0
   0
LINE
   8
LEVEL003
   6
CONTINUOUS
  62
7
  10
 910.698
  20
 778.619
  30
0.0
  11
 909.490
  21
 778.927
  31
0.0
   0
LINE
   8
LEVEL003
   6
CONTINUOUS
  62
7
  10
 909.490
  20
 778.927
  30
0.0
  11
 908.252
  21
 779.088
  31
0.0
   0
LINE
   8
LEVEL003
   6
CONTINUOUS
  62
7
  10
 908.252
  20
 779.088
  30
0.0
  11
 907.003
  21
 779.098
  31
0.0
   0
LINE
   8
LEVEL003
   6
CONTINUOUS
  62
7
  10
 907.003
  20
 779.098
  30
0.0
  11
 905.762
  21
 778.957
  31
0.0
   0
LINE
   8
LEVEL003
   6
CONTINUOUS
  62
7
  10
 905.762
  20
 778.957
  30
0.0
  11
 904.550
  21
 778.668
  31
0.0
   0
LINE
   8
LEVEL003
   6
CONTINUOUS
  62
7
  10
 904.550
  20
 778.668
  30
0.0
  11
 903.383
  21
 778.236
  31
0.0
   0
LINE
   8
LEVEL003
   6
CONTINUOUS
  62
7
  10
 903.383
  20
 778.236
  30
0.0
  11
 902.282
  21
 777.666
  31
0.0
   0
LINE
   8
LEVEL003
   6
CONTINUOUS
  62
7
  10
 902.282
  20
 777.666
  30
0.0
  11
 901.263
  21
 776.968
  31
0.0
   0
LINE
   8
LEVEL003
   6
CONTINUOUS
  62
7
  10
 901.263
  20
 776.968
  30
0.0
  11
 900.342
  21
 776.153
  31
0.0
   0
LINE
   8
LEVEL003
   6
CONTINUOUS
  62
7
  10
 900.342
  20
 776.153
  30
0.0
  11
 899.533
  21
 775.234
  31
0.0
   0
LINE
   8
LEVEL003
   6
CONTINUOUS
  62
7
  10
 899.533
  20
 775.234
  30
0.0
  11
 898.850
  21
 774.224
  31
0.0
   0
LINE
   8
LEVEL003
   6
CONTINUOUS
  62
7
  10
 898.850
  20
 774.224
  30
0.0
  11
 898.302
  21
 773.139
  31
0.0
   0
LINE
   8
LEVEL003
   6
CONTINUOUS
  62
7
  10
 898.302
  20
 773.139
  30
0.0
  11
 897.898
  21
 771.997
  31
0.0
   0
LINE
   8
LEVEL003
   6
CONTINUOUS
  62
7
  10
 897.898
  20
 771.997
  30
0.0
  11
 897.645
  21
 770.816
  31
0.0
   0
LINE
   8
LEVEL003
   6
CONTINUOUS
  62
7
  10
 897.645
  20
 770.816
  30
0.0
  11
 897.546
  21
 769.613
  31
0.0
   0
LINE
   8
LEVEL003
   6
CONTINUOUS
  62
7
  10
 897.546
  20
 769.613
  30
0.0
  11
 897.545
  21
 769.453
  31
0.0
   0
LINE
   8
LEVEL003
   6
CONTINUOUS
  62
7
  10
 897.545
  20
 769.453
  30
0.0
  11
 897.545
  21
 766.793
  31
0.0
   0
ARC
   8
LEVEL001
   6
CONTINUOUS
  62
7
  10
 909.545
  20
 754.763
  30
0.0
  40
 2.00000
  50
 180.000
  51
 270.000
   0
LINE
   8
LEVEL001
   6
CONTINUOUS
  62
7
  10
 909.545
  20
 752.763
  30
0.0
  11
 940.545
  21
 752.763
  31
0.0
   0
ARC
   8
LEVEL003
   6
CONTINUOUS
  62
7
  10
 923.045
  20
 774.874
  30
0.0
  40
 3.00000
  50
 140.805
  51
 180.000
   0
ARC
   8
LEVEL001
   6
CONTINUOUS
  62
7
  10
 907.545
  20
 787.513
  30
0.0
  40
 17.0000
  50
 320.805
  51
 0.842959E-11
   0
LINE
   8
LEVEL003
   6
CONTINUOUS
  62
7
  10
 896.308
  20
 785.263
  30
0.0
  11
 917.862
  21
 785.263
  31
0.0
   0
LINE
   8
LEVEL003
   6
CONTINUOUS
  62
7
  10
 895.045
  20
 770.263
  30
0.0
  11
 895.142
  21
 768.757
  31
0.0
   0
LINE
   8
LEVEL003
   6
CONTINUOUS
  62
7
  10
 895.142
  20
 768.757
  30
0.0
  11
 895.433
  21
 767.276
  31
0.0
   0
LINE
   8
LEVEL003
   6
CONTINUOUS
  62
7
  10
 895.433
  20
 767.276
  30
0.0
  11
 895.914
  21
 765.840
  31
0.0
   0
LINE
   8
LEVEL003
   6
CONTINUOUS
  62
7
  10
 895.914
  20
 765.840
  30
0.0
  11
 896.575
  21
 764.474
  31
0.0
   0
LINE
   8
LEVEL003
   6
CONTINUOUS
  62
7
  10
 896.575
  20
 764.474
  30
0.0
  11
 897.408
  21
 763.198
  31
0.0
   0
LINE
   8
LEVEL003
   6
CONTINUOUS
  62
7
  10
 897.408
  20
 763.198
  30
0.0
  11
 898.399
  21
 762.033
  31
0.0
   0
LINE
   8
LEVEL003
   6
CONTINUOUS
  62
7
  10
 898.399
  20
 762.033
  30
0.0
  11
 899.532
  21
 760.995
  31
0.0
   0
LINE
   8
LEVEL003
   6
CONTINUOUS
  62
7
  10
 899.532
  20
 760.995
  30
0.0
  11
 899.570
  21
 760.965
  31
0.0
   0
LINE
   8
LEVEL003
   6
CONTINUOUS
  62
7
  10
 915.520
  20
 760.965
  30
0.0
  11
 916.658
  21
 761.998
  31
0.0
   0
LINE
   8
LEVEL003
   6
CONTINUOUS
  62
7
  10
 916.658
  20
 761.998
  30
0.0
  11
 917.654
  21
 763.160
  31
0.0
   0
LINE
   8
LEVEL003
   6
CONTINUOUS
  62
7
  10
 917.654
  20
 763.160
  30
0.0
  11
 918.491
  21
 764.433
  31
0.0
   0
LINE
   8
LEVEL003
   6
CONTINUOUS
  62
7
  10
 918.491
  20
 764.433
  30
0.0
  11
 919.158
  21
 765.797
  31
0.0
   0
LINE
   8
LEVEL003
   6
CONTINUOUS
  62
7
  10
 919.158
  20
 765.797
  30
0.0
  11
 919.644
  21
 767.230
  31
0.0
   0
LINE
   8
LEVEL003
   6
CONTINUOUS
  62
7
  10
 919.644
  20
 767.230
  30
0.0
  11
 919.941
  21
 768.711
  31
0.0
   0
LINE
   8
LEVEL003
   6
CONTINUOUS
  62
7
  10
 919.941
  20
 768.711
  30
0.0
  11
 920.045
  21
 770.216
  31
0.0
   0
LINE
   8
LEVEL003
   6
CONTINUOUS
  62
7
  10
 920.045
  20
 770.216
  30
0.0
  11
 920.045
  21
 770.263
  31
0.0
   0
LINE
   8
LEVEL001
   6
CONTINUOUS
  62
7
  10
 907.545
  20
 757.133
  30
0.0
  11
 907.545
  21
 754.763
  31
0.0
   0
LINE
   8
LEVEL003
   6
CONTINUOUS
  62
7
  10
 895.045
  20
 770.263
  30
0.0
  11
 895.045
  21
 794.513
  31
0.0
   0
LINE
   8
LEVEL003
   6
CONTINUOUS
  62
7
  10
 897.545
  20
 766.793
  30
0.0
  11
 897.623
  21
 765.588
  31
0.0
   0
LINE
   8
LEVEL003
   6
CONTINUOUS
  62
7
  10
 897.623
  20
 765.588
  30
0.0
  11
 897.856
  21
 764.403
  31
0.0
   0
LINE
   8
LEVEL003
   6
CONTINUOUS
  62
7
  10
 897.856
  20
 764.403
  30
0.0
  11
 898.240
  21
 763.255
  31
0.0
   0
LINE
   8
LEVEL003
   6
CONTINUOUS
  62
7
  10
 898.240
  20
 763.255
  30
0.0
  11
 898.769
  21
 762.162
  31
0.0
   0
LINE
   8
LEVEL003
   6
CONTINUOUS
  62
7
  10
 898.769
  20
 762.162
  30
0.0
  11
 899.435
  21
 761.141
  31
0.0
   0
LINE
   8
LEVEL003
   6
CONTINUOUS
  62
7
  10
 899.435
  20
 761.141
  30
0.0
  11
 900.228
  21
 760.209
  31
0.0
   0
LINE
   8
LEVEL003
   6
CONTINUOUS
  62
7
  10
 900.228
  20
 760.209
  30
0.0
  11
 901.135
  21
 759.379
  31
0.0
   0
LINE
   8
LEVEL003
   6
CONTINUOUS
  62
7
  10
 901.135
  20
 759.379
  30
0.0
  11
 902.142
  21
 758.665
  31
0.0
   0
LINE
   8
LEVEL003
   6
CONTINUOUS
  62
7
  10
 902.142
  20
 758.665
  30
0.0
  11
 903.233
  21
 758.077
  31
0.0
   0
LINE
   8
LEVEL003
   6
CONTINUOUS
  62
7
  10
 903.233
  20
 758.077
  30
0.0
  11
 904.392
  21
 757.626
  31
0.0
   0
LINE
   8
LEVEL003
   6
CONTINUOUS
  62
7
  10
 904.392
  20
 757.626
  30
0.0
  11
 905.599
  21
 757.318
  31
0.0
   0
LINE
   8
LEVEL003
   6
CONTINUOUS
  62
7
  10
 905.599
  20
 757.318
  30
0.0
  11
 906.838
  21
 757.158
  31
0.0
   0
LINE
   8
LEVEL003
   6
CONTINUOUS
  62
7
  10
 906.838
  20
 757.158
  30
0.0
  11
 908.087
  21
 757.148
  31
0.0
   0
LINE
   8
LEVEL003
   6
CONTINUOUS
  62
7
  10
 908.087
  20
 757.148
  30
0.0
  11
 909.327
  21
 757.288
  31
0.0
   0
LINE
   8
LEVEL003
   6
CONTINUOUS
  62
7
  10
 909.327
  20
 757.288
  30
0.0
  11
 910.540
  21
 757.577
  31
0.0
   0
LINE
   8
LEVEL003
   6
CONTINUOUS
  62
7
  10
 910.540
  20
 757.577
  30
0.0
  11
 911.706
  21
 758.010
  31
0.0
   0
LINE
   8
LEVEL003
   6
CONTINUOUS
  62
7
  10
 911.706
  20
 758.010
  30
0.0
  11
 912.808
  21
 758.579
  31
0.0
   0
LINE
   8
LEVEL003
   6
CONTINUOUS
  62
7
  10
 912.808
  20
 758.579
  30
0.0
  11
 913.827
  21
 759.277
  31
0.0
   0
LINE
   8
LEVEL003
   6
CONTINUOUS
  62
7
  10
 913.827
  20
 759.277
  30
0.0
  11
 914.748
  21
 760.092
  31
0.0
   0
LINE
   8
LEVEL003
   6
CONTINUOUS
  62
7
  10
 914.748
  20
 760.092
  30
0.0
  11
 915.556
  21
 761.012
  31
0.0
   0
LINE
   8
LEVEL003
   6
CONTINUOUS
  62
7
  10
 915.556
  20
 761.012
  30
0.0
  11
 916.240
  21
 762.022
  31
0.0
   0
LINE
   8
LEVEL003
   6
CONTINUOUS
  62
7
  10
 916.240
  20
 762.022
  30
0.0
  11
 916.788
  21
 763.106
  31
0.0
   0
LINE
   8
LEVEL003
   6
CONTINUOUS
  62
7
  10
 916.788
  20
 763.106
  30
0.0
  11
 917.192
  21
 764.248
  31
0.0
   0
LINE
   8
LEVEL003
   6
CONTINUOUS
  62
7
  10
 917.192
  20
 764.248
  30
0.0
  11
 917.445
  21
 765.430
  31
0.0
   0
LINE
   8
LEVEL003
   6
CONTINUOUS
  62
7
  10
 917.445
  20
 765.430
  30
0.0
  11
 917.544
  21
 766.632
  31
0.0
   0
LINE
   8
LEVEL003
   6
CONTINUOUS
  62
7
  10
 917.544
  20
 766.632
  30
0.0
  11
 917.545
  21
 766.793
  31
0.0
   0
LINE
   8
LEVEL003
   6
CONTINUOUS
  62
7
  10
 916.212
  20
 771.612
  30
0.0
  11
 915.522
  21
 772.618
  31
0.0
   0
LINE
   8
LEVEL003
   6
CONTINUOUS
  62
7
  10
 915.522
  20
 772.618
  30
0.0
  11
 914.708
  21
 773.533
  31
0.0
   0
LINE
   8
LEVEL003
   6
CONTINUOUS
  62
7
  10
 914.708
  20
 773.533
  30
0.0
  11
 913.782
  21
 774.343
  31
0.0
   0
LINE
   8
LEVEL003
   6
CONTINUOUS
  62
7
  10
 913.782
  20
 774.343
  30
0.0
  11
 912.759
  21
 775.035
  31
0.0
   0
LINE
   8
LEVEL003
   6
CONTINUOUS
  62
7
  10
 912.759
  20
 775.035
  30
0.0
  11
 911.654
  21
 775.599
  31
0.0
   0
LINE
   8
LEVEL003
   6
CONTINUOUS
  62
7
  10
 911.654
  20
 775.599
  30
0.0
  11
 910.486
  21
 776.025
  31
0.0
   0
LINE
   8
LEVEL003
   6
CONTINUOUS
  62
7
  10
 910.486
  20
 776.025
  30
0.0
  11
 909.271
  21
 776.307
  31
0.0
   0
LINE
   8
LEVEL003
   6
CONTINUOUS
  62
7
  10
 909.271
  20
 776.307
  30
0.0
  11
 908.029
  21
 776.441
  31
0.0
   0
LINE
   8
LEVEL003
   6
CONTINUOUS
  62
7
  10
 908.029
  20
 776.441
  30
0.0
  11
 906.780
  21
 776.424
  31
0.0
   0
LINE
   8
LEVEL003
   6
CONTINUOUS
  62
7
  10
 906.780
  20
 776.424
  30
0.0
  11
 905.543
  21
 776.257
  31
0.0
   0
LINE
   8
LEVEL003
   6
CONTINUOUS
  62
7
  10
 905.543
  20
 776.257
  30
0.0
  11
 904.337
  21
 775.942
  31
0.0
   0
LINE
   8
LEVEL003
   6
CONTINUOUS
  62
7
  10
 904.337
  20
 775.942
  30
0.0
  11
 903.182
  21
 775.484
  31
0.0
   0
LINE
   8
LEVEL003
   6
CONTINUOUS
  62
7
  10
 903.182
  20
 775.484
  30
0.0
  11
 902.094
  21
 774.891
  31
0.0
   0
LINE
   8
LEVEL003
   6
CONTINUOUS
  62
7
  10
 902.094
  20
 774.891
  30
0.0
  11
 901.091
  21
 774.171
  31
0.0
   0
LINE
   8
LEVEL003
   6
CONTINUOUS
  62
7
  10
 901.091
  20
 774.171
  30
0.0
  11
 900.189
  21
 773.336
  31
0.0
   0
LINE
   8
LEVEL003
   6
CONTINUOUS
  62
7
  10
 900.189
  20
 773.336
  30
0.0
  11
 899.402
  21
 772.399
  31
0.0
   0
LINE
   8
LEVEL003
   6
CONTINUOUS
  62
7
  10
 899.402
  20
 772.399
  30
0.0
  11
 898.878
  21
 771.612
  31
0.0
   0
LINE
   8
LEVEL003
   6
CONTINUOUS
  62
7
  10
 926.477
  20
 790.008
  30
0.0
  11
 921.077
  21
 769.857
  31
0.0
   0
ARC
   8
LEVEL003
   6
CONTINUOUS
  62
7
  10
 919.145
  20
 770.375
  30
0.0
  40
 2.00000
  50
 292.642
  51
 345.000
   0
ARC
   8
LEVEL001
   6
CONTINUOUS
  62
7
  10
 876.545
  20
 829.688
  30
0.0
  40
 5.50000
  50
 100.476
  51
 136.658
   0
LINE
   8
LEVEL001
   6
CONTINUOUS
  62
7
  10
 872.545
  20
 833.263
  30
0.0
  11
 872.545
  21
 833.463
  31
0.0
   0
LINE
   8
LEVEL003
   6
CONTINUOUS
  62
7
  10
 875.545
  20
 833.263
  30
0.0
  11
 866.545
  21
 833.263
  31
0.0
   0
ARC
   8
LEVEL001
   6
CONTINUOUS
  62
7
  10
 909.545
  20
 855.763
  30
0.0
  40
 2.00000
  50
 90.0000
  51
 180.000
   0
LINE
   8
LEVEL001
   6
CONTINUOUS
  62
7
  10
 909.545
  20
 857.763
  30
0.0
  11
 940.545
  21
 857.763
  31
0.0
   0
ARC
   8
LEVEL001
   6
CONTINUOUS
  62
7
  10
 907.545
  20
 823.013
  30
0.0
  40
 17.0000
  50
0.0
  51
 90.0000
   0
LINE
   8
LEVEL001
   6
CONTINUOUS
  62
7
  10
 907.545
  20
 855.763
  30
0.0
  11
 907.545
  21
 840.013
  31
0.0
   0
ARC
   8
LEVEL001
   6
CONTINUOUS
  62
7
  10
 925.545
  20
 818.799
  30
0.0
  40
 1.00000
  50
 0.233845E-8
  51
 60.0000
   0
ARC
   8
LEVEL001
   6
CONTINUOUS
  62
7
  10
 927.545
  20
 822.263
  30
0.0
  40
 3.00000
  50
 180.000
  51
 240.000
   0
LINE
   8
LEVEL003
   6
CONTINUOUS
  62
7
  10
 926.545
  20
 818.799
  30
0.0
  11
 926.545
  21
 813.263
  31
0.0
   0
ARC
   8
LEVEL001
   6
CONTINUOUS
  62
7
  10
 940.545
  20
 855.763
  30
0.0
  40
 2.00000
  50
 0.442937E-9
  51
 90.0000
   0
LINE
   8
LEVEL001
   6
CONTINUOUS
  62
7
  10
 942.545
  20
 855.763
  30
0.0
  11
 942.545
  21
 818.763
  31
0.0
   0
LINE
   8
LEVEL001
   6
CONTINUOUS
  62
7
  10
 926.545
  20
 797.263
  30
0.0
  11
 926.545
  21
 790.008
  31
0.0
   0
ARC
   8
LEVEL001
   6
CONTINUOUS
  62
7
  10
 940.545
  20
 754.763
  30
0.0
  40
 2.00000
  50
 270.000
  51
 0.111386E-8
   0
LINE
   8
LEVEL001
   6
CONTINUOUS
  62
7
  10
 942.545
  20
 791.763
  30
0.0
  11
 942.545
  21
 754.763
  31
0.0
   0
ARC
   8
LEVEL003
   6
CONTINUOUS
  62
7
  10
 892.200
  20
 767.851
  30
0.0
  40
 3.00000
  50
 8.11460
  51
 87.8945
   0
LINE
   8
LEVEL001
   6
CONTINUOUS
  62
7
  10
 875.545
  20
 773.219
  30
0.0
  11
 877.544
  21
 771.175
  31
0.0
   0
LINE
   8
LEVEL003
   6
CONTINUOUS
  62
7
  10
 892.305
  20
 770.849
  30
0.0
  11
 877.544
  21
 771.175
  31
0.0
   0
LINE
   8
LEVEL001
   6
CONTINUOUS
  62
7
  10
 875.545
  20
 836.836
  30
0.0
  11
 875.545
  21
 816.013
  31
0.0
   0
LINE
   8
LEVEL001
   6
CONTINUOUS
  62
7
  10
 875.545
  20
 837.307
  30
0.0
  11
 877.544
  21
 839.351
  31
0.0
   0
LINE
   8
LEVEL001
   6
CONTINUOUS
  62
7
  10
 907.545
  20
 840.013
  30
0.0
  11
 877.544
  21
 839.351
  31
0.0
   0
LINE
   8
LEVEL001
   6
CONTINUOUS
  62
7
  10
 875.545
  20
 837.307
  30
0.0
  11
 875.545
  21
 816.013
  31
0.0
   0
LINE
   8
LEVEL003
   6
CONTINUOUS
  62
7
  10
 877.545
  20
 839.351
  30
0.0
  11
 877.545
  21
 816.013
  31
0.0
   0
LINE
   8
LEVEL003
   6
CONTINUOUS
  62
7
  10
 877.545
  20
 794.513
  30
0.0
  11
 877.545
  21
 771.175
  31
0.0
   0
LINE
   8
LEVEL001
   6
CONTINUOUS
  62
7
  10
 875.545
  20
 794.513
  30
0.0
  11
 875.545
  21
 773.219
  31
0.0
   0
LINE
   8
LEVEL001
   6
CONTINUOUS
  62
7
  10
 924.545
  20
 823.013
  30
0.0
  11
 924.545
  21
 814.263
  31
0.0
   0
LINE
   8
LEVEL001
   6
CONTINUOUS
  62
7
  10
 924.545
  20
 796.263
  30
0.0
  11
 924.545
  21
 787.513
  31
0.0
   0
ARC
   8
LEVEL001
   6
CONTINUOUS
  62
7
  10
 922.045
  20
 794.263
  30
0.0
  40
 2.00000
  50
 90.0000
  51
 180.000
   0
LINE
   8
LEVEL001
   6
CONTINUOUS
  62
7
  10
 926.545
  20
 823.760
  30
0.0
  11
 929.745
  21
 823.760
  31
0.0
   0
LINE
   8
LEVEL003
   6
CONTINUOUS
  62
7
  10
 926.545
  20
 823.760
  30
0.0
  11
 926.545
  21
 790.526
  31
0.0
   0
LINE
   8
LEVEL003
   6
CONTINUOUS
  62
7
  10
 929.745
  20
 816.263
  30
0.0
  11
 930.045
  21
 816.263
  31
0.0
   0
LINE
   8
LEVEL001
   6
CONTINUOUS
  62
7
  10
 926.545
  20
 793.426
  30
0.0
  11
 929.745
  21
 793.426
  31
0.0
   0
LINE
   8
LEVEL003
   6
CONTINUOUS
  62
7
  10
 929.745
  20
 794.263
  30
0.0
  11
 930.045
  21
 794.263
  31
0.0
   0
LINE
   8
LEVEL003
   6
CONTINUOUS
  62
7
  10
 929.745
  20
 823.760
  30
0.0
  11
 929.745
  21
 793.426
  31
0.0
   0
LINE
   8
LEVEL003
   6
CONTINUOUS
  62
7
  10
 875.545
  20
 777.263
  30
0.0
  11
 866.545
  21
 777.263
  31
0.0
   0
ARC
   8
LEVEL001
   6
CONTINUOUS
  62
7
  10
 917.045
  20
 794.513
  30
0.0
  40
 3.00000
  50
 0.151988E-10
  51
 49.1274
   0
LINE
   8
LEVEL001
   6
CONTINUOUS
  62
7
  10
 918.489
  20
 814.263
  30
0.0
  11
 924.545
  21
 814.263
  31
0.0
   0
LINE
   8
LEVEL001
   6
CONTINUOUS
  62
7
  10
 922.045
  20
 796.263
  30
0.0
  11
 924.545
  21
 796.263
  31
0.0
   0
LINE
   8
LEVEL003
   6
CONTINUOUS
  62
7
  10
 920.045
  20
 770.263
  30
0.0
  11
 920.045
  21
 794.513
  31
0.0
   0
ARC
   8
LEVEL001
   6
CONTINUOUS
  62
7
  10
 924.545
  20
 798.263
  30
0.0
  40
 2.00000
  50
 270.000
  51
 330.000
   0
ARC
   8
LEVEL001
   6
CONTINUOUS
  62
7
  10
 924.545
  20
 812.263
  30
0.0
  40
 2.00000
  50
 30.0000
  51
 90.0000
   0
LINE
   8
LEVEL014
   6
CONTINUOUS
  62
7
  10
 929.745
  20
 813.263
  30
0.0
  11
 937.734
  21
 813.263
  31
0.0
   0
LINE
   8
LEVEL014
   6
CONTINUOUS
  62
7
  10
 929.745
  20
 797.263
  30
0.0
  11
 937.734
  21
 797.263
  31
0.0
   0
LINE
   8
LEVEL003
   6
CONTINUOUS
  62
7
  10
 937.734
  20
 817.263
  30
0.0
  11
 930.045
  21
 817.263
  31
0.0
   0
LINE
   8
LEVEL003
   6
CONTINUOUS
  62
7
  10
 930.045
  20
 817.263
  30
0.0
  11
 930.045
  21
 813.263
  31
0.0
   0
LINE
   8
LEVEL003
   6
CONTINUOUS
  62
7
  10
 930.045
  20
 797.263
  30
0.0
  11
 930.045
  21
 793.263
  31
0.0
   0
LINE
   8
LEVEL003
   6
CONTINUOUS
  62
7
  10
 930.045
  20
 793.263
  30
0.0
  11
 937.734
  21
 793.263
  31
0.0
   0
LINE
   8
LEVEL014
   6
CONTINUOUS
  62
7
  10
 473.978
  20
 816.013
  30
0.0
  11
 912.989
  21
 816.013
  31
0.0
   0
LINE
   8
LEVEL014
   6
CONTINUOUS
  62
7
  10
 912.989
  20
 816.013
  30
0.0
  11
 915.739
  21
 813.263
  31
0.0
   0
LINE
   8
LEVEL014
   6
CONTINUOUS
  62
7
  10
 915.739
  20
 813.263
  30
0.0
  11
 926.545
  21
 813.263
  31
0.0
   0
LINE
   8
LEVEL014
   6
CONTINUOUS
  62
7
  10
 473.978
  20
 794.513
  30
0.0
  11
 912.989
  21
 794.513
  31
0.0
   0
LINE
   8
LEVEL014
   6
CONTINUOUS
  62
7
  10
 912.989
  20
 794.513
  30
0.0
  11
 915.739
  21
 797.263
  31
0.0
   0
LINE
   8
LEVEL014
   6
CONTINUOUS
  62
7
  10
 915.739
  20
 797.263
  30
0.0
  11
 926.545
  21
 797.263
  31
0.0
   0
CIRCLE
   8
LEVEL003
   6
CONTINUOUS
  62
3
  10
 353.924
  20
 333.202
  30
0.0
  40
 3.37500
   0
CIRCLE
   8
LEVEL003
   6
CONTINUOUS
  62
3
  10
 373.921
  20
 333.545
  30
0.0
  40
 3.37500
   0
LINE
   8
LEVEL003
   6
CONTINUOUS
  62
3
  10
 599.102
  20
 375.591
  30
0.0
  11
 600.450
  21
 318.607
  31
0.0
   0
TEXT
   8
LEVEL003
  62
3
  10
 597.145
  20
 323.030
  30
0.0
  40
 16.0000
   1
%%c５７
  50
 91.3553
   7
STANDARD
  72
1
  11
 596.577
  21
 347.023
  31
0.0
   0
LINE
   8
LEVEL003
   6
CONTINUOUS
  62
3
  10
 597.270
  20
 363.544
  30
0.0
  11
 599.102
  21
 375.591
  31
0.0
   0
LINE
   8
LEVEL003
   6
CONTINUOUS
  62
3
  10
 599.102
  20
 375.591
  30
0.0
  11
 601.501
  21
 363.644
  31
0.0
   0
LINE
   8
LEVEL003
   6
CONTINUOUS
  62
3
  10
 602.281
  20
 330.653
  30
0.0
  11
 600.450
  21
 318.607
  31
0.0
   0
LINE
   8
LEVEL003
   6
CONTINUOUS
  62
3
  10
 600.450
  20
 318.607
  30
0.0
  11
 598.051
  21
 330.553
  31
0.0
   0
LINE
   8
LEVEL001
   6
DASHDOT
  62
1
  10
 357.347
  20
 333.357
  30
0.0
  11
 350.149
  21
 333.189
  31
0.0
   0
LINE
   8
LEVEL001
   6
DASHDOT
  62
1
  10
 353.664
  20
 336.872
  30
0.0
  11
 353.832
  21
 329.674
  31
0.0
   0
LINE
   8
LEVEL001
   6
DASHDOT
  62
1
  10
 377.342
  20
 333.824
  30
0.0
  11
 370.144
  21
 333.656
  31
0.0
   0
LINE
   8
LEVEL001
   6
DASHDOT
  62
1
  10
 373.659
  20
 337.339
  30
0.0
  11
 373.827
  21
 330.141
  31
0.0
   0
ARC
   8
LEVEL001
   6
CONTINUOUS
  62
7
  10
 382.407
  20
 391.001
  30
0.0
  40
 3.00000
  50
 181.339
  51
 271.339
   0
LINE
   8
LEVEL001
   6
CONTINUOUS
  62
7
  10
 382.477
  20
 388.002
  30
0.0
  11
 383.721
  21
 388.031
  31
0.0
   0
ARC
   8
LEVEL001
   6
CONTINUOUS
  62
7
  10
 383.768
  20
 386.031
  30
0.0
  40
 2.00000
  50
 1.33897
  51
 91.3390
   0
ARC
   8
LEVEL001
   6
CONTINUOUS
  62
7
  10
 337.047
  20
 405.902
  30
0.0
  40
 3.00000
  50
 181.339
  51
 271.339
   0
LINE
   8
LEVEL001
   6
CONTINUOUS
  62
7
  10
 334.047
  20
 405.832
  30
0.0
  11
 334.032
  21
 406.478
  31
0.0
   0
LINE
   8
LEVEL001
   6
CONTINUOUS
  62
7
  10
 337.117
  20
 402.903
  30
0.0
  11
 339.116
  21
 402.950
  31
0.0
   0
LINE
   8
LEVEL001
   6
CONTINUOUS
  62
7
  10
 379.105
  20
 403.885
  30
0.0
  11
 378.082
  21
 404.861
  31
0.0
   0
LINE
   8
LEVEL001
   6
CONTINUOUS
  62
7
  10
 340.092
  20
 403.973
  30
0.0
  11
 339.116
  21
 402.950
  31
0.0
   0
LINE
   8
LEVEL001
   6
CONTINUOUS
  62
7
  10
 379.408
  20
 390.931
  30
0.0
  11
 379.105
  21
 403.885
  31
0.0
   0
ARC
   8
LEVEL001
   6
CONTINUOUS
  62
7
  10
 349.028
  20
 406.828
  30
0.0
  40
 15.0000
  50
 141.952
  51
 181.339
   0
ARC
   8
LEVEL001
   6
CONTINUOUS
  62
7
  10
 345.056
  20
 405.589
  30
0.0
  40
 30.0000
  50
 149.896
  51
 213.727
   0
LINE
   8
LEVEL001
   6
DASHDOT
  62
1
  10
 339.191
  20
 356.939
  30
0.0
  11
 339.331
  21
 350.941
  31
0.0
   0
LINE
   8
LEVEL001
   6
DASHDOT
  62
1
  10
 309.270
  20
 353.239
  30
0.0
  11
 373.252
  21
 354.734
  31
0.0
   0
ARC
   8
LEVEL001
   6
CONTINUOUS
  62
7
  10
 307.630
  20
 380.604
  30
0.0
  40
 15.0000
  50
 1.33882
  51
 33.7264
   0
ARC
   8
LEVEL001
   6
CONTINUOUS
  62
7
  10
 307.630
  20
 380.604
  30
0.0
  40
 15.0000
  50
 1.33882
  51
 33.7264
   0
LINE
   8
LEVEL001
   6
CONTINUOUS
  62
7
  10
 313.324
  20
 372.339
  30
0.0
  11
 314.142
  21
 337.348
  31
0.0
   0
ARC
   8
LEVEL001
   6
CONTINUOUS
  62
7
  10
 335.272
  20
 334.841
  30
0.0
  40
 3.00000
  50
 75.3762
  51
 91.3390
   0
ARC
   8
LEVEL001
   6
CONTINUOUS
  62
7
  10
 340.261
  20
 353.963
  30
0.0
  40
 16.7620
  50
 255.376
  51
 260.747
   0
LINE
   8
LEVEL001
   6
CONTINUOUS
  62
7
  10
 314.142
  20
 337.348
  30
0.0
  11
 335.202
  21
 337.841
  31
0.0
   0
ARC
   8
LEVEL001
   6
CONTINUOUS
  62
7
  10
 336.762
  20
 332.484
  30
0.0
  40
 5.00000
  50
 1.33897
  51
 80.7474
   0
LINE
   8
LEVEL001
   6
CONTINUOUS
  62
7
  10
 342.406
  20
 305.000
  30
0.0
  11
 382.384
  21
 305.934
  31
0.0
   0
LINE
   8
LEVEL001
   6
CONTINUOUS
  62
7
  10
 342.406
  20
 305.000
  30
0.0
  11
 341.761
  21
 332.601
  31
0.0
   0
LINE
   8
LEVEL001
   6
DASHDOT
  62
1
  10
 370.008
  20
 318.149
  30
0.0
  11
 390.486
  21
 318.627
  31
0.0
   0
LINE
   8
LEVEL001
   6
DASHDOT
  62
1
  10
 339.664
  20
 317.439
  30
0.0
  11
 367.070
  21
 318.080
  31
0.0
   0
ARC
   8
LEVEL001
   6
CONTINUOUS
  62
7
  10
 390.896
  20
 380.654
  30
0.0
  40
 5.00000
  50
 181.339
  51
 222.842
   0
LINE
   8
LEVEL001
   6
CONTINUOUS
  62
7
  10
 385.768
  20
 386.078
  30
0.0
  11
 385.897
  21
 380.537
  31
0.0
   0
ARC
   8
LEVEL001
   6
CONTINUOUS
  62
7
  10
 385.353
  20
 305.504
  30
0.0
  40
 3.00000
  50
 91.3390
  51
 171.745
   0
LINE
   8
LEVEL001
   6
CONTINUOUS
  62
7
  10
 385.283
  20
 308.503
  30
0.0
  11
 388.335
  21
 308.574
  31
0.0
   0
LINE
   8
LEVEL001
   6
CONTINUOUS
  62
7
  10
 388.335
  20
 308.574
  30
0.0
  11
 388.823
  21
 309.086
  31
0.0
   0
LINE
   8
LEVEL001
   6
CONTINUOUS
  62
7
  10
 388.823
  20
 309.086
  30
0.0
  11
 388.811
  21
 309.586
  31
0.0
   0
LINE
   8
LEVEL001
   6
CONTINUOUS
  62
7
  10
 333.048
  20
 405.809
  30
0.0
  11
 332.837
  21
 414.806
  31
0.0
   0
LINE
   8
LEVEL001
   6
CONTINUOUS
  62
7
  10
 332.048
  20
 405.785
  30
0.0
  11
 331.818
  21
 415.620
  31
0.0
   0
ARC
   8
LEVEL001
   6
CONTINUOUS
  62
7
  10
 337.047
  20
 405.902
  30
0.0
  40
 4.00000
  50
 181.337
  51
 271.339
   0
ARC
   8
LEVEL001
   6
CONTINUOUS
  62
7
  10
 337.047
  20
 405.902
  30
0.0
  40
 5.00000
  50
 181.339
  51
 271.206
   0
ARC
   8
LEVEL001
   6
CONTINUOUS
  62
7
  10
 337.047
  20
 405.902
  30
0.0
  40
 11.0000
  50
 181.339
  51
 271.339
   0
ARC
   8
LEVEL001
   6
CONTINUOUS
  62
7
  10
 337.047
  20
 405.902
  30
0.0
  40
 10.0000
  50
 181.339
  51
 271.239
   0
LINE
   8
LEVEL001
   6
CONTINUOUS
  62
7
  10
 326.050
  20
 405.645
  30
0.0
  11
 325.828
  21
 415.106
  31
0.0
   0
LINE
   8
LEVEL001
   6
CONTINUOUS
  62
7
  10
 327.049
  20
 405.669
  30
0.0
  11
 326.827
  21
 415.191
  31
0.0
   0
ARC
   8
LEVEL001
   6
CONTINUOUS
  62
7
  10
 335.836
  20
 414.876
  30
0.0
  40
 3.00000
  50
 163.842
  51
 181.339
   0
ARC
   8
LEVEL001
   6
CONTINUOUS
  62
7
  10
 329.455
  20
 409.726
  30
0.0
  40
 2.50000
  50
 157.761
  51
 181.339
   0
LINE
   8
LEVEL001
   6
CONTINUOUS
  62
7
  10
 327.141
  20
 410.672
  30
0.0
  11
 331.722
  21
 410.779
  31
0.0
   0
LINE
   8
LEVEL001
   6
CONTINUOUS
  62
7
  10
 352.968
  20
 366.659
  30
0.0
  11
 372.962
  21
 367.127
  31
0.0
   0
ARC
   8
LEVEL003
   6
CONTINUOUS
  62
7
  10
 379.905
  20
 391.070
  30
0.0
  40
 3.00000
  50
 121.339
  51
 181.339
   0
LINE
   8
LEVEL003
   6
CONTINUOUS
  62
7
  10
 341.861
  20
 392.511
  30
0.0
  11
 376.851
  21
 393.329
  31
0.0
   0
ARC
   8
LEVEL003
   6
CONTINUOUS
  62
7
  10
 338.916
  20
 390.112
  30
0.0
  40
 3.00000
  50
 1.33897
  51
 61.3390
   0
ARC
   8
LEVEL003
   6
CONTINUOUS
  62
7
  10
 341.314
  20
 394.499
  30
0.0
  40
 2.00000
  50
 181.339
  51
 241.339
   0
LINE
   8
LEVEL003
   6
CONTINUOUS
  62
7
  10
 339.303
  20
 394.952
  30
0.0
  11
 339.315
  21
 394.452
  31
0.0
   0
ARC
   8
LEVEL003
   6
CONTINUOUS
  62
7
  10
 344.773
  20
 404.082
  30
0.0
  40
 2.00000
  50
 271.339
  51
 1.33897
   0
ARC
   8
LEVEL003
   6
CONTINUOUS
  62
7
  10
 344.797
  20
 403.083
  30
0.0
  40
 2.00000
  50
 271.339
  51
 1.33897
   0
ARC
   8
LEVEL003
   6
CONTINUOUS
  62
7
  10
 345.030
  20
 393.085
  30
0.0
  40
 2.00000
  50
 1.33897
  51
 91.3390
   0
ARC
   8
LEVEL003
   6
CONTINUOUS
  62
7
  10
 345.007
  20
 394.085
  30
0.0
  40
 2.00000
  50
 1.33897
  51
 91.3390
   0
LINE
   8
LEVEL001
   6
CONTINUOUS
  62
7
  10
 344.820
  20
 402.083
  30
0.0
  11
 337.140
  21
 401.903
  31
0.0
   0
LINE
   8
LEVEL001
   6
CONTINUOUS
  62
7
  10
 344.843
  20
 401.083
  30
0.0
  11
 337.152
  21
 400.903
  31
0.0
   0
LINE
   8
LEVEL001
   6
CONTINUOUS
  62
7
  10
 344.960
  20
 396.085
  30
0.0
  11
 337.263
  21
 395.905
  31
0.0
   0
LINE
   8
LEVEL001
   6
CONTINUOUS
  62
7
  10
 344.984
  20
 395.085
  30
0.0
  11
 337.304
  21
 394.905
  31
0.0
   0
LINE
   8
LEVEL003
   6
CONTINUOUS
  62
7
  10
 360.606
  20
 382.223
  30
0.0
  11
 360.536
  21
 382.562
  31
0.0
   0
LINE
   8
LEVEL003
   6
CONTINUOUS
  62
7
  10
 360.536
  20
 382.562
  30
0.0
  11
 360.342
  21
 382.894
  31
0.0
   0
LINE
   8
LEVEL003
   6
CONTINUOUS
  62
7
  10
 360.342
  20
 382.894
  30
0.0
  11
 360.027
  21
 383.212
  31
0.0
   0
LINE
   8
LEVEL003
   6
CONTINUOUS
  62
7
  10
 360.027
  20
 383.212
  30
0.0
  11
 359.597
  21
 383.511
  31
0.0
   0
LINE
   8
LEVEL003
   6
CONTINUOUS
  62
7
  10
 359.597
  20
 383.511
  30
0.0
  11
 359.057
  21
 383.788
  31
0.0
   0
LINE
   8
LEVEL003
   6
CONTINUOUS
  62
7
  10
 359.057
  20
 383.788
  30
0.0
  11
 358.417
  21
 384.037
  31
0.0
   0
LINE
   8
LEVEL003
   6
CONTINUOUS
  62
7
  10
 358.417
  20
 384.037
  30
0.0
  11
 357.686
  21
 384.255
  31
0.0
   0
LINE
   8
LEVEL003
   6
CONTINUOUS
  62
7
  10
 357.686
  20
 384.255
  30
0.0
  11
 356.876
  21
 384.439
  31
0.0
   0
LINE
   8
LEVEL003
   6
CONTINUOUS
  62
7
  10
 356.876
  20
 384.439
  30
0.0
  11
 355.999
  21
 384.584
  31
0.0
   0
LINE
   8
LEVEL003
   6
CONTINUOUS
  62
7
  10
 355.999
  20
 384.584
  30
0.0
  11
 355.070
  21
 384.691
  31
0.0
   0
LINE
   8
LEVEL003
   6
CONTINUOUS
  62
7
  10
 355.070
  20
 384.691
  30
0.0
  11
 354.102
  21
 384.755
  31
0.0
   0
LINE
   8
LEVEL003
   6
CONTINUOUS
  62
7
  10
 354.102
  20
 384.755
  30
0.0
  11
 353.110
  21
 384.778
  31
0.0
   0
LINE
   8
LEVEL003
   6
CONTINUOUS
  62
7
  10
 353.110
  20
 384.778
  30
0.0
  11
 352.111
  21
 384.757
  31
0.0
   0
LINE
   8
LEVEL003
   6
CONTINUOUS
  62
7
  10
 352.111
  20
 384.757
  30
0.0
  11
 351.120
  21
 384.694
  31
0.0
   0
LINE
   8
LEVEL003
   6
CONTINUOUS
  62
7
  10
 351.120
  20
 384.694
  30
0.0
  11
 350.152
  21
 384.590
  31
0.0
   0
LINE
   8
LEVEL003
   6
CONTINUOUS
  62
7
  10
 350.152
  20
 384.590
  30
0.0
  11
 349.222
  21
 384.445
  31
0.0
   0
LINE
   8
LEVEL003
   6
CONTINUOUS
  62
7
  10
 349.222
  20
 384.445
  30
0.0
  11
 348.345
  21
 384.263
  31
0.0
   0
LINE
   8
LEVEL003
   6
CONTINUOUS
  62
7
  10
 348.345
  20
 384.263
  30
0.0
  11
 347.535
  21
 384.047
  31
0.0
   0
LINE
   8
LEVEL003
   6
CONTINUOUS
  62
7
  10
 347.535
  20
 384.047
  30
0.0
  11
 346.803
  21
 383.799
  31
0.0
   0
LINE
   8
LEVEL003
   6
CONTINUOUS
  62
7
  10
 346.803
  20
 383.799
  30
0.0
  11
 346.163
  21
 383.523
  31
0.0
   0
LINE
   8
LEVEL003
   6
CONTINUOUS
  62
7
  10
 346.163
  20
 383.523
  30
0.0
  11
 345.623
  21
 383.224
  31
0.0
   0
LINE
   8
LEVEL003
   6
CONTINUOUS
  62
7
  10
 345.623
  20
 383.224
  30
0.0
  11
 345.192
  21
 382.907
  31
0.0
   0
LINE
   8
LEVEL003
   6
CONTINUOUS
  62
7
  10
 345.192
  20
 382.907
  30
0.0
  11
 344.876
  21
 382.576
  31
0.0
   0
LINE
   8
LEVEL003
   6
CONTINUOUS
  62
7
  10
 344.876
  20
 382.576
  30
0.0
  11
 344.682
  21
 382.237
  31
0.0
   0
LINE
   8
LEVEL003
   6
CONTINUOUS
  62
7
  10
 344.682
  20
 382.237
  30
0.0
  11
 344.611
  21
 381.894
  31
0.0
   0
LINE
   8
LEVEL003
   6
CONTINUOUS
  62
7
  10
 344.611
  20
 381.894
  30
0.0
  11
 344.665
  21
 381.554
  31
0.0
   0
LINE
   8
LEVEL003
   6
CONTINUOUS
  62
7
  10
 344.665
  20
 381.554
  30
0.0
  11
 344.842
  21
 381.221
  31
0.0
   0
LINE
   8
LEVEL003
   6
CONTINUOUS
  62
7
  10
 344.842
  20
 381.221
  30
0.0
  11
 345.141
  21
 380.901
  31
0.0
   0
LINE
   8
LEVEL003
   6
CONTINUOUS
  62
7
  10
 345.141
  20
 380.901
  30
0.0
  11
 345.557
  21
 380.599
  31
0.0
   0
LINE
   8
LEVEL003
   6
CONTINUOUS
  62
7
  10
 345.557
  20
 380.599
  30
0.0
  11
 346.082
  21
 380.319
  31
0.0
   0
LINE
   8
LEVEL003
   6
CONTINUOUS
  62
7
  10
 346.082
  20
 380.319
  30
0.0
  11
 346.710
  21
 380.066
  31
0.0
   0
LINE
   8
LEVEL003
   6
CONTINUOUS
  62
7
  10
 346.710
  20
 380.066
  30
0.0
  11
 347.429
  21
 379.843
  31
0.0
   0
LINE
   8
LEVEL003
   6
CONTINUOUS
  62
7
  10
 347.429
  20
 379.843
  30
0.0
  11
 348.229
  21
 379.655
  31
0.0
   0
LINE
   8
LEVEL003
   6
CONTINUOUS
  62
7
  10
 348.229
  20
 379.655
  30
0.0
  11
 349.098
  21
 379.504
  31
0.0
   0
LINE
   8
LEVEL003
   6
CONTINUOUS
  62
7
  10
 349.098
  20
 379.504
  30
0.0
  11
 350.021
  21
 379.393
  31
0.0
   0
LINE
   8
LEVEL003
   6
CONTINUOUS
  62
7
  10
 350.021
  20
 379.393
  30
0.0
  11
 350.985
  21
 379.322
  31
0.0
   0
LINE
   8
LEVEL003
   6
CONTINUOUS
  62
7
  10
 350.985
  20
 379.322
  30
0.0
  11
 351.974
  21
 379.294
  31
0.0
   0
LINE
   8
LEVEL003
   6
CONTINUOUS
  62
7
  10
 351.974
  20
 379.294
  30
0.0
  11
 352.973
  21
 379.309
  31
0.0
   0
LINE
   8
LEVEL003
   6
CONTINUOUS
  62
7
  10
 352.973
  20
 379.309
  30
0.0
  11
 353.966
  21
 379.367
  31
0.0
   0
LINE
   8
LEVEL003
   6
CONTINUOUS
  62
7
  10
 353.966
  20
 379.367
  30
0.0
  11
 354.938
  21
 379.466
  31
0.0
   0
LINE
   8
LEVEL003
   6
CONTINUOUS
  62
7
  10
 354.938
  20
 379.466
  30
0.0
  11
 355.874
  21
 379.605
  31
0.0
   0
LINE
   8
LEVEL003
   6
CONTINUOUS
  62
7
  10
 355.874
  20
 379.605
  30
0.0
  11
 356.759
  21
 379.782
  31
0.0
   0
LINE
   8
LEVEL003
   6
CONTINUOUS
  62
7
  10
 356.759
  20
 379.782
  30
0.0
  11
 357.579
  21
 379.994
  31
0.0
   0
LINE
   8
LEVEL003
   6
CONTINUOUS
  62
7
  10
 357.579
  20
 379.994
  30
0.0
  11
 358.321
  21
 380.238
  31
0.0
   0
LINE
   8
LEVEL003
   6
CONTINUOUS
  62
7
  10
 358.321
  20
 380.238
  30
0.0
  11
 358.975
  21
 380.510
  31
0.0
   0
LINE
   8
LEVEL003
   6
CONTINUOUS
  62
7
  10
 358.975
  20
 380.510
  30
0.0
  11
 359.529
  21
 380.806
  31
0.0
   0
LINE
   8
LEVEL003
   6
CONTINUOUS
  62
7
  10
 359.529
  20
 380.806
  30
0.0
  11
 359.975
  21
 381.122
  31
0.0
   0
LINE
   8
LEVEL003
   6
CONTINUOUS
  62
7
  10
 359.975
  20
 381.122
  30
0.0
  11
 360.306
  21
 381.451
  31
0.0
   0
LINE
   8
LEVEL003
   6
CONTINUOUS
  62
7
  10
 360.306
  20
 381.451
  30
0.0
  11
 360.517
  21
 381.789
  31
0.0
   0
LINE
   8
LEVEL003
   6
CONTINUOUS
  62
7
  10
 360.517
  20
 381.789
  30
0.0
  11
 360.604
  21
 382.132
  31
0.0
   0
LINE
   8
LEVEL003
   6
CONTINUOUS
  62
7
  10
 360.604
  20
 382.132
  30
0.0
  11
 360.606
  21
 382.223
  31
0.0
   0
LINE
   8
LEVEL003
   6
CONTINUOUS
  62
7
  10
 345.850
  20
 383.360
  30
0.0
  11
 345.164
  21
 383.041
  31
0.0
   0
LINE
   8
LEVEL003
   6
CONTINUOUS
  62
7
  10
 345.164
  20
 383.041
  30
0.0
  11
 344.595
  21
 382.698
  31
0.0
   0
LINE
   8
LEVEL003
   6
CONTINUOUS
  62
7
  10
 344.595
  20
 382.698
  30
0.0
  11
 344.151
  21
 382.335
  31
0.0
   0
LINE
   8
LEVEL003
   6
CONTINUOUS
  62
7
  10
 344.151
  20
 382.335
  30
0.0
  11
 343.838
  21
 381.959
  31
0.0
   0
LINE
   8
LEVEL003
   6
CONTINUOUS
  62
7
  10
 343.838
  20
 381.959
  30
0.0
  11
 343.663
  21
 381.576
  31
0.0
   0
LINE
   8
LEVEL003
   6
CONTINUOUS
  62
7
  10
 343.663
  20
 381.576
  30
0.0
  11
 343.628
  21
 381.191
  31
0.0
   0
LINE
   8
LEVEL003
   6
CONTINUOUS
  62
7
  10
 343.628
  20
 381.191
  30
0.0
  11
 343.733
  21
 380.810
  31
0.0
   0
LINE
   8
LEVEL003
   6
CONTINUOUS
  62
7
  10
 343.733
  20
 380.810
  30
0.0
  11
 343.977
  21
 380.439
  31
0.0
   0
LINE
   8
LEVEL003
   6
CONTINUOUS
  62
7
  10
 343.977
  20
 380.439
  30
0.0
  11
 344.356
  21
 380.085
  31
0.0
   0
LINE
   8
LEVEL003
   6
CONTINUOUS
  62
7
  10
 344.356
  20
 380.085
  30
0.0
  11
 344.863
  21
 379.752
  31
0.0
   0
LINE
   8
LEVEL003
   6
CONTINUOUS
  62
7
  10
 344.863
  20
 379.752
  30
0.0
  11
 345.492
  21
 379.447
  31
0.0
   0
LINE
   8
LEVEL003
   6
CONTINUOUS
  62
7
  10
 345.492
  20
 379.447
  30
0.0
  11
 346.232
  21
 379.172
  31
0.0
   0
LINE
   8
LEVEL003
   6
CONTINUOUS
  62
7
  10
 346.232
  20
 379.172
  30
0.0
  11
 347.072
  21
 378.934
  31
0.0
   0
LINE
   8
LEVEL003
   6
CONTINUOUS
  62
7
  10
 347.072
  20
 378.934
  30
0.0
  11
 347.998
  21
 378.735
  31
0.0
   0
LINE
   8
LEVEL003
   6
CONTINUOUS
  62
7
  10
 347.998
  20
 378.735
  30
0.0
  11
 348.997
  21
 378.579
  31
0.0
   0
LINE
   8
LEVEL003
   6
CONTINUOUS
  62
7
  10
 348.997
  20
 378.579
  30
0.0
  11
 350.052
  21
 378.468
  31
0.0
   0
LINE
   8
LEVEL003
   6
CONTINUOUS
  62
7
  10
 350.052
  20
 378.468
  30
0.0
  11
 351.147
  21
 378.404
  31
0.0
   0
LINE
   8
LEVEL003
   6
CONTINUOUS
  62
7
  10
 351.147
  20
 378.404
  30
0.0
  11
 352.265
  21
 378.388
  31
0.0
   0
LINE
   8
LEVEL003
   6
CONTINUOUS
  62
7
  10
 352.265
  20
 378.388
  30
0.0
  11
 353.389
  21
 378.420
  31
0.0
   0
LINE
   8
LEVEL003
   6
CONTINUOUS
  62
7
  10
 353.389
  20
 378.420
  30
0.0
  11
 354.500
  21
 378.500
  31
0.0
   0
LINE
   8
LEVEL003
   6
CONTINUOUS
  62
7
  10
 354.500
  20
 378.500
  30
0.0
  11
 355.583
  21
 378.626
  31
0.0
   0
LINE
   8
LEVEL003
   6
CONTINUOUS
  62
7
  10
 355.583
  20
 378.626
  30
0.0
  11
 356.619
  21
 378.796
  31
0.0
   0
LINE
   8
LEVEL003
   6
CONTINUOUS
  62
7
  10
 356.619
  20
 378.796
  30
0.0
  11
 357.593
  21
 379.008
  31
0.0
   0
LINE
   8
LEVEL003
   6
CONTINUOUS
  62
7
  10
 357.593
  20
 379.008
  30
0.0
  11
 358.489
  21
 379.259
  31
0.0
   0
LINE
   8
LEVEL003
   6
CONTINUOUS
  62
7
  10
 358.489
  20
 379.259
  30
0.0
  11
 359.294
  21
 379.544
  31
0.0
   0
LINE
   8
LEVEL003
   6
CONTINUOUS
  62
7
  10
 359.294
  20
 379.544
  30
0.0
  11
 359.994
  21
 379.859
  31
0.0
   0
LINE
   8
LEVEL003
   6
CONTINUOUS
  62
7
  10
 359.994
  20
 379.859
  30
0.0
  11
 360.580
  21
 380.200
  31
0.0
   0
LINE
   8
LEVEL003
   6
CONTINUOUS
  62
7
  10
 360.580
  20
 380.200
  30
0.0
  11
 361.041
  21
 380.560
  31
0.0
   0
LINE
   8
LEVEL003
   6
CONTINUOUS
  62
7
  10
 361.041
  20
 380.560
  30
0.0
  11
 361.371
  21
 380.934
  31
0.0
   0
LINE
   8
LEVEL003
   6
CONTINUOUS
  62
7
  10
 361.371
  20
 380.934
  30
0.0
  11
 361.565
  21
 381.317
  31
0.0
   0
LINE
   8
LEVEL003
   6
CONTINUOUS
  62
7
  10
 361.565
  20
 381.317
  30
0.0
  11
 361.619
  21
 381.703
  31
0.0
   0
LINE
   8
LEVEL003
   6
CONTINUOUS
  62
7
  10
 361.619
  20
 381.703
  30
0.0
  11
 361.532
  21
 382.084
  31
0.0
   0
LINE
   8
LEVEL003
   6
CONTINUOUS
  62
7
  10
 361.532
  20
 382.084
  30
0.0
  11
 361.306
  21
 382.456
  31
0.0
   0
LINE
   8
LEVEL003
   6
CONTINUOUS
  62
7
  10
 361.306
  20
 382.456
  30
0.0
  11
 360.945
  21
 382.813
  31
0.0
   0
LINE
   8
LEVEL003
   6
CONTINUOUS
  62
7
  10
 360.945
  20
 382.813
  30
0.0
  11
 360.454
  21
 383.149
  31
0.0
   0
LINE
   8
LEVEL003
   6
CONTINUOUS
  62
7
  10
 360.454
  20
 383.149
  30
0.0
  11
 359.841
  21
 383.459
  31
0.0
   0
LINE
   8
LEVEL003
   6
CONTINUOUS
  62
7
  10
 359.841
  20
 383.459
  30
0.0
  11
 359.297
  21
 383.674
  31
0.0
   0
LINE
   8
LEVEL003
   6
CONTINUOUS
  62
7
  10
 343.874
  20
 370.552
  30
0.0
  11
 343.954
  21
 370.170
  31
0.0
   0
LINE
   8
LEVEL003
   6
CONTINUOUS
  62
7
  10
 343.954
  20
 370.170
  30
0.0
  11
 344.172
  21
 369.797
  31
0.0
   0
LINE
   8
LEVEL003
   6
CONTINUOUS
  62
7
  10
 344.172
  20
 369.797
  30
0.0
  11
 344.526
  21
 369.440
  31
0.0
   0
LINE
   8
LEVEL003
   6
CONTINUOUS
  62
7
  10
 344.526
  20
 369.440
  30
0.0
  11
 345.010
  21
 369.103
  31
0.0
   0
LINE
   8
LEVEL003
   6
CONTINUOUS
  62
7
  10
 345.010
  20
 369.103
  30
0.0
  11
 345.617
  21
 368.791
  31
0.0
   0
LINE
   8
LEVEL003
   6
CONTINUOUS
  62
7
  10
 345.617
  20
 368.791
  30
0.0
  11
 346.338
  21
 368.511
  31
0.0
   0
LINE
   8
LEVEL003
   6
CONTINUOUS
  62
7
  10
 346.338
  20
 368.511
  30
0.0
  11
 347.160
  21
 368.266
  31
0.0
   0
LINE
   8
LEVEL003
   6
CONTINUOUS
  62
7
  10
 347.160
  20
 368.266
  30
0.0
  11
 348.071
  21
 368.059
  31
0.0
   0
LINE
   8
LEVEL003
   6
CONTINUOUS
  62
7
  10
 348.071
  20
 368.059
  30
0.0
  11
 349.057
  21
 367.895
  31
0.0
   0
LINE
   8
LEVEL003
   6
CONTINUOUS
  62
7
  10
 349.057
  20
 367.895
  30
0.0
  11
 350.103
  21
 367.776
  31
0.0
   0
LINE
   8
LEVEL003
   6
CONTINUOUS
  62
7
  10
 350.103
  20
 367.776
  30
0.0
  11
 351.192
  21
 367.703
  31
0.0
   0
LINE
   8
LEVEL003
   6
CONTINUOUS
  62
7
  10
 351.192
  20
 367.703
  30
0.0
  11
 352.307
  21
 367.678
  31
0.0
   0
LINE
   8
LEVEL003
   6
CONTINUOUS
  62
7
  10
 352.307
  20
 367.678
  30
0.0
  11
 353.431
  21
 367.701
  31
0.0
   0
LINE
   8
LEVEL003
   6
CONTINUOUS
  62
7
  10
 353.431
  20
 367.701
  30
0.0
  11
 354.547
  21
 367.772
  31
0.0
   0
LINE
   8
LEVEL003
   6
CONTINUOUS
  62
7
  10
 354.547
  20
 367.772
  30
0.0
  11
 355.636
  21
 367.889
  31
0.0
   0
LINE
   8
LEVEL003
   6
CONTINUOUS
  62
7
  10
 355.636
  20
 367.889
  30
0.0
  11
 356.682
  21
 368.052
  31
0.0
   0
LINE
   8
LEVEL003
   6
CONTINUOUS
  62
7
  10
 356.682
  20
 368.052
  30
0.0
  11
 357.668
  21
 368.256
  31
0.0
   0
LINE
   8
LEVEL003
   6
CONTINUOUS
  62
7
  10
 357.668
  20
 368.256
  30
0.0
  11
 358.580
  21
 368.500
  31
0.0
   0
LINE
   8
LEVEL003
   6
CONTINUOUS
  62
7
  10
 358.580
  20
 368.500
  30
0.0
  11
 359.403
  21
 368.779
  31
0.0
   0
LINE
   8
LEVEL003
   6
CONTINUOUS
  62
7
  10
 359.403
  20
 368.779
  30
0.0
  11
 360.123
  21
 369.089
  31
0.0
   0
LINE
   8
LEVEL003
   6
CONTINUOUS
  62
7
  10
 360.123
  20
 369.089
  30
0.0
  11
 360.731
  21
 369.425
  31
0.0
   0
LINE
   8
LEVEL003
   6
CONTINUOUS
  62
7
  10
 360.731
  20
 369.425
  30
0.0
  11
 361.216
  21
 369.782
  31
0.0
   0
LINE
   8
LEVEL003
   6
CONTINUOUS
  62
7
  10
 361.216
  20
 369.782
  30
0.0
  11
 361.571
  21
 370.155
  31
0.0
   0
LINE
   8
LEVEL003
   6
CONTINUOUS
  62
7
  10
 361.571
  20
 370.155
  30
0.0
  11
 361.790
  21
 370.536
  31
0.0
   0
LINE
   8
LEVEL003
   6
CONTINUOUS
  62
7
  10
 361.790
  20
 370.536
  30
0.0
  11
 361.869
  21
 370.922
  31
0.0
   0
LINE
   8
LEVEL003
   6
CONTINUOUS
  62
7
  10
 361.869
  20
 370.922
  30
0.0
  11
 361.870
  21
 370.973
  31
0.0
   0
LINE
   8
LEVEL003
   6
CONTINUOUS
  62
7
  10
 343.624
  20
 381.262
  30
0.0
  11
 343.874
  21
 370.552
  31
0.0
   0
LINE
   8
LEVEL003
   6
CONTINUOUS
  62
7
  10
 361.619
  20
 381.682
  30
0.0
  11
 361.870
  21
 370.973
  31
0.0
   0
LINE
   8
LEVEL003
   6
CONTINUOUS
  62
7
  10
 380.601
  20
 382.690
  30
0.0
  11
 380.530
  21
 383.030
  31
0.0
   0
LINE
   8
LEVEL003
   6
CONTINUOUS
  62
7
  10
 380.530
  20
 383.030
  30
0.0
  11
 380.336
  21
 383.361
  31
0.0
   0
LINE
   8
LEVEL003
   6
CONTINUOUS
  62
7
  10
 380.336
  20
 383.361
  30
0.0
  11
 380.022
  21
 383.679
  31
0.0
   0
LINE
   8
LEVEL003
   6
CONTINUOUS
  62
7
  10
 380.022
  20
 383.679
  30
0.0
  11
 379.591
  21
 383.979
  31
0.0
   0
LINE
   8
LEVEL003
   6
CONTINUOUS
  62
7
  10
 379.591
  20
 383.979
  30
0.0
  11
 379.052
  21
 384.255
  31
0.0
   0
LINE
   8
LEVEL003
   6
CONTINUOUS
  62
7
  10
 379.052
  20
 384.255
  30
0.0
  11
 378.411
  21
 384.504
  31
0.0
   0
LINE
   8
LEVEL003
   6
CONTINUOUS
  62
7
  10
 378.411
  20
 384.504
  30
0.0
  11
 377.681
  21
 384.722
  31
0.0
   0
LINE
   8
LEVEL003
   6
CONTINUOUS
  62
7
  10
 377.681
  20
 384.722
  30
0.0
  11
 376.870
  21
 384.906
  31
0.0
   0
LINE
   8
LEVEL003
   6
CONTINUOUS
  62
7
  10
 376.870
  20
 384.906
  30
0.0
  11
 375.994
  21
 385.052
  31
0.0
   0
LINE
   8
LEVEL003
   6
CONTINUOUS
  62
7
  10
 375.994
  20
 385.052
  30
0.0
  11
 375.064
  21
 385.158
  31
0.0
   0
LINE
   8
LEVEL003
   6
CONTINUOUS
  62
7
  10
 375.064
  20
 385.158
  30
0.0
  11
 374.096
  21
 385.223
  31
0.0
   0
LINE
   8
LEVEL003
   6
CONTINUOUS
  62
7
  10
 374.096
  20
 385.223
  30
0.0
  11
 373.105
  21
 385.245
  31
0.0
   0
LINE
   8
LEVEL003
   6
CONTINUOUS
  62
7
  10
 373.105
  20
 385.245
  30
0.0
  11
 372.106
  21
 385.224
  31
0.0
   0
LINE
   8
LEVEL003
   6
CONTINUOUS
  62
7
  10
 372.106
  20
 385.224
  30
0.0
  11
 371.115
  21
 385.161
  31
0.0
   0
LINE
   8
LEVEL003
   6
CONTINUOUS
  62
7
  10
 371.115
  20
 385.161
  30
0.0
  11
 370.146
  21
 385.057
  31
0.0
   0
LINE
   8
LEVEL003
   6
CONTINUOUS
  62
7
  10
 370.146
  20
 385.057
  30
0.0
  11
 369.217
  21
 384.913
  31
0.0
   0
LINE
   8
LEVEL003
   6
CONTINUOUS
  62
7
  10
 369.217
  20
 384.913
  30
0.0
  11
 368.340
  21
 384.731
  31
0.0
   0
LINE
   8
LEVEL003
   6
CONTINUOUS
  62
7
  10
 368.340
  20
 384.731
  30
0.0
  11
 367.529
  21
 384.514
  31
0.0
   0
LINE
   8
LEVEL003
   6
CONTINUOUS
  62
7
  10
 367.529
  20
 384.514
  30
0.0
  11
 366.798
  21
 384.266
  31
0.0
   0
LINE
   8
LEVEL003
   6
CONTINUOUS
  62
7
  10
 366.798
  20
 384.266
  30
0.0
  11
 366.157
  21
 383.990
  31
0.0
   0
LINE
   8
LEVEL003
   6
CONTINUOUS
  62
7
  10
 366.157
  20
 383.990
  30
0.0
  11
 365.617
  21
 383.692
  31
0.0
   0
LINE
   8
LEVEL003
   6
CONTINUOUS
  62
7
  10
 365.617
  20
 383.692
  30
0.0
  11
 365.186
  21
 383.374
  31
0.0
   0
LINE
   8
LEVEL003
   6
CONTINUOUS
  62
7
  10
 365.186
  20
 383.374
  30
0.0
  11
 364.871
  21
 383.043
  31
0.0
   0
LINE
   8
LEVEL003
   6
CONTINUOUS
  62
7
  10
 364.871
  20
 383.043
  30
0.0
  11
 364.676
  21
 382.704
  31
0.0
   0
LINE
   8
LEVEL003
   6
CONTINUOUS
  62
7
  10
 364.676
  20
 382.704
  30
0.0
  11
 364.605
  21
 382.362
  31
0.0
   0
LINE
   8
LEVEL003
   6
CONTINUOUS
  62
7
  10
 364.605
  20
 382.362
  30
0.0
  11
 364.659
  21
 382.021
  31
0.0
   0
LINE
   8
LEVEL003
   6
CONTINUOUS
  62
7
  10
 364.659
  20
 382.021
  30
0.0
  11
 364.837
  21
 381.689
  31
0.0
   0
LINE
   8
LEVEL003
   6
CONTINUOUS
  62
7
  10
 364.837
  20
 381.689
  30
0.0
  11
 365.136
  21
 381.369
  31
0.0
   0
LINE
   8
LEVEL003
   6
CONTINUOUS
  62
7
  10
 365.136
  20
 381.369
  30
0.0
  11
 365.551
  21
 381.066
  31
0.0
   0
LINE
   8
LEVEL003
   6
CONTINUOUS
  62
7
  10
 365.551
  20
 381.066
  30
0.0
  11
 366.077
  21
 380.786
  31
0.0
   0
LINE
   8
LEVEL003
   6
CONTINUOUS
  62
7
  10
 366.077
  20
 380.786
  30
0.0
  11
 366.704
  21
 380.533
  31
0.0
   0
LINE
   8
LEVEL003
   6
CONTINUOUS
  62
7
  10
 366.704
  20
 380.533
  30
0.0
  11
 367.424
  21
 380.311
  31
0.0
   0
LINE
   8
LEVEL003
   6
CONTINUOUS
  62
7
  10
 367.424
  20
 380.311
  30
0.0
  11
 368.224
  21
 380.123
  31
0.0
   0
LINE
   8
LEVEL003
   6
CONTINUOUS
  62
7
  10
 368.224
  20
 380.123
  30
0.0
  11
 369.093
  21
 379.972
  31
0.0
   0
LINE
   8
LEVEL003
   6
CONTINUOUS
  62
7
  10
 369.093
  20
 379.972
  30
0.0
  11
 370.016
  21
 379.860
  31
0.0
   0
LINE
   8
LEVEL003
   6
CONTINUOUS
  62
7
  10
 370.016
  20
 379.860
  30
0.0
  11
 370.980
  21
 379.790
  31
0.0
   0
LINE
   8
LEVEL003
   6
CONTINUOUS
  62
7
  10
 370.980
  20
 379.790
  30
0.0
  11
 371.969
  21
 379.762
  31
0.0
   0
LINE
   8
LEVEL003
   6
CONTINUOUS
  62
7
  10
 371.969
  20
 379.762
  30
0.0
  11
 372.968
  21
 379.777
  31
0.0
   0
LINE
   8
LEVEL003
   6
CONTINUOUS
  62
7
  10
 372.968
  20
 379.777
  30
0.0
  11
 373.961
  21
 379.834
  31
0.0
   0
LINE
   8
LEVEL003
   6
CONTINUOUS
  62
7
  10
 373.961
  20
 379.834
  30
0.0
  11
 374.933
  21
 379.933
  31
0.0
   0
LINE
   8
LEVEL003
   6
CONTINUOUS
  62
7
  10
 374.933
  20
 379.933
  30
0.0
  11
 375.869
  21
 380.072
  31
0.0
   0
LINE
   8
LEVEL003
   6
CONTINUOUS
  62
7
  10
 375.869
  20
 380.072
  30
0.0
  11
 376.753
  21
 380.249
  31
0.0
   0
LINE
   8
LEVEL003
   6
CONTINUOUS
  62
7
  10
 376.753
  20
 380.249
  30
0.0
  11
 377.573
  21
 380.462
  31
0.0
   0
LINE
   8
LEVEL003
   6
CONTINUOUS
  62
7
  10
 377.573
  20
 380.462
  30
0.0
  11
 378.316
  21
 380.706
  31
0.0
   0
LINE
   8
LEVEL003
   6
CONTINUOUS
  62
7
  10
 378.316
  20
 380.706
  30
0.0
  11
 378.969
  21
 380.978
  31
0.0
   0
LINE
   8
LEVEL003
   6
CONTINUOUS
  62
7
  10
 378.969
  20
 380.978
  30
0.0
  11
 379.523
  21
 381.274
  31
0.0
   0
LINE
   8
LEVEL003
   6
CONTINUOUS
  62
7
  10
 379.523
  20
 381.274
  30
0.0
  11
 379.969
  21
 381.589
  31
0.0
   0
LINE
   8
LEVEL003
   6
CONTINUOUS
  62
7
  10
 379.969
  20
 381.589
  30
0.0
  11
 380.300
  21
 381.918
  31
0.0
   0
LINE
   8
LEVEL003
   6
CONTINUOUS
  62
7
  10
 380.300
  20
 381.918
  30
0.0
  11
 380.511
  21
 382.257
  31
0.0
   0
LINE
   8
LEVEL003
   6
CONTINUOUS
  62
7
  10
 380.511
  20
 382.257
  30
0.0
  11
 380.599
  21
 382.599
  31
0.0
   0
LINE
   8
LEVEL003
   6
CONTINUOUS
  62
7
  10
 380.599
  20
 382.599
  30
0.0
  11
 380.601
  21
 382.690
  31
0.0
   0
LINE
   8
LEVEL003
   6
CONTINUOUS
  62
7
  10
 365.845
  20
 383.827
  30
0.0
  11
 365.159
  21
 383.508
  31
0.0
   0
LINE
   8
LEVEL003
   6
CONTINUOUS
  62
7
  10
 365.159
  20
 383.508
  30
0.0
  11
 364.589
  21
 383.165
  31
0.0
   0
LINE
   8
LEVEL003
   6
CONTINUOUS
  62
7
  10
 364.589
  20
 383.165
  30
0.0
  11
 364.145
  21
 382.803
  31
0.0
   0
LINE
   8
LEVEL003
   6
CONTINUOUS
  62
7
  10
 364.145
  20
 382.803
  30
0.0
  11
 363.833
  21
 382.427
  31
0.0
   0
LINE
   8
LEVEL003
   6
CONTINUOUS
  62
7
  10
 363.833
  20
 382.427
  30
0.0
  11
 363.658
  21
 382.043
  31
0.0
   0
LINE
   8
LEVEL003
   6
CONTINUOUS
  62
7
  10
 363.658
  20
 382.043
  30
0.0
  11
 363.623
  21
 381.658
  31
0.0
   0
LINE
   8
LEVEL003
   6
CONTINUOUS
  62
7
  10
 363.623
  20
 381.658
  30
0.0
  11
 363.728
  21
 381.277
  31
0.0
   0
LINE
   8
LEVEL003
   6
CONTINUOUS
  62
7
  10
 363.728
  20
 381.277
  30
0.0
  11
 363.972
  21
 380.907
  31
0.0
   0
LINE
   8
LEVEL003
   6
CONTINUOUS
  62
7
  10
 363.972
  20
 380.907
  30
0.0
  11
 364.350
  21
 380.552
  31
0.0
   0
LINE
   8
LEVEL003
   6
CONTINUOUS
  62
7
  10
 364.350
  20
 380.552
  30
0.0
  11
 364.858
  21
 380.220
  31
0.0
   0
LINE
   8
LEVEL003
   6
CONTINUOUS
  62
7
  10
 364.858
  20
 380.220
  30
0.0
  11
 365.487
  21
 379.914
  31
0.0
   0
LINE
   8
LEVEL003
   6
CONTINUOUS
  62
7
  10
 365.487
  20
 379.914
  30
0.0
  11
 366.227
  21
 379.640
  31
0.0
   0
LINE
   8
LEVEL003
   6
CONTINUOUS
  62
7
  10
 366.227
  20
 379.640
  30
0.0
  11
 367.066
  21
 379.401
  31
0.0
   0
LINE
   8
LEVEL003
   6
CONTINUOUS
  62
7
  10
 367.066
  20
 379.401
  30
0.0
  11
 367.993
  21
 379.203
  31
0.0
   0
LINE
   8
LEVEL003
   6
CONTINUOUS
  62
7
  10
 367.993
  20
 379.203
  30
0.0
  11
 368.991
  21
 379.047
  31
0.0
   0
LINE
   8
LEVEL003
   6
CONTINUOUS
  62
7
  10
 368.991
  20
 379.047
  30
0.0
  11
 370.046
  21
 378.936
  31
0.0
   0
LINE
   8
LEVEL003
   6
CONTINUOUS
  62
7
  10
 370.046
  20
 378.936
  30
0.0
  11
 371.141
  21
 378.872
  31
0.0
   0
LINE
   8
LEVEL003
   6
CONTINUOUS
  62
7
  10
 371.141
  20
 378.872
  30
0.0
  11
 372.260
  21
 378.856
  31
0.0
   0
LINE
   8
LEVEL003
   6
CONTINUOUS
  62
7
  10
 372.260
  20
 378.856
  30
0.0
  11
 373.383
  21
 378.888
  31
0.0
   0
LINE
   8
LEVEL003
   6
CONTINUOUS
  62
7
  10
 373.383
  20
 378.888
  30
0.0
  11
 374.495
  21
 378.967
  31
0.0
   0
LINE
   8
LEVEL003
   6
CONTINUOUS
  62
7
  10
 374.495
  20
 378.967
  30
0.0
  11
 375.577
  21
 379.093
  31
0.0
   0
LINE
   8
LEVEL003
   6
CONTINUOUS
  62
7
  10
 375.577
  20
 379.093
  30
0.0
  11
 376.614
  21
 379.264
  31
0.0
   0
LINE
   8
LEVEL003
   6
CONTINUOUS
  62
7
  10
 376.614
  20
 379.264
  30
0.0
  11
 377.587
  21
 379.476
  31
0.0
   0
LINE
   8
LEVEL003
   6
CONTINUOUS
  62
7
  10
 377.587
  20
 379.476
  30
0.0
  11
 378.484
  21
 379.726
  31
0.0
   0
LINE
   8
LEVEL003
   6
CONTINUOUS
  62
7
  10
 378.484
  20
 379.726
  30
0.0
  11
 379.288
  21
 380.011
  31
0.0
   0
LINE
   8
LEVEL003
   6
CONTINUOUS
  62
7
  10
 379.288
  20
 380.011
  30
0.0
  11
 379.989
  21
 380.327
  31
0.0
   0
LINE
   8
LEVEL003
   6
CONTINUOUS
  62
7
  10
 379.989
  20
 380.327
  30
0.0
  11
 380.574
  21
 380.667
  31
0.0
   0
LINE
   8
LEVEL003
   6
CONTINUOUS
  62
7
  10
 380.574
  20
 380.667
  30
0.0
  11
 381.036
  21
 381.027
  31
0.0
   0
LINE
   8
LEVEL003
   6
CONTINUOUS
  62
7
  10
 381.036
  20
 381.027
  30
0.0
  11
 381.366
  21
 381.402
  31
0.0
   0
LINE
   8
LEVEL003
   6
CONTINUOUS
  62
7
  10
 381.366
  20
 381.402
  30
0.0
  11
 381.559
  21
 381.785
  31
0.0
   0
LINE
   8
LEVEL003
   6
CONTINUOUS
  62
7
  10
 381.559
  20
 381.785
  30
0.0
  11
 381.613
  21
 382.170
  31
0.0
   0
LINE
   8
LEVEL003
   6
CONTINUOUS
  62
7
  10
 381.613
  20
 382.170
  30
0.0
  11
 381.527
  21
 382.552
  31
0.0
   0
LINE
   8
LEVEL003
   6
CONTINUOUS
  62
7
  10
 381.527
  20
 382.552
  30
0.0
  11
 381.301
  21
 382.924
  31
0.0
   0
LINE
   8
LEVEL003
   6
CONTINUOUS
  62
7
  10
 381.301
  20
 382.924
  30
0.0
  11
 380.940
  21
 383.281
  31
0.0
   0
LINE
   8
LEVEL003
   6
CONTINUOUS
  62
7
  10
 380.940
  20
 383.281
  30
0.0
  11
 380.449
  21
 383.616
  31
0.0
   0
LINE
   8
LEVEL003
   6
CONTINUOUS
  62
7
  10
 380.449
  20
 383.616
  30
0.0
  11
 379.836
  21
 383.926
  31
0.0
   0
LINE
   8
LEVEL003
   6
CONTINUOUS
  62
7
  10
 379.836
  20
 383.926
  30
0.0
  11
 379.292
  21
 384.142
  31
0.0
   0
LINE
   8
LEVEL003
   6
CONTINUOUS
  62
7
  10
 363.619
  20
 381.729
  30
0.0
  11
 363.869
  21
 371.020
  31
0.0
   0
LINE
   8
LEVEL003
   6
CONTINUOUS
  62
7
  10
 363.869
  20
 371.020
  30
0.0
  11
 363.948
  21
 370.638
  31
0.0
   0
LINE
   8
LEVEL003
   6
CONTINUOUS
  62
7
  10
 363.948
  20
 370.638
  30
0.0
  11
 364.166
  21
 370.265
  31
0.0
   0
LINE
   8
LEVEL003
   6
CONTINUOUS
  62
7
  10
 364.166
  20
 370.265
  30
0.0
  11
 364.521
  21
 369.907
  31
0.0
   0
LINE
   8
LEVEL003
   6
CONTINUOUS
  62
7
  10
 364.521
  20
 369.907
  30
0.0
  11
 365.005
  21
 369.570
  31
0.0
   0
LINE
   8
LEVEL003
   6
CONTINUOUS
  62
7
  10
 365.005
  20
 369.570
  30
0.0
  11
 365.612
  21
 369.259
  31
0.0
   0
LINE
   8
LEVEL003
   6
CONTINUOUS
  62
7
  10
 365.612
  20
 369.259
  30
0.0
  11
 366.332
  21
 368.978
  31
0.0
   0
LINE
   8
LEVEL003
   6
CONTINUOUS
  62
7
  10
 366.332
  20
 368.978
  30
0.0
  11
 367.154
  21
 368.733
  31
0.0
   0
LINE
   8
LEVEL003
   6
CONTINUOUS
  62
7
  10
 367.154
  20
 368.733
  30
0.0
  11
 368.066
  21
 368.527
  31
0.0
   0
LINE
   8
LEVEL003
   6
CONTINUOUS
  62
7
  10
 368.066
  20
 368.527
  30
0.0
  11
 369.052
  21
 368.363
  31
0.0
   0
LINE
   8
LEVEL003
   6
CONTINUOUS
  62
7
  10
 369.052
  20
 368.363
  30
0.0
  11
 370.098
  21
 368.243
  31
0.0
   0
LINE
   8
LEVEL003
   6
CONTINUOUS
  62
7
  10
 370.098
  20
 368.243
  30
0.0
  11
 371.187
  21
 368.170
  31
0.0
   0
LINE
   8
LEVEL003
   6
CONTINUOUS
  62
7
  10
 371.187
  20
 368.170
  30
0.0
  11
 372.302
  21
 368.145
  31
0.0
   0
LINE
   8
LEVEL003
   6
CONTINUOUS
  62
7
  10
 372.302
  20
 368.145
  30
0.0
  11
 373.426
  21
 368.168
  31
0.0
   0
LINE
   8
LEVEL003
   6
CONTINUOUS
  62
7
  10
 373.426
  20
 368.168
  30
0.0
  11
 374.541
  21
 368.239
  31
0.0
   0
LINE
   8
LEVEL003
   6
CONTINUOUS
  62
7
  10
 374.541
  20
 368.239
  30
0.0
  11
 375.630
  21
 368.357
  31
0.0
   0
LINE
   8
LEVEL003
   6
CONTINUOUS
  62
7
  10
 375.630
  20
 368.357
  30
0.0
  11
 376.676
  21
 368.519
  31
0.0
   0
LINE
   8
LEVEL003
   6
CONTINUOUS
  62
7
  10
 376.676
  20
 368.519
  30
0.0
  11
 377.663
  21
 368.724
  31
0.0
   0
LINE
   8
LEVEL003
   6
CONTINUOUS
  62
7
  10
 377.663
  20
 368.724
  30
0.0
  11
 378.574
  21
 368.968
  31
0.0
   0
LINE
   8
LEVEL003
   6
CONTINUOUS
  62
7
  10
 378.574
  20
 368.968
  30
0.0
  11
 379.397
  21
 369.247
  31
0.0
   0
LINE
   8
LEVEL003
   6
CONTINUOUS
  62
7
  10
 379.397
  20
 369.247
  30
0.0
  11
 380.118
  21
 369.557
  31
0.0
   0
LINE
   8
LEVEL003
   6
CONTINUOUS
  62
7
  10
 380.118
  20
 369.557
  30
0.0
  11
 380.725
  21
 369.893
  31
0.0
   0
LINE
   8
LEVEL003
   6
CONTINUOUS
  62
7
  10
 380.725
  20
 369.893
  30
0.0
  11
 381.210
  21
 370.250
  31
0.0
   0
LINE
   8
LEVEL003
   6
CONTINUOUS
  62
7
  10
 381.210
  20
 370.250
  30
0.0
  11
 381.565
  21
 370.622
  31
0.0
   0
LINE
   8
LEVEL003
   6
CONTINUOUS
  62
7
  10
 381.565
  20
 370.622
  30
0.0
  11
 381.784
  21
 371.004
  31
0.0
   0
LINE
   8
LEVEL003
   6
CONTINUOUS
  62
7
  10
 381.784
  20
 371.004
  30
0.0
  11
 381.864
  21
 371.389
  31
0.0
   0
LINE
   8
LEVEL003
   6
CONTINUOUS
  62
7
  10
 381.864
  20
 371.389
  30
0.0
  11
 381.864
  21
 371.440
  31
0.0
   0
ARC
   8
LEVEL001
   6
CONTINUOUS
  62
7
  10
 356.657
  20
 384.855
  30
0.0
  40
 3.00000
  50
 335.910
  51
 181.609
   0
LINE
   8
LEVEL001
   6
CONTINUOUS
  62
7
  10
 361.143
  20
 382.637
  30
0.0
  11
 364.090
  21
 388.029
  31
0.0
   0
LINE
   8
LEVEL001
   6
CONTINUOUS
  62
7
  10
 364.090
  20
 388.029
  30
0.0
  11
 369.862
  21
 388.164
  31
0.0
   0
LINE
   8
LEVEL001
   6
CONTINUOUS
  62
7
  10
 369.862
  20
 388.164
  30
0.0
  11
 367.929
  21
 384.628
  31
0.0
   0
LINE
   8
LEVEL001
   6
CONTINUOUS
  62
7
  10
 363.705
  20
 378.018
  30
0.0
  11
 361.706
  21
 377.971
  31
0.0
   0
LINE
   8
LEVEL003
   6
CONTINUOUS
  62
7
  10
 376.906
  20
 391.000
  30
0.0
  11
 377.049
  21
 384.870
  31
0.0
   0
ARC
   8
LEVEL003
   6
CONTINUOUS
  62
7
  10
 337.178
  20
 378.895
  30
0.0
  40
 5.00000
  50
 299.972
  51
 1.33897
   0
LINE
   8
LEVEL003
   6
CONTINUOUS
  62
7
  10
 340.172
  20
 372.683
  30
0.0
  11
 340.935
  21
 370.105
  31
0.0
   0
LINE
   8
LEVEL003
   6
CONTINUOUS
  62
7
  10
 372.962
  20
 367.127
  30
0.0
  11
 374.457
  21
 367.194
  31
0.0
   0
LINE
   8
LEVEL003
   6
CONTINUOUS
  62
7
  10
 374.457
  20
 367.194
  30
0.0
  11
 375.927
  21
 367.324
  31
0.0
   0
LINE
   8
LEVEL003
   6
CONTINUOUS
  62
7
  10
 375.927
  20
 367.324
  30
0.0
  11
 377.350
  21
 367.515
  31
0.0
   0
LINE
   8
LEVEL003
   6
CONTINUOUS
  62
7
  10
 377.350
  20
 367.515
  30
0.0
  11
 378.702
  21
 367.763
  31
0.0
   0
LINE
   8
LEVEL003
   6
CONTINUOUS
  62
7
  10
 378.702
  20
 367.763
  30
0.0
  11
 379.964
  21
 368.066
  31
0.0
   0
LINE
   8
LEVEL003
   6
CONTINUOUS
  62
7
  10
 379.964
  20
 368.066
  30
0.0
  11
 381.114
  21
 368.419
  31
0.0
   0
LINE
   8
LEVEL003
   6
CONTINUOUS
  62
7
  10
 381.114
  20
 368.419
  30
0.0
  11
 382.136
  21
 368.815
  31
0.0
   0
LINE
   8
LEVEL003
   6
CONTINUOUS
  62
7
  10
 382.136
  20
 368.815
  30
0.0
  11
 383.013
  21
 369.249
  31
0.0
   0
LINE
   8
LEVEL003
   6
CONTINUOUS
  62
7
  10
 383.013
  20
 369.249
  30
0.0
  11
 383.732
  21
 369.714
  31
0.0
   0
LINE
   8
LEVEL003
   6
CONTINUOUS
  62
7
  10
 383.732
  20
 369.714
  30
0.0
  11
 384.281
  21
 370.202
  31
0.0
   0
LINE
   8
LEVEL003
   6
CONTINUOUS
  62
7
  10
 384.281
  20
 370.202
  30
0.0
  11
 384.653
  21
 370.707
  31
0.0
   0
LINE
   8
LEVEL003
   6
CONTINUOUS
  62
7
  10
 384.653
  20
 370.707
  30
0.0
  11
 384.821
  21
 371.130
  31
0.0
   0
LINE
   8
LEVEL003
   6
CONTINUOUS
  62
7
  10
 361.780
  20
 374.793
  30
0.0
  11
 363.780
  21
 374.840
  31
0.0
   0
LINE
   8
LEVEL003
   6
CONTINUOUS
  62
7
  10
 340.708
  20
 374.786
  30
0.0
  11
 343.777
  21
 374.734
  31
0.0
   0
LINE
   8
LEVEL003
   6
CONTINUOUS
  62
7
  10
 341.915
  20
 390.182
  30
0.0
  11
 342.176
  21
 379.012
  31
0.0
   0
LINE
   8
LEVEL003
   6
CONTINUOUS
  62
7
  10
 340.935
  20
 370.105
  30
0.0
  11
 341.178
  21
 369.604
  31
0.0
   0
LINE
   8
LEVEL003
   6
CONTINUOUS
  62
7
  10
 341.178
  20
 369.604
  30
0.0
  11
 341.604
  21
 369.121
  31
0.0
   0
LINE
   8
LEVEL003
   6
CONTINUOUS
  62
7
  10
 341.604
  20
 369.121
  30
0.0
  11
 342.205
  21
 368.663
  31
0.0
   0
LINE
   8
LEVEL003
   6
CONTINUOUS
  62
7
  10
 342.205
  20
 368.663
  30
0.0
  11
 342.973
  21
 368.239
  31
0.0
   0
LINE
   8
LEVEL003
   6
CONTINUOUS
  62
7
  10
 342.973
  20
 368.239
  30
0.0
  11
 343.895
  21
 367.854
  31
0.0
   0
LINE
   8
LEVEL003
   6
CONTINUOUS
  62
7
  10
 343.895
  20
 367.854
  30
0.0
  11
 344.958
  21
 367.514
  31
0.0
   0
LINE
   8
LEVEL003
   6
CONTINUOUS
  62
7
  10
 344.958
  20
 367.514
  30
0.0
  11
 346.144
  21
 367.225
  31
0.0
   0
LINE
   8
LEVEL003
   6
CONTINUOUS
  62
7
  10
 346.144
  20
 367.225
  30
0.0
  11
 347.434
  21
 366.991
  31
0.0
   0
LINE
   8
LEVEL003
   6
CONTINUOUS
  62
7
  10
 347.434
  20
 366.991
  30
0.0
  11
 348.810
  21
 366.816
  31
0.0
   0
LINE
   8
LEVEL003
   6
CONTINUOUS
  62
7
  10
 348.810
  20
 366.816
  30
0.0
  11
 350.249
  21
 366.702
  31
0.0
   0
LINE
   8
LEVEL003
   6
CONTINUOUS
  62
7
  10
 350.249
  20
 366.702
  30
0.0
  11
 351.729
  21
 366.652
  31
0.0
   0
LINE
   8
LEVEL003
   6
CONTINUOUS
  62
7
  10
 351.729
  20
 366.652
  30
0.0
  11
 352.968
  21
 366.659
  31
0.0
   0
ARC
   8
LEVEL003
   6
CONTINUOUS
  62
7
  10
 377.304
  20
 395.340
  30
0.0
  40
 2.00000
  50
 301.339
  51
 1.33897
   0
LINE
   8
LEVEL003
   6
CONTINUOUS
  62
7
  10
 381.614
  20
 382.150
  30
0.0
  11
 381.864
  21
 371.440
  31
0.0
   0
LINE
   8
LEVEL003
   6
CONTINUOUS
  62
7
  10
 385.444
  20
 373.662
  30
0.0
  11
 384.821
  21
 371.130
  31
0.0
   0
LINE
   8
LEVEL003
   6
CONTINUOUS
  62
7
  10
 385.992
  20
 375.891
  30
0.0
  11
 381.766
  21
 375.622
  31
0.0
   0
ARC
   8
LEVEL003
   6
CONTINUOUS
  62
7
  10
 388.357
  20
 372.946
  30
0.0
  40
 3.00000
  50
 111.344
  51
 166.179
   0
LINE
   8
LEVEL003
   6
CONTINUOUS
  62
7
  10
 373.689
  20
 336.049
  30
0.0
  11
 375.715
  21
 334.941
  31
0.0
   0
LINE
   8
LEVEL003
   6
CONTINUOUS
  62
7
  10
 375.715
  20
 334.941
  30
0.0
  11
 375.769
  21
 332.632
  31
0.0
   0
LINE
   8
LEVEL003
   6
CONTINUOUS
  62
7
  10
 375.769
  20
 332.632
  30
0.0
  11
 373.797
  21
 331.431
  31
0.0
   0
LINE
   8
LEVEL003
   6
CONTINUOUS
  62
7
  10
 373.797
  20
 331.431
  30
0.0
  11
 371.770
  21
 332.539
  31
0.0
   0
LINE
   8
LEVEL003
   6
CONTINUOUS
  62
7
  10
 371.770
  20
 332.539
  30
0.0
  11
 371.716
  21
 334.848
  31
0.0
   0
LINE
   8
LEVEL003
   6
CONTINUOUS
  62
7
  10
 371.716
  20
 334.848
  30
0.0
  11
 373.689
  21
 336.049
  31
0.0
   0
CIRCLE
   8
LEVEL003
   6
CONTINUOUS
  62
7
  10
 373.743
  20
 333.740
  30
0.0
  40
 4.00000
   0
LINE
   8
LEVEL003
   6
CONTINUOUS
  62
7
  10
 353.694
  20
 335.582
  30
0.0
  11
 355.721
  21
 334.474
  31
0.0
   0
LINE
   8
LEVEL003
   6
CONTINUOUS
  62
7
  10
 355.721
  20
 334.474
  30
0.0
  11
 355.775
  21
 332.165
  31
0.0
   0
LINE
   8
LEVEL003
   6
CONTINUOUS
  62
7
  10
 355.775
  20
 332.165
  30
0.0
  11
 353.802
  21
 330.964
  31
0.0
   0
LINE
   8
LEVEL003
   6
CONTINUOUS
  62
7
  10
 353.802
  20
 330.964
  30
0.0
  11
 351.776
  21
 332.072
  31
0.0
   0
LINE
   8
LEVEL003
   6
CONTINUOUS
  62
7
  10
 351.776
  20
 332.072
  30
0.0
  11
 351.722
  21
 334.380
  31
0.0
   0
LINE
   8
LEVEL003
   6
CONTINUOUS
  62
7
  10
 351.722
  20
 334.380
  30
0.0
  11
 353.694
  21
 335.582
  31
0.0
   0
CIRCLE
   8
LEVEL003
   6
CONTINUOUS
  62
7
  10
 353.748
  20
 333.273
  30
0.0
  40
 4.00000
   0
CIRCLE
   8
LEVEL003
   6
CONTINUOUS
  62
3
  10
 353.748
  20
 333.273
  30
0.0
  40
 3.37500
   0
CIRCLE
   8
LEVEL003
   6
CONTINUOUS
  62
3
  10
 373.743
  20
 333.740
  30
0.0
  40
 3.37500
   0
ARC
   8
LEVEL003
   6
CONTINUOUS
  62
7
  10
 335.811
  20
 377.866
  30
0.0
  40
 5.00000
  50
 271.339
  51
 314.013
   0
LINE
   8
LEVEL003
   6
CONTINUOUS
  62
7
  10
 340.795
  20
 337.131
  30
0.0
  11
 351.546
  21
 349.515
  31
0.0
   0
ARC
   8
LEVEL003
   6
CONTINUOUS
  62
7
  10
 346.259
  20
 354.103
  30
0.0
  40
 7.00000
  50
 319.040
  51
 42.1214
   0
LINE
   8
LEVEL003
   6
CONTINUOUS
  62
7
  10
 353.912
  20
 326.275
  30
0.0
  11
 373.906
  21
 326.742
  31
0.0
   0
LINE
   8
LEVEL003
   6
CONTINUOUS
  62
7
  10
 353.585
  20
 340.271
  30
0.0
  11
 373.579
  21
 340.738
  31
0.0
   0
ARC
   8
LEVEL003
   6
CONTINUOUS
  62
7
  10
 353.748
  20
 333.273
  30
0.0
  40
 7.00000
  50
 91.3390
  51
 271.339
   0
LINE
   8
LEVEL003
   6
CONTINUOUS
  62
7
  10
 346.139
  20
 364.674
  30
0.0
  11
 351.452
  21
 358.798
  31
0.0
   0
LINE
   8
LEVEL001
   6
CONTINUOUS
  62
7
  10
 322.705
  20
 377.559
  30
0.0
  11
 322.626
  21
 380.955
  31
0.0
   0
ARC
   8
LEVEL001
   6
CONTINUOUS
  62
7
  10
 317.706
  20
 377.443
  30
0.0
  40
 5.00000
  50
 271.339
  51
 1.33897
   0
POINT
   8
LEVEL001
  62
7
  10
 322.822
  20
 372.561
  30
0.0
   0
LINE
   8
LEVEL001
   6
CONTINUOUS
  62
7
  10
 313.324
  20
 372.339
  30
0.0
  11
 335.928
  21
 372.867
  31
0.0
   0
LINE
   8
LEVEL001
   6
CONTINUOUS
  62
7
  10
 338.820
  20
 373.872
  30
0.0
  11
 340.186
  21
 374.902
  31
0.0
   0
ARC
   8
LEVEL001
   6
CONTINUOUS
  62
7
  10
 348.855
  20
 309.152
  30
0.0
  40
 2.00000
  50
 91.3390
  51
 181.339
   0
LINE
   8
LEVEL001
   6
CONTINUOUS
  62
7
  10
 346.856
  20
 309.105
  30
0.0
  11
 346.938
  21
 305.606
  31
0.0
   0
LINE
   8
LEVEL003
   6
CONTINUOUS
  62
7
  10
 348.809
  20
 311.151
  30
0.0
  11
 375.707
  21
 311.780
  31
0.0
   0
LINE
   8
LEVEL001
   6
CONTINUOUS
  62
7
  10
 348.747
  20
 313.800
  30
0.0
  11
 375.645
  21
 314.429
  31
0.0
   0
LINE
   8
LEVEL001
   6
CONTINUOUS
  62
7
  10
 343.355
  20
 309.079
  30
0.0
  11
 344.893
  21
 311.584
  31
0.0
   0
ARC
   8
LEVEL001
   6
CONTINUOUS
  62
7
  10
 348.855
  20
 309.152
  30
0.0
  40
 4.64950
  50
 91.3390
  51
 148.462
   0
ARC
   8
LEVEL003
   6
CONTINUOUS
  62
7
  10
 375.754
  20
 309.781
  30
0.0
  40
 2.00000
  50
 1.33897
  51
 91.3390
   0
LINE
   8
LEVEL001
   6
CONTINUOUS
  62
7
  10
 377.753
  20
 309.827
  30
0.0
  11
 377.835
  21
 306.328
  31
0.0
   0
LINE
   8
LEVEL001
   6
CONTINUOUS
  62
7
  10
 381.251
  20
 309.964
  30
0.0
  11
 379.599
  21
 312.395
  31
0.0
   0
ARC
   8
LEVEL001
   6
CONTINUOUS
  62
7
  10
 375.754
  20
 309.781
  30
0.0
  40
 4.64950
  50
 34.2156
  51
 91.3390
   0
ARC
   8
LEVEL001
   6
CONTINUOUS
  62
7
  10
 348.937
  20
 305.653
  30
0.0
  40
 2.00000
  50
 181.339
  51
 195.816
   0
ARC
   8
LEVEL001
   6
CONTINUOUS
  62
7
  10
 375.836
  20
 306.282
  30
0.0
  40
 2.00000
  50
 346.861
  51
 1.33897
   0
ARC
   8
LEVEL001
   6
CONTINUOUS
  62
7
  10
 325.967
  20
 332.767
  30
0.0
  40
 4.00000
  50
 237.876
  51
 316.339
   0
LINE
   8
LEVEL001
   6
CONTINUOUS
  62
7
  10
 332.512
  20
 333.832
  30
0.0
  11
 328.861
  21
 330.006
  31
0.0
   0
ARC
   8
LEVEL001
   6
CONTINUOUS
  62
7
  10
 338.300
  20
 328.309
  30
0.0
  40
 8.00000
  50
 98.8097
  51
 136.339
   0
ARC
   8
LEVEL001
   6
CONTINUOUS
  62
7
  10
 339.261
  20
 353.940
  30
0.0
  40
 29.0000
  50
 214.802
  51
 237.876
   0
ARC
   8
LEVEL001
   6
CONTINUOUS
  62
7
  10
 340.138
  20
 316.450
  30
0.0
  40
 20.0000
  50
 90.9367
  51
 98.8097
   0
ARC
   8
LEVEL001
   6
CONTINUOUS
  62
7
  10
 339.261
  20
 353.940
  30
0.0
  40
 29.0000
  50
 124.802
  51
 140.406
   0
LINE
   8
LEVEL001
   6
DASHDOT
  62
1
  10
 371.744
  20
 333.723
  30
0.0
  11
 370.926
  21
 368.713
  31
0.0
   0
LINE
   8
LEVEL001
   6
CONTINUOUS
  62
7
  10
 405.307
  20
 309.942
  30
0.0
  11
 406.283
  21
 310.965
  31
0.0
   0
LINE
   8
LEVEL001
   6
CONTINUOUS
  62
7
  10
 406.283
  20
 310.965
  30
0.0
  11
 406.201
  21
 314.464
  31
0.0
   0
LINE
   8
LEVEL001
   6
CONTINUOUS
  62
7
  10
 388.812
  20
 309.556
  30
0.0
  11
 405.307
  21
 309.942
  31
0.0
   0
LINE
   8
LEVEL001
   6
CONTINUOUS
  62
7
  10
 403.787
  20
 374.953
  30
0.0
  11
 387.292
  21
 374.568
  31
0.0
   0
LINE
   8
LEVEL001
   6
CONTINUOUS
  62
7
  10
 378.082
  20
 404.861
  30
0.0
  11
 340.092
  21
 403.973
  31
0.0
   0
LINE
   8
LEVEL001
   6
CONTINUOUS
  62
7
  10
 403.788
  20
 374.924
  30
0.0
  11
 404.811
  21
 373.948
  31
0.0
   0
LINE
   8
LEVEL001
   6
CONTINUOUS
  62
7
  10
 404.811
  20
 373.948
  30
0.0
  11
 406.283
  21
 310.965
  31
0.0
   0
LINE
   8
LEVEL001
   6
CONTINUOUS
  62
7
  10
 404.893
  20
 370.449
  30
0.0
  11
 413.890
  21
 370.659
  31
0.0
   0
ARC
   8
LEVEL003
   6
CONTINUOUS
  62
7
  10
 373.743
  20
 333.740
  30
0.0
  40
 7.00000
  50
 271.339
  51
 91.3390
   0
LINE
   8
LEVEL001
   6
CONTINUOUS
  62
7
  10
 406.200
  20
 314.523
  30
0.0
  11
 415.197
  21
 314.733
  31
0.0
   0
LINE
   8
LEVEL003
   6
CONTINUOUS
  62
7
  10
 415.210
  20
 314.174
  30
0.0
  11
 413.879
  21
 371.159
  31
0.0
   0
LINE
   8
LEVEL003
   6
CONTINUOUS
  62
7
  10
 384.912
  20
 369.446
  30
0.0
  11
 385.062
  21
 363.007
  31
0.0
   0
LINE
   8
LEVEL003
   6
CONTINUOUS
  62
7
  10
 385.389
  20
 348.992
  30
0.0
  11
 386.286
  21
 310.528
  31
0.0
   0
ARC
   8
LEVEL003
   6
CONTINUOUS
  62
7
  10
 388.062
  20
 363.077
  30
0.0
  40
 3.00000
  50
 181.335
  51
 261.741
   0
ARC
   8
LEVEL003
   6
CONTINUOUS
  62
7
  10
 388.388
  20
 349.062
  30
0.0
  40
 3.00000
  50
 100.929
  51
 181.335
   0
LINE
   8
LEVEL001
   6
CONTINUOUS
  62
7
  10
 403.789
  20
 374.954
  30
0.0
  11
 405.304
  21
 309.971
  31
0.0
   0
LINE
   8
LEVEL001
   6
CONTINUOUS
  62
7
  10
 388.809
  20
 309.556
  30
0.0
  11
 387.231
  21
 377.255
  31
0.0
   0
POINT
   8
LEVEL001
  62
7
  10
 342.406
  20
 305.000
  30
0.0
   0
LINE
   8
LEVEL001
   6
DASHDOT
  62
1
  10
 375.555
  20
 341.785
  30
0.0
  11
 578.116
  21
 346.519
  31
0.0
   0
ARC
   8
LEVEL001
   6
CONTINUOUS
  62
7
  10
 943.828
  20
 336.722
  30
0.0
  40
 20.0000
  50
 181.339
  51
 260.863
   0
ARC
   8
LEVEL001
   6
CONTINUOUS
  62
7
  10
 940.334
  20
 315.001
  30
0.0
  40
 2.00000
  50
 1.33897
  51
 80.8633
   0
ARC
   8
LEVEL001
   6
CONTINUOUS
  62
7
  10
 908.532
  20
 306.171
  30
0.0
  40
 1.00000
  50
 181.339
  51
 269.702
   0
LINE
   8
LEVEL001
   6
CONTINUOUS
  62
7
  10
 908.527
  20
 305.171
  30
0.0
  11
 941.540
  21
 305.000
  31
0.0
   0
ARC
   8
LEVEL001
   6
CONTINUOUS
  62
7
  10
 941.545
  20
 306.000
  30
0.0
  40
 1.00000
  50
 269.702
  51
 1.33897
   0
LINE
   8
LEVEL001
   6
CONTINUOUS
  62
7
  10
 942.545
  20
 306.023
  30
0.0
  11
 942.334
  21
 315.048
  31
0.0
   0
ARC
   8
LEVEL001
   6
CONTINUOUS
  62
7
  10
 924.738
  20
 340.364
  30
0.0
  40
 1.00000
  50
 290.810
  51
 1.33897
   0
ARC
   8
LEVEL001
   6
CONTINUOUS
  62
7
  10
 925.803
  20
 337.559
  30
0.0
  40
 2.00000
  50
 110.810
  51
 181.339
   0
LINE
   8
LEVEL001
   6
CONTINUOUS
  62
7
  10
 923.804
  20
 337.513
  30
0.0
  11
 923.833
  21
 336.255
  31
0.0
   0
ARC
   8
LEVEL001
   6
CONTINUOUS
  62
7
  10
 909.322
  20
 315.163
  30
0.0
  40
 2.00000
  50
 89.7024
  51
 181.339
   0
LINE
   8
LEVEL001
   6
CONTINUOUS
  62
7
  10
 909.333
  20
 317.163
  30
0.0
  11
 940.345
  21
 317.001
  31
0.0
   0
LINE
   8
LEVEL001
   6
CONTINUOUS
  62
7
  10
 907.323
  20
 315.116
  30
0.0
  11
 907.532
  21
 306.148
  31
0.0
   0
LINE
   8
LEVEL050
   6
DASHDOT
  62
1
  10
 905.310
  20
 401.249
  30
0.0
  11
 906.646
  21
 344.069
  31
0.0
   0
ARC
   8
LEVEL001
   6
CONTINUOUS
  62
7
  10
 924.089
  20
 368.116
  30
0.0
  40
 1.00000
  50
 1.33897
  51
 61.3390
   0
ARC
   8
LEVEL001
   6
CONTINUOUS
  62
7
  10
 926.007
  20
 371.626
  30
0.0
  40
 3.00000
  50
 181.339
  51
 241.339
   0
LINE
   8
LEVEL001
   6
CONTINUOUS
  62
7
  10
 922.991
  20
 372.306
  30
0.0
  11
 923.008
  21
 371.556
  31
0.0
   0
ARC
   8
LEVEL001
   6
CONTINUOUS
  62
7
  10
 905.995
  20
 371.908
  30
0.0
  40
 17.0000
  50
 1.33897
  51
 44.0069
   0
ARC
   8
LEVEL003
   6
CONTINUOUS
  62
7
  10
 916.176
  20
 385.712
  30
0.0
  40
 2.00000
  50
 1.33897
  51
 89.2335
   0
LINE
   8
LEVEL001
   6
CONTINUOUS
  62
7
  10
 893.721
  20
 383.307
  30
0.0
  11
 894.257
  21
 382.939
  31
0.0
   0
LINE
   8
LEVEL001
   6
CONTINUOUS
  62
7
  10
 894.257
  20
 382.939
  30
0.0
  11
 894.972
  21
 382.595
  31
0.0
   0
LINE
   8
LEVEL001
   6
CONTINUOUS
  62
7
  10
 894.972
  20
 382.595
  30
0.0
  11
 895.855
  21
 382.281
  31
0.0
   0
LINE
   8
LEVEL001
   6
CONTINUOUS
  62
7
  10
 895.855
  20
 382.281
  30
0.0
  11
 896.891
  21
 382.001
  31
0.0
   0
LINE
   8
LEVEL001
   6
CONTINUOUS
  62
7
  10
 896.891
  20
 382.001
  30
0.0
  11
 898.065
  21
 381.760
  31
0.0
   0
LINE
   8
LEVEL001
   6
CONTINUOUS
  62
7
  10
 898.065
  20
 381.760
  30
0.0
  11
 899.358
  21
 381.562
  31
0.0
   0
LINE
   8
LEVEL001
   6
CONTINUOUS
  62
7
  10
 899.358
  20
 381.562
  30
0.0
  11
 900.750
  21
 381.409
  31
0.0
   0
LINE
   8
LEVEL001
   6
CONTINUOUS
  62
7
  10
 900.750
  20
 381.409
  30
0.0
  11
 902.219
  21
 381.305
  31
0.0
   0
LINE
   8
LEVEL001
   6
CONTINUOUS
  62
7
  10
 902.219
  20
 381.305
  30
0.0
  11
 903.742
  21
 381.250
  31
0.0
   0
LINE
   8
LEVEL001
   6
CONTINUOUS
  62
7
  10
 903.742
  20
 381.250
  30
0.0
  11
 905.296
  21
 381.245
  31
0.0
   0
LINE
   8
LEVEL001
   6
CONTINUOUS
  62
7
  10
 905.296
  20
 381.245
  30
0.0
  11
 906.857
  21
 381.292
  31
0.0
   0
LINE
   8
LEVEL001
   6
CONTINUOUS
  62
7
  10
 906.857
  20
 381.292
  30
0.0
  11
 908.399
  21
 381.388
  31
0.0
   0
LINE
   8
LEVEL001
   6
CONTINUOUS
  62
7
  10
 908.399
  20
 381.388
  30
0.0
  11
 909.899
  21
 381.532
  31
0.0
   0
LINE
   8
LEVEL001
   6
CONTINUOUS
  62
7
  10
 909.899
  20
 381.532
  30
0.0
  11
 911.334
  21
 381.723
  31
0.0
   0
LINE
   8
LEVEL001
   6
CONTINUOUS
  62
7
  10
 911.334
  20
 381.723
  30
0.0
  11
 912.681
  21
 381.957
  31
0.0
   0
LINE
   8
LEVEL001
   6
CONTINUOUS
  62
7
  10
 912.681
  20
 381.957
  30
0.0
  11
 913.919
  21
 382.230
  31
0.0
   0
LINE
   8
LEVEL001
   6
CONTINUOUS
  62
7
  10
 913.919
  20
 382.230
  30
0.0
  11
 915.029
  21
 382.538
  31
0.0
   0
LINE
   8
LEVEL001
   6
CONTINUOUS
  62
7
  10
 915.029
  20
 382.538
  30
0.0
  11
 915.993
  21
 382.877
  31
0.0
   0
LINE
   8
LEVEL001
   6
CONTINUOUS
  62
7
  10
 915.993
  20
 382.877
  30
0.0
  11
 916.796
  21
 383.241
  31
0.0
   0
LINE
   8
LEVEL001
   6
CONTINUOUS
  62
7
  10
 916.796
  20
 383.241
  30
0.0
  11
 917.427
  21
 383.625
  31
0.0
   0
LINE
   8
LEVEL001
   6
CONTINUOUS
  62
7
  10
 917.427
  20
 383.625
  30
0.0
  11
 917.770
  21
 383.912
  31
0.0
   0
LINE
   8
LEVEL001
   6
CONTINUOUS
  62
7
  10
 896.003
  20
 387.007
  30
0.0
  11
 897.726
  21
 385.473
  31
0.0
   0
LINE
   8
LEVEL001
   6
CONTINUOUS
  62
7
  10
 897.726
  20
 385.473
  30
0.0
  11
 898.069
  21
 385.229
  31
0.0
   0
LINE
   8
LEVEL001
   6
CONTINUOUS
  62
7
  10
 898.069
  20
 385.229
  30
0.0
  11
 898.530
  21
 385.001
  31
0.0
   0
LINE
   8
LEVEL001
   6
CONTINUOUS
  62
7
  10
 898.530
  20
 385.001
  30
0.0
  11
 899.102
  21
 384.791
  31
0.0
   0
LINE
   8
LEVEL001
   6
CONTINUOUS
  62
7
  10
 899.102
  20
 384.791
  30
0.0
  11
 899.777
  21
 384.604
  31
0.0
   0
LINE
   8
LEVEL001
   6
CONTINUOUS
  62
7
  10
 899.777
  20
 384.604
  30
0.0
  11
 900.544
  21
 384.443
  31
0.0
   0
LINE
   8
LEVEL001
   6
CONTINUOUS
  62
7
  10
 900.544
  20
 384.443
  30
0.0
  11
 901.390
  21
 384.309
  31
0.0
   0
LINE
   8
LEVEL001
   6
CONTINUOUS
  62
7
  10
 901.390
  20
 384.309
  30
0.0
  11
 902.303
  21
 384.205
  31
0.0
   0
LINE
   8
LEVEL001
   6
CONTINUOUS
  62
7
  10
 902.303
  20
 384.205
  30
0.0
  11
 903.269
  21
 384.133
  31
0.0
   0
LINE
   8
LEVEL001
   6
CONTINUOUS
  62
7
  10
 903.269
  20
 384.133
  30
0.0
  11
 904.271
  21
 384.094
  31
0.0
   0
LINE
   8
LEVEL001
   6
CONTINUOUS
  62
7
  10
 904.271
  20
 384.094
  30
0.0
  11
 905.296
  21
 384.088
  31
0.0
   0
LINE
   8
LEVEL001
   6
CONTINUOUS
  62
7
  10
 905.296
  20
 384.088
  30
0.0
  11
 906.326
  21
 384.115
  31
0.0
   0
LINE
   8
LEVEL001
   6
CONTINUOUS
  62
7
  10
 906.326
  20
 384.115
  30
0.0
  11
 907.346
  21
 384.175
  31
0.0
   0
LINE
   8
LEVEL001
   6
CONTINUOUS
  62
7
  10
 907.346
  20
 384.175
  30
0.0
  11
 908.339
  21
 384.268
  31
0.0
   0
LINE
   8
LEVEL001
   6
CONTINUOUS
  62
7
  10
 908.339
  20
 384.268
  30
0.0
  11
 909.291
  21
 384.391
  31
0.0
   0
LINE
   8
LEVEL001
   6
CONTINUOUS
  62
7
  10
 909.291
  20
 384.391
  30
0.0
  11
 910.186
  21
 384.543
  31
0.0
   0
LINE
   8
LEVEL001
   6
CONTINUOUS
  62
7
  10
 910.186
  20
 384.543
  30
0.0
  11
 911.010
  21
 384.721
  31
0.0
   0
LINE
   8
LEVEL001
   6
CONTINUOUS
  62
7
  10
 911.010
  20
 384.721
  30
0.0
  11
 911.751
  21
 384.922
  31
0.0
   0
LINE
   8
LEVEL001
   6
CONTINUOUS
  62
7
  10
 911.751
  20
 384.922
  30
0.0
  11
 912.397
  21
 385.144
  31
0.0
   0
LINE
   8
LEVEL001
   6
CONTINUOUS
  62
7
  10
 912.397
  20
 385.144
  30
0.0
  11
 912.938
  21
 385.383
  31
0.0
   0
LINE
   8
LEVEL001
   6
CONTINUOUS
  62
7
  10
 912.938
  20
 385.383
  30
0.0
  11
 913.365
  21
 385.635
  31
0.0
   0
LINE
   8
LEVEL001
   6
CONTINUOUS
  62
7
  10
 913.365
  20
 385.635
  30
0.0
  11
 913.622
  21
 385.845
  31
0.0
   0
LINE
   8
LEVEL001
   6
CONTINUOUS
  62
7
  10
 895.624
  20
 387.690
  30
0.0
  11
 895.709
  21
 387.369
  31
0.0
   0
LINE
   8
LEVEL001
   6
CONTINUOUS
  62
7
  10
 895.709
  20
 387.369
  30
0.0
  11
 895.949
  21
 387.057
  31
0.0
   0
LINE
   8
LEVEL001
   6
CONTINUOUS
  62
7
  10
 895.949
  20
 387.057
  30
0.0
  11
 896.341
  21
 386.759
  31
0.0
   0
LINE
   8
LEVEL001
   6
CONTINUOUS
  62
7
  10
 896.341
  20
 386.759
  30
0.0
  11
 896.877
  21
 386.478
  31
0.0
   0
LINE
   8
LEVEL001
   6
CONTINUOUS
  62
7
  10
 896.877
  20
 386.478
  30
0.0
  11
 897.549
  21
 386.220
  31
0.0
   0
LINE
   8
LEVEL001
   6
CONTINUOUS
  62
7
  10
 897.549
  20
 386.220
  30
0.0
  11
 898.347
  21
 385.989
  31
0.0
   0
LINE
   8
LEVEL001
   6
CONTINUOUS
  62
7
  10
 898.347
  20
 385.989
  30
0.0
  11
 899.259
  21
 385.788
  31
0.0
   0
LINE
   8
LEVEL001
   6
CONTINUOUS
  62
7
  10
 899.259
  20
 385.788
  30
0.0
  11
 900.270
  21
 385.620
  31
0.0
   0
LINE
   8
LEVEL001
   6
CONTINUOUS
  62
7
  10
 900.270
  20
 385.620
  30
0.0
  11
 901.365
  21
 385.489
  31
0.0
   0
LINE
   8
LEVEL001
   6
CONTINUOUS
  62
7
  10
 901.365
  20
 385.489
  30
0.0
  11
 902.526
  21
 385.395
  31
0.0
   0
LINE
   8
LEVEL001
   6
CONTINUOUS
  62
7
  10
 902.526
  20
 385.395
  30
0.0
  11
 903.735
  21
 385.340
  31
0.0
   0
LINE
   8
LEVEL001
   6
CONTINUOUS
  62
7
  10
 903.735
  20
 385.340
  30
0.0
  11
 904.974
  21
 385.326
  31
0.0
   0
LINE
   8
LEVEL001
   6
CONTINUOUS
  62
7
  10
 904.974
  20
 385.326
  30
0.0
  11
 906.223
  21
 385.353
  31
0.0
   0
LINE
   8
LEVEL001
   6
CONTINUOUS
  62
7
  10
 906.223
  20
 385.353
  30
0.0
  11
 907.462
  21
 385.420
  31
0.0
   0
LINE
   8
LEVEL001
   6
CONTINUOUS
  62
7
  10
 907.462
  20
 385.420
  30
0.0
  11
 908.673
  21
 385.525
  31
0.0
   0
LINE
   8
LEVEL001
   6
CONTINUOUS
  62
7
  10
 908.673
  20
 385.525
  30
0.0
  11
 909.836
  21
 385.668
  31
0.0
   0
LINE
   8
LEVEL001
   6
CONTINUOUS
  62
7
  10
 909.836
  20
 385.668
  30
0.0
  11
 910.934
  21
 385.847
  31
0.0
   0
LINE
   8
LEVEL001
   6
CONTINUOUS
  62
7
  10
 910.934
  20
 385.847
  30
0.0
  11
 911.948
  21
 386.057
  31
0.0
   0
LINE
   8
LEVEL001
   6
CONTINUOUS
  62
7
  10
 911.948
  20
 386.057
  30
0.0
  11
 912.864
  21
 386.297
  31
0.0
   0
LINE
   8
LEVEL001
   6
CONTINUOUS
  62
7
  10
 912.864
  20
 386.297
  30
0.0
  11
 913.666
  21
 386.563
  31
0.0
   0
LINE
   8
LEVEL001
   6
CONTINUOUS
  62
7
  10
 913.666
  20
 386.563
  30
0.0
  11
 914.344
  21
 386.849
  31
0.0
   0
LINE
   8
LEVEL001
   6
CONTINUOUS
  62
7
  10
 914.344
  20
 386.849
  30
0.0
  11
 914.885
  21
 387.152
  31
0.0
   0
LINE
   8
LEVEL001
   6
CONTINUOUS
  62
7
  10
 914.885
  20
 387.152
  30
0.0
  11
 915.281
  21
 387.468
  31
0.0
   0
LINE
   8
LEVEL001
   6
CONTINUOUS
  62
7
  10
 915.281
  20
 387.468
  30
0.0
  11
 915.527
  21
 387.790
  31
0.0
   0
LINE
   8
LEVEL001
   6
CONTINUOUS
  62
7
  10
 915.527
  20
 387.790
  30
0.0
  11
 915.618
  21
 388.115
  31
0.0
   0
LINE
   8
LEVEL001
   6
CONTINUOUS
  62
7
  10
 915.618
  20
 388.115
  30
0.0
  11
 915.618
  21
 388.158
  31
0.0
   0
LINE
   8
LEVEL001
   6
CONTINUOUS
  62
7
  10
 915.271
  20
 387.458
  30
0.0
  11
 913.622
  21
 385.845
  31
0.0
   0
LINE
   8
LEVEL001
   6
CONTINUOUS
  62
7
  10
 913.622
  20
 385.845
  30
0.0
  11
 913.132
  21
 384.817
  31
0.0
   0
LINE
   8
LEVEL001
   6
CONTINUOUS
  62
7
  10
 897.726
  20
 385.473
  30
0.0
  11
 898.263
  21
 384.469
  31
0.0
   0
LINE
   8
LEVEL001
   6
CONTINUOUS
  62
7
  10
 898.263
  20
 384.469
  30
0.0
  11
 898.448
  21
 384.236
  31
0.0
   0
LINE
   8
LEVEL001
   6
CONTINUOUS
  62
7
  10
 898.448
  20
 384.236
  30
0.0
  11
 898.746
  21
 384.012
  31
0.0
   0
LINE
   8
LEVEL001
   6
CONTINUOUS
  62
7
  10
 898.746
  20
 384.012
  30
0.0
  11
 899.152
  21
 383.802
  31
0.0
   0
LINE
   8
LEVEL001
   6
CONTINUOUS
  62
7
  10
 899.152
  20
 383.802
  30
0.0
  11
 899.660
  21
 383.610
  31
0.0
   0
LINE
   8
LEVEL001
   6
CONTINUOUS
  62
7
  10
 899.660
  20
 383.610
  30
0.0
  11
 900.262
  21
 383.437
  31
0.0
   0
LINE
   8
LEVEL001
   6
CONTINUOUS
  62
7
  10
 900.262
  20
 383.437
  30
0.0
  11
 900.949
  21
 383.287
  31
0.0
   0
LINE
   8
LEVEL001
   6
CONTINUOUS
  62
7
  10
 900.949
  20
 383.287
  30
0.0
  11
 901.711
  21
 383.163
  31
0.0
   0
LINE
   8
LEVEL001
   6
CONTINUOUS
  62
7
  10
 901.711
  20
 383.163
  30
0.0
  11
 902.534
  21
 383.065
  31
0.0
   0
LINE
   8
LEVEL001
   6
CONTINUOUS
  62
7
  10
 902.534
  20
 383.065
  30
0.0
  11
 903.406
  21
 382.996
  31
0.0
   0
LINE
   8
LEVEL001
   6
CONTINUOUS
  62
7
  10
 903.406
  20
 382.996
  30
0.0
  11
 904.314
  21
 382.956
  31
0.0
   0
LINE
   8
LEVEL001
   6
CONTINUOUS
  62
7
  10
 904.314
  20
 382.956
  30
0.0
  11
 905.244
  21
 382.947
  31
0.0
   0
LINE
   8
LEVEL001
   6
CONTINUOUS
  62
7
  10
 905.244
  20
 382.947
  30
0.0
  11
 906.181
  21
 382.968
  31
0.0
   0
LINE
   8
LEVEL001
   6
CONTINUOUS
  62
7
  10
 906.181
  20
 382.968
  30
0.0
  11
 907.110
  21
 383.019
  31
0.0
   0
LINE
   8
LEVEL001
   6
CONTINUOUS
  62
7
  10
 907.110
  20
 383.019
  30
0.0
  11
 908.017
  21
 383.099
  31
0.0
   0
LINE
   8
LEVEL001
   6
CONTINUOUS
  62
7
  10
 908.017
  20
 383.099
  30
0.0
  11
 908.887
  21
 383.208
  31
0.0
   0
LINE
   8
LEVEL001
   6
CONTINUOUS
  62
7
  10
 908.887
  20
 383.208
  30
0.0
  11
 909.708
  21
 383.343
  31
0.0
   0
LINE
   8
LEVEL001
   6
CONTINUOUS
  62
7
  10
 909.708
  20
 383.343
  30
0.0
  11
 910.466
  21
 383.502
  31
0.0
   0
LINE
   8
LEVEL001
   6
CONTINUOUS
  62
7
  10
 910.466
  20
 383.502
  30
0.0
  11
 911.150
  21
 383.682
  31
0.0
   0
LINE
   8
LEVEL001
   6
CONTINUOUS
  62
7
  10
 911.150
  20
 383.682
  30
0.0
  11
 911.748
  21
 383.882
  31
0.0
   0
LINE
   8
LEVEL001
   6
CONTINUOUS
  62
7
  10
 911.748
  20
 383.882
  30
0.0
  11
 912.252
  21
 384.098
  31
0.0
   0
LINE
   8
LEVEL001
   6
CONTINUOUS
  62
7
  10
 912.252
  20
 384.098
  30
0.0
  11
 912.654
  21
 384.325
  31
0.0
   0
LINE
   8
LEVEL001
   6
CONTINUOUS
  62
7
  10
 912.654
  20
 384.325
  30
0.0
  11
 912.946
  21
 384.562
  31
0.0
   0
LINE
   8
LEVEL001
   6
CONTINUOUS
  62
7
  10
 912.946
  20
 384.562
  30
0.0
  11
 913.126
  21
 384.804
  31
0.0
   0
LINE
   8
LEVEL001
   6
CONTINUOUS
  62
7
  10
 913.126
  20
 384.804
  30
0.0
  11
 913.132
  21
 384.817
  31
0.0
   0
LINE
   8
LEVEL001
   6
CONTINUOUS
  62
7
  10
 896.477
  20
 393.984
  30
0.0
  11
 896.650
  21
 386.586
  31
0.0
   0
LINE
   8
LEVEL001
   6
CONTINUOUS
  62
7
  10
 897.990
  20
 393.435
  30
0.0
  11
 898.163
  21
 386.037
  31
0.0
   0
LINE
   8
LEVEL001
   6
CONTINUOUS
  62
7
  10
 899.498
  20
 393.112
  30
0.0
  11
 899.671
  21
 385.714
  31
0.0
   0
LINE
   8
LEVEL001
   6
CONTINUOUS
  62
7
  10
 901.003
  20
 392.906
  30
0.0
  11
 901.176
  21
 385.508
  31
0.0
   0
LINE
   8
LEVEL001
   6
CONTINUOUS
  62
7
  10
 902.507
  20
 392.783
  30
0.0
  11
 902.680
  21
 385.386
  31
0.0
   0
LINE
   8
LEVEL001
   6
CONTINUOUS
  62
7
  10
 904.008
  20
 392.729
  30
0.0
  11
 904.181
  21
 385.331
  31
0.0
   0
LINE
   8
LEVEL001
   6
CONTINUOUS
  62
7
  10
 907.007
  20
 392.799
  30
0.0
  11
 907.180
  21
 385.401
  31
0.0
   0
LINE
   8
LEVEL001
   6
CONTINUOUS
  62
7
  10
 908.505
  20
 392.924
  30
0.0
  11
 908.678
  21
 385.526
  31
0.0
   0
LINE
   8
LEVEL001
   6
CONTINUOUS
  62
7
  10
 910.001
  20
 393.116
  30
0.0
  11
 910.174
  21
 385.718
  31
0.0
   0
LINE
   8
LEVEL001
   6
CONTINUOUS
  62
7
  10
 911.495
  20
 393.392
  30
0.0
  11
 911.668
  21
 385.994
  31
0.0
   0
LINE
   8
LEVEL001
   6
CONTINUOUS
  62
7
  10
 912.986
  20
 393.786
  30
0.0
  11
 913.159
  21
 386.388
  31
0.0
   0
LINE
   8
LEVEL003
   6
CONTINUOUS
  62
7
  10
 915.629
  20
 387.720
  30
0.0
  11
 916.202
  21
 387.712
  31
0.0
   0
ARC
   8
LEVEL003
   6
CONTINUOUS
  62
7
  10
 900.474
  20
 394.846
  30
0.0
  40
 5.00000
  50
 101.216
  51
 181.842
   0
LINE
   8
LEVEL050
   6
CONTINUOUS
  62
7
  10
 895.624
  20
 387.690
  30
0.0
  11
 895.460
  21
 394.685
  31
0.0
   0
ARC
   8
LEVEL003
   6
CONTINUOUS
  62
7
  10
 910.439
  20
 395.079
  30
0.0
  40
 5.00000
  50
 0.836385
  51
 81.4624
   0
LINE
   8
LEVEL001
   6
CONTINUOUS
  62
7
  10
 914.472
  20
 394.404
  30
0.0
  11
 914.645
  21
 387.006
  31
0.0
   0
LINE
   8
LEVEL001
   6
CONTINUOUS
  62
7
  10
 897.763
  20
 395.981
  30
0.0
  11
 898.628
  21
 395.767
  31
0.0
   0
LINE
   8
LEVEL001
   6
CONTINUOUS
  62
7
  10
 898.628
  20
 395.767
  30
0.0
  11
 899.599
  21
 395.585
  31
0.0
   0
LINE
   8
LEVEL001
   6
CONTINUOUS
  62
7
  10
 899.599
  20
 395.585
  30
0.0
  11
 900.660
  21
 395.437
  31
0.0
   0
LINE
   8
LEVEL001
   6
CONTINUOUS
  62
7
  10
 900.660
  20
 395.437
  30
0.0
  11
 901.795
  21
 395.327
  31
0.0
   0
LINE
   8
LEVEL001
   6
CONTINUOUS
  62
7
  10
 901.795
  20
 395.327
  30
0.0
  11
 902.986
  21
 395.256
  31
0.0
   0
LINE
   8
LEVEL001
   6
CONTINUOUS
  62
7
  10
 902.986
  20
 395.256
  30
0.0
  11
 904.215
  21
 395.225
  31
0.0
   0
LINE
   8
LEVEL001
   6
CONTINUOUS
  62
7
  10
 904.215
  20
 395.225
  30
0.0
  11
 905.462
  21
 395.234
  31
0.0
   0
LINE
   8
LEVEL001
   6
CONTINUOUS
  62
7
  10
 905.462
  20
 395.234
  30
0.0
  11
 906.708
  21
 395.284
  31
0.0
   0
LINE
   8
LEVEL001
   6
CONTINUOUS
  62
7
  10
 906.708
  20
 395.284
  30
0.0
  11
 907.933
  21
 395.373
  31
0.0
   0
LINE
   8
LEVEL001
   6
CONTINUOUS
  62
7
  10
 907.933
  20
 395.373
  30
0.0
  11
 909.119
  21
 395.500
  31
0.0
   0
LINE
   8
LEVEL001
   6
CONTINUOUS
  62
7
  10
 909.119
  20
 395.500
  30
0.0
  11
 910.246
  21
 395.664
  31
0.0
   0
LINE
   8
LEVEL001
   6
CONTINUOUS
  62
7
  10
 910.246
  20
 395.664
  30
0.0
  11
 911.298
  21
 395.862
  31
0.0
   0
LINE
   8
LEVEL001
   6
CONTINUOUS
  62
7
  10
 911.298
  20
 395.862
  30
0.0
  11
 912.257
  21
 396.090
  31
0.0
   0
LINE
   8
LEVEL001
   6
CONTINUOUS
  62
7
  10
 912.257
  20
 396.090
  30
0.0
  11
 912.374
  21
 396.121
  31
0.0
   0
LINE
   8
LEVEL001
   6
CONTINUOUS
  62
7
  10
 911.245
  20
 400.047
  30
0.0
  11
 910.189
  21
 400.197
  31
0.0
   0
LINE
   8
LEVEL001
   6
CONTINUOUS
  62
7
  10
 910.189
  20
 400.197
  30
0.0
  11
 909.058
  21
 400.310
  31
0.0
   0
LINE
   8
LEVEL001
   6
CONTINUOUS
  62
7
  10
 909.058
  20
 400.310
  30
0.0
  11
 907.870
  21
 400.383
  31
0.0
   0
LINE
   8
LEVEL001
   6
CONTINUOUS
  62
7
  10
 907.870
  20
 400.383
  30
0.0
  11
 906.643
  21
 400.417
  31
0.0
   0
LINE
   8
LEVEL001
   6
CONTINUOUS
  62
7
  10
 906.643
  20
 400.417
  30
0.0
  11
 905.396
  21
 400.410
  31
0.0
   0
LINE
   8
LEVEL001
   6
CONTINUOUS
  62
7
  10
 905.396
  20
 400.410
  30
0.0
  11
 904.150
  21
 400.363
  31
0.0
   0
LINE
   8
LEVEL001
   6
CONTINUOUS
  62
7
  10
 904.150
  20
 400.363
  30
0.0
  11
 902.923
  21
 400.276
  31
0.0
   0
LINE
   8
LEVEL001
   6
CONTINUOUS
  62
7
  10
 902.923
  20
 400.276
  30
0.0
  11
 901.734
  21
 400.151
  31
0.0
   0
LINE
   8
LEVEL001
   6
CONTINUOUS
  62
7
  10
 901.734
  20
 400.151
  30
0.0
  11
 900.603
  21
 399.990
  31
0.0
   0
LINE
   8
LEVEL001
   6
CONTINUOUS
  62
7
  10
 900.603
  20
 399.990
  30
0.0
  11
 899.546
  21
 399.794
  31
0.0
   0
LINE
   8
LEVEL001
   6
CONTINUOUS
  62
7
  10
 899.546
  20
 399.794
  30
0.0
  11
 899.437
  21
 399.771
  31
0.0
   0
LINE
   8
LEVEL050
   6
CONTINUOUS
  62
7
  10
 915.618
  20
 388.158
  30
0.0
  11
 915.455
  21
 395.152
  31
0.0
   0
ARC
   8
LEVEL001
   6
CONTINUOUS
  62
7
  10
 922.467
  20
 394.703
  30
0.0
  40
 2.00000
  50
 1.33897
  51
 90.0753
   0
LINE
   8
LEVEL001
   6
CONTINUOUS
  62
7
  10
 873.669
  20
 385.480
  30
0.0
  11
 875.621
  21
 387.571
  31
0.0
   0
LINE
   8
LEVEL001
   6
CONTINUOUS
  62
7
  10
 894.010
  20
 388.406
  30
0.0
  11
 875.621
  21
 387.571
  31
0.0
   0
LINE
   8
LEVEL003
   6
CONTINUOUS
  62
7
  10
 924.855
  20
 378.130
  30
0.0
  11
 928.054
  21
 378.205
  31
0.0
   0
ARC
   8
LEVEL001
   6
CONTINUOUS
  62
7
  10
 922.800
  20
 380.458
  30
0.0
  40
 2.00000
  50
 308.209
  51
 1.33897
   0
ARC
   8
LEVEL001
   6
CONTINUOUS
  62
7
  10
 925.893
  20
 376.530
  30
0.0
  40
 3.00000
  50
 128.209
  51
 181.339
   0
LINE
   8
LEVEL001
   6
CONTINUOUS
  62
7
  10
 925.088
  20
 368.169
  30
0.0
  11
 925.151
  21
 365.481
  31
0.0
   0
LINE
   8
LEVEL003
   6
DASHDOT
  62
1
  10
 937.757
  20
 387.934
  30
0.0
  11
 906.357
  21
 387.200
  31
0.0
   0
LINE
   8
LEVEL001
   6
CONTINUOUS
  62
7
  10
 875.167
  20
 321.410
  30
0.0
  11
 877.214
  21
 319.413
  31
0.0
   0
LINE
   8
LEVEL003
   6
CONTINUOUS
  62
7
  10
 899.396
  20
 319.442
  30
0.0
  11
 877.214
  21
 319.413
  31
0.0
   0
ARC
   8
LEVEL001
   6
CONTINUOUS
  62
7
  10
 899.406
  20
 311.442
  30
0.0
  40
 8.00000
  50
 1.33897
  51
 90.0753
   0
ARC
   8
LEVEL003
   6
CONTINUOUS
  62
7
  10
 927.087
  20
 366.679
  30
0.0
  40
 12.5359
  50
 337.474
  51
 1.33895
   0
LINE
   8
LEVEL003
   6
CONTINUOUS
  62
7
  10
 928.646
  20
 365.715
  30
0.0
  11
 928.600
  21
 367.715
  31
0.0
   0
LINE
   8
LEVEL001
   6
CONTINUOUS
  62
7
  10
 915.171
  20
 396.694
  30
0.0
  11
 922.465
  21
 396.703
  31
0.0
   0
ARC
   8
LEVEL001
   6
CONTINUOUS
  62
7
  10
 893.873
  20
 391.403
  30
0.0
  40
 3.00000
  50
 272.603
  51
 305.006
   0
LINE
   8
LEVEL003
   6
CONTINUOUS
  62
7
  10
 927.710
  20
 392.951
  30
0.0
  11
 928.509
  21
 392.970
  31
0.0
   0
LINE
   8
LEVEL003
   6
CONTINUOUS
  62
7
  10
 927.955
  20
 382.454
  30
0.0
  11
 928.755
  21
 382.473
  31
0.0
   0
LINE
   8
LEVEL003
   6
CONTINUOUS
  62
7
  10
 926.825
  20
 430.809
  30
0.0
  11
 928.054
  21
 378.205
  31
0.0
   0
LINE
   8
LEVEL001
   6
CONTINUOUS
  62
7
  10
 923.628
  20
 430.610
  30
0.0
  11
 924.855
  21
 378.130
  31
0.0
   0
LINE
   8
LEVEL003
   6
CONTINUOUS
  62
7
  10
 866.087
  20
 324.713
  30
0.0
  11
 864.755
  21
 381.697
  31
0.0
   0
LINE
   8
LEVEL001
   6
CONTINUOUS
  62
7
  10
 866.076
  20
 325.213
  30
0.0
  11
 875.073
  21
 325.423
  31
0.0
   0
LINE
   8
LEVEL001
   6
CONTINUOUS
  62
7
  10
 864.767
  20
 381.197
  30
0.0
  11
 873.765
  21
 381.408
  31
0.0
   0
LINE
   8
LEVEL001
   6
CONTINUOUS
  62
7
  10
 873.669
  20
 385.480
  30
0.0
  11
 874.418
  21
 353.445
  31
0.0
   0
ARC
   8
LEVEL003
   6
CONTINUOUS
  62
7
  10
 890.208
  20
 384.033
  30
0.0
  40
 3.00000
  50
 1.33897
  51
 91.3390
   0
LINE
   8
LEVEL001
   6
CONTINUOUS
  62
7
  10
 893.205
  20
 384.196
  30
0.0
  11
 894.112
  21
 345.373
  31
0.0
   0
LINE
   8
LEVEL001
   6
CONTINUOUS
  62
7
  10
 875.167
  20
 321.410
  30
0.0
  11
 874.418
  21
 353.445
  31
0.0
   0
LINE
   8
LEVEL001
   6
CONTINUOUS
  62
7
  10
 875.621
  20
 387.571
  30
0.0
  11
 877.214
  21
 319.413
  31
0.0
   0
LINE
   8
LEVEL003
   6
CONTINUOUS
  62
7
  10
 925.404
  20
 354.637
  30
0.0
  11
 925.737
  21
 340.387
  31
0.0
   0
LINE
   8
LEVEL003
   6
CONTINUOUS
  62
7
  10
 925.089
  20
 368.139
  30
0.0
  11
 925.404
  21
 354.637
  31
0.0
   0
LINE
   8
LEVEL003
   6
CONTINUOUS
  62
7
  10
 925.147
  20
 365.634
  30
0.0
  11
 928.646
  21
 365.715
  31
0.0
   0
LINE
   8
LEVEL003
   6
CONTINUOUS
  62
7
  10
 925.661
  20
 343.640
  30
0.0
  11
 929.160
  21
 343.721
  31
0.0
   0
LINE
   8
LEVEL003
   6
CONTINUOUS
  62
7
  10
 928.580
  20
 368.571
  30
0.0
  11
 938.505
  21
 368.803
  31
0.0
   0
LINE
   8
LEVEL003
   6
CONTINUOUS
  62
7
  10
 938.505
  20
 368.803
  30
0.0
  11
 939.620
  21
 366.972
  31
0.0
   0
LINE
   8
LEVEL003
   6
CONTINUOUS
  62
7
  10
 939.620
  20
 366.972
  30
0.0
  11
 940.181
  21
 342.979
  31
0.0
   0
LINE
   8
LEVEL003
   6
CONTINUOUS
  62
7
  10
 940.181
  20
 342.979
  30
0.0
  11
 939.153
  21
 341.098
  31
0.0
   0
LINE
   8
LEVEL003
   6
CONTINUOUS
  62
7
  10
 939.153
  20
 341.098
  30
0.0
  11
 929.227
  21
 340.866
  31
0.0
   0
LINE
   8
LEVEL003
   6
CONTINUOUS
  62
7
  10
 929.227
  20
 340.866
  30
0.0
  11
 928.903
  21
 354.718
  31
0.0
   0
LINE
   8
LEVEL003
   6
CONTINUOUS
  62
7
  10
 928.903
  20
 354.718
  30
0.0
  11
 928.580
  21
 368.571
  31
0.0
   0
LINE
   8
LEVEL003
   6
CONTINUOUS
  62
7
  10
 928.741
  20
 361.645
  30
0.0
  11
 938.667
  21
 361.877
  31
0.0
   0
LINE
   8
LEVEL003
   6
CONTINUOUS
  62
7
  10
 929.065
  20
 347.792
  30
0.0
  11
 938.991
  21
 348.024
  31
0.0
   0
ARC
   8
LEVEL003
   6
CONTINUOUS
  62
7
  10
 927.648
  20
 342.686
  30
0.0
  40
 12.5359
  50
 1.33899
  51
 25.2039
   0
ARC
   8
LEVEL003
   6
CONTINUOUS
  62
7
  10
 916.978
  20
 354.440
  30
0.0
  40
 22.9282
  50
 343.751
  51
 18.9269
   0
LINE
   8
LEVEL003
   6
CONTINUOUS
  62
7
  10
 923.092
  20
 453.547
  30
0.0
  11
 923.333
  21
 443.245
  31
0.0
   0
LINE
   8
LEVEL003
   6
CONTINUOUS
  62
7
  10
 923.333
  20
 443.245
  30
0.0
  11
 926.532
  21
 443.320
  31
0.0
   0
LINE
   8
LEVEL003
   6
CONTINUOUS
  62
7
  10
 926.532
  20
 443.320
  30
0.0
  11
 926.291
  21
 453.622
  31
0.0
   0
LINE
   8
LEVEL003
   6
CONTINUOUS
  62
7
  10
 926.291
  20
 453.622
  30
0.0
  11
 923.092
  21
 453.547
  31
0.0
   0
LINE
   8
LEVEL001
   6
DASHDOT
  62
1
  10
 605.511
  20
 347.160
  30
0.0
  11
 946.893
  21
 355.139
  31
0.0
   0
LINE
   8
LEVEL003
   6
CONTINUOUS
  62
7
  10
 413.879
  20
 371.159
  30
0.0
  11
 864.755
  21
 381.697
  31
0.0
   0
LINE
   8
LEVEL003
   6
CONTINUOUS
  62
7
  10
 415.210
  20
 314.174
  30
0.0
  11
 866.087
  21
 324.713
  31
0.0
   0
LINE
   8
LEVEL001
   6
DASHDOT
  62
1
  10
 360.395
  20
 305.236
  30
0.0
  11
 358.437
  21
 434.385
  31
0.0
   0
ARC
   8
LEVEL011
   6
CONTINUOUS
  62
7
  10
 314.520
  20
 428.890
  30
0.0
  40
 2.00000
  50
 121.761
  51
 222.427
   0
LINE
   8
LEVEL011
   6
CONTINUOUS
  62
7
  10
 324.190
  20
 415.345
  30
0.0
  11
 313.044
  21
 427.541
  31
0.0
   0
ARC
   8
LEVEL011
   6
CONTINUOUS
  62
7
  10
 352.946
  20
 366.822
  30
0.0
  40
 75.0000
  50
 105.696
  51
 121.761
   0
LINE
   8
LEVEL011
   6
CONTINUOUS
  62
7
  10
 323.342
  20
 416.273
  30
0.0
  11
 324.541
  21
 424.152
  31
0.0
   0
LINE
   8
LEVEL011
   6
CONTINUOUS
  62
7
  10
 324.190
  20
 415.345
  30
0.0
  11
 341.961
  21
 416.302
  31
0.0
   0
ARC
   8
LEVEL011
   6
CONTINUOUS
  62
7
  10
 335.056
  20
 426.946
  30
0.0
  40
 10.0000
  50
 69.5860
  51
 149.821
   0
CIRCLE
   8
LEVEL011
   6
CONTINUOUS
  62
7
  10
 335.532
  20
 427.873
  30
0.0
  40
 4.00000
   0
ARC
   8
LEVEL011
   6
CONTINUOUS
  62
7
  10
 335.532
  20
 427.873
  30
0.0
  40
 5.00000
  50
 191.181
  51
 138.786
   0
CIRCLE
   8
LEVEL011
   6
CONTINUOUS
  62
7
  10
 335.532
  20
 427.873
  30
0.0
  40
 5.00000
   0
LINE
   8
LEVEL011
   6
DASHDOT
  62
1
  10
 336.072
  20
 417.858
  30
0.0
  11
 335.007
  21
 437.631
  31
0.0
   0
ARC
   8
LEVEL011
   6
CONTINUOUS
  62
7
  10
 330.091
  20
 424.776
  30
0.0
  40
 2.00000
  50
 93.0847
  51
 146.215
   0
ARC
   8
LEVEL011
   6
CONTINUOUS
  62
7
  10
 328.613
  20
 432.980
  30
0.0
  40
 2.00000
  50
 234.216
  51
 323.573
   0
ARC
   8
LEVEL011
   6
CONTINUOUS
  62
7
  10
 330.091
  20
 424.776
  30
0.0
  40
 3.60000
  50
 93.0847
  51
 146.215
   0
ARC
   8
LEVEL011
   6
CONTINUOUS
  62
7
  10
 328.613
  20
 432.980
  30
0.0
  40
 3.60000
  50
 234.216
  51
 323.572
   0
ARC
   8
LEVEL011
   6
CONTINUOUS
  62
7
  10
 335.532
  20
 427.873
  30
0.0
  40
 6.59982
  50
 42.5962
  51
 143.573
   0
LINE
   8
LEVEL011
   6
CONTINUOUS
  62
7
  10
 329.897
  20
 428.371
  30
0.0
  11
 330.561
  21
 428.406
  31
0.0
   0
LINE
   8
LEVEL011
   6
CONTINUOUS
  62
7
  10
 329.984
  20
 426.773
  30
0.0
  11
 330.647
  21
 426.809
  31
0.0
   0
LINE
   8
LEVEL011
   6
DASHDOT
  62
1
  10
 325.547
  20
 427.335
  30
0.0
  11
 352.055
  21
 428.764
  31
0.0
   0
ARC
   8
LEVEL011
   6
CONTINUOUS
  62
7
  10
 325.104
  20
 428.112
  30
0.0
  40
 4.00000
  50
 54.2155
  51
 326.215
   0
ARC
   8
LEVEL011
   6
CONTINUOUS
  62
7
  10
 325.104
  20
 428.112
  30
0.0
  40
 2.40000
  50
 54.2162
  51
 326.215
   0
ARC
   8
LEVEL011
   6
CONTINUOUS
  62
7
  10
 335.056
  20
 426.946
  30
0.0
  40
 10.0000
  50
 159.547
  51
 171.343
   0
LINE
   8
LEVEL011
   6
CONTINUOUS
  62
7
  10
 324.782
  20
 425.734
  30
0.0
  11
 325.196
  21
 428.453
  31
0.0
   0
ARC
   8
LEVEL011
   6
CONTINUOUS
  62
7
  10
 331.844
  20
 441.913
  30
0.0
  40
 3.00000
  50
 285.696
  51
 3.08455
   0
LINE
   8
LEVEL011
   6
CONTINUOUS
  62
7
  10
 336.682
  20
 445.060
  30
0.0
  11
 377.051
  21
 447.235
  31
0.0
   0
LINE
   8
LEVEL011
   6
CONTINUOUS
  62
7
  10
 334.771
  20
 443.355
  30
0.0
  11
 334.840
  21
 442.075
  31
0.0
   0
ARC
   8
LEVEL011
   6
CONTINUOUS
  62
7
  10
 336.789
  20
 443.063
  30
0.0
  40
 2.00000
  50
 93.0847
  51
 183.085
   0
LINE
   8
LEVEL011
   6
DASHDOT
  62
1
  10
 350.480
  20
 417.763
  30
0.0
  11
 368.572
  21
 418.738
  31
0.0
   0
LINE
   8
LEVEL011
   6
DASHDOT
  62
1
  10
 359.262
  20
 405.670
  30
0.0
  11
 358.048
  21
 428.185
  31
0.0
   0
ARC
   8
LEVEL011
   6
CONTINUOUS
  62
7
  10
 379.634
  20
 399.305
  30
0.0
  40
 48.0000
  50
 46.2277
  51
 93.0847
   0
ARC
   8
LEVEL011
   6
CONTINUOUS
  62
7
  10
 426.676
  20
 448.407
  30
0.0
  40
 20.0000
  50
 226.228
  51
 273.085
   0
LINE
   8
LEVEL011
   6
CONTINUOUS
  62
7
  10
 427.752
  20
 428.436
  30
0.0
  11
 462.158
  21
 430.290
  31
0.0
   0
ARC
   8
LEVEL011
   6
CONTINUOUS
  62
7
  10
 411.208
  20
 389.490
  30
0.0
  40
 5.00000
  50
 93.0847
  51
 183.084
   0
ARC
   8
LEVEL011
   6
CONTINUOUS
  62
7
  10
 463.157
  20
 430.344
  30
0.0
  40
 1.00000
  50
 93.0852
  51
 183.084
   0
LINE
   8
LEVEL011
   6
CONTINUOUS
  62
7
  10
 470.646
  20
 430.748
  30
0.0
  11
 469.594
  21
 431.693
  31
0.0
   0
LINE
   8
LEVEL011
   6
CONTINUOUS
  62
7
  10
 463.103
  20
 431.343
  30
0.0
  11
 469.594
  21
 431.693
  31
0.0
   0
ARC
   8
LEVEL011
   6
CONTINUOUS
  62
7
  10
 464.933
  20
 397.392
  30
0.0
  40
 1.00000
  50
 183.085
  51
 273.084
   0
LINE
   8
LEVEL011
   6
CONTINUOUS
  62
7
  10
 472.422
  20
 397.796
  30
0.0
  11
 471.477
  21
 396.743
  31
0.0
   0
LINE
   8
LEVEL011
   6
CONTINUOUS
  62
7
  10
 464.987
  20
 396.394
  30
0.0
  11
 471.477
  21
 396.743
  31
0.0
   0
LINE
   8
LEVEL011
   6
DASHDOT
  62
1
  10
 389.113
  20
 409.830
  30
0.0
  11
 471.534
  21
 414.272
  31
0.0
   0
ARC
   8
LEVEL011
   6
CONTINUOUS
  62
7
  10
 342.499
  20
 406.317
  30
0.0
  40
 10.0000
  50
 36.4517
  51
 93.0847
   0
LINE
   8
LEVEL011
   6
CONTINUOUS
  62
7
  10
 347.246
  20
 434.172
  30
0.0
  11
 344.489
  21
 431.231
  31
0.0
   0
LINE
   8
LEVEL011
   6
CONTINUOUS
  62
7
  10
 346.079
  20
 435.266
  30
0.0
  11
 347.246
  21
 434.172
  31
0.0
   0
LINE
   8
LEVEL011
   6
CONTINUOUS
  62
7
  10
 346.079
  20
 435.266
  30
0.0
  11
 343.322
  21
 432.326
  31
0.0
   0
LINE
   8
LEVEL011
   6
CONTINUOUS
  62
7
  10
 348.770
  20
 429.388
  30
0.0
  11
 348.856
  21
 427.790
  31
0.0
   0
ARC
   8
LEVEL011
   6
CONTINUOUS
  62
7
  10
 341.863
  20
 433.694
  30
0.0
  40
 2.00000
  50
 222.596
  51
 316.847
   0
ARC
   8
LEVEL011
   6
CONTINUOUS
  62
7
  10
 341.863
  20
 433.694
  30
0.0
  40
 3.60000
  50
 222.597
  51
 316.845
   0
LINE
   8
LEVEL011
   6
CONTINUOUS
  62
7
  10
 340.418
  20
 428.938
  30
0.0
  11
 348.770
  21
 429.388
  31
0.0
   0
LINE
   8
LEVEL011
   6
CONTINUOUS
  62
7
  10
 340.504
  20
 427.340
  30
0.0
  11
 348.856
  21
 427.790
  31
0.0
   0
LINE
   8
LEVEL011
   6
CONTINUOUS
  62
7
  10
 338.570
  20
 436.319
  30
0.0
  11
 344.869
  21
 433.975
  31
0.0
   0
LINE
   8
LEVEL011
   6
CONTINUOUS
  62
7
  10
 346.495
  20
 433.370
  30
0.0
  11
 362.075
  21
 427.572
  31
0.0
   0
LINE
   8
LEVEL011
   6
CONTINUOUS
  62
7
  10
 359.125
  20
 408.214
  30
0.0
  11
 379.096
  21
 409.290
  31
0.0
   0
ARC
   8
LEVEL011
   6
CONTINUOUS
  62
7
  10
 358.587
  20
 418.200
  30
0.0
  40
 10.0000
  50
 216.452
  51
 273.085
   0
CIRCLE
   8
LEVEL001
   6
CONTINUOUS
  62
7
  10
 358.587
  20
 418.200
  30
0.0
  40
 5.00000
   0
ARC
   8
LEVEL011
   6
CONTINUOUS
  62
7
  10
 358.587
  20
 418.200
  30
0.0
  40
 10.0000
  50
 8.53731
  51
 69.5861
   0
LINE
   8
LEVEL011
   6
CONTINUOUS
  62
7
  10
 370.109
  20
 408.806
  30
0.0
  11
 368.476
  21
 419.684
  31
0.0
   0
ARC
   8
LEVEL011
   6
CONTINUOUS
  62
7
  10
 391.689
  20
 380.027
  30
0.0
  40
 3.00000
  50
 3.08477
  51
 81.5475
   0
ARC
   8
LEVEL011
   6
CONTINUOUS
  62
7
  10
 405.670
  20
 380.750
  30
0.0
  40
 3.00000
  50
 102.726
  51
 183.084
   0
ARC
   8
LEVEL011
   6
CONTINUOUS
  62
7
  10
 404.569
  20
 385.627
  30
0.0
  40
 2.00000
  50
 282.726
  51
 350.711
   0
LINE
   8
LEVEL011
   6
CONTINUOUS
  62
7
  10
 406.426
  20
 385.298
  30
0.0
  11
 406.215
  21
 389.221
  31
0.0
   0
ARC
   8
LEVEL011
   6
CONTINUOUS
  62
7
  10
 392.424
  20
 384.972
  30
0.0
  40
 2.00000
  50
 183.084
  51
 261.547
   0
LINE
   8
LEVEL011
   6
CONTINUOUS
  62
7
  10
 390.427
  20
 384.865
  30
0.0
  11
 389.619
  21
 399.843
  31
0.0
   0
ARC
   8
LEVEL011
   6
CONTINUOUS
  62
7
  10
 425.916
  20
 426.334
  30
0.0
  40
 2.00000
  50
 5.08472
  51
 93.0847
   0
ARC
   8
LEVEL011
   6
CONTINUOUS
  62
7
  10
 431.666
  20
 418.132
  30
0.0
  40
 3.00000
  50
 185.085
  51
 273.085
   0
LINE
   8
LEVEL011
   6
CONTINUOUS
  62
7
  10
 427.908
  20
 426.512
  30
0.0
  11
 428.677
  21
 417.866
  31
0.0
   0
ARC
   8
LEVEL011
   6
CONTINUOUS
  62
7
  10
 432.311
  20
 406.149
  30
0.0
  40
 3.00000
  50
 93.0847
  51
 181.085
   0
ARC
   8
LEVEL011
   6
CONTINUOUS
  62
7
  10
 427.477
  20
 397.376
  30
0.0
  40
 2.00000
  50
 273.085
  51
 1.08472
   0
LINE
   8
LEVEL011
   6
CONTINUOUS
  62
7
  10
 429.312
  20
 406.093
  30
0.0
  11
 429.476
  21
 397.414
  31
0.0
   0
LINE
   8
LEVEL011
   6
CONTINUOUS
  62
7
  10
 470.646
  20
 430.748
  30
0.0
  11
 472.422
  21
 397.796
  31
0.0
   0
LINE
   8
LEVEL011
   6
CONTINUOUS
  62
7
  10
 469.594
  20
 431.693
  30
0.0
  11
 471.477
  21
 396.743
  31
0.0
   0
LINE
   8
LEVEL011
   6
CONTINUOUS
  62
7
  10
 462.158
  20
 430.290
  30
0.0
  11
 463.934
  21
 397.338
  31
0.0
   0
LINE
   8
LEVEL011
   6
CONTINUOUS
  62
7
  10
 392.531
  20
 382.975
  30
0.0
  11
 404.676
  21
 383.630
  31
0.0
   0
LINE
   8
LEVEL011
   6
CONTINUOUS
  62
7
  10
 399.647
  20
 393.874
  30
0.0
  11
 463.934
  21
 397.338
  31
0.0
   0
ARC
   8
LEVEL011
   6
CONTINUOUS
  62
7
  10
 379.634
  20
 399.305
  30
0.0
  40
 10.0000
  50
 3.08447
  51
 93.0847
   0
ARC
   8
LEVEL011
   6
CONTINUOUS
  62
7
  10
 399.108
  20
 403.859
  30
0.0
  40
 10.0000
  50
 216.274
  51
 273.085
   0
LINE
   8
LEVEL011
   6
CONTINUOUS
  62
7
  10
 452.801
  20
 503.466
  30
0.0
  11
 452.877
  21
 502.053
  31
0.0
   0
ARC
   8
LEVEL011
   6
DASHDOT
  62
1
  10
 409.602
  20
 489.027
  30
0.0
  40
 3.00000
  50
 230.085
  51
 318.085
   0
ARC
   8
LEVEL011
   6
DASHDOT
  62
1
  10
 423.234
  20
 519.930
  30
0.0
  40
 1.00000
  50
 138.085
  51
 228.084
   0
ARC
   8
LEVEL011
   6
DASHDOT
  62
1
  10
 447.791
  20
 497.885
  30
0.0
  40
 1.00000
  50
 228.085
  51
 318.084
   0
ARC
   8
LEVEL011
   6
DASHDOT
  62
1
  10
 384.666
  20
 506.906
  30
0.0
  40
 20.0000
  50
 271.228
  51
 318.085
   0
ARC
   8
LEVEL011
   6
DASHDOT
  62
1
  10
 399.736
  20
 490.761
  30
0.0
  40
 2.00000
  50
 50.0847
  51
 138.085
   0
LINE
   8
LEVEL011
   6
DASHDOT
  62
1
  10
 428.245
  20
 525.511
  30
0.0
  11
 426.832
  21
 525.435
  31
0.0
   0
LINE
   8
LEVEL011
   6
DASHDOT
  62
1
  10
 422.490
  20
 520.598
  30
0.0
  11
 426.832
  21
 525.435
  31
0.0
   0
LINE
   8
LEVEL011
   6
DASHDOT
  62
1
  10
 428.245
  20
 525.511
  30
0.0
  11
 452.801
  21
 503.466
  31
0.0
   0
LINE
   8
LEVEL011
   6
DASHDOT
  62
1
  10
 426.832
  20
 525.435
  30
0.0
  11
 452.877
  21
 502.053
  31
0.0
   0
LINE
   8
LEVEL011
   6
DASHDOT
  62
1
  10
 422.566
  20
 519.186
  30
0.0
  11
 447.123
  21
 497.140
  31
0.0
   0
LINE
   8
LEVEL011
   6
DASHDOT
  62
1
  10
 448.535
  20
 497.217
  30
0.0
  11
 452.877
  21
 502.053
  31
0.0
   0
LINE
   8
LEVEL011
   6
DASHDOT
  62
1
  10
 399.548
  20
 493.546
  30
0.0
  11
 422.566
  21
 519.186
  31
0.0
   0
LINE
   8
LEVEL011
   6
DASHDOT
  62
1
  10
 401.020
  20
 492.295
  30
0.0
  11
 407.677
  21
 486.726
  31
0.0
   0
ARC
   8
LEVEL011
   6
DASHDOT
  62
1
  10
 421.316
  20
 471.388
  30
0.0
  40
 2.00000
  50
 318.085
  51
 46.0847
   0
ARC
   8
LEVEL011
   6
DASHDOT
  62
1
  10
 418.532
  20
 481.010
  30
0.0
  40
 3.00000
  50
 138.085
  51
 226.085
   0
LINE
   8
LEVEL011
   6
DASHDOT
  62
1
  10
 416.451
  20
 478.849
  30
0.0
  11
 422.703
  21
 472.829
  31
0.0
   0
LINE
   8
LEVEL011
   6
DASHDOT
  62
1
  10
 404.114
  20
 449.233
  30
0.0
  11
 447.123
  21
 497.141
  31
0.0
   0
LINE
   8
LEVEL011
   6
DASHDOT
  62
1
  10
 385.383
  20
 453.067
  30
0.0
  11
 440.523
  21
 514.488
  31
0.0
   0
ARC
   8
LEVEL011
   6
DASHDOT
  62
1
  10
 386.123
  20
 438.922
  30
0.0
  40
 48.0000
  50
 91.2277
  51
 138.085
   0
LINE
   8
LEVEL011
   6
DASHDOT
  62
1
  10
 323.397
  20
 440.904
  30
0.0
  11
 350.404
  21
 470.987
  31
0.0
   0
LINE
   8
LEVEL012
   6
DASHDOT
  62
1
  10
 432.520
  20
 521.666
  30
0.0
  11
 465.996
  21
 558.955
  31
0.0
   0
LINE
   8
LEVEL012
   6
DASHDOT
  62
1
  10
 440.523
  20
 514.488
  30
0.0
  11
 473.995
  21
 551.774
  31
0.0
   0
LINE
   8
LEVEL012
   6
DASHDOT
  62
1
  10
 448.525
  20
 507.310
  30
0.0
  11
 481.995
  21
 544.592
  31
0.0
   0
LINE
   8
LEVEL012
   6
CONTINUOUS
  62
7
  10
 913.722
  20
 427.336
  30
0.0
  11
 912.565
  21
 448.805
  31
0.0
   0
LINE
   8
LEVEL012
   6
CONTINUOUS
  62
7
  10
 916.320
  20
 430.230
  30
0.0
  11
 915.459
  21
 446.207
  31
0.0
   0
LINE
   8
LEVEL012
   6
CONTINUOUS
  62
7
  10
 913.722
  20
 427.336
  30
0.0
  11
 916.320
  21
 430.230
  31
0.0
   0
LINE
   8
LEVEL012
   6
CONTINUOUS
  62
7
  10
 916.320
  20
 430.230
  30
0.0
  11
 938.288
  21
 431.414
  31
0.0
   0
LINE
   8
LEVEL012
   6
CONTINUOUS
  62
7
  10
 912.565
  20
 448.805
  30
0.0
  11
 915.459
  21
 446.207
  31
0.0
   0
LINE
   8
LEVEL012
   6
CONTINUOUS
  62
7
  10
 915.459
  20
 446.207
  30
0.0
  11
 923.222
  21
 446.625
  31
0.0
   0
LINE
   8
LEVEL012
   6
CONTINUOUS
  62
7
  10
 938.584
  20
 425.922
  30
0.0
  11
 937.131
  21
 452.882
  31
0.0
   0
LINE
   8
LEVEL012
   6
CONTINUOUS
  62
7
  10
 937.131
  20
 452.882
  30
0.0
  11
 947.170
  21
 452.422
  31
0.0
   0
LINE
   8
LEVEL012
   6
CONTINUOUS
  62
7
  10
 947.170
  20
 452.422
  30
0.0
  11
 948.515
  21
 427.458
  31
0.0
   0
LINE
   8
LEVEL012
   6
CONTINUOUS
  62
7
  10
 948.515
  20
 427.458
  30
0.0
  11
 938.584
  21
 425.922
  31
0.0
   0
LINE
   8
LEVEL012
   6
CONTINUOUS
  62
3
  10
 950.521
  20
 427.412
  30
0.0
  11
 949.159
  21
 452.683
  31
0.0
   0
LINE
   8
LEVEL012
   6
CONTINUOUS
  62
3
  10
 949.159
  20
 452.683
  30
0.0
  11
 951.148
  21
 452.945
  31
0.0
   0
LINE
   8
LEVEL012
   6
CONTINUOUS
  62
3
  10
 951.148
  20
 452.945
  30
0.0
  11
 952.526
  21
 427.366
  31
0.0
   0
LINE
   8
LEVEL012
   6
CONTINUOUS
  62
3
  10
 952.526
  20
 427.366
  30
0.0
  11
 950.521
  21
 427.412
  31
0.0
   0
LINE
   8
LEVEL012
   6
CONTINUOUS
  62
3
  10
 947.251
  20
 450.920
  30
0.0
  11
 949.240
  21
 451.181
  31
0.0
   0
LINE
   8
LEVEL012
   6
CONTINUOUS
  62
3
  10
 954.532
  20
 427.320
  30
0.0
  11
 953.137
  21
 453.206
  31
0.0
   0
LINE
   8
LEVEL012
   6
CONTINUOUS
  62
3
  10
 953.137
  20
 453.206
  30
0.0
  11
 955.125
  21
 453.467
  31
0.0
   0
LINE
   8
LEVEL012
   6
CONTINUOUS
  62
3
  10
 955.125
  20
 453.467
  30
0.0
  11
 956.537
  21
 427.274
  31
0.0
   0
LINE
   8
LEVEL012
   6
CONTINUOUS
  62
3
  10
 956.537
  20
 427.274
  30
0.0
  11
 954.532
  21
 427.320
  31
0.0
   0
LINE
   8
LEVEL012
   6
CONTINUOUS
  62
3
  10
 958.542
  20
 427.228
  30
0.0
  11
 957.114
  21
 453.728
  31
0.0
   0
LINE
   8
LEVEL012
   6
CONTINUOUS
  62
3
  10
 957.114
  20
 453.728
  30
0.0
  11
 959.103
  21
 453.990
  31
0.0
   0
LINE
   8
LEVEL012
   6
CONTINUOUS
  62
3
  10
 959.103
  20
 453.990
  30
0.0
  11
 960.548
  21
 427.182
  31
0.0
   0
LINE
   8
LEVEL012
   6
CONTINUOUS
  62
3
  10
 960.548
  20
 427.182
  30
0.0
  11
 958.542
  21
 427.228
  31
0.0
   0
LINE
   8
LEVEL012
   6
CONTINUOUS
  62
3
  10
 951.229
  20
 451.442
  30
0.0
  11
 953.218
  21
 451.704
  31
0.0
   0
LINE
   8
LEVEL012
   6
CONTINUOUS
  62
3
  10
 955.206
  20
 451.965
  30
0.0
  11
 957.195
  21
 452.226
  31
0.0
   0
LINE
   8
LEVEL012
   6
CONTINUOUS
  62
3
  10
 948.435
  20
 428.961
  30
0.0
  11
 950.440
  21
 428.914
  31
0.0
   0
LINE
   8
LEVEL012
   6
CONTINUOUS
  62
3
  10
 952.445
  20
 428.869
  30
0.0
  11
 954.451
  21
 428.823
  31
0.0
   0
LINE
   8
LEVEL012
   6
CONTINUOUS
  62
3
  10
 956.456
  20
 428.776
  30
0.0
  11
 958.461
  21
 428.731
  31
0.0
   0
LINE
   8
LEVEL012
   6
CONTINUOUS
  62
7
  10
 926.419
  20
 446.797
  30
0.0
  11
 937.427
  21
 447.390
  31
0.0
   0
LINE
   8
LEVEL012
   6
CONTINUOUS
  62
7
  10
 1010.43
  20
 430.795
  30
0.0
  11
 1009.08
  21
 455.758
  31
0.0
   0
LINE
   8
LEVEL012
   6
CONTINUOUS
  62
7
  10
 1009.08
  20
 455.758
  30
0.0
  11
 1019.01
  21
 457.295
  31
0.0
   0
LINE
   8
LEVEL012
   6
CONTINUOUS
  62
7
  10
 1019.01
  20
 457.295
  30
0.0
  11
 1020.46
  21
 430.334
  31
0.0
   0
LINE
   8
LEVEL012
   6
CONTINUOUS
  62
7
  10
 1020.46
  20
 430.334
  30
0.0
  11
 1010.43
  21
 430.795
  31
0.0
   0
ARC
   8
LEVEL012
   6
CONTINUOUS
  62
7
  10
 990.905
  20
 442.261
  30
0.0
  40
 31.8750
  50
 338.027
  51
 28.1423
   0
LINE
   8
LEVEL012
   6
CONTINUOUS
  62
3
  10
 962.553
  20
 427.136
  30
0.0
  11
 961.092
  21
 454.251
  31
0.0
   0
LINE
   8
LEVEL012
   6
CONTINUOUS
  62
3
  10
 961.092
  20
 454.251
  30
0.0
  11
 963.081
  21
 454.512
  31
0.0
   0
LINE
   8
LEVEL012
   6
CONTINUOUS
  62
3
  10
 963.081
  20
 454.512
  30
0.0
  11
 964.559
  21
 427.090
  31
0.0
   0
LINE
   8
LEVEL012
   6
CONTINUOUS
  62
3
  10
 964.559
  20
 427.090
  30
0.0
  11
 962.553
  21
 427.136
  31
0.0
   0
LINE
   8
LEVEL012
   6
CONTINUOUS
  62
3
  10
 966.564
  20
 427.044
  30
0.0
  11
 965.070
  21
 454.773
  31
0.0
   0
LINE
   8
LEVEL012
   6
CONTINUOUS
  62
3
  10
 965.070
  20
 454.773
  30
0.0
  11
 967.058
  21
 455.034
  31
0.0
   0
LINE
   8
LEVEL012
   6
CONTINUOUS
  62
3
  10
 967.058
  20
 455.034
  30
0.0
  11
 968.569
  21
 426.998
  31
0.0
   0
LINE
   8
LEVEL012
   6
CONTINUOUS
  62
3
  10
 968.569
  20
 426.998
  30
0.0
  11
 966.564
  21
 427.044
  31
0.0
   0
LINE
   8
LEVEL012
   6
CONTINUOUS
  62
3
  10
 970.575
  20
 426.952
  30
0.0
  11
 969.047
  21
 455.296
  31
0.0
   0
LINE
   8
LEVEL012
   6
CONTINUOUS
  62
3
  10
 969.047
  20
 455.296
  30
0.0
  11
 971.036
  21
 455.557
  31
0.0
   0
LINE
   8
LEVEL012
   6
CONTINUOUS
  62
3
  10
 971.036
  20
 455.557
  30
0.0
  11
 972.580
  21
 426.906
  31
0.0
   0
LINE
   8
LEVEL012
   6
CONTINUOUS
  62
3
  10
 972.580
  20
 426.906
  30
0.0
  11
 970.575
  21
 426.952
  31
0.0
   0
LINE
   8
LEVEL012
   6
CONTINUOUS
  62
3
  10
 974.585
  20
 426.860
  30
0.0
  11
 973.025
  21
 455.818
  31
0.0
   0
LINE
   8
LEVEL012
   6
CONTINUOUS
  62
3
  10
 973.025
  20
 455.818
  30
0.0
  11
 975.014
  21
 456.079
  31
0.0
   0
LINE
   8
LEVEL012
   6
CONTINUOUS
  62
3
  10
 975.014
  20
 456.079
  30
0.0
  11
 976.591
  21
 426.814
  31
0.0
   0
LINE
   8
LEVEL012
   6
CONTINUOUS
  62
3
  10
 976.591
  20
 426.814
  30
0.0
  11
 974.585
  21
 426.860
  31
0.0
   0
LINE
   8
LEVEL012
   6
CONTINUOUS
  62
3
  10
 959.184
  20
 452.487
  30
0.0
  11
 961.173
  21
 452.749
  31
0.0
   0
LINE
   8
LEVEL012
   6
CONTINUOUS
  62
3
  10
 960.467
  20
 428.684
  30
0.0
  11
 962.472
  21
 428.638
  31
0.0
   0
LINE
   8
LEVEL012
   6
CONTINUOUS
  62
3
  10
 964.478
  20
 428.593
  30
0.0
  11
 966.483
  21
 428.546
  31
0.0
   0
LINE
   8
LEVEL012
   6
CONTINUOUS
  62
3
  10
 968.488
  20
 428.501
  30
0.0
  11
 970.494
  21
 428.455
  31
0.0
   0
LINE
   8
LEVEL012
   6
CONTINUOUS
  62
3
  10
 972.499
  20
 428.409
  30
0.0
  11
 974.504
  21
 428.363
  31
0.0
   0
LINE
   8
LEVEL012
   6
CONTINUOUS
  62
3
  10
 986.570
  20
 427.472
  30
0.0
  11
 985.006
  21
 456.498
  31
0.0
   0
LINE
   8
LEVEL012
   6
CONTINUOUS
  62
3
  10
 985.006
  20
 456.498
  30
0.0
  11
 987.012
  21
 456.436
  31
0.0
   0
LINE
   8
LEVEL012
   6
CONTINUOUS
  62
3
  10
 987.012
  20
 456.436
  30
0.0
  11
 988.558
  21
 427.749
  31
0.0
   0
LINE
   8
LEVEL012
   6
CONTINUOUS
  62
3
  10
 988.558
  20
 427.749
  30
0.0
  11
 986.570
  21
 427.472
  31
0.0
   0
LINE
   8
LEVEL012
   6
CONTINUOUS
  62
3
  10
 990.546
  20
 428.026
  30
0.0
  11
 989.018
  21
 456.375
  31
0.0
   0
LINE
   8
LEVEL012
   6
CONTINUOUS
  62
3
  10
 989.018
  20
 456.375
  30
0.0
  11
 991.024
  21
 456.313
  31
0.0
   0
LINE
   8
LEVEL012
   6
CONTINUOUS
  62
3
  10
 991.024
  20
 456.313
  30
0.0
  11
 992.534
  21
 428.303
  31
0.0
   0
LINE
   8
LEVEL012
   6
CONTINUOUS
  62
3
  10
 992.534
  20
 428.303
  30
0.0
  11
 990.546
  21
 428.026
  31
0.0
   0
LINE
   8
LEVEL012
   6
CONTINUOUS
  62
3
  10
 994.522
  20
 428.580
  30
0.0
  11
 993.031
  21
 456.251
  31
0.0
   0
LINE
   8
LEVEL012
   6
CONTINUOUS
  62
3
  10
 993.031
  20
 456.251
  30
0.0
  11
 995.037
  21
 456.190
  31
0.0
   0
LINE
   8
LEVEL012
   6
CONTINUOUS
  62
3
  10
 995.037
  20
 456.190
  30
0.0
  11
 996.510
  21
 428.856
  31
0.0
   0
LINE
   8
LEVEL012
   6
CONTINUOUS
  62
3
  10
 996.510
  20
 428.856
  30
0.0
  11
 994.522
  21
 428.580
  31
0.0
   0
LINE
   8
LEVEL012
   6
CONTINUOUS
  62
3
  10
 998.498
  20
 429.133
  30
0.0
  11
 997.043
  21
 456.128
  31
0.0
   0
LINE
   8
LEVEL012
   6
CONTINUOUS
  62
3
  10
 997.043
  20
 456.128
  30
0.0
  11
 999.049
  21
 456.066
  31
0.0
   0
LINE
   8
LEVEL012
   6
CONTINUOUS
  62
3
  10
 999.049
  20
 456.066
  30
0.0
  11
 1000.49
  21
 429.410
  31
0.0
   0
LINE
   8
LEVEL012
   6
CONTINUOUS
  62
3
  10
 1000.49
  20
 429.410
  30
0.0
  11
 998.498
  21
 429.133
  31
0.0
   0
LINE
   8
LEVEL012
   6
CONTINUOUS
  62
3
  10
 1002.47
  20
 429.687
  30
0.0
  11
 1001.06
  21
 456.005
  31
0.0
   0
LINE
   8
LEVEL012
   6
CONTINUOUS
  62
3
  10
 1001.06
  20
 456.005
  30
0.0
  11
 1003.06
  21
 455.943
  31
0.0
   0
LINE
   8
LEVEL012
   6
CONTINUOUS
  62
3
  10
 1003.06
  20
 455.943
  30
0.0
  11
 1004.46
  21
 429.964
  31
0.0
   0
LINE
   8
LEVEL012
   6
CONTINUOUS
  62
3
  10
 1004.46
  20
 429.964
  30
0.0
  11
 1002.47
  21
 429.687
  31
0.0
   0
LINE
   8
LEVEL012
   6
CONTINUOUS
  62
3
  10
 1006.45
  20
 430.241
  30
0.0
  11
 1005.07
  21
 455.882
  31
0.0
   0
LINE
   8
LEVEL012
   6
CONTINUOUS
  62
3
  10
 1005.07
  20
 455.882
  30
0.0
  11
 1007.07
  21
 455.820
  31
0.0
   0
LINE
   8
LEVEL012
   6
CONTINUOUS
  62
3
  10
 1007.07
  20
 455.820
  30
0.0
  11
 1008.44
  21
 430.518
  31
0.0
   0
LINE
   8
LEVEL012
   6
CONTINUOUS
  62
3
  10
 1008.44
  20
 430.518
  30
0.0
  11
 1006.45
  21
 430.241
  31
0.0
   0
LINE
   8
LEVEL012
   6
CONTINUOUS
  62
3
  10
 996.429
  20
 430.360
  30
0.0
  11
 998.417
  21
 430.637
  31
0.0
   0
LINE
   8
LEVEL012
   6
CONTINUOUS
  62
3
  10
 1000.40
  20
 430.913
  30
0.0
  11
 1002.39
  21
 431.190
  31
0.0
   0
LINE
   8
LEVEL012
   6
CONTINUOUS
  62
3
  10
 1004.38
  20
 431.467
  30
0.0
  11
 1006.37
  21
 431.744
  31
0.0
   0
LINE
   8
LEVEL012
   6
CONTINUOUS
  62
3
  10
 1008.36
  20
 432.021
  30
0.0
  11
 1010.34
  21
 432.298
  31
0.0
   0
LINE
   8
LEVEL012
   6
CONTINUOUS
  62
3
  10
 976.510
  20
 428.316
  30
0.0
  11
 978.515
  21
 428.271
  31
0.0
   0
LINE
   8
LEVEL012
   6
CONTINUOUS
  62
3
  10
 980.525
  20
 428.145
  30
0.0
  11
 982.513
  21
 428.422
  31
0.0
   0
LINE
   8
LEVEL012
   6
CONTINUOUS
  62
3
  10
 984.501
  20
 428.698
  30
0.0
  11
 986.489
  21
 428.975
  31
0.0
   0
LINE
   8
LEVEL012
   6
CONTINUOUS
  62
3
  10
 988.477
  20
 429.252
  30
0.0
  11
 990.465
  21
 429.529
  31
0.0
   0
LINE
   8
LEVEL012
   6
CONTINUOUS
  62
3
  10
 992.453
  20
 429.806
  30
0.0
  11
 994.441
  21
 430.083
  31
0.0
   0
LINE
   8
LEVEL012
   6
CONTINUOUS
  62
3
  10
 977.799
  20
 441.554
  30
0.0
  11
 977.003
  21
 456.341
  31
0.0
   0
LINE
   8
LEVEL012
   6
CONTINUOUS
  62
3
  10
 977.003
  20
 456.341
  30
0.0
  11
 978.991
  21
 456.602
  31
0.0
   0
LINE
   8
LEVEL012
   6
CONTINUOUS
  62
3
  10
 978.991
  20
 456.602
  30
0.0
  11
 979.796
  21
 441.662
  31
0.0
   0
LINE
   8
LEVEL012
   6
CONTINUOUS
  62
3
  10
 981.794
  20
 441.770
  30
0.0
  11
 980.993
  21
 456.621
  31
0.0
   0
LINE
   8
LEVEL012
   6
CONTINUOUS
  62
3
  10
 980.993
  20
 456.621
  30
0.0
  11
 982.999
  21
 456.559
  31
0.0
   0
LINE
   8
LEVEL012
   6
CONTINUOUS
  62
3
  10
 982.999
  20
 456.559
  30
0.0
  11
 983.791
  21
 441.877
  31
0.0
   0
LINE
   8
LEVEL012
   6
CONTINUOUS
  62
3
  10
 977.799
  20
 441.554
  30
0.0
  11
 978.596
  21
 426.768
  31
0.0
   0
LINE
   8
LEVEL012
   6
CONTINUOUS
  62
3
  10
 978.596
  20
 426.768
  30
0.0
  11
 980.602
  21
 426.722
  31
0.0
   0
LINE
   8
LEVEL012
   6
CONTINUOUS
  62
3
  10
 980.602
  20
 426.722
  30
0.0
  11
 979.796
  21
 441.662
  31
0.0
   0
LINE
   8
LEVEL012
   6
CONTINUOUS
  62
3
  10
 981.794
  20
 441.770
  30
0.0
  11
 982.594
  21
 426.918
  31
0.0
   0
LINE
   8
LEVEL012
   6
CONTINUOUS
  62
3
  10
 982.594
  20
 426.918
  30
0.0
  11
 984.582
  21
 427.195
  31
0.0
   0
LINE
   8
LEVEL012
   6
CONTINUOUS
  62
3
  10
 984.582
  20
 427.195
  30
0.0
  11
 983.791
  21
 441.877
  31
0.0
   0
LINE
   8
LEVEL012
   6
CONTINUOUS
  62
3
  10
 963.162
  20
 453.010
  30
0.0
  11
 965.151
  21
 453.271
  31
0.0
   0
LINE
   8
LEVEL012
   6
CONTINUOUS
  62
3
  10
 967.139
  20
 453.532
  30
0.0
  11
 969.128
  21
 453.793
  31
0.0
   0
LINE
   8
LEVEL012
   6
CONTINUOUS
  62
3
  10
 971.117
  20
 454.055
  30
0.0
  11
 973.106
  21
 454.316
  31
0.0
   0
LINE
   8
LEVEL012
   6
CONTINUOUS
  62
3
  10
 975.095
  20
 454.577
  30
0.0
  11
 977.084
  21
 454.838
  31
0.0
   0
LINE
   8
LEVEL012
   6
CONTINUOUS
  62
3
  10
 979.068
  20
 455.179
  30
0.0
  11
 981.074
  21
 455.118
  31
0.0
   0
LINE
   8
LEVEL012
   6
CONTINUOUS
  62
3
  10
 983.080
  20
 455.056
  30
0.0
  11
 985.087
  21
 454.995
  31
0.0
   0
LINE
   8
LEVEL012
   6
CONTINUOUS
  62
3
  10
 987.093
  20
 454.933
  30
0.0
  11
 989.099
  21
 454.871
  31
0.0
   0
LINE
   8
LEVEL012
   6
CONTINUOUS
  62
3
  10
 991.105
  20
 454.810
  30
0.0
  11
 993.112
  21
 454.748
  31
0.0
   0
LINE
   8
LEVEL012
   6
CONTINUOUS
  62
3
  10
 995.118
  20
 454.686
  30
0.0
  11
 997.124
  21
 454.625
  31
0.0
   0
LINE
   8
LEVEL012
   6
CONTINUOUS
  62
3
  10
 999.130
  20
 454.563
  30
0.0
  11
 1001.14
  21
 454.502
  31
0.0
   0
LINE
   8
LEVEL012
   6
CONTINUOUS
  62
3
  10
 1003.14
  20
 454.440
  30
0.0
  11
 1005.15
  21
 454.378
  31
0.0
   0
LINE
   8
LEVEL012
   6
CONTINUOUS
  62
3
  10
 1007.16
  20
 454.317
  30
0.0
  11
 1009.16
  21
 454.255
  31
0.0
   0
LINE
   8
LEVEL012
   6
CONTINUOUS
  62
7
  10
 470.956
  20
 425.006
  30
0.0
  11
 912.565
  21
 448.805
  31
0.0
   0
LINE
   8
LEVEL012
   6
DASHDOT
  62
1
  10
 471.534
  20
 414.272
  30
0.0
  11
 1027.46
  21
 444.231
  31
0.0
   0
LINE
   8
LEVEL012
   6
CONTINUOUS
  62
7
  10
 472.112
  20
 403.537
  30
0.0
  11
 913.722
  21
 427.336
  31
0.0
   0
ARC
   8
LEVEL001
   6
CONTINUOUS
  62
7
  10
 348.560
  20
 405.457
  30
0.0
  40
 1.00000
  50
 271.339
  51
 1.33897
   0
LINE
   8
LEVEL001
   6
CONTINUOUS
  62
7
  10
 349.560
  20
 405.481
  30
0.0
  11
 349.369
  21
 413.664
  31
0.0
   0
LINE
   8
LEVEL001
   6
CONTINUOUS
  62
7
  10
 372.077
  20
 405.007
  30
0.0
  11
 346.084
  21
 404.399
  31
0.0
   0
ARC
   8
LEVEL001
   6
CONTINUOUS
  62
7
  10
 369.554
  20
 405.948
  30
0.0
  40
 1.00000
  50
 181.339
  51
 271.339
   0
LINE
   8
LEVEL001
   6
CONTINUOUS
  62
7
  10
 345.805
  20
 404.106
  30
0.0
  11
 346.084
  21
 404.399
  31
0.0
   0
LINE
   8
LEVEL001
   6
CONTINUOUS
  62
7
  10
 372.370
  20
 404.727
  30
0.0
  11
 372.077
  21
 405.007
  31
0.0
   0
LINE
   8
LEVEL001
   6
CONTINUOUS
  62
7
  10
 368.555
  20
 405.925
  30
0.0
  11
 368.489
  21
 408.719
  31
0.0
   0
TEXT
   8
LEVEL001
  62
3
  10
 660.000
  20
 460.000
  30
0.0
  40
 16.0000
   1
オイルタンク
   7
STANDARD
   0
LINE
   8
LEVEL001
   6
CONTINUOUS
  62
3
  10
 631.137
  20
 376.363
  30
0.0
  11
 658.652
  21
 459.477
  31
0.0
   0
LINE
   8
LEVEL001
   6
CONTINUOUS
  62
3
  10
 658.652
  20
 459.477
  30
0.0
  11
 761.477
  21
 459.477
  31
0.0
   0
LINE
   8
LEVEL001
   6
CONTINUOUS
  62
3
  10
 631.137
  20
 376.363
  30
0.0
  11
 636.917
  21
 387.090
  31
0.0
   0
LINE
   8
LEVEL001
   6
CONTINUOUS
  62
3
  10
 631.137
  20
 376.363
  30
0.0
  11
 632.900
  21
 388.420
  31
0.0
   0
LINE
   8
LEVEL001
   6
CONTINUOUS
  62
3
  10
 342.406
  20
 301.000
  30
0.0
  11
 342.406
  21
 211.977
  31
0.0
   0
LINE
   8
LEVEL001
   6
CONTINUOUS
  62
3
  10
 942.545
  20
 302.023
  30
0.0
  11
 942.545
  21
 211.977
  31
0.0
   0
LINE
   8
LEVEL001
   6
CONTINUOUS
  62
3
  10
 342.406
  20
 219.977
  30
0.0
  11
 942.545
  21
 219.977
  31
0.0
   0
LINE
   8
LEVEL001
   6
CONTINUOUS
  62
3
  10
 342.406
  20
 219.977
  30
0.0
  11
 354.406
  21
 217.861
  31
0.0
   0
LINE
   8
LEVEL001
   6
CONTINUOUS
  62
3
  10
 342.406
  20
 219.977
  30
0.0
  11
 354.406
  21
 222.093
  31
0.0
   0
LINE
   8
LEVEL001
   6
CONTINUOUS
  62
3
  10
 942.545
  20
 219.977
  30
0.0
  11
 930.545
  21
 222.093
  31
0.0
   0
LINE
   8
LEVEL001
   6
CONTINUOUS
  62
3
  10
 942.545
  20
 219.977
  30
0.0
  11
 930.545
  21
 217.861
  31
0.0
   0
TEXT
   8
LEVEL001
  62
3
  10
 622.475
  20
 223.177
  30
0.0
  40
 16.0000
   1
約600
   7
STANDARD
  72
1
  11
 642.475
  21
 223.177
  31
0.0
   0
LINE
   8
LEVEL001
   6
CONTINUOUS
  62
3
  10
 342.406
  20
 301.000
  30
0.0
  11
 342.406
  21
 251.998
  31
0.0
   0
LINE
   8
LEVEL001
   6
CONTINUOUS
  62
3
  10
 382.384
  20
 301.932
  30
0.0
  11
 382.384
  21
 251.998
  31
0.0
   0
LINE
   8
LEVEL001
   6
CONTINUOUS
  62
3
  10
 342.406
  20
 259.998
  30
0.0
  11
 382.384
  21
 259.998
  31
0.0
   0
LINE
   8
LEVEL001
   6
CONTINUOUS
  62
3
  10
 342.406
  20
 259.998
  30
0.0
  11
 354.406
  21
 257.883
  31
0.0
   0
LINE
   8
LEVEL001
   6
CONTINUOUS
  62
3
  10
 342.406
  20
 259.998
  30
0.0
  11
 354.406
  21
 262.114
  31
0.0
   0
LINE
   8
LEVEL001
   6
CONTINUOUS
  62
3
  10
 382.384
  20
 259.998
  30
0.0
  11
 370.384
  21
 262.114
  31
0.0
   0
LINE
   8
LEVEL001
   6
CONTINUOUS
  62
3
  10
 382.384
  20
 259.998
  30
0.0
  11
 370.384
  21
 257.883
  31
0.0
   0
TEXT
   8
LEVEL001
  62
3
  10
 354.395
  20
 263.198
  30
0.0
  40
 16.0000
   1
40
  41
 0.500000
   7
STANDARD
  72
1
  11
 362.395
  21
 263.198
  31
0.0
   0
LINE
   8
LEVEL001
   6
CONTINUOUS
  62
3
  10
 907.533
  20
 302.150
  30
0.0
  11
 907.533
  21
 251.977
  31
0.0
   0
LINE
   8
LEVEL001
   6
CONTINUOUS
  62
3
  10
 942.545
  20
 302.023
  30
0.0
  11
 942.545
  21
 251.977
  31
0.0
   0
LINE
   8
LEVEL001
   6
CONTINUOUS
  62
3
  10
 907.533
  20
 259.977
  30
0.0
  11
 942.545
  21
 259.977
  31
0.0
   0
LINE
   8
LEVEL001
   6
CONTINUOUS
  62
3
  10
 907.533
  20
 259.977
  30
0.0
  11
 919.533
  21
 257.861
  31
0.0
   0
LINE
   8
LEVEL001
   6
CONTINUOUS
  62
3
  10
 907.533
  20
 259.977
  30
0.0
  11
 919.533
  21
 262.093
  31
0.0
   0
LINE
   8
LEVEL001
   6
CONTINUOUS
  62
3
  10
 942.545
  20
 259.977
  30
0.0
  11
 930.545
  21
 262.093
  31
0.0
   0
LINE
   8
LEVEL001
   6
CONTINUOUS
  62
3
  10
 942.545
  20
 259.977
  30
0.0
  11
 930.545
  21
 257.861
  31
0.0
   0
TEXT
   8
LEVEL001
  62
3
  10
 917.039
  20
 263.177
  30
0.0
  40
 16.0000
   1
35
  41
 0.500000
   7
STANDARD
  72
1
  11
 925.039
  21
 263.177
  31
0.0
   0
TEXT
   8
LEVEL001
  62
3
  10
 855.990
  20
 497.896
  30
0.0
  40
 16.0000
   1
フック
   7
STANDARD
   0
LINE
   8
LEVEL001
   6
CONTINUOUS
  62
3
  10
 922.921
  20
 453.314
  30
0.0
  11
 907.229
  21
 496.907
  31
0.0
   0
LINE
   8
LEVEL001
   6
CONTINUOUS
  62
3
  10
 907.229
  20
 496.907
  30
0.0
  11
 852.822
  21
 496.907
  31
0.0
   0
LINE
   8
LEVEL001
   6
CONTINUOUS
  62
3
  10
 922.921
  20
 453.314
  30
0.0
  11
 920.847
  21
 465.321
  31
0.0
   0
LINE
   8
LEVEL001
   6
CONTINUOUS
  62
3
  10
 922.921
  20
 453.314
  30
0.0
  11
 916.866
  21
 463.888
  31
0.0
   0
LINE
   8
LEVEL001
   6
CONTINUOUS
  62
3
  10
 945.540
  20
 305.000
  30
0.0
  11
 1088.01
  21
 305.000
  31
0.0
   0
LINE
   8
LEVEL001
   6
CONTINUOUS
  62
3
  10
 1023.01
  20
 457.295
  30
0.0
  11
 1088.01
  21
 457.295
  31
0.0
   0
LINE
   8
LEVEL001
   6
CONTINUOUS
  62
3
  10
 1080.01
  20
 305.000
  30
0.0
  11
 1080.01
  21
 457.295
  31
0.0
   0
LINE
   8
LEVEL001
   6
CONTINUOUS
  62
3
  10
 1080.01
  20
 305.000
  30
0.0
  11
 1082.12
  21
 317.000
  31
0.0
   0
LINE
   8
LEVEL001
   6
CONTINUOUS
  62
3
  10
 1080.01
  20
 305.000
  30
0.0
  11
 1077.89
  21
 317.000
  31
0.0
   0
LINE
   8
LEVEL001
   6
CONTINUOUS
  62
3
  10
 1080.01
  20
 457.295
  30
0.0
  11
 1077.89
  21
 445.295
  31
0.0
   0
LINE
   8
LEVEL001
   6
CONTINUOUS
  62
3
  10
 1080.01
  20
 457.295
  30
0.0
  11
 1082.12
  21
 445.295
  31
0.0
   0
TEXT
   8
LEVEL001
  62
3
  10
 1076.81
  20
 361.148
  30
0.0
  40
 16.0000
   1
約150
  50
 90.0000
   7
STANDARD
  72
1
  11
 1076.81
  21
 381.148
  31
0.0
   0
ARC
   8
LEVEL001
   6
CONTINUOUS
  62
3
  10
 344.405
  20
 407.421
  30
0.0
  40
 162.877
  50
 3.08469
  51
 48.0847
   0
LINE
   8
LEVEL001
   6
CONTINUOUS
  62
3
  10
 507.046
  20
 416.186
  30
0.0
  11
 508.215
  21
 428.314
  31
0.0
   0
LINE
   8
LEVEL001
   6
CONTINUOUS
  62
3
  10
 507.046
  20
 416.186
  30
0.0
  11
 503.996
  21
 427.983
  31
0.0
   0
LINE
   8
LEVEL001
   6
CONTINUOUS
  62
3
  10
 453.212
  20
 528.623
  30
0.0
  11
 460.490
  21
 518.850
  31
0.0
   0
LINE
   8
LEVEL001
   6
CONTINUOUS
  62
3
  10
 453.212
  20
 528.623
  30
0.0
  11
 463.393
  21
 521.929
  31
0.0
   0
TEXT
   8
LEVEL001
  62
3
  10
 443.608
  20
 455.827
  30
0.0
  40
 16.0000
   1
約45%%d
   7
STANDARD
  72
2
  11
 491.608
  21
 466.494
  31
0.0
  73
2
   0
LINE
   8
LEVEL011
   6
DASHDOT
  62
1
  10
 397.756
  20
 397.517
  30
0.0
  11
 399.102
  21
 372.546
  31
0.0
   0
ARC
   8
LEVEL011
   6
CONTINUOUS
  62
7
  10
 401.915
  20
 376.092
  30
0.0
  40
 1.00000
  50
 273.085
  51
 3.08414
   0
ARC
   8
LEVEL011
   6
CONTINUOUS
  62
7
  10
 395.924
  20
 375.769
  30
0.0
  40
 1.00000
  50
 183.085
  51
 273.085
   0
LINE
   8
LEVEL011
   6
CONTINUOUS
  62
7
  10
 395.978
  20
 374.771
  30
0.0
  11
 401.969
  21
 375.094
  31
0.0
   0
LINE
   8
LEVEL011
   6
CONTINUOUS
  62
7
  10
 394.925
  20
 375.716
  30
0.0
  11
 394.684
  21
 380.188
  31
0.0
   0
LINE
   8
LEVEL011
   6
CONTINUOUS
  62
7
  10
 402.914
  20
 376.146
  30
0.0
  11
 402.674
  21
 380.588
  31
0.0
   0
TEXT
   8
LEVEL001
  62
3
  10
 599.560
  20
 497.361
  30
0.0
  40
 16.0000
   1
ハンドル棒
   7
STANDARD
   0
LINE
   8
LEVEL001
   6
CONTINUOUS
  62
3
  10
 572.428
  20
 430.663
  30
0.0
  11
 598.159
  21
 497.664
  31
0.0
   0
LINE
   8
LEVEL001
   6
CONTINUOUS
  62
3
  10
 598.159
  20
 497.664
  30
0.0
  11
 687.174
  21
 497.664
  31
0.0
   0
LINE
   8
LEVEL001
   6
CONTINUOUS
  62
3
  10
 572.428
  20
 430.663
  30
0.0
  11
 578.705
  21
 441.107
  31
0.0
   0
LINE
   8
LEVEL001
   6
CONTINUOUS
  62
3
  10
 572.428
  20
 430.663
  30
0.0
  11
 574.755
  21
 442.624
  31
0.0
   0
LINE
   8
LEVEL001
   6
CONTINUOUS
  62
7
  10
 106.947
  20
 341.913
  30
0.0
  11
 106.947
  21
 354.000
  31
0.0
   0
LINE
   8
LEVEL001
   6
CONTINUOUS
  62
7
  10
 106.947
  20
 366.087
  30
0.0
  11
 106.947
  21
 354.000
  31
0.0
   0
ARC
   8
LEVEL001
   6
CONTINUOUS
  62
7
  10
 148.171
  20
 340.044
  30
0.0
  40
 2.00000
  50
 250.311
  51
 277.178
   0
LINE
   8
LEVEL001
   6
CONTINUOUS
  62
7
  10
 148.421
  20
 338.060
  30
0.0
  11
 156.821
  21
 339.118
  31
0.0
   0
ARC
   8
LEVEL001
   6
CONTINUOUS
  62
7
  10
 106.947
  20
 309.167
  30
0.0
  40
 2.00000
  50
 95.0000
  51
 180.000
   0
LINE
   8
LEVEL001
   6
CONTINUOUS
  62
7
  10
 104.947
  20
 305.000
  30
0.0
  11
 104.947
  21
 309.167
  31
0.0
   0
LINE
   8
LEVEL001
   6
CONTINUOUS
  62
7
  10
 104.947
  20
 305.000
  30
0.0
  11
 199.947
  21
 305.000
  31
0.0
   0
ARC
   8
LEVEL001
   6
CONTINUOUS
  62
7
  10
 197.947
  20
 309.167
  30
0.0
  40
 2.00000
  50
 0.293120E-10
  51
 85.0000
   0
LINE
   8
LEVEL001
   6
CONTINUOUS
  62
7
  10
 199.947
  20
 305.000
  30
0.0
  11
 199.947
  21
 309.167
  31
0.0
   0
LINE
   8
LEVEL001
   6
CONTINUOUS
  62
7
  10
 127.947
  20
 403.000
  30
0.0
  11
 128.947
  21
 404.000
  31
0.0
   0
LINE
   8
LEVEL001
   6
CONTINUOUS
  62
7
  10
 128.947
  20
 404.000
  30
0.0
  11
 132.947
  21
 404.000
  31
0.0
   0
LINE
   8
LEVEL001
   6
CONTINUOUS
  62
7
  10
 147.947
  20
 438.000
  30
0.0
  11
 138.947
  21
 437.213
  31
0.0
   0
ARC
   8
LEVEL003
   6
CONTINUOUS
  62
7
  10
 130.447
  20
 408.966
  30
0.0
  40
 1.00000
  50
 180.000
  51
 268.000
   0
ARC
   8
LEVEL003
   6
CONTINUOUS
  62
7
  10
 129.447
  20
 440.000
  30
0.0
  40
 2.00000
  50
 270.000
  51
 0.123762E-9
   0
ARC
   8
LEVEL003
   6
CONTINUOUS
  62
7
  10
 133.447
  20
 443.493
  30
0.0
  40
 2.00000
  50
 92.0000
  51
 180.000
   0
LINE
   8
LEVEL003
   6
CONTINUOUS
  62
7
  10
 133.377
  20
 445.491
  30
0.0
  11
 147.947
  21
 446.000
  31
0.0
   0
ARC
   8
LEVEL003
   6
CONTINUOUS
  62
7
  10
 166.447
  20
 440.000
  30
0.0
  40
 2.00000
  50
 180.000
  51
 270.000
   0
LINE
   8
LEVEL003
   6
CONTINUOUS
  62
7
  10
 147.947
  20
 446.000
  30
0.0
  11
 162.517
  21
 445.491
  31
0.0
   0
ARC
   8
LEVEL003
   6
CONTINUOUS
  62
7
  10
 162.447
  20
 443.493
  30
0.0
  40
 2.00000
  50
0.0
  51
 88.0000
   0
LINE
   8
LEVEL003
   6
CONTINUOUS
  62
7
  10
 132.947
  20
 407.878
  30
0.0
  11
 130.412
  21
 407.967
  31
0.0
   0
LINE
   8
LEVEL001
   6
CONTINUOUS
  62
7
  10
 129.197
  20
 413.000
  30
0.0
  11
 129.447
  21
 413.000
  31
0.0
   0
LINE
   8
LEVEL001
   6
CONTINUOUS
  62
7
  10
 129.197
  20
 413.000
  30
0.0
  11
 128.197
  21
 414.000
  31
0.0
   0
LINE
   8
LEVEL001
   6
CONTINUOUS
  62
7
  10
 171.447
  20
 433.000
  30
0.0
  11
 166.447
  21
 433.000
  31
0.0
   0
LINE
   8
LEVEL001
   6
CONTINUOUS
  62
7
  10
 171.447
  20
 433.000
  30
0.0
  11
 172.447
  21
 432.000
  31
0.0
   0
LINE
   8
LEVEL001
   6
CONTINUOUS
  62
7
  10
 172.447
  20
 432.000
  30
0.0
  11
 172.447
  21
 424.000
  31
0.0
   0
LINE
   8
LEVEL001
   6
CONTINUOUS
  62
7
  10
 172.447
  20
 424.000
  30
0.0
  11
 171.447
  21
 423.000
  31
0.0
   0
LINE
   8
LEVEL001
   6
CONTINUOUS
  62
7
  10
 171.447
  20
 433.000
  30
0.0
  11
 171.447
  21
 423.000
  31
0.0
   0
LINE
   8
LEVEL001
   6
CONTINUOUS
  62
7
  10
 124.447
  20
 433.000
  30
0.0
  11
 129.447
  21
 433.000
  31
0.0
   0
LINE
   8
LEVEL001
   6
CONTINUOUS
  62
7
  10
 124.447
  20
 433.000
  30
0.0
  11
 123.447
  21
 432.000
  31
0.0
   0
LINE
   8
LEVEL001
   6
DASHDOT
  62
1
  10
 168.947
  20
 435.952
  30
0.0
  11
 168.947
  21
 422.374
  31
0.0
   0
LINE
   8
LEVEL001
   6
CONTINUOUS
  62
7
  10
 168.147
  20
 425.375
  30
0.0
  11
 168.147
  21
 431.775
  31
0.0
   0
LINE
   8
LEVEL001
   6
CONTINUOUS
  62
7
  10
 169.747
  20
 431.775
  30
0.0
  11
 169.747
  21
 425.375
  31
0.0
   0
ARC
   8
LEVEL001
   6
CONTINUOUS
  62
7
  10
 168.947
  20
 431.775
  30
0.0
  40
 0.800000
  50
0.0
  51
 180.000
   0
ARC
   8
LEVEL001
   6
CONTINUOUS
  62
7
  10
 168.947
  20
 425.375
  30
0.0
  40
 0.800000
  50
 180.000
  51
0.0
   0
LINE
   8
LEVEL001
   6
CONTINUOUS
  62
7
  10
 168.147
  20
 434.250
  30
0.0
  11
 168.147
  21
 433.000
  31
0.0
   0
LINE
   8
LEVEL001
   6
CONTINUOUS
  62
7
  10
 169.747
  20
 434.250
  30
0.0
  11
 169.747
  21
 433.000
  31
0.0
   0
ARC
   8
LEVEL001
   6
CONTINUOUS
  62
7
  10
 168.947
  20
 434.250
  30
0.0
  40
 0.800000
  50
0.0
  51
 180.000
   0
LINE
   8
LEVEL001
   6
CONTINUOUS
  62
7
  10
 127.747
  20
 434.250
  30
0.0
  11
 127.747
  21
 433.000
  31
0.0
   0
LINE
   8
LEVEL001
   6
CONTINUOUS
  62
7
  10
 126.147
  20
 434.250
  30
0.0
  11
 126.147
  21
 433.000
  31
0.0
   0
ARC
   8
LEVEL001
   6
CONTINUOUS
  62
7
  10
 126.947
  20
 434.250
  30
0.0
  40
 0.800000
  50
0.0
  51
 180.000
   0
LINE
   8
LEVEL001
   6
CONTINUOUS
  62
7
  10
 127.747
  20
 425.375
  30
0.0
  11
 127.747
  21
 431.775
  31
0.0
   0
LINE
   8
LEVEL001
   6
CONTINUOUS
  62
7
  10
 126.147
  20
 431.775
  30
0.0
  11
 126.147
  21
 425.375
  31
0.0
   0
ARC
   8
LEVEL001
   6
CONTINUOUS
  62
7
  10
 126.947
  20
 431.775
  30
0.0
  40
 0.800000
  50
0.0
  51
 180.000
   0
ARC
   8
LEVEL001
   6
CONTINUOUS
  62
7
  10
 126.947
  20
 425.375
  30
0.0
  40
 0.800000
  50
 180.000
  51
0.0
   0
LINE
   8
LEVEL003
   6
CONTINUOUS
  62
7
  10
 157.447
  20
 431.000
  30
0.0
  11
 164.447
  21
 431.000
  31
0.0
   0
LINE
   8
LEVEL001
   6
CONTINUOUS
  62
7
  10
 147.947
  20
 438.000
  30
0.0
  11
 157.447
  21
 437.169
  31
0.0
   0
LINE
   8
LEVEL001
   6
CONTINUOUS
  62
7
  10
 157.447
  20
 440.676
  30
0.0
  11
 164.447
  21
 440.676
  31
0.0
   0
LINE
   8
LEVEL001
   6
CONTINUOUS
  62
7
  10
 131.447
  20
 440.676
  30
0.0
  11
 138.447
  21
 440.676
  31
0.0
   0
LINE
   8
LEVEL001
   6
CONTINUOUS
  62
7
  10
 138.447
  20
 441.000
  30
0.0
  11
 157.447
  21
 441.000
  31
0.0
   0
LINE
   8
LEVEL003
   6
CONTINUOUS
  62
7
  10
 131.447
  20
 431.000
  30
0.0
  11
 138.447
  21
 431.000
  31
0.0
   0
ARC
   8
LEVEL001
   6
CONTINUOUS
  62
7
  10
 134.947
  20
 409.667
  30
0.0
  40
 2.00000
  50
 170.420
  51
 180.000
   0
ARC
   8
LEVEL001
   6
CONTINUOUS
  62
7
  10
 134.947
  20
 409.479
  30
0.0
  40
 2.00000
  50
 170.420
  51
 180.000
   0
ARC
   8
LEVEL001
   6
CONTINUOUS
  62
7
  10
 181.947
  20
 338.167
  30
0.0
  40
 2.00000
  50
 0.125390E-9
  51
 42.0945
   0
LINE
   8
LEVEL001
   6
CONTINUOUS
  62
7
  10
 183.947
  20
 333.000
  30
0.0
  11
 183.947
  21
 338.167
  31
0.0
   0
LINE
   8
LEVEL003
   6
CONTINUOUS
  62
7
  10
 162.144
  20
 326.970
  30
0.0
  11
 147.122
  21
 328.284
  31
0.0
   0
ARC
   8
LEVEL001
   6
CONTINUOUS
  62
7
  10
 181.947
  20
 327.833
  30
0.0
  40
 2.00000
  50
 275.000
  51
 0.553671E-10
   0
ARC
   8
LEVEL001
   6
CONTINUOUS
  62
7
  10
 178.153
  20
 320.474
  30
0.0
  40
 5.00000
  50
 95.0000
  51
 204.492
   0
ARC
   8
LEVEL001
   6
CONTINUOUS
  62
7
  10
 182.703
  20
 322.547
  30
0.0
  40
 10.0000
  50
 161.000
  51
 265.000
   0
ARC
   8
LEVEL001
   6
CONTINUOUS
  62
7
  10
 147.947
  20
 341.000
  30
0.0
  40
 33.5000
  50
 319.210
  51
 332.428
   0
ARC
   8
LEVEL003
   6
CONTINUOUS
  62
7
  10
 161.447
  20
 319.000
  30
0.0
  40
 8.00000
  50
 12.4107
  51
 85.0000
   0
ARC
   8
LEVEL003
   6
CONTINUOUS
  62
7
  10
 179.027
  20
 322.869
  30
0.0
  40
 10.0000
  50
 192.411
  51
 265.000
   0
LINE
   8
LEVEL001
   6
CONTINUOUS
  62
7
  10
 183.947
  20
 327.833
  30
0.0
  11
 183.947
  21
 333.000
  31
0.0
   0
LINE
   8
LEVEL001
   6
CONTINUOUS
  62
7
  10
 182.122
  20
 325.840
  30
0.0
  11
 177.717
  21
 325.455
  31
0.0
   0
LINE
   8
LEVEL001
   6
CONTINUOUS
  62
7
  10
 198.122
  20
 311.160
  30
0.0
  11
 178.155
  21
 312.907
  31
0.0
   0
LINE
   8
LEVEL001
   6
CONTINUOUS
  62
7
  10
 155.947
  20
 320.387
  30
0.0
  11
 158.447
  21
 318.943
  31
0.0
   0
LINE
   8
LEVEL001
   6
CONTINUOUS
  62
7
  10
 158.447
  20
 318.943
  30
0.0
  11
 158.447
  21
 316.057
  31
0.0
   0
LINE
   8
LEVEL001
   6
CONTINUOUS
  62
7
  10
 158.447
  20
 316.057
  30
0.0
  11
 155.947
  21
 314.613
  31
0.0
   0
LINE
   8
LEVEL001
   6
CONTINUOUS
  62
7
  10
 155.947
  20
 314.613
  30
0.0
  11
 153.447
  21
 316.057
  31
0.0
   0
LINE
   8
LEVEL001
   6
CONTINUOUS
  62
7
  10
 153.447
  20
 316.057
  30
0.0
  11
 153.447
  21
 318.943
  31
0.0
   0
LINE
   8
LEVEL001
   6
CONTINUOUS
  62
7
  10
 153.447
  20
 318.943
  30
0.0
  11
 155.947
  21
 320.387
  31
0.0
   0
CIRCLE
   8
LEVEL001
   6
CONTINUOUS
  62
7
  10
 155.947
  20
 317.500
  30
0.0
  40
 4.86400
   0
CIRCLE
   8
LEVEL001
   6
CONTINUOUS
  62
3
  10
 155.947
  20
 317.500
  30
0.0
  40
 4.28300
   0
LINE
   8
LEVEL001
   6
DASHDOT
  62
1
  10
 163.811
  20
 317.500
  30
0.0
  11
 148.083
  21
 317.500
  31
0.0
   0
LINE
   8
LEVEL001
   6
DASHDOT
  62
1
  10
 155.947
  20
 325.364
  30
0.0
  11
 155.947
  21
 309.636
  31
0.0
   0
ARC
   8
LEVEL001
   6
CONTINUOUS
  62
7
  10
 139.947
  20
 319.081
  30
0.0
  40
 5.00000
  50
 275.000
  51
 0.325689E-11
   0
ARC
   8
LEVEL001
   6
CONTINUOUS
  62
7
  10
 119.970
  20
 322.353
  30
0.0
  40
 10.0000
  50
 275.000
  51
 20.0000
   0
ARC
   8
LEVEL001
   6
CONTINUOUS
  62
7
  10
 146.947
  20
 326.292
  30
0.0
  40
 2.00000
  50
 85.0000
  51
 180.000
   0
LINE
   8
LEVEL001
   6
CONTINUOUS
  62
7
  10
 106.773
  20
 311.160
  30
0.0
  11
 140.383
  21
 314.100
  31
0.0
   0
LINE
   8
LEVEL001
   6
DASHDOT
  62
1
  10
 186.947
  20
 333.000
  30
0.0
  11
 128.960
  21
 333.000
  31
0.0
   0
ARC
   8
LEVEL001
   6
CONTINUOUS
  62
7
  10
 110.644
  20
 377.213
  30
0.0
  40
 2.00000
  50
 110.000
  51
 200.000
   0
ARC
   8
LEVEL001
   6
CONTINUOUS
  62
7
  10
 109.783
  20
 370.807
  30
0.0
  40
 3.00000
  50
 20.0000
  51
 73.1301
   0
ARC
   8
LEVEL001
   6
CONTINUOUS
  62
7
  10
 111.234
  20
 375.592
  30
0.0
  40
 2.00000
  50
 200.000
  51
 253.130
   0
LINE
   8
LEVEL001
   6
CONTINUOUS
  62
7
  10
 108.764
  20
 376.529
  30
0.0
  11
 109.355
  21
 374.908
  31
0.0
   0
ARC
   8
LEVEL001
   6
CONTINUOUS
  62
7
  10
 134.947
  20
 409.668
  30
0.0
  40
 2.00000
  50
 138.216
  51
 180.000
   0
LINE
   8
LEVEL001
   6
CONTINUOUS
  62
7
  10
 133.456
  20
 411.000
  30
0.0
  11
 138.447
  21
 411.000
  31
0.0
   0
LINE
   8
LEVEL001
   6
CONTINUOUS
  62
7
  10
 106.947
  20
 367.087
  30
0.0
  11
 107.943
  21
 368.175
  31
0.0
   0
LINE
   8
LEVEL001
   6
CONTINUOUS
  62
7
  10
 106.947
  20
 340.913
  30
0.0
  11
 107.943
  21
 339.825
  31
0.0
   0
LINE
   8
LEVEL001
   6
CONTINUOUS
  62
7
  10
 112.602
  20
 371.833
  30
0.0
  11
 113.749
  21
 368.683
  31
0.0
   0
ARC
   8
LEVEL001
   6
CONTINUOUS
  62
7
  10
 147.947
  20
 341.000
  30
0.0
  40
 33.5000
  50
 182.990
  51
 230.819
   0
ARC
   8
LEVEL001
   6
CONTINUOUS
  62
7
  10
 121.179
  20
 333.648
  30
0.0
  40
 5.00000
  50
 20.0000
  51
 85.0000
   0
POINT
   8
LEVEL001
  62
7
  10
 124.788
  20
 338.352
  30
0.0
   0
LINE
   8
LEVEL001
   6
CONTINUOUS
  62
7
  10
 125.878
  20
 335.358
  30
0.0
  11
 129.367
  21
 325.773
  31
0.0
   0
LINE
   8
LEVEL001
   6
CONTINUOUS
  62
7
  10
 107.943
  20
 339.825
  30
0.0
  11
 140.383
  21
 336.987
  31
0.0
   0
ARC
   8
LEVEL001
   6
CONTINUOUS
  62
7
  10
 139.947
  20
 332.006
  30
0.0
  40
 5.00000
  50
0.0
  51
 85.0000
   0
POINT
   8
LEVEL001
  62
7
  10
 144.947
  20
 336.588
  30
0.0
   0
LINE
   8
LEVEL001
   6
CONTINUOUS
  62
7
  10
 144.947
  20
 332.006
  30
0.0
  11
 144.947
  21
 319.081
  31
0.0
   0
LINE
   8
LEVEL001
   6
CONTINUOUS
  62
7
  10
 107.943
  20
 368.175
  30
0.0
  11
 107.943
  21
 339.825
  31
0.0
   0
ARC
   8
LEVEL003
   6
CONTINUOUS
  62
7
  10
 117.920
  20
 354.000
  30
0.0
  40
 21.9729
  50
 162.412
  51
 197.588
   0
ARC
   8
LEVEL003
   6
CONTINUOUS
  62
7
  10
 107.961
  20
 365.500
  30
0.0
  40
 12.0136
  50
 180.000
  51
 203.865
   0
LINE
   8
LEVEL003
   6
CONTINUOUS
  62
7
  10
 106.947
  20
 367.279
  30
0.0
  11
 106.947
  21
 340.721
  31
0.0
   0
LINE
   8
LEVEL003
   6
CONTINUOUS
  62
7
  10
 106.947
  20
 340.721
  30
0.0
  11
 96.9743
  21
 340.721
  31
0.0
   0
LINE
   8
LEVEL003
   6
CONTINUOUS
  62
7
  10
 96.9743
  20
 340.721
  30
0.0
  11
 95.9472
  21
 342.500
  31
0.0
   0
LINE
   8
LEVEL003
   6
CONTINUOUS
  62
7
  10
 95.9472
  20
 342.500
  30
0.0
  11
 95.9472
  21
 365.500
  31
0.0
   0
LINE
   8
LEVEL003
   6
CONTINUOUS
  62
7
  10
 95.9472
  20
 365.500
  30
0.0
  11
 96.9743
  21
 367.279
  31
0.0
   0
LINE
   8
LEVEL003
   6
CONTINUOUS
  62
7
  10
 96.9743
  20
 367.279
  30
0.0
  11
 106.947
  21
 367.279
  31
0.0
   0
LINE
   8
LEVEL003
   6
CONTINUOUS
  62
7
  10
 106.947
  20
 360.640
  30
0.0
  11
 96.9743
  21
 360.640
  31
0.0
   0
ARC
   8
LEVEL003
   6
CONTINUOUS
  62
7
  10
 107.961
  20
 342.500
  30
0.0
  40
 12.0136
  50
 156.135
  51
 180.000
   0
LINE
   8
LEVEL003
   6
CONTINUOUS
  62
7
  10
 106.947
  20
 347.360
  30
0.0
  11
 96.9743
  21
 347.360
  31
0.0
   0
LINE
   8
LEVEL001
   6
CONTINUOUS
  62
7
  10
 87.3547
  20
 341.792
  30
0.0
  11
 87.3547
  21
 349.000
  31
0.0
   0
LINE
   8
LEVEL001
   6
CONTINUOUS
  62
7
  10
 87.3547
  20
 359.000
  30
0.0
  11
 87.3547
  21
 366.208
  31
0.0
   0
ARC
   8
LEVEL001
   6
CONTINUOUS
  62
7
  10
 80.3547
  20
 336.415
  30
0.0
  40
 3.00000
  50
 98.5311
  51
 179.999
   0
ARC
   8
LEVEL001
   6
CONTINUOUS
  62
7
  10
 68.1302
  20
 331.143
  30
0.0
  40
 2.00000
  50
 188.884
  51
 270.000
   0
LINE
   8
LEVEL001
   6
CONTINUOUS
  62
7
  10
 65.3547
  20
 336.707
  30
0.0
  11
 65.3547
  21
 371.290
  31
0.0
   0
ARC
   8
LEVEL001
   6
CONTINUOUS
  62
7
  10
 214.355
  20
 353.999
  30
0.0
  40
 150.000
  50
 186.620
  51
 188.884
   0
LINE
   8
LEVEL001
   6
CONTINUOUS
  62
7
  10
 76.3547
  20
 329.143
  30
0.0
  11
 68.1302
  21
 329.143
  31
0.0
   0
ARC
   8
LEVEL001
   6
CONTINUOUS
  62
7
  10
 76.3547
  20
 330.143
  30
0.0
  40
 1.00000
  50
 270.000
  51
 0.651378E-11
   0
LINE
   8
LEVEL001
   6
CONTINUOUS
  62
7
  10
 77.3547
  20
 330.143
  30
0.0
  11
 77.3547
  21
 354.000
  31
0.0
   0
ARC
   8
LEVEL010
   6
CONTINUOUS
  62
7
  10
 76.3547
  20
 341.526
  30
0.0
  40
 1.00000
  50
 270.000
  51
 0.325689E-9
   0
ARC
   8
LEVEL010
   6
CONTINUOUS
  62
7
  10
 68.1542
  20
 342.526
  30
0.0
  40
 2.00000
  50
 180.000
  51
 270.000
   0
LINE
   8
LEVEL010
   6
CONTINUOUS
  62
7
  10
 65.3547
  20
 350.500
  30
0.0
  11
 66.1639
  21
 342.329
  31
0.0
   0
ARC
   8
LEVEL010
   6
CONTINUOUS
  62
7
  10
 76.3547
  20
 339.526
  30
0.0
  40
 1.00000
  50
0.0
  51
 90.0000
   0
ARC
   8
LEVEL010
   6
CONTINUOUS
  62
7
  10
 68.1542
  20
 338.526
  30
0.0
  40
 2.00000
  50
 90.0000
  51
 180.000
   0
LINE
   8
LEVEL010
   6
CONTINUOUS
  62
7
  10
 76.3547
  20
 340.526
  30
0.0
  11
 68.1542
  21
 340.526
  31
0.0
   0
LINE
   8
LEVEL010
   6
CONTINUOUS
  62
7
  10
 66.1542
  20
 338.526
  30
0.0
  11
 66.1542
  21
 333.025
  31
0.0
   0
LINE
   8
LEVEL010
   6
CONTINUOUS
  62
7
  10
 76.3547
  20
 350.500
  30
0.0
  11
 68.1542
  21
 350.500
  31
0.0
   0
ARC
   8
LEVEL001
   6
CONTINUOUS
  62
7
  10
 80.3547
  20
 371.582
  30
0.0
  40
 3.00000
  50
 179.999
  51
 261.469
   0
ARC
   8
LEVEL001
   6
CONTINUOUS
  62
7
  10
 76.3547
  20
 377.855
  30
0.0
  40
 1.00000
  50
0.0
  51
 90.0000
   0
ARC
   8
LEVEL001
   6
CONTINUOUS
  62
7
  10
 68.1302
  20
 376.855
  30
0.0
  40
 2.00000
  50
 89.9999
  51
 171.117
   0
LINE
   8
LEVEL001
   6
CONTINUOUS
  62
7
  10
 76.3547
  20
 378.855
  30
0.0
  11
 68.1302
  21
 378.855
  31
0.0
   0
ARC
   8
LEVEL001
   6
CONTINUOUS
  62
7
  10
 214.355
  20
 353.999
  30
0.0
  40
 150.000
  50
 171.116
  51
 173.380
   0
LINE
   8
LEVEL001
   6
CONTINUOUS
  62
7
  10
 77.3547
  20
 354.000
  30
0.0
  11
 77.3547
  21
 377.855
  31
0.0
   0
ARC
   8
LEVEL010
   6
CONTINUOUS
  62
7
  10
 76.3547
  20
 366.474
  30
0.0
  40
 1.00000
  50
0.0
  51
 90.0000
   0
ARC
   8
LEVEL010
   6
CONTINUOUS
  62
7
  10
 68.1542
  20
 365.474
  30
0.0
  40
 2.00000
  50
 90.0000
  51
 180.000
   0
LINE
   8
LEVEL010
   6
CONTINUOUS
  62
7
  10
 65.3547
  20
 357.500
  30
0.0
  11
 66.1639
  21
 365.671
  31
0.0
   0
ARC
   8
LEVEL010
   6
CONTINUOUS
  62
7
  10
 76.3547
  20
 368.474
  30
0.0
  40
 1.00000
  50
 270.000
  51
 0.104220E-9
   0
ARC
   8
LEVEL010
   6
CONTINUOUS
  62
7
  10
 68.1542
  20
 369.474
  30
0.0
  40
 2.00000
  50
 180.000
  51
 270.000
   0
LINE
   8
LEVEL010
   6
CONTINUOUS
  62
7
  10
 76.3547
  20
 367.474
  30
0.0
  11
 68.1542
  21
 367.474
  31
0.0
   0
LINE
   8
LEVEL010
   6
CONTINUOUS
  62
7
  10
 66.1542
  20
 369.474
  30
0.0
  11
 66.1542
  21
 374.975
  31
0.0
   0
LINE
   8
LEVEL010
   6
CONTINUOUS
  62
7
  10
 76.3547
  20
 357.500
  30
0.0
  11
 68.1542
  21
 357.500
  31
0.0
   0
ARC
   8
LEVEL001
   6
CONTINUOUS
  62
7
  10
 85.3547
  20
 365.776
  30
0.0
  40
 2.00000
  50
 0.768312E-3
  51
 81.4689
   0
LINE
   8
LEVEL001
   6
CONTINUOUS
  62
7
  10
 85.6514
  20
 367.754
  30
0.0
  11
 79.9097
  21
 368.615
  31
0.0
   0
LINE
   8
LEVEL001
   6
CONTINUOUS
  62
7
  10
 87.3547
  20
 354.000
  30
0.0
  11
 87.3547
  21
 365.776
  31
0.0
   0
ARC
   8
LEVEL001
   6
CONTINUOUS
  62
7
  10
 85.3547
  20
 342.221
  30
0.0
  40
 2.00000
  50
 278.531
  51
 0.980216E-3
   0
LINE
   8
LEVEL001
   6
CONTINUOUS
  62
7
  10
 85.6514
  20
 340.243
  30
0.0
  11
 79.9097
  21
 339.382
  31
0.0
   0
LINE
   8
LEVEL001
   6
CONTINUOUS
  62
7
  10
 87.3547
  20
 342.221
  30
0.0
  11
 87.3547
  21
 354.000
  31
0.0
   0
ARC
   8
LEVEL001
   6
CONTINUOUS
  62
7
  10
 214.355
  20
 354.000
  30
0.0
  40
 150.000
  50
 170.951
  51
 189.049
   0
LINE
   8
LEVEL001
   6
CONTINUOUS
  62
7
  10
 87.3547
  20
 347.649
  30
0.0
  11
 95.9472
  21
 347.649
  31
0.0
   0
LINE
   8
LEVEL001
   6
CONTINUOUS
  62
7
  10
 87.3547
  20
 360.349
  30
0.0
  11
 95.9472
  21
 360.349
  31
0.0
   0
ARC
   8
LEVEL001
   6
CONTINUOUS
  62
7
  10
 145.450
  20
 437.938
  30
0.0
  40
 16.0000
  50
 59.7749
  51
 179.776
   0
ARC
   8
LEVEL001
   6
CONTINUOUS
  62
7
  10
 147.947
  20
 445.048
  30
0.0
  40
 13.5000
  50
 28.0020
  51
 151.998
   0
ARC
   8
LEVEL001
   6
CONTINUOUS
  62
7
  10
 147.947
  20
 442.280
  30
0.0
  40
 15.0000
  50
 12.4300
  51
 147.848
   0
ARC
   8
LEVEL001
   6
CONTINUOUS
  62
7
  10
 147.947
  20
 439.459
  30
0.0
  40
 13.5000
  50
 26.9603
  51
 153.040
   0
ARC
   8
LEVEL001
   6
CONTINUOUS
  62
7
  10
 147.947
  20
 437.426
  30
0.0
  40
 10.7500
  50
 50.8575
  51
 129.143
   0
ARC
   8
LEVEL001
   6
CONTINUOUS
  62
7
  10
 147.947
  20
 438.348
  30
0.0
  40
 11.0127
  50
 41.9835
  51
 138.017
   0
POINT
   8
LEVEL001
  62
7
  10
 147.947
  20
 305.000
  30
0.0
   0
LINE
   8
LEVEL001
   6
CONTINUOUS
  62
7
  10
 113.076
  20
 381.035
  30
0.0
  11
 110.175
  21
 389.005
  31
0.0
   0
ARC
   8
LEVEL001
   6
CONTINUOUS
  62
7
  10
 120.082
  20
 376.136
  30
0.0
  40
 16.2408
  50
 92.4120
  51
 127.588
   0
ARC
   8
LEVEL001
   6
CONTINUOUS
  62
7
  10
 109.577
  20
 380.146
  30
0.0
  40
 8.87961
  50
 86.1351
  51
 110.000
   0
ARC
   8
LEVEL001
   6
CONTINUOUS
  62
7
  10
 106.923
  20
 387.437
  30
0.0
  40
 8.87961
  50
 290.000
  51
 313.865
   0
ARC
   8
LEVEL001
   6
CONTINUOUS
  62
7
  10
 305.150
  20
 362.577
  30
0.0
  40
 9.60000
  50
 180.930
  51
 205.613
   0
ARC
   8
LEVEL001
   6
CONTINUOUS
  62
7
  10
 305.591
  20
 343.719
  30
0.0
  40
 9.60000
  50
 157.065
  51
 181.748
   0
ARC
   8
LEVEL001
   6
CONTINUOUS
  62
7
  10
 313.920
  20
 353.348
  30
0.0
  40
 18.1514
  50
 163.751
  51
 198.927
   0
LINE
   8
LEVEL001
   6
CONTINUOUS
  62
7
  10
 296.366
  20
 363.910
  30
0.0
  11
 295.552
  21
 362.421
  31
0.0
   0
LINE
   8
LEVEL001
   6
CONTINUOUS
  62
7
  10
 295.552
  20
 362.421
  30
0.0
  11
 295.996
  21
 343.426
  31
0.0
   0
LINE
   8
LEVEL001
   6
CONTINUOUS
  62
7
  10
 295.996
  20
 343.426
  30
0.0
  11
 296.878
  21
 341.977
  31
0.0
   0
LINE
   8
LEVEL001
   6
CONTINUOUS
  62
7
  10
 296.878
  20
 341.977
  30
0.0
  11
 305.179
  21
 342.171
  31
0.0
   0
LINE
   8
LEVEL001
   6
CONTINUOUS
  62
7
  10
 305.179
  20
 342.171
  30
0.0
  11
 305.993
  21
 343.660
  31
0.0
   0
LINE
   8
LEVEL001
   6
CONTINUOUS
  62
7
  10
 305.993
  20
 343.660
  30
0.0
  11
 305.549
  21
 362.655
  31
0.0
   0
LINE
   8
LEVEL001
   6
CONTINUOUS
  62
7
  10
 305.549
  20
 362.655
  30
0.0
  11
 304.666
  21
 364.104
  31
0.0
   0
LINE
   8
LEVEL001
   6
CONTINUOUS
  62
7
  10
 304.666
  20
 364.104
  30
0.0
  11
 296.366
  21
 363.910
  31
0.0
   0
LINE
   8
LEVEL001
   6
CONTINUOUS
  62
7
  10
 296.494
  20
 358.427
  30
0.0
  11
 304.795
  21
 358.621
  31
0.0
   0
LINE
   8
LEVEL001
   6
CONTINUOUS
  62
7
  10
 296.750
  20
 347.460
  30
0.0
  11
 305.051
  21
 347.654
  31
0.0
   0
LINE
   8
LEVEL001
   6
CONTINUOUS
  62
3
  10
 292.336
  20
 345.229
  30
0.0
  11
 291.981
  21
 360.449
  31
0.0
   0
LINE
   8
LEVEL001
   6
CONTINUOUS
  62
7
  10
 295.974
  20
 344.345
  30
0.0
  11
 287.971
  21
 344.408
  31
0.0
   0
LINE
   8
LEVEL001
   6
CONTINUOUS
  62
7
  10
 295.573
  20
 361.502
  30
0.0
  11
 287.581
  21
 361.065
  31
0.0
   0
POINT
   8
LEVEL001
  62
7
  10
 287.776
  20
 352.737
  30
0.0
   0
LINE
   8
LEVEL001
   6
DASHDOT
  62
1
  10
 318.767
  20
 353.461
  30
0.0
  11
 281.778
  21
 352.597
  31
0.0
   0
LINE
   8
LEVEL001
   6
CONTINUOUS
  62
3
  10
 287.951
  20
 345.264
  30
0.0
  11
 292.336
  21
 345.229
  31
0.0
   0
LINE
   8
LEVEL001
   6
CONTINUOUS
  62
3
  10
 292.336
  20
 345.229
  30
0.0
  11
 295.974
  21
 344.345
  31
0.0
   0
LINE
   8
LEVEL001
   6
CONTINUOUS
  62
3
  10
 287.601
  20
 360.210
  30
0.0
  11
 291.981
  21
 360.449
  31
0.0
   0
LINE
   8
LEVEL001
   6
CONTINUOUS
  62
3
  10
 291.981
  20
 360.449
  30
0.0
  11
 295.573
  21
 361.502
  31
0.0
   0
ARC
   8
LEVEL001
   6
CONTINUOUS
  62
7
  10
 240.775
  20
 385.147
  30
0.0
  40
 1.00000
  50
 271.339
  51
 1.33897
   0
ARC
   8
LEVEL001
   6
CONTINUOUS
  62
7
  10
 241.102
  20
 371.151
  30
0.0
  40
 1.00000
  50
 1.33897
  51
 91.3390
   0
ARC
   8
LEVEL001
   6
CONTINUOUS
  62
7
  10
 281.565
  20
 397.987
  30
0.0
  40
 1.00000
  50
 278.463
  51
 1.33895
   0
ARC
   8
LEVEL001
   6
CONTINUOUS
  62
7
  10
 276.652
  20
 394.223
  30
0.0
  40
 2.00000
  50
 98.4633
  51
 181.339
   0
LINE
   8
LEVEL001
   6
CONTINUOUS
  62
7
  10
 281.713
  20
 396.998
  30
0.0
  11
 276.358
  21
 396.201
  31
0.0
   0
ARC
   8
LEVEL001
   6
CONTINUOUS
  62
7
  10
 298.278
  20
 403.996
  30
0.0
  40
 25.0000
  50
 163.881
  51
 198.797
   0
ARC
   8
LEVEL001
   6
CONTINUOUS
  62
7
  10
 268.774
  20
 394.304
  30
0.0
  40
 1.00000
  50
 271.339
  51
 1.33897
   0
LINE
   8
LEVEL001
   6
CONTINUOUS
  62
7
  10
 269.773
  20
 394.327
  30
0.0
  11
 269.388
  21
 410.823
  31
0.0
   0
ARC
   8
LEVEL001
   6
CONTINUOUS
  62
7
  10
 240.530
  20
 393.644
  30
0.0
  40
 1.00000
  50
 181.339
  51
 271.339
   0
LINE
   8
LEVEL001
   6
CONTINUOUS
  62
7
  10
 268.797
  20
 393.304
  30
0.0
  11
 240.554
  21
 392.644
  31
0.0
   0
LINE
   8
LEVEL001
   6
CONTINUOUS
  62
7
  10
 239.531
  20
 393.621
  30
0.0
  11
 239.145
  21
 410.116
  31
0.0
   0
ARC
   8
LEVEL001
   6
CONTINUOUS
  62
7
  10
 253.555
  20
 440.881
  30
0.0
  40
 50.0000
  50
 254.754
  51
 287.924
   0
ARC
   8
LEVEL001
   6
CONTINUOUS
  62
7
  10
 267.470
  20
 407.277
  30
0.0
  40
 1.00000
  50
 1.33897
  51
 91.3390
   0
ARC
   8
LEVEL001
   6
CONTINUOUS
  62
7
  10
 267.610
  20
 401.279
  30
0.0
  40
 1.00000
  50
 271.339
  51
 1.33897
   0
LINE
   8
LEVEL001
   6
CONTINUOUS
  62
7
  10
 268.610
  20
 401.302
  30
0.0
  11
 268.470
  21
 407.301
  31
0.0
   0
ARC
   8
LEVEL001
   6
CONTINUOUS
  62
7
  10
 241.366
  20
 400.665
  30
0.0
  40
 1.00000
  50
 181.339
  51
 271.339
   0
ARC
   8
LEVEL001
   6
CONTINUOUS
  62
7
  10
 241.226
  20
 406.664
  30
0.0
  40
 1.00000
  50
 91.3390
  51
 181.339
   0
LINE
   8
LEVEL001
   6
CONTINUOUS
  62
7
  10
 267.447
  20
 408.277
  30
0.0
  11
 241.203
  21
 407.663
  31
0.0
   0
LINE
   8
LEVEL001
   6
CONTINUOUS
  62
7
  10
 240.367
  20
 400.642
  30
0.0
  11
 240.226
  21
 406.640
  31
0.0
   0
TEXT
   8
LEVEL001
  62
7
  10
 261.987
  20
 401.148
  30
0.0
  40
 6.00000
   1
Ｂ
  50
 1.33897
  41
 0.833333
   7
STANDARD
  72
1
  11
 264.486
  21
 401.206
  31
0.0
   0
TEXT
   8
LEVEL001
  62
7
  10
 251.989
  20
 400.914
  30
0.0
  40
 6.00000
   1
Ｎ
  50
 1.33897
  41
 0.833333
   7
STANDARD
  72
1
  11
 254.488
  21
 400.972
  31
0.0
   0
TEXT
   8
LEVEL001
  62
7
  10
 241.992
  20
 400.680
  30
0.0
  40
 6.00000
   1
Ａ
  50
 1.33897
  41
 0.833333
   7
STANDARD
  72
1
  11
 244.491
  21
 400.738
  31
0.0
   0
ARC
   8
LEVEL001
   6
CONTINUOUS
  62
7
  10
 249.422
  20
 382.349
  30
0.0
  40
 2.00000
  50
 91.3390
  51
 181.339
   0
LINE
   8
LEVEL001
   6
CONTINUOUS
  62
7
  10
 249.375
  20
 384.348
  30
0.0
  11
 260.372
  21
 384.605
  31
0.0
   0
ARC
   8
LEVEL001
   6
CONTINUOUS
  62
7
  10
 260.419
  20
 382.606
  30
0.0
  40
 2.00000
  50
 1.33897
  51
 91.3390
   0
LINE
   8
LEVEL001
   6
CONTINUOUS
  62
7
  10
 262.419
  20
 382.652
  30
0.0
  11
 262.606
  21
 374.655
  31
0.0
   0
ARC
   8
LEVEL001
   6
CONTINUOUS
  62
7
  10
 260.606
  20
 374.608
  30
0.0
  40
 2.00000
  50
 271.339
  51
 1.33897
   0
LINE
   8
LEVEL001
   6
CONTINUOUS
  62
7
  10
 260.653
  20
 372.608
  30
0.0
  11
 249.656
  21
 372.351
  31
0.0
   0
ARC
   8
LEVEL001
   6
CONTINUOUS
  62
7
  10
 249.609
  20
 374.351
  30
0.0
  40
 2.00000
  50
 181.339
  51
 271.339
   0
LINE
   8
LEVEL001
   6
CONTINUOUS
  62
7
  10
 247.610
  20
 374.304
  30
0.0
  11
 247.423
  21
 382.302
  31
0.0
   0
CIRCLE
   8
LEVEL001
   6
CONTINUOUS
  62
7
  10
 253.308
  20
 379.087
  30
0.0
  40
 1.85185
   0
LINE
   8
LEVEL001
   6
CONTINUOUS
  62
7
  10
 256.899
  20
 381.023
  30
0.0
  11
 254.642
  21
 376.895
  31
0.0
   0
LINE
   8
LEVEL001
   6
CONTINUOUS
  62
7
  10
 254.642
  20
 376.895
  30
0.0
  11
 249.939
  21
 376.785
  31
0.0
   0
LINE
   8
LEVEL001
   6
CONTINUOUS
  62
7
  10
 249.939
  20
 376.785
  30
0.0
  11
 249.427
  21
 375.847
  31
0.0
   0
LINE
   8
LEVEL001
   6
CONTINUOUS
  62
7
  10
 249.427
  20
 375.847
  30
0.0
  11
 257.832
  21
 376.043
  31
0.0
   0
LINE
   8
LEVEL001
   6
CONTINUOUS
  62
7
  10
 257.832
  20
 376.043
  30
0.0
  11
 260.601
  21
 381.110
  31
0.0
   0
LINE
   8
LEVEL001
   6
CONTINUOUS
  62
7
  10
 260.601
  20
 381.110
  30
0.0
  11
 256.899
  21
 381.023
  31
0.0
   0
LINE
   8
LEVEL001
   6
CONTINUOUS
  62
7
  10
 246.502
  20
 400.285
  30
0.0
  11
 262.498
  21
 400.659
  31
0.0
   0
LINE
   8
LEVEL001
   6
CONTINUOUS
  62
7
  10
 262.673
  20
 393.161
  30
0.0
  11
 262.498
  21
 400.659
  31
0.0
   0
LINE
   8
LEVEL001
   6
CONTINUOUS
  62
7
  10
 262.498
  20
 400.659
  30
0.0
  11
 261.620
  21
 401.139
  31
0.0
   0
LINE
   8
LEVEL001
   6
CONTINUOUS
  62
7
  10
 261.620
  20
 401.139
  30
0.0
  11
 247.356
  21
 400.805
  31
0.0
   0
LINE
   8
LEVEL001
   6
CONTINUOUS
  62
7
  10
 247.356
  20
 400.805
  30
0.0
  11
 246.502
  21
 400.285
  31
0.0
   0
LINE
   8
LEVEL001
   6
CONTINUOUS
  62
7
  10
 246.502
  20
 400.285
  30
0.0
  11
 246.677
  21
 392.787
  31
0.0
   0
LINE
   8
LEVEL001
   6
CONTINUOUS
  62
7
  10
 267.634
  20
 400.279
  30
0.0
  11
 262.509
  21
 400.159
  31
0.0
   0
LINE
   8
LEVEL001
   6
CONTINUOUS
  62
7
  10
 246.514
  20
 399.785
  30
0.0
  11
 241.390
  21
 399.666
  31
0.0
   0
LINE
   8
LEVEL001
   6
CONTINUOUS
  62
7
  10
 275.289
  20
 366.949
  30
0.0
  11
 235.300
  21
 366.014
  31
0.0
   0
ARC
   8
LEVEL001
   6
CONTINUOUS
  62
7
  10
 230.921
  20
 339.405
  30
0.0
  40
 1.00000
  50
 181.339
  51
 271.339
   0
ARC
   8
LEVEL001
   6
CONTINUOUS
  62
7
  10
 230.360
  20
 363.398
  30
0.0
  40
 1.00000
  50
 91.3390
  51
 181.339
   0
LINE
   8
LEVEL001
   6
CONTINUOUS
  62
7
  10
 229.921
  20
 339.381
  30
0.0
  11
 229.360
  21
 363.375
  31
0.0
   0
POINT
   8
LEVEL001
  62
7
  10
 229.640
  20
 351.378
  30
0.0
   0
ARC
   8
LEVEL001
   6
CONTINUOUS
  62
7
  10
 276.300
  20
 366.472
  30
0.0
  40
 1.00000
  50
 181.339
  51
 271.339
   0
ARC
   8
LEVEL001
   6
CONTINUOUS
  62
7
  10
 276.955
  20
 338.480
  30
0.0
  40
 1.00000
  50
 91.3390
  51
 181.339
   0
ARC
   8
LEVEL001
   6
CONTINUOUS
  62
7
  10
 286.905
  20
 340.713
  30
0.0
  40
 1.00000
  50
 271.339
  51
 1.33897
   0
ARC
   8
LEVEL001
   6
CONTINUOUS
  62
7
  10
 286.344
  20
 364.707
  30
0.0
  40
 1.00000
  50
 1.33897
  51
 91.3390
   0
LINE
   8
LEVEL001
   6
CONTINUOUS
  62
7
  10
 287.905
  20
 340.737
  30
0.0
  11
 287.344
  21
 364.730
  31
0.0
   0
LINE
   8
LEVEL001
   6
CONTINUOUS
  62
7
  10
 276.931
  20
 339.480
  30
0.0
  11
 286.929
  21
 339.713
  31
0.0
   0
LINE
   8
LEVEL001
   6
CONTINUOUS
  62
7
  10
 276.324
  20
 365.473
  30
0.0
  11
 286.321
  21
 365.706
  31
0.0
   0
POINT
   8
LEVEL001
  62
7
  10
 287.625
  20
 352.733
  30
0.0
   0
LINE
   8
LEVEL001
   6
DASHDOT
  62
1
  10
 229.640
  20
 351.378
  30
0.0
  11
 244.636
  21
 351.728
  31
0.0
   0
LINE
   8
LEVEL001
   6
DASHDOT
  62
1
  10
 253.624
  20
 437.962
  30
0.0
  11
 256.077
  21
 332.991
  31
0.0
   0
LINE
   8
LEVEL001
   6
DASHDOT
  62
1
  10
 287.625
  20
 352.733
  30
0.0
  11
 265.631
  21
 352.219
  31
0.0
   0
ARC
   8
LEVEL001
   6
CONTINUOUS
  62
7
  10
 244.026
  20
 365.718
  30
0.0
  40
 1.00000
  50
 271.339
  51
 1.33897
   0
ARC
   8
LEVEL001
   6
CONTINUOUS
  62
7
  10
 244.680
  20
 337.726
  30
0.0
  40
 1.00000
  50
 1.33897
  51
 91.3390
   0
LINE
   8
LEVEL001
   6
CONTINUOUS
  62
7
  10
 244.657
  20
 338.725
  30
0.0
  11
 230.944
  21
 338.405
  31
0.0
   0
LINE
   8
LEVEL001
   6
CONTINUOUS
  62
7
  10
 244.049
  20
 364.718
  30
0.0
  11
 230.336
  21
 364.398
  31
0.0
   0
ARC
   8
LEVEL001
   6
CONTINUOUS
  62
7
  10
 234.312
  20
 365.491
  30
0.0
  40
 1.00000
  50
 271.339
  51
 1.33897
   0
ARC
   8
LEVEL001
   6
CONTINUOUS
  62
7
  10
 234.966
  20
 337.499
  30
0.0
  40
 1.00000
  50
 1.33897
  51
 91.3390
   0
LINE
   8
LEVEL001
   6
CONTINUOUS
  62
7
  10
 235.312
  20
 365.514
  30
0.0
  11
 235.160
  21
 372.013
  31
0.0
   0
LINE
   8
LEVEL001
   6
CONTINUOUS
  62
7
  10
 239.665
  20
 410.128
  30
0.0
  11
 239.560
  21
 414.627
  31
0.0
   0
LINE
   8
LEVEL001
   6
CONTINUOUS
  62
7
  10
 239.560
  20
 414.627
  30
0.0
  11
 234.167
  21
 414.501
  31
0.0
   0
LINE
   8
LEVEL001
   6
CONTINUOUS
  62
7
  10
 234.167
  20
 414.501
  30
0.0
  11
 234.879
  21
 384.009
  31
0.0
   0
LINE
   8
LEVEL001
   6
CONTINUOUS
  62
7
  10
 240.798
  20
 384.148
  30
0.0
  11
 234.379
  21
 383.998
  31
0.0
   0
LINE
   8
LEVEL001
   6
CONTINUOUS
  62
7
  10
 234.379
  20
 383.998
  30
0.0
  11
 234.660
  21
 372.001
  31
0.0
   0
LINE
   8
LEVEL001
   6
CONTINUOUS
  62
7
  10
 234.660
  20
 372.001
  30
0.0
  11
 241.079
  21
 372.151
  31
0.0
   0
LINE
   8
LEVEL001
   6
CONTINUOUS
  62
7
  10
 235.966
  20
 337.522
  30
0.0
  11
 275.955
  21
 338.457
  31
0.0
   0
LINE
   8
LEVEL001
   6
CONTINUOUS
  62
7
  10
 275.955
  20
 338.457
  30
0.0
  11
 274.653
  21
 394.176
  31
0.0
   0
LINE
   8
LEVEL001
   6
CONTINUOUS
  62
7
  10
 282.303
  20
 409.242
  30
0.0
  11
 282.565
  21
 398.010
  31
0.0
   0
LINE
   8
LEVEL001
   6
CONTINUOUS
  62
3
  10
 309.564
  20
 345.632
  30
0.0
  11
 309.208
  21
 360.852
  31
0.0
   0
LINE
   8
LEVEL001
   6
CONTINUOUS
  62
7
  10
 305.570
  20
 361.736
  30
0.0
  11
 313.574
  21
 361.673
  31
0.0
   0
ARC
   8
LEVEL001
   6
CONTINUOUS
  62
7
  10
 287.625
  20
 352.733
  30
0.0
  40
 18.1514
  50
 343.751
  51
 18.9270
   0
ARC
   8
LEVEL001
   6
CONTINUOUS
  62
7
  10
 295.953
  20
 362.362
  30
0.0
  40
 9.60000
  50
 337.065
  51
 1.74815
   0
LINE
   8
LEVEL001
   6
CONTINUOUS
  62
3
  10
 305.570
  20
 361.736
  30
0.0
  11
 309.208
  21
 360.852
  31
0.0
   0
LINE
   8
LEVEL001
   6
CONTINUOUS
  62
3
  10
 309.208
  20
 360.852
  30
0.0
  11
 313.594
  21
 360.817
  31
0.0
   0
LINE
   8
LEVEL001
   6
CONTINUOUS
  62
7
  10
 305.972
  20
 344.579
  30
0.0
  11
 313.963
  21
 345.016
  31
0.0
   0
ARC
   8
LEVEL001
   6
CONTINUOUS
  62
7
  10
 296.394
  20
 343.504
  30
0.0
  40
 9.60000
  50
 0.929786
  51
 25.6132
   0
LINE
   8
LEVEL001
   6
CONTINUOUS
  62
3
  10
 305.972
  20
 344.579
  30
0.0
  11
 309.564
  21
 345.632
  31
0.0
   0
LINE
   8
LEVEL001
   6
CONTINUOUS
  62
3
  10
 309.564
  20
 345.632
  30
0.0
  11
 313.943
  21
 345.871
  31
0.0
   0
ARC
   8
LEVEL001
   6
CONTINUOUS
  62
7
  10
 259.654
  20
 428.274
  30
0.0
  40
 4.00000
  50
 27.0283
  51
 91.3396
   0
ARC
   8
LEVEL001
   6
CONTINUOUS
  62
7
  10
 248.053
  20
 428.003
  30
0.0
  40
 4.00000
  50
 91.3383
  51
 155.650
   0
LINE
   8
LEVEL001
   6
CONTINUOUS
  62
7
  10
 259.561
  20
 432.273
  30
0.0
  11
 247.959
  21
 432.002
  31
0.0
   0
ARC
   8
LEVEL001
   6
CONTINUOUS
  62
7
  10
 249.875
  20
 427.179
  30
0.0
  40
 6.00000
  50
 155.650
  51
 181.340
   0
ARC
   8
LEVEL001
   6
CONTINUOUS
  62
7
  10
 257.872
  20
 427.366
  30
0.0
  40
 6.00000
  50
 1.33836
  51
 27.0275
   0
LINE
   8
LEVEL001
   6
CONTINUOUS
  62
7
  10
 263.952
  20
 424.034
  30
0.0
  11
 263.871
  21
 427.506
  31
0.0
   0
LINE
   8
LEVEL001
   6
CONTINUOUS
  62
7
  10
 243.957
  20
 423.566
  30
0.0
  11
 243.876
  21
 427.038
  31
0.0
   0
ARC
   8
LEVEL001
   6
CONTINUOUS
  62
7
  10
 276.219
  20
 412.749
  30
0.0
  40
 2.00000
  50
 181.339
  51
 264.215
   0
LINE
   8
LEVEL001
   6
CONTINUOUS
  62
7
  10
 239.165
  20
 414.618
  30
0.0
  11
 239.270
  21
 410.119
  31
0.0
   0
LINE
   8
LEVEL001
   6
CONTINUOUS
  62
7
  10
 269.157
  20
 415.319
  30
0.0
  11
 269.262
  21
 410.820
  31
0.0
   0
ARC
   8
LEVEL001
   6
CONTINUOUS
  62
7
  10
 237.939
  20
 411.088
  30
0.0
  40
 1.00000
  50
 181.339
  51
 271.339
   0
LINE
   8
LEVEL001
   6
CONTINUOUS
  62
7
  10
 236.939
  20
 411.065
  30
0.0
  11
 236.857
  21
 414.564
  31
0.0
   0
ARC
   8
LEVEL001
   6
CONTINUOUS
  62
7
  10
 270.547
  20
 411.850
  30
0.0
  40
 1.00000
  50
 271.339
  51
 1.33897
   0
LINE
   8
LEVEL001
   6
CONTINUOUS
  62
7
  10
 271.547
  20
 411.874
  30
0.0
  11
 271.465
  21
 415.373
  31
0.0
   0
LINE
   8
LEVEL001
   6
CONTINUOUS
  62
7
  10
 270.570
  20
 410.851
  30
0.0
  11
 237.962
  21
 410.088
  31
0.0
   0
ARC
   8
LEVEL001
   6
CONTINUOUS
  62
7
  10
 254.195
  20
 413.539
  30
0.0
  40
 5.00000
  50
 46.3385
  51
 136.339
   0
ARC
   8
LEVEL001
   6
CONTINUOUS
  62
7
  10
 250.080
  20
 412.372
  30
0.0
  40
 1.00000
  50
 181.339
  51
 271.339
   0
ARC
   8
LEVEL001
   6
CONTINUOUS
  62
7
  10
 258.360
  20
 412.566
  30
0.0
  40
 1.00000
  50
 271.339
  51
 1.33897
   0
LINE
   8
LEVEL001
   6
CONTINUOUS
  62
7
  10
 250.103
  20
 411.372
  30
0.0
  11
 258.383
  21
 411.566
  31
0.0
   0
ARC
   8
LEVEL001
   6
CONTINUOUS
  62
7
  10
 251.029
  20
 414.567
  30
0.0
  40
 2.00000
  50
 136.338
  51
 181.339
   0
LINE
   8
LEVEL001
   6
CONTINUOUS
  62
7
  10
 249.029
  20
 414.520
  30
0.0
  11
 249.080
  21
 412.349
  31
0.0
   0
LINE
   8
LEVEL001
   6
CONTINUOUS
  62
7
  10
 249.582
  20
 415.947
  30
0.0
  11
 250.577
  21
 416.991
  31
0.0
   0
ARC
   8
LEVEL001
   6
CONTINUOUS
  62
7
  10
 257.309
  20
 414.713
  30
0.0
  40
 2.00000
  50
 1.33801
  51
 46.3377
   0
LINE
   8
LEVEL001
   6
CONTINUOUS
  62
7
  10
 258.690
  20
 416.160
  30
0.0
  11
 257.647
  21
 417.156
  31
0.0
   0
LINE
   8
LEVEL001
   6
CONTINUOUS
  62
7
  10
 259.308
  20
 414.760
  30
0.0
  11
 259.359
  21
 412.589
  31
0.0
   0
ARC
   8
LEVEL001
   6
CONTINUOUS
  62
7
  10
 245.443
  20
 419.756
  30
0.0
  40
 4.00000
  50
 123.868
  51
 173.209
   0
LINE
   8
LEVEL001
   6
CONTINUOUS
  62
7
  10
 240.270
  20
 410.142
  30
0.0
  11
 241.471
  21
 420.229
  31
0.0
   0
ARC
   8
LEVEL001
   6
CONTINUOUS
  62
7
  10
 262.646
  20
 420.158
  30
0.0
  40
 4.00000
  50
 9.46943
  51
 58.8107
   0
LINE
   8
LEVEL001
   6
CONTINUOUS
  62
7
  10
 268.263
  20
 410.797
  30
0.0
  11
 266.591
  21
 420.816
  31
0.0
   0
ARC
   8
LEVEL001
   6
CONTINUOUS
  62
7
  10
 254.360
  20
 406.471
  30
0.0
  40
 20.0000
  50
 58.8098
  51
 123.868
   0
LINE
   8
LEVEL001
   6
CONTINUOUS
  62
7
  10
 268.868
  20
 410.811
  30
0.0
  11
 268.763
  21
 415.310
  31
0.0
   0
LINE
   8
LEVEL001
   6
CONTINUOUS
  62
7
  10
 268.763
  20
 415.310
  30
0.0
  11
 274.156
  21
 415.436
  31
0.0
   0
LINE
   8
LEVEL001
   6
CONTINUOUS
  62
7
  10
 274.156
  20
 415.436
  30
0.0
  11
 274.220
  21
 412.702
  31
0.0
   0
ARC
   8
LEVEL001
   6
CONTINUOUS
  62
7
  10
 281.303
  20
 409.218
  30
0.0
  40
 1.00000
  50
 1.33898
  51
 84.2146
   0
LINE
   8
LEVEL001
   6
CONTINUOUS
  62
7
  10
 281.404
  20
 410.213
  30
0.0
  11
 276.017
  21
 410.759
  31
0.0
   0
LINE
   8
LEVEL003
   6
CONTINUOUS
  62
3
  10
 229.640
  20
 347.382
  30
0.0
  11
 229.640
  21
 172.000
  31
0.0
   0
LINE
   8
LEVEL003
   6
CONTINUOUS
  62
3
  10
 1022.73
  20
 439.976
  30
0.0
  11
 1022.73
  21
 172.000
  31
0.0
   0
LINE
   8
LEVEL003
   6
CONTINUOUS
  62
3
  10
 229.640
  20
 180.000
  30
0.0
  11
 1022.73
  21
 180.000
  31
0.0
   0
LINE
   8
LEVEL003
   6
CONTINUOUS
  62
3
  10
 229.640
  20
 180.000
  30
0.0
  11
 241.640
  21
 177.884
  31
0.0
   0
LINE
   8
LEVEL003
   6
CONTINUOUS
  62
3
  10
 229.640
  20
 180.000
  30
0.0
  11
 241.640
  21
 182.116
  31
0.0
   0
LINE
   8
LEVEL003
   6
CONTINUOUS
  62
3
  10
 1022.73
  20
 180.000
  30
0.0
  11
 1010.73
  21
 182.116
  31
0.0
   0
LINE
   8
LEVEL003
   6
CONTINUOUS
  62
3
  10
 1022.73
  20
 180.000
  30
0.0
  11
 1010.73
  21
 177.884
  31
0.0
   0
TEXT
   8
LEVEL003
  62
3
  10
 606.187
  20
 183.200
  30
0.0
  40
 16.0000
   1
約800
   7
STANDARD
  72
1
  11
 626.187
  21
 183.200
  31
0.0
   0
LINE
   8
LEVEL001
   6
CONTINUOUS
  62
7
  10
 147.497
  20
 338.161
  30
0.0
  11
 142.358
  21
 340.000
  31
0.0
   0
LINE
   8
LEVEL001
   6
CONTINUOUS
  62
7
  10
 109.960
  20
 379.093
  30
0.0
  11
 120.947
  21
 383.092
  31
0.0
   0
ARC
   8
LEVEL001
   6
CONTINUOUS
  62
7
  10
 140.947
  20
 425.000
  30
0.0
  40
 3.00000
  50
 10.4971
  51
 90.0000
   0
LINE
   8
LEVEL003
   6
CONTINUOUS
  62
7
  10
 129.447
  20
 438.000
  30
0.0
  11
 129.447
  21
 424.500
  31
0.0
   0
LINE
   8
LEVEL003
   6
CONTINUOUS
  62
7
  10
 129.447
  20
 418.500
  30
0.0
  11
 129.447
  21
 408.966
  31
0.0
   0
LINE
   8
LEVEL003
   6
CONTINUOUS
  62
7
  10
 166.447
  20
 438.000
  30
0.0
  11
 166.447
  21
 424.749
  31
0.0
   0
LINE
   8
LEVEL003
   6
CONTINUOUS
  62
7
  10
 131.447
  20
 443.493
  30
0.0
  11
 131.447
  21
 424.500
  31
0.0
   0
LINE
   8
LEVEL003
   6
CONTINUOUS
  62
7
  10
 131.447
  20
 417.643
  30
0.0
  11
 131.447
  21
 404.000
  31
0.0
   0
LINE
   8
LEVEL003
   6
CONTINUOUS
  62
7
  10
 164.447
  20
 443.493
  30
0.0
  11
 164.447
  21
 426.100
  31
0.0
   0
LINE
   8
LEVEL001
   6
DASHDOT
  62
1
  10
 120.000
  20
 428.000
  30
0.0
  11
 150.504
  21
 428.000
  31
0.0
   0
LINE
   8
LEVEL001
   6
DASHDOT
  62
1
  10
 159.390
  20
 428.000
  30
0.0
  11
 175.000
  21
 428.000
  31
0.0
   0
LINE
   8
LEVEL001
   6
CONTINUOUS
  62
7
  10
 129.197
  20
 418.500
  30
0.0
  11
 129.197
  21
 413.000
  31
0.0
   0
LINE
   8
LEVEL001
   6
CONTINUOUS
  62
7
  10
 128.197
  20
 418.500
  30
0.0
  11
 128.197
  21
 414.000
  31
0.0
   0
LINE
   8
LEVEL003
   6
DASHDOT
  62
1
  10
 125.000
  20
 418.000
  30
0.0
  11
 131.090
  21
 418.000
  31
0.0
   0
LINE
   8
LEVEL001
   6
CONTINUOUS
  62
7
  10
 167.421
  20
 423.000
  30
0.0
  11
 171.447
  21
 423.000
  31
0.0
   0
LINE
   8
LEVEL001
   6
CONTINUOUS
  62
7
  10
 123.447
  20
 432.000
  30
0.0
  11
 123.447
  21
 424.500
  31
0.0
   0
LINE
   8
LEVEL001
   6
CONTINUOUS
  62
7
  10
 124.447
  20
 433.000
  30
0.0
  11
 124.447
  21
 424.500
  31
0.0
   0
LINE
   8
LEVEL001
   6
DASHDOT
  62
1
  10
 126.947
  20
 435.952
  30
0.0
  11
 126.947
  21
 424.500
  31
0.0
   0
LINE
   8
LEVEL003
   6
CONTINUOUS
  62
7
  10
 129.448
  20
 417.070
  30
0.0
  11
 132.090
  21
 416.978
  31
0.0
   0
LINE
   8
LEVEL001
   6
CONTINUOUS
  62
7
  10
 132.947
  20
 409.479
  30
0.0
  11
 132.947
  21
 403.000
  31
0.0
   0
LINE
   8
LEVEL001
   6
DASHDOT
  62
1
  10
 165.445
  20
 340.000
  30
0.0
  11
 156.155
  21
 313.020
  31
0.0
   0
ARC
   8
LEVEL001
   6
CONTINUOUS
  62
7
  10
 154.947
  20
 354.000
  30
0.0
  40
 15.0000
  50
 277.178
  51
 291.039
   0
ARC
   8
LEVEL001
   6
CONTINUOUS
  62
7
  10
 190.852
  20
 346.212
  30
0.0
  40
 10.0000
  50
 218.401
  51
 222.095
   0
LINE
   8
LEVEL001
   6
DASHDOT
  62
1
  10
 120.876
  20
 341.000
  30
0.0
  11
 112.947
  21
 341.000
  31
0.0
   0
LINE
   8
LEVEL001
   6
DASHDOT
  62
1
  10
 120.876
  20
 341.000
  30
0.0
  11
 112.947
  21
 341.000
  31
0.0
   0
LINE
   8
LEVEL001
   6
CONTINUOUS
  62
7
  10
 178.137
  20
 340.000
  30
0.0
  11
 173.248
  21
 325.803
  31
0.0
   0
LINE
   8
LEVEL001
   6
CONTINUOUS
  62
7
  10
 120.947
  20
 372.734
  30
0.0
  11
 111.060
  21
 373.599
  31
0.0
   0
LINE
   8
LEVEL001
   6
CONTINUOUS
  62
7
  10
 138.447
  20
 441.000
  30
0.0
  11
 138.447
  21
 424.500
  31
0.0
   0
LINE
   8
LEVEL001
   6
CONTINUOUS
  62
7
  10
 138.447
  20
 413.500
  30
0.0
  11
 138.447
  21
 411.000
  31
0.0
   0
LINE
   8
LEVEL001
   6
CONTINUOUS
  62
7
  10
 157.447
  20
 441.000
  30
0.0
  11
 157.447
  21
 428.343
  31
0.0
   0
LINE
   8
LEVEL001
   6
CONTINUOUS
  62
7
  10
 107.943
  20
 368.175
  30
0.0
  11
 120.947
  21
 369.312
  31
0.0
   0
LINE
   8
LEVEL001
   6
DASHDOT
  62
1
  10
 58.0987
  20
 354.000
  30
0.0
  11
 119.947
  21
 354.000
  31
0.0
   0
LINE
   8
LEVEL001
   6
DASHDOT
  62
1
  10
 147.947
  20
 463.092
  30
0.0
  11
 147.947
  21
 427.235
  31
0.0
   0
LINE
   8
LEVEL001
   6
DASHDOT
  62
1
  10
 147.947
  20
 340.000
  30
0.0
  11
 147.947
  21
 295.263
  31
0.0
   0
ARC
   8
LEVEL001
   6
CONTINUOUS
  62
7
  10
 114.527
  20
 391.397
  30
0.0
  40
 7.50000
  50
 28.8266
  51
 200.000
   0
LINE
   8
LEVEL001
   6
CONTINUOUS
  62
7
  10
 120.947
  20
 383.092
  30
0.0
  11
 109.960
  21
 379.093
  31
0.0
   0
LINE
   8
LEVEL001
   6
CONTINUOUS
  62
7
  10
 109.960
  20
 379.093
  30
0.0
  11
 108.464
  21
 379.356
  31
0.0
   0
LINE
   8
LEVEL001
   6
CONTINUOUS
  62
7
  10
 108.464
  20
 379.356
  30
0.0
  11
 105.564
  21
 387.327
  31
0.0
   0
LINE
   8
LEVEL001
   6
CONTINUOUS
  62
7
  10
 105.564
  20
 387.327
  30
0.0
  11
 106.540
  21
 388.490
  31
0.0
   0
LINE
   8
LEVEL001
   6
CONTINUOUS
  62
7
  10
 106.540
  20
 388.490
  30
0.0
  11
 120.947
  21
 393.734
  31
0.0
   0
LINE
   8
LEVEL001
   6
CONTINUOUS
  62
7
  10
 120.947
  20
 388.106
  30
0.0
  11
 119.398
  21
 392.362
  31
0.0
   0
ARC
   8
LEVEL001
   6
CONTINUOUS
  62
7
  10
 125.551
  20
 385.960
  30
0.0
  40
 8.87961
  50
 121.233
  51
 133.865
   0
LINE
   8
LEVEL001
   6
DASHDOT
  62
1
  10
 111.088
  20
 400.845
  30
0.0
  11
 120.947
  21
 373.758
  31
0.0
   0
LINE
   8
LEVEL001
   6
DASHDOT
  62
1
  10
 133.234
  20
 340.000
  30
0.0
  11
 135.782
  21
 333.000
  31
0.0
   0
ARC
   8
LEVEL001
   6
CONTINUOUS
  62
7
  10
 112.393
  20
 397.261
  30
0.0
  40
 16.2408
  50
 272.412
  51
 301.785
   0
ARC
   8
LEVEL001
   6
CONTINUOUS
  62
7
  10
 163.551
  20
 421.990
  30
0.0
  40
 4.00000
  50
 8.13064
  51
 57.4712
   0
LINE
   8
LEVEL001
   6
CONTINUOUS
  62
7
  10
 120.947
  20
 368.500
  30
0.0
  11
 188.947
  21
 368.500
  31
0.0
   0
CIRCLE
   8
LEVEL001
   6
CONTINUOUS
  62
7
  10
 137.447
  20
 354.000
  30
0.0
  40
 7.47500
   0
CIRCLE
   8
LEVEL001
   6
CONTINUOUS
  62
3
  10
 137.447
  20
 354.000
  30
0.0
  40
 8.33100
   0
LINE
   8
LEVEL001
   6
DASHDOT
  62
1
  10
 137.447
  20
 342.669
  30
0.0
  11
 137.447
  21
 365.331
  31
0.0
   0
LINE
   8
LEVEL001
   6
DASHDOT
  62
1
  10
 148.778
  20
 354.000
  30
0.0
  11
 126.116
  21
 354.000
  31
0.0
   0
CIRCLE
   8
LEVEL001
   6
CONTINUOUS
  62
7
  10
 172.447
  20
 354.000
  30
0.0
  40
 7.47500
   0
CIRCLE
   8
LEVEL001
   6
CONTINUOUS
  62
3
  10
 172.447
  20
 354.000
  30
0.0
  40
 8.33100
   0
LINE
   8
LEVEL001
   6
DASHDOT
  62
1
  10
 172.447
  20
 342.669
  30
0.0
  11
 172.447
  21
 365.331
  31
0.0
   0
LINE
   8
LEVEL001
   6
DASHDOT
  62
1
  10
 183.778
  20
 354.000
  30
0.0
  11
 161.116
  21
 354.000
  31
0.0
   0
LINE
   8
LEVEL001
   6
CONTINUOUS
  62
7
  10
 137.447
  20
 367.000
  30
0.0
  11
 172.447
  21
 367.000
  31
0.0
   0
ARC
   8
LEVEL001
   6
CONTINUOUS
  62
7
  10
 155.214
  20
 346.000
  30
0.0
  40
 6.00000
  50
 24.9010
  51
 90.0004
   0
ARC
   8
LEVEL001
   6
CONTINUOUS
  62
7
  10
 172.447
  20
 354.000
  30
0.0
  40
 13.0000
  50
 204.901
  51
 90.0001
   0
ARC
   8
LEVEL001
   6
CONTINUOUS
  62
7
  10
 154.681
  20
 346.000
  30
0.0
  40
 6.00000
  50
 90.0002
  51
 155.099
   0
LINE
   8
LEVEL001
   6
CONTINUOUS
  62
7
  10
 154.681
  20
 352.000
  30
0.0
  11
 155.213
  21
 352.000
  31
0.0
   0
ARC
   8
LEVEL001
   6
CONTINUOUS
  62
7
  10
 137.447
  20
 354.000
  30
0.0
  40
 13.0000
  50
 90.0002
  51
 335.099
   0
LINE
   8
LEVEL001
   6
CONTINUOUS
  62
7
  10
 135.483
  20
 386.500
  30
0.0
  11
 174.412
  21
 386.500
  31
0.0
   0
LINE
   8
LEVEL001
   6
CONTINUOUS
  62
7
  10
 174.412
  20
 386.500
  30
0.0
  11
 174.412
  21
 374.500
  31
0.0
   0
LINE
   8
LEVEL001
   6
CONTINUOUS
  62
7
  10
 174.412
  20
 374.500
  30
0.0
  11
 135.483
  21
 374.500
  31
0.0
   0
LINE
   8
LEVEL001
   6
CONTINUOUS
  62
7
  10
 135.483
  20
 374.500
  30
0.0
  11
 135.483
  21
 386.500
  31
0.0
   0
LINE
   8
LEVEL001
   6
CONTINUOUS
  62
7
  10
 170.947
  20
 402.500
  30
0.0
  11
 186.947
  21
 402.500
  31
0.0
   0
LINE
   8
LEVEL001
   6
DASHDOT
  62
1
  10
 178.947
  20
 406.000
  30
0.0
  11
 178.947
  21
 390.000
  31
0.0
   0
LINE
   8
LEVEL001
   6
CONTINUOUS
  62
7
  10
 122.947
  20
 402.500
  30
0.0
  11
 138.947
  21
 402.500
  31
0.0
   0
LINE
   8
LEVEL001
   6
DASHDOT
  62
1
  10
 130.947
  20
 406.000
  30
0.0
  11
 130.947
  21
 390.000
  31
0.0
   0
ARC
   8
LEVEL001
   6
CONTINUOUS
  62
7
  10
 187.947
  20
 394.084
  30
0.0
  40
 1.00000
  50
 359.999
  51
 84.9999
   0
ARC
   8
LEVEL001
   6
CONTINUOUS
  62
7
  10
 121.947
  20
 394.084
  30
0.0
  40
 1.00000
  50
 95.0001
  51
 179.998
   0
ARC
   8
LEVEL001
   6
CONTINUOUS
  62
7
  10
 154.947
  20
 418.000
  30
0.0
  40
 2.00000
  50
 330.000
  51
 210.000
   0
ARC
   8
LEVEL001
   6
CONTINUOUS
  62
7
  10
 154.947
  20
 418.000
  30
0.0
  40
 4.00000
  50
0.0
  51
 180.000
   0
LINE
   8
LEVEL001
   6
CONTINUOUS
  62
7
  10
 158.947
  20
 418.000
  30
0.0
  11
 158.947
  21
 417.000
  31
0.0
   0
LINE
   8
LEVEL001
   6
CONTINUOUS
  62
7
  10
 150.947
  20
 418.000
  30
0.0
  11
 150.947
  21
 417.000
  31
0.0
   0
LINE
   8
LEVEL001
   6
DASHDOT
  62
1
  10
 148.947
  20
 418.000
  30
0.0
  11
 160.947
  21
 418.000
  31
0.0
   0
ARC
   8
LEVEL001
   6
CONTINUOUS
  62
7
  10
 170.483
  20
 422.964
  30
0.0
  40
 3.00000
  50
 188.001
  51
 239.999
   0
ARC
   8
LEVEL001
   6
CONTINUOUS
  62
7
  10
 133.590
  20
 415.000
  30
0.0
  40
 1.50000
  50
 180.000
  51
 270.000
   0
LINE
   8
LEVEL001
   6
CONTINUOUS
  62
7
  10
 133.590
  20
 413.500
  30
0.0
  11
 141.090
  21
 413.500
  31
0.0
   0
LINE
   8
LEVEL001
   6
CONTINUOUS
  62
7
  10
 70.0499
  20
 434.174
  30
0.0
  11
 77.9283
  21
 432.785
  31
0.0
   0
LINE
   8
LEVEL001
   6
CONTINUOUS
  62
7
  10
 67.9661
  20
 422.356
  30
0.0
  11
 75.8446
  21
 420.967
  31
0.0
   0
ARC
   8
LEVEL001
   6
CONTINUOUS
  62
7
  10
 68.9998
  20
 428.267
  30
0.0
  40
 6.00000
  50
 79.9207
  51
 260.080
   0
ARC
   8
LEVEL001
   6
CONTINUOUS
  62
7
  10
 88.3296
  20
 438.059
  30
0.0
  40
 10.0000
  50
 224.341
  51
 260.000
   0
ARC
   8
LEVEL001
   6
CONTINUOUS
  62
7
  10
 76.8864
  20
 426.876
  30
0.0
  40
 6.00000
  50
 44.3407
  51
 79.9998
   0
ARC
   8
LEVEL001
   6
CONTINUOUS
  62
7
  10
 83.8147
  20
 412.454
  30
0.0
  40
 10.0000
  50
 80.0001
  51
 115.659
   0
ARC
   8
LEVEL001
   6
CONTINUOUS
  62
7
  10
 76.8865
  20
 426.876
  30
0.0
  40
 5.99999
  50
 260.000
  51
 295.658
   0
ARC
   8
LEVEL001
   6
CONTINUOUS
  62
7
  10
 112.013
  20
 474.500
  30
0.0
  40
 50.0000
  50
 260.000
  51
 270.000
   0
LINE
   8
LEVEL001
   6
CONTINUOUS
  62
7
  10
 103.330
  20
 425.260
  30
0.0
  11
 86.5931
  21
 428.211
  31
0.0
   0
ARC
   8
LEVEL001
   6
CONTINUOUS
  62
7
  10
 112.012
  20
 474.500
  30
0.0
  40
 56.0000
  50
 260.000
  51
 270.000
   0
LINE
   8
LEVEL001
   6
CONTINUOUS
  62
7
  10
 102.288
  20
 419.351
  30
0.0
  11
 85.5511
  21
 422.302
  31
0.0
   0
ARC
   8
LEVEL001
   6
CONTINUOUS
  62
7
  10
 130.590
  20
 417.000
  30
0.0
  40
 1.50000
  50
0.0
  51
 90.0000
   0
LINE
   8
LEVEL001
   6
CONTINUOUS
  62
7
  10
 132.090
  20
 417.000
  30
0.0
  11
 132.090
  21
 415.000
  31
0.0
   0
ARC
   8
LEVEL001
   6
DASHDOT
  62
1
  10
 112.013
  20
 474.500
  30
0.0
  40
 53.0000
  50
 260.000
  51
 270.000
   0
ARC
   8
LEVEL001
   6
CONTINUOUS
  62
7
  10
 139.981
  20
 434.500
  30
0.0
  40
 10.0000
  50
 270.000
  51
 299.927
   0
LINE
   8
LEVEL001
   6
CONTINUOUS
  62
7
  10
 112.013
  20
 424.500
  30
0.0
  11
 139.981
  21
 424.500
  31
0.0
   0
ARC
   8
LEVEL001
   6
CONTINUOUS
  62
7
  10
 140.651
  20
 417.500
  30
0.0
  40
 1.00000
  50
 351.870
  51
 89.9988
   0
LINE
   8
LEVEL001
   6
CONTINUOUS
  62
7
  10
 112.013
  20
 418.500
  30
0.0
  11
 140.651
  21
 418.500
  31
0.0
   0
LINE
   8
LEVEL001
   6
DASHDOT
  62
1
  10
 112.013
  20
 421.500
  30
0.0
  11
 144.947
  21
 421.500
  31
0.0
   0
ARC
   8
LEVEL001
   6
CONTINUOUS
  62
7
  10
 166.185
  20
 413.500
  30
0.0
  40
 1.00000
  50
 180.000
  51
 270.000
   0
ARC
   8
LEVEL001
   6
CONTINUOUS
  62
7
  10
 143.710
  20
 413.500
  30
0.0
  40
 1.00000
  50
 270.000
  51
0.0
   0
ARC
   8
LEVEL001
   6
CONTINUOUS
  62
7
  10
 145.710
  20
 416.000
  30
0.0
  40
 1.00000
  50
 90.0000
  51
 180.000
   0
LINE
   8
LEVEL001
   6
CONTINUOUS
  62
7
  10
 144.710
  20
 416.000
  30
0.0
  11
 144.710
  21
 413.500
  31
0.0
   0
ARC
   8
LEVEL001
   6
CONTINUOUS
  62
7
  10
 164.185
  20
 416.000
  30
0.0
  40
 1.00000
  50
0.0
  51
 90.0000
   0
LINE
   8
LEVEL001
   6
CONTINUOUS
  62
7
  10
 164.185
  20
 417.000
  30
0.0
  11
 145.710
  21
 417.000
  31
0.0
   0
LINE
   8
LEVEL001
   6
CONTINUOUS
  62
7
  10
 165.185
  20
 413.500
  30
0.0
  11
 165.185
  21
 416.000
  31
0.0
   0
LINE
   8
LEVEL001
   6
DASHDOT
  62
1
  10
 154.947
  20
 335.000
  30
0.0
  11
 154.947
  21
 435.000
  31
0.0
   0
LINE
   8
LEVEL001
   6
DASHDOT
  62
1
  10
 102.809
  20
 422.305
  30
0.0
  11
 59.9238
  21
 429.867
  31
0.0
   0
LINE
   8
LEVEL001
   6
CONTINUOUS
  62
7
  10
 121.860
  20
 395.080
  30
0.0
  11
 139.947
  21
 396.662
  31
0.0
   0
LINE
   8
LEVEL001
   6
CONTINUOUS
  62
7
  10
 139.947
  20
 396.662
  30
0.0
  11
 139.947
  21
 412.500
  31
0.0
   0
LINE
   8
LEVEL001
   6
CONTINUOUS
  62
7
  10
 139.947
  20
 412.500
  30
0.0
  11
 143.710
  21
 412.500
  31
0.0
   0
LINE
   8
LEVEL001
   6
CONTINUOUS
  62
7
  10
 188.034
  20
 395.080
  30
0.0
  11
 169.947
  21
 396.662
  31
0.0
   0
LINE
   8
LEVEL001
   6
CONTINUOUS
  62
7
  10
 169.947
  20
 396.662
  30
0.0
  11
 169.947
  21
 412.500
  31
0.0
   0
LINE
   8
LEVEL001
   6
CONTINUOUS
  62
7
  10
 169.947
  20
 412.500
  30
0.0
  11
 166.185
  21
 412.500
  31
0.0
   0
LINE
   8
LEVEL001
   6
CONTINUOUS
  62
7
  10
 168.804
  20
 413.500
  30
0.0
  11
 173.947
  21
 413.500
  31
0.0
   0
LINE
   8
LEVEL001
   6
CONTINUOUS
  62
7
  10
 173.947
  20
 413.500
  30
0.0
  11
 173.947
  21
 417.500
  31
0.0
   0
LINE
   8
LEVEL001
   6
CONTINUOUS
  62
7
  10
 173.947
  20
 417.500
  30
0.0
  11
 168.983
  21
 420.366
  31
0.0
   0
LINE
   8
LEVEL001
   6
CONTINUOUS
  62
7
  10
 120.947
  20
 394.084
  30
0.0
  11
 120.947
  21
 368.500
  31
0.0
   0
LINE
   8
LEVEL001
   6
CONTINUOUS
  62
7
  10
 120.947
  20
 368.500
  30
0.0
  11
 119.947
  21
 354.000
  31
0.0
   0
LINE
   8
LEVEL001
   6
CONTINUOUS
  62
7
  10
 119.947
  20
 354.000
  30
0.0
  11
 120.947
  21
 340.000
  31
0.0
   0
LINE
   8
LEVEL001
   6
CONTINUOUS
  62
7
  10
 120.947
  20
 340.000
  30
0.0
  11
 188.947
  21
 340.000
  31
0.0
   0
LINE
   8
LEVEL001
   6
CONTINUOUS
  62
7
  10
 188.947
  20
 340.000
  30
0.0
  11
 189.947
  21
 354.000
  31
0.0
   0
LINE
   8
LEVEL001
   6
CONTINUOUS
  62
7
  10
 189.947
  20
 354.000
  30
0.0
  11
 188.947
  21
 368.500
  31
0.0
   0
LINE
   8
LEVEL001
   6
CONTINUOUS
  62
7
  10
 188.947
  20
 368.500
  30
0.0
  11
 188.947
  21
 394.084
  31
0.0
   0
LINE
   8
LEVEL001
   6
CONTINUOUS
  62
7
  10
 138.947
  20
 396.575
  30
0.0
  11
 138.947
  21
 402.500
  31
0.0
   0
LINE
   8
LEVEL001
   6
CONTINUOUS
  62
7
  10
 138.947
  20
 402.500
  30
0.0
  11
 138.081
  21
 403.000
  31
0.0
   0
LINE
   8
LEVEL001
   6
CONTINUOUS
  62
7
  10
 138.081
  20
 403.000
  30
0.0
  11
 123.813
  21
 403.000
  31
0.0
   0
LINE
   8
LEVEL001
   6
CONTINUOUS
  62
7
  10
 123.813
  20
 403.000
  30
0.0
  11
 122.947
  21
 402.500
  31
0.0
   0
LINE
   8
LEVEL001
   6
CONTINUOUS
  62
7
  10
 122.947
  20
 402.500
  30
0.0
  11
 122.947
  21
 395.175
  31
0.0
   0
LINE
   8
LEVEL001
   6
CONTINUOUS
  62
7
  10
 186.947
  20
 395.175
  30
0.0
  11
 186.947
  21
 402.500
  31
0.0
   0
LINE
   8
LEVEL001
   6
CONTINUOUS
  62
7
  10
 186.947
  20
 402.500
  30
0.0
  11
 186.081
  21
 403.000
  31
0.0
   0
LINE
   8
LEVEL001
   6
CONTINUOUS
  62
7
  10
 186.081
  20
 403.000
  30
0.0
  11
 171.813
  21
 403.000
  31
0.0
   0
LINE
   8
LEVEL001
   6
CONTINUOUS
  62
7
  10
 171.813
  20
 403.000
  30
0.0
  11
 170.947
  21
 402.500
  31
0.0
   0
LINE
   8
LEVEL001
   6
CONTINUOUS
  62
7
  10
 170.947
  20
 402.500
  30
0.0
  11
 170.947
  21
 396.575
  31
0.0
   0
ARC
   8
LEVEL001
   6
CONTINUOUS
  62
7
  10
 146.344
  20
 421.990
  30
0.0
  40
 4.00000
  50
 122.529
  51
 171.870
   0
LINE
   8
LEVEL001
   6
CONTINUOUS
  62
7
  10
 140.947
  20
 412.500
  30
0.0
  11
 142.384
  21
 422.556
  31
0.0
   0
ARC
   8
LEVEL001
   6
CONTINUOUS
  62
7
  10
 154.947
  20
 408.500
  30
0.0
  40
 20.0000
  50
 57.4706
  51
 122.529
   0
LINE
   8
LEVEL001
   6
CONTINUOUS
  62
7
  10
 168.947
  20
 412.500
  30
0.0
  11
 167.511
  21
 422.556
  31
0.0
   0
LINE
   8
LEVEL001
   6
CONTINUOUS
  62
7
  10
 928.469
  20
 394.719
  30
0.0
  11
 930.712
  21
 394.576
  31
0.0
   0
ARC
   8
LEVEL001
   6
CONTINUOUS
  62
7
  10
 930.545
  20
 391.981
  30
0.0
  40
 2.60000
  50
 17.2170
  51
 86.3361
   0
LINE
   8
LEVEL001
   6
CONTINUOUS
  62
7
  10
 928.469
  20
 394.719
  30
0.0
  11
 928.795
  21
 380.723
  31
0.0
   0
ARC
   8
LEVEL001
   6
CONTINUOUS
  62
7
  10
 915.836
  20
 387.423
  30
0.0
  40
 18.0000
  50
 345.455
  51
 17.2170
   0
LINE
   8
LEVEL001
   6
CONTINUOUS
  62
7
  10
 928.795
  20
 380.723
  30
0.0
  11
 931.029
  21
 380.971
  31
0.0
   0
ARC
   8
LEVEL001
   6
CONTINUOUS
  62
7
  10
 930.742
  20
 383.555
  30
0.0
  40
 2.60000
  50
 276.336
  51
 345.455
   0
LINE
   8
LEVEL003
   6
CONTINUOUS
  62
7
  10
 922.071
  20
 366.329
  30
0.0
  11
 921.679
  21
 365.916
  31
0.0
   0
LINE
   8
LEVEL003
   6
CONTINUOUS
  62
7
  10
 921.679
  20
 365.916
  30
0.0
  11
 921.302
  21
 365.319
  31
0.0
   0
LINE
   8
LEVEL003
   6
CONTINUOUS
  62
7
  10
 921.302
  20
 365.319
  30
0.0
  11
 920.947
  21
 364.546
  31
0.0
   0
LINE
   8
LEVEL003
   6
CONTINUOUS
  62
7
  10
 920.947
  20
 364.546
  30
0.0
  11
 920.618
  21
 363.611
  31
0.0
   0
LINE
   8
LEVEL003
   6
CONTINUOUS
  62
7
  10
 920.618
  20
 363.611
  30
0.0
  11
 920.320
  21
 362.526
  31
0.0
   0
LINE
   8
LEVEL003
   6
CONTINUOUS
  62
7
  10
 920.320
  20
 362.526
  30
0.0
  11
 920.060
  21
 361.311
  31
0.0
   0
LINE
   8
LEVEL003
   6
CONTINUOUS
  62
7
  10
 920.060
  20
 361.311
  30
0.0
  11
 919.840
  21
 359.982
  31
0.0
   0
LINE
   8
LEVEL003
   6
CONTINUOUS
  62
7
  10
 919.840
  20
 359.982
  30
0.0
  11
 919.664
  21
 358.562
  31
0.0
   0
LINE
   8
LEVEL003
   6
CONTINUOUS
  62
7
  10
 919.664
  20
 358.562
  30
0.0
  11
 919.534
  21
 357.071
  31
0.0
   0
LINE
   8
LEVEL003
   6
CONTINUOUS
  62
7
  10
 919.534
  20
 357.071
  30
0.0
  11
 919.454
  21
 355.535
  31
0.0
   0
LINE
   8
LEVEL003
   6
CONTINUOUS
  62
7
  10
 919.454
  20
 355.535
  30
0.0
  11
 919.423
  21
 353.975
  31
0.0
   0
LINE
   8
LEVEL003
   6
CONTINUOUS
  62
7
  10
 919.423
  20
 353.975
  30
0.0
  11
 919.443
  21
 352.418
  31
0.0
   0
LINE
   8
LEVEL003
   6
CONTINUOUS
  62
7
  10
 919.443
  20
 352.418
  30
0.0
  11
 919.513
  21
 350.887
  31
0.0
   0
LINE
   8
LEVEL003
   6
CONTINUOUS
  62
7
  10
 919.513
  20
 350.887
  30
0.0
  11
 919.633
  21
 349.405
  31
0.0
   0
LINE
   8
LEVEL003
   6
CONTINUOUS
  62
7
  10
 919.633
  20
 349.405
  30
0.0
  11
 919.799
  21
 347.997
  31
0.0
   0
LINE
   8
LEVEL003
   6
CONTINUOUS
  62
7
  10
 919.799
  20
 347.997
  30
0.0
  11
 920.010
  21
 346.684
  31
0.0
   0
LINE
   8
LEVEL003
   6
CONTINUOUS
  62
7
  10
 920.010
  20
 346.684
  30
0.0
  11
 920.263
  21
 345.487
  31
0.0
   0
LINE
   8
LEVEL003
   6
CONTINUOUS
  62
7
  10
 920.263
  20
 345.487
  30
0.0
  11
 920.552
  21
 344.423
  31
0.0
   0
LINE
   8
LEVEL003
   6
CONTINUOUS
  62
7
  10
 920.552
  20
 344.423
  30
0.0
  11
 920.875
  21
 343.511
  31
0.0
   0
LINE
   8
LEVEL003
   6
CONTINUOUS
  62
7
  10
 920.875
  20
 343.511
  30
0.0
  11
 921.226
  21
 342.764
  31
0.0
   0
LINE
   8
LEVEL003
   6
CONTINUOUS
  62
7
  10
 921.226
  20
 342.764
  30
0.0
  11
 921.598
  21
 342.193
  31
0.0
   0
LINE
   8
LEVEL003
   6
CONTINUOUS
  62
7
  10
 921.598
  20
 342.193
  30
0.0
  11
 921.959
  21
 341.830
  31
0.0
   0
ARC
   8
LEVEL003
   6
CONTINUOUS
  62
7
  10
 921.848
  20
 354.097
  30
0.0
  40
 12.5000
  50
 110.127
  51
 249.160
   0
ARC
   8
LEVEL003
   6
CONTINUOUS
  62
7
  10
 916.334
  20
 339.611
  30
0.0
  40
 3.00000
  50
 359.643
  51
 69.1605
   0
LINE
   8
LEVEL003
   6
CONTINUOUS
  62
7
  10
 924.396
  20
 339.956
  30
0.0
  11
 921.959
  21
 341.830
  31
0.0
   0
ARC
   8
LEVEL001
   6
CONTINUOUS
  62
7
  10
 906.609
  20
 345.665
  30
0.0
  40
 12.5000
  50
 181.339
  51
 341.590
   0
LINE
   8
LEVEL001
   6
CONTINUOUS
  62
7
  10
 923.735
  20
 340.464
  30
0.0
  11
 923.804
  21
 337.513
  31
0.0
   0
LINE
   8
LEVEL003
   6
CONTINUOUS
  62
7
  10
 924.176
  20
 368.013
  30
0.0
  11
 922.071
  21
 366.329
  31
0.0
   0
ARC
   8
LEVEL003
   6
CONTINUOUS
  62
7
  10
 916.514
  20
 368.650
  30
0.0
  40
 3.00000
  50
 290.127
  51
 359.643
   0
LINE
   8
LEVEL001
   6
CONTINUOUS
  62
7
  10
 918.175
  20
 385.759
  30
0.0
  11
 918.625
  21
 366.518
  31
0.0
   0
LINE
   8
LEVEL001
   6
CONTINUOUS
  62
7
  10
 922.894
  20
 376.459
  30
0.0
  11
 923.111
  21
 367.161
  31
0.0
   0
CIRCLE
   8
LEVEL003
   6
CONTINUOUS
  62
7
  10
 1270.34
  20
 68.5407
  30
0.0
  40
 9.00000
   0
LINE
   8
LEVEL003
   6
CONTINUOUS
  62
7
  10
 1288.00
  20
 77.5407
  30
0.0
  11
 1276.57
  21
 57.7407
  31
0.0
   0
LINE
   8
LEVEL003
   6
CONTINUOUS
  62
7
  10
 1276.57
  20
 57.7407
  30
0.0
  11
 1253.71
  21
 57.7407
  31
0.0
   0
LINE
   8
LEVEL003
   6
CONTINUOUS
  62
7
  10
 1251.11
  20
 53.2407
  30
0.0
  11
 1291.97
  21
 53.2407
  31
0.0
   0
LINE
   8
LEVEL003
   6
CONTINUOUS
  62
7
  10
 1291.97
  20
 53.2407
  30
0.0
  11
 1306.00
  21
 77.5407
  31
0.0
   0
LINE
   8
LEVEL003
   6
CONTINUOUS
  62
7
  10
 1306.00
  20
 77.5407
  30
0.0
  11
 1288.00
  21
 77.5407
  31
0.0
   0
LINE
   8
LEVEL003
   6
CONTINUOUS
  62
7
  10
 1253.71
  20
 57.7407
  30
0.0
  11
 1251.11
  21
 53.2407
  31
0.0
   0
TEXT
   8
LEVEL003
  62
7
  10
 1313.15
  20
 47.2207
  30
0.0
  40
 22.5000
   1
ＯＳＡＫＡ ＪＡＣＫ
   7
STANDARD
   0
TEXT
   8
LEVEL003
  62
7
  10
 1317.89
  20
 92.7697
  30
0.0
  40
 15.0000
   1
Model : ＴＷＡＤ－０．９
   7
STANDARD
   0
ENDSEC
   0
EOF
