   0
SECTION
   2
HEADER
   9
$LIMMIN
  10
-66.0000
  20
0.0
   9
$LIMMAX
  10
 1680.00
  20
 1188.00
   9
$EXTMIN
  10
-66.0000
  20
0.0
   9
$EXTMAX
  10
 1680.00
  20
 1188.00
   9
$LTSCALE
  40
 34.9200
   0
ENDSEC
   0
SECTION
   2
TABLES
  0
TABLE
  2
LTYPE
 70
    25
  0
LTYPE
  2
CONTINUOUS
 70
    64
  3
Solid line
 72
    65
 73
     0
 40
0.0
  0
LTYPE
  2
BORDER
 70
    64
  3
__ __ . __ __ . __ __ . __ __ . __ __ . __ __ .
 72
    65
 73
     6
 40
1.75
 49
0.5
 49
-0.25
 49
0.5
 49
-0.25
 49
0.0
 49
-0.25
  0
LTYPE
  2
BORDER2
 70
    64
  3
__.__.__.__.__.__.__.__.__.__.__.__.__.__.__.__
 72
    65
 73
     6
 40
0.875
 49
0.25
 49
-0.125
 49
0.25
 49
-0.125
 49
0.0
 49
-0.125
  0
LTYPE
  2
BORDERX2
 70
    64
  3
____  ____  .  ____  ____  .  ____  ____  .  __
 72
    65
 73
     6
 40
3.5
 49
1.0
 49
-0.5
 49
1.0
 49
-0.5
 49
0.0
 49
-0.5
  0
LTYPE
  2
CENTER
 70
    64
  3
____ _ ____ _ ____ _ ____ _ ____ _ ____ _ ____ 
 72
    65
 73
     4
 40
2.0
 49
1.25
 49
-0.25
 49
0.25
 49
-0.25
  0
LTYPE
  2
CENTER2
 70
    64
  3
___ _ ___ _ ___ _ ___ _ ___ _ ___ _ ___ _ ___ _
 72
    65
 73
     4
 40
1.125
 49
0.75
 49
-0.125
 49
0.125
 49
-0.125
  0
LTYPE
  2
CENTERX2
 70
    64
  3
________  __  ________  __  ________  __  _____
 72
    65
 73
     4
 40
4.0
 49
2.5
 49
-0.5
 49
0.5
 49
-0.5
  0
LTYPE
  2
DASHDOT
 70
    64
  3
__ . __ . __ . __ . __ . __ . __ . __ . __ . __
 72
    65
 73
     4
 40
1.0
 49
0.5
 49
-0.25
 49
0.0
 49
-0.25
  0
LTYPE
  2
DASHDOT2
 70
    64
  3
_._._._._._._._._._._._._._._._._._._._._._._._
 72
    65
 73
     4
 40
0.5
 49
0.25
 49
-0.125
 49
0.0
 49
-0.125
  0
LTYPE
  2
DASHDOTX2
 70
    64
  3
____  .  ____  .  ____  .  ____  .  ____  .  __
 72
    65
 73
     4
 40
2.0
 49
1.0
 49
-0.5
 49
0.0
 49
-0.5
  0
LTYPE
  2
DASHED
 70
    64
  3
__ __ __ __ __ __ __ __ __ __ __ __ __ __ __ __
 72
    65
 73
     2
 40
0.75
 49
0.5
 49
-0.25
  0
LTYPE
  2
DASHED2
 70
    64
  3
_ _ _ _ _ _ _ _ _ _ _ _ _ _ _ _ _ _ _ _ _ _ _ _
 72
    65
 73
     2
 40
0.375
 49
0.25
 49
-0.125
  0
LTYPE
  2
DASHEDX2
 70
    64
  3
____  ____  ____  ____  ____  ____  ____  ____ 
 72
    65
 73
     2
 40
1.5
 49
1.0
 49
-0.5
  0
LTYPE
  2
DIVIDE
 70
    64
  3
____ . . ____ . . ____ . . ____ . . ____ . . __
 72
    65
 73
     6
 40
1.25
 49
0.5
 49
-0.25
 49
0.0
 49
-0.25
 49
0.0
 49
-0.25
  0
LTYPE
  2
DIVIDE2
 70
    64
  3
__..__..__..__..__..__..__..__..__..__..__..__.
 72
    65
 73
     6
 40
0.625
 49
0.25
 49
-0.125
 49
0.0
 49
-0.125
 49
0.0
 49
-0.125
  0
LTYPE
  2
DIVIDEX2
 70
    64
  3
________  .  .  ________  .  .  ________  .  . 
 72
    65
 73
     6
 40
2.5
 49
1.0
 49
-0.5
 49
0.0
 49
-0.5
 49
0.0
 49
-0.5
  0
LTYPE
  2
DOT
 70
    64
  3
. . . . . . . . . . . . . . . . . . . . . . . .
 72
    65
 73
     2
 40
0.25
 49
0.0
 49
-0.25
  0
LTYPE
  2
DOT2
 70
    64
  3
...............................................
 72
    65
 73
     2
 40
0.125
 49
0.0
 49
-0.125
  0
LTYPE
  2
DOTX2
 70
    64
  3
.  .  .  .  .  .  .  .  .  .  .  .  .  .  .  . 
 72
    65
 73
     2
 40
0.5
 49
0.0
 49
-0.5
  0
LTYPE
  2
HIDDEN
 70
    64
  3
__ __ __ __ __ __ __ __ __ __ __ __ __ __ __ __
 72
    65
 73
     2
 40
0.375
 49
0.25
 49
-0.125
  0
LTYPE
  2
HIDDEN2
 70
    64
  3
_ _ _ _ _ _ _ _ _ _ _ _ _ _ _ _ _ _ _ _ _ _ _ _
 72
    65
 73
     2
 40
0.1875
 49
0.125
 49
-0.0625
  0
LTYPE
  2
HIDDENX2
 70
    64
  3
____ ____ ____ ____ ____ ____ ____ ____ ____ __
 72
    65
 73
     2
 40
0.75
 49
0.5
 49
-0.25
  0
LTYPE
  2
PHANTOM
 70
    64
  3
______  __  __  ______  __  __  ______  __  __ 
 72
    65
 73
     6
 40
2.5
 49
1.25
 49
-0.25
 49
0.25
 49
-0.25
 49
0.25
 49
-0.25
  0
LTYPE
  2
PHANTOM2
 70
    64
  3
___ _ _ ___ _ _ ___ _ _ ___ _ _ ___ _ _ ___ _ _
 72
    65
 73
     6
 40
1.25
 49
0.625
 49
-0.125
 49
0.125
 49
-0.125
 49
0.125
 49
-0.125
  0
LTYPE
  2
PHANTOMX2
 70
    64
  3
____________    ____    ____    ____________   
 72
    65
 73
     6
 40
5.0
 49
2.5
 49
-0.5
 49
0.5
 49
-0.5
 49
0.5
 49
-0.5
  0
ENDTAB
  0
TABLE
  2
STYLE
 70
     2
  0
STYLE
  2
STANDARD
 70
0
 40
0.0
 41
1.0
 50
0.0
 71
0
 42
0.2
  3
TXT
  4
BIGFONT
  0
STYLE
  2
STANDARD1
 70
     4
 40
0.0
 41
1.0
 50
0.0
 71
     0
 42
0.2
  3
TXT
  4
BIGFONT
  0
ENDTAB
   0
TABLE
   2
LAYER
  70
12
   0
LAYER
   2
0
  70
0
  62
7
   6
CONTINUOUS
   0
LAYER
   2
LEVEL001
  70
0
  62
7
   6
CONTINUOUS
   0
LAYER
   2
LEVEL003
  70
0
  62
7
   6
CONTINUOUS
   0
LAYER
   2
LEVEL010
  70
0
  62
7
   6
CONTINUOUS
   0
LAYER
   2
LEVEL011
  70
0
  62
7
   6
CONTINUOUS
   0
LAYER
   2
LEVEL012
  70
0
  62
7
   6
CONTINUOUS
   0
LAYER
   2
LEVEL014
  70
0
  62
7
   6
CONTINUOUS
   0
LAYER
   2
LEVEL020
  70
0
  62
7
   6
CONTINUOUS
   0
LAYER
   2
LEVEL022
  70
0
  62
7
   6
CONTINUOUS
   0
LAYER
   2
LEVEL030
  70
0
  62
7
   6
CONTINUOUS
   0
LAYER
   2
LEVEL050
  70
0
  62
7
   6
CONTINUOUS
   0
LAYER
   2
LEVEL100
  70
0
  62
-7
   6
CONTINUOUS
   0
ENDTAB
   0
ENDSEC
   0
SECTION
   2
ENTITIES
   0
LINE
   8
LEVEL100
   6
CONTINUOUS
  62
7
  10
 1145.00
  20
 216.000
  30
0.0
  11
 1145.00
  21
 188.000
  31
0.0
   0
LINE
   8
LEVEL100
   6
CONTINUOUS
  62
7
  10
 1265.00
  20
 216.000
  30
0.0
  11
 1265.00
  21
 124.000
  31
0.0
   0
LINE
   8
LEVEL100
   6
CONTINUOUS
  62
7
  10
 1345.00
  20
 216.000
  30
0.0
  11
 1345.00
  21
 188.000
  31
0.0
   0
LINE
   8
LEVEL100
   6
CONTINUOUS
  62
7
  10
 1377.00
  20
 216.000
  30
0.0
  11
 1377.00
  21
 188.000
  31
0.0
   0
LINE
   8
LEVEL100
   6
CONTINUOUS
  62
7
  10
 1423.00
  20
 216.000
  30
0.0
  11
 1423.00
  21
 188.000
  31
0.0
   0
LINE
   8
LEVEL100
   6
CONTINUOUS
  62
7
  10
 1227.00
  20
 188.000
  30
0.0
  11
 1227.00
  21
 124.000
  31
0.0
   0
LINE
   8
LEVEL100
   6
CONTINUOUS
  62
7
  10
 1161.00
  20
 66.0000
  30
0.0
  11
 1181.00
  21
 86.0000
  31
0.0
   0
CIRCLE
   8
LEVEL100
   6
CONTINUOUS
  62
7
  10
 1133.00
  20
 6.00000
  30
0.0
  40
 1.60000
   0
CIRCLE
   8
LEVEL100
   6
CONTINUOUS
  62
7
  10
 1161.00
  20
 6.00000
  30
0.0
  40
 1.60000
   0
CIRCLE
   8
LEVEL100
   6
CONTINUOUS
  62
7
  10
 1133.00
  20
 6.00000
  30
0.0
  40
 1.00000
   0
CIRCLE
   8
LEVEL100
   6
CONTINUOUS
  62
7
  10
 1161.00
  20
 6.00000
  30
0.0
  40
 1.00000
   0
LINE
   8
LEVEL100
   6
CONTINUOUS
  62
7
  10
 1284.00
  20
 22.0000
  30
0.0
  11
 1284.00
  21
 26.0000
  31
0.0
   0
LINE
   8
LEVEL100
   6
CONTINUOUS
  62
7
  10
 1284.00
  20
 26.0000
  30
0.0
  11
 1296.00
  21
 26.0000
  31
0.0
   0
LINE
   8
LEVEL100
   6
CONTINUOUS
  62
7
  10
 1296.00
  20
 26.0000
  30
0.0
  11
 1296.00
  21
 22.0000
  31
0.0
   0
LINE
   8
LEVEL100
   6
CONTINUOUS
  62
7
  10
 1296.00
  20
 22.0000
  30
0.0
  11
 1284.00
  21
 22.0000
  31
0.0
   0
LINE
   8
LEVEL100
   6
CONTINUOUS
  62
7
  10
 1105.00
  20
0.0
  30
0.0
  11
 1105.00
  21
 216.000
  31
0.0
   0
LINE
   8
LEVEL100
   6
CONTINUOUS
  62
7
  10
 1189.00
  20
 188.000
  30
0.0
  11
 1189.00
  21
0.0
  31
0.0
   0
LINE
   8
LEVEL100
   6
CONTINUOUS
  62
7
  10
 1105.00
  20
 92.0000
  30
0.0
  11
 1189.00
  21
 92.0000
  31
0.0
   0
TEXT
   8
LEVEL100
  62
7
  10
 1203.00
  20
 14.0000
  30
0.0
  40
 20.0000
   1
ＯＪ
  41
 0.700000
   7
STANDARD
   0
LINE
   8
LEVEL100
   6
CONTINUOUS
  62
7
  10
 1105.00
  20
 188.000
  30
0.0
  11
 1532.60
  21
 188.000
  31
0.0
   0
LINE
   8
LEVEL100
   6
CONTINUOUS
  62
7
  10
 1105.00
  20
 172.000
  30
0.0
  11
 1532.60
  21
 172.000
  31
0.0
   0
LINE
   8
LEVEL100
   6
CONTINUOUS
  62
7
  10
 1105.00
  20
 216.000
  30
0.0
  11
 1532.60
  21
 216.000
  31
0.0
   0
LINE
   8
LEVEL100
   6
CONTINUOUS
  62
7
  10
 1208.60
  20
 1012.00
  30
0.0
  11
 1208.60
  21
 1112.00
  31
0.0
   0
LINE
   8
LEVEL100
   6
CONTINUOUS
  62
7
  10
 1208.60
  20
 1092.00
  30
0.0
  11
 1532.60
  21
 1092.00
  31
0.0
   0
LINE
   8
LEVEL100
   6
CONTINUOUS
  62
7
  10
 1208.60
  20
 1072.00
  30
0.0
  11
 1532.60
  21
 1072.00
  31
0.0
   0
LINE
   8
LEVEL100
   6
CONTINUOUS
  62
7
  10
 1244.60
  20
 1092.00
  30
0.0
  11
 1244.60
  21
 1072.00
  31
0.0
   0
LINE
   8
LEVEL100
   6
CONTINUOUS
  62
7
  10
 1452.60
  20
 1092.00
  30
0.0
  11
 1452.60
  21
 1072.00
  31
0.0
   0
LINE
   8
LEVEL100
   6
CONTINUOUS
  62
7
  10
 1500.60
  20
 1092.00
  30
0.0
  11
 1500.60
  21
 1072.00
  31
0.0
   0
LINE
   8
LEVEL100
   6
CONTINUOUS
  62
7
  10
 1105.00
  20
 124.000
  30
0.0
  11
 1532.60
  21
 124.000
  31
0.0
   0
LINE
   8
LEVEL100
   6
CONTINUOUS
  62
7
  10
 1105.00
  20
 60.0000
  30
0.0
  11
 1532.60
  21
 60.0000
  31
0.0
   0
LINE
   8
LEVEL100
   6
CONTINUOUS
  62
7
  10
 1420.60
  20
 60.0000
  30
0.0
  11
 1420.60
  21
0.0
  31
0.0
   0
LINE
   8
LEVEL100
   6
CONTINUOUS
  62
7
  10
 1436.60
  20
0.0
  30
0.0
  11
 1504.60
  21
 40.0000
  31
0.0
   0
LINE
   8
LEVEL100
   6
CONTINUOUS
  62
7
  10
0.0
  20
 1112.00
  30
0.0
  11
 1532.60
  21
 1112.00
  31
0.0
   0
LINE
   8
LEVEL100
   6
CONTINUOUS
  62
7
  10
 1532.60
  20
 1112.00
  30
0.0
  11
 1532.60
  21
0.0
  31
0.0
   0
LINE
   8
LEVEL100
   6
CONTINUOUS
  62
7
  10
 1532.60
  20
0.0
  30
0.0
  11
0.0
  21
0.0
  31
0.0
   0
LINE
   8
LEVEL100
   6
CONTINUOUS
  62
7
  10
0.0
  20
 1076.80
  30
0.0
  11
 200.600
  21
 1076.80
  31
0.0
   0
LINE
   8
LEVEL100
   6
CONTINUOUS
  62
7
  10
 200.600
  20
 1076.80
  30
0.0
  11
 200.600
  21
 1112.00
  31
0.0
   0
TEXT
   8
LEVEL100
  62
7
  10
 196.600
  20
 1104.40
  30
0.0
  40
 20.0000
   1
ＯＪ．
  50
 180.000
  41
 0.900000
   7
STANDARD
   0
LINE
   8
LEVEL100
   6
CONTINUOUS
  62
7
  10
 128.600
  20
 1096.40
  30
0.0
  11
 116.600
  21
 1096.40
  31
0.0
   0
LINE
   8
LEVEL100
   6
CONTINUOUS
  62
7
  10
 116.600
  20
 1096.40
  30
0.0
  11
 116.600
  21
 1092.40
  31
0.0
   0
LINE
   8
LEVEL100
   6
CONTINUOUS
  62
7
  10
 116.600
  20
 1092.40
  30
0.0
  11
 128.600
  21
 1092.40
  31
0.0
   0
LINE
   8
LEVEL100
   6
CONTINUOUS
  62
7
  10
 128.600
  20
 1092.40
  30
0.0
  11
 128.600
  21
 1096.40
  31
0.0
   0
TEXT
   8
LEVEL100
  62
7
  10
 1149.00
  20
 192.000
  30
0.0
  40
 16.0000
   1
Ｓ．ＩＭＡＮＩＳＨＩ
  41
 0.625000
   7
STANDARD
   0
TEXT
   8
LEVEL100
  62
3
  10
 1265.00
  20
 124.000
  30
0.0
  40
 20.0000
   1
＊＊＊＊＊＊＊＊＊＊＊＊＊＊
  41
 0.700000
   7
STANDARD
   0
TEXT
   8
LEVEL100
  62
3
  10
 1437.79
  20
 21.2000
  30
0.0
  40
 20.0000
   1
＊＊
  41
 0.630000
   7
STANDARD
  72
1
  11
 1450.39
  21
 21.2000
  31
0.0
   0
TEXT
   8
LEVEL003
  62
3
  10
 30.7422
  20
 505.000
  30
0.0
  40
 16.0000
   1
Ｒｃ３／８
   7
STANDARD
   0
TEXT
   8
LEVEL003
  62
3
  10
 30.7422
  20
 483.667
  30
0.0
  40
 16.0000
   1
　（Ａ）
   7
STANDARD
   0
TEXT
   8
LEVEL003
  62
3
  10
 186.262
  20
 505.000
  30
0.0
  40
 16.0000
   1
Ｒｃ３／８
   7
STANDARD
   0
TEXT
   8
LEVEL003
  62
3
  10
 186.262
  20
 483.667
  30
0.0
  40
 16.0000
   1
　（Ｂ）
   7
STANDARD
   0
TEXT
   8
LEVEL003
  62
3
  10
 241.340
  20
 918.263
  30
0.0
  40
 16.0000
   1
Ｎ
   7
STANDARD
   0
LINE
   8
LEVEL003
   6
CONTINUOUS
  62
3
  10
 337.027
  20
 865.276
  30
0.0
  11
 321.340
  21
 898.263
  31
0.0
   0
LINE
   8
LEVEL003
   6
CONTINUOUS
  62
3
  10
 321.340
  20
 898.263
  30
0.0
  11
 341.340
  21
 898.263
  31
0.0
   0
LINE
   8
LEVEL003
   6
CONTINUOUS
  62
3
  10
 337.027
  20
 865.276
  30
0.0
  11
 333.784
  21
 877.022
  31
0.0
   0
LINE
   8
LEVEL003
   6
CONTINUOUS
  62
3
  10
 337.027
  20
 865.276
  30
0.0
  11
 329.963
  21
 875.204
  31
0.0
   0
LINE
   8
LEVEL003
   6
CONTINUOUS
  62
3
  10
 278.329
  20
 888.917
  30
0.0
  11
 261.340
  21
 918.263
  31
0.0
   0
LINE
   8
LEVEL003
   6
CONTINUOUS
  62
3
  10
 261.340
  20
 918.263
  30
0.0
  11
 241.340
  21
 918.263
  31
0.0
   0
LINE
   8
LEVEL003
   6
CONTINUOUS
  62
3
  10
 278.329
  20
 888.917
  30
0.0
  11
 274.148
  21
 900.362
  31
0.0
   0
LINE
   8
LEVEL003
   6
CONTINUOUS
  62
3
  10
 278.329
  20
 888.917
  30
0.0
  11
 270.486
  21
 898.242
  31
0.0
   0
LINE
   8
LEVEL003
   6
CONTINUOUS
  62
3
  10
 220.394
  20
 864.927
  30
0.0
  11
 201.340
  21
 898.263
  31
0.0
   0
LINE
   8
LEVEL003
   6
CONTINUOUS
  62
3
  10
 201.340
  20
 898.263
  30
0.0
  11
 181.340
  21
 898.263
  31
0.0
   0
LINE
   8
LEVEL003
   6
CONTINUOUS
  62
3
  10
 220.394
  20
 864.927
  30
0.0
  11
 216.276
  21
 876.395
  31
0.0
   0
LINE
   8
LEVEL003
   6
CONTINUOUS
  62
3
  10
 220.394
  20
 864.927
  30
0.0
  11
 212.602
  21
 874.295
  31
0.0
   0
TEXT
   8
LEVEL003
  62
3
  10
 181.340
  20
 898.263
  30
0.0
  40
 16.0000
   1
Ｂ
   7
STANDARD
   0
TEXT
   8
LEVEL003
  62
3
  10
 321.340
  20
 898.263
  30
0.0
  40
 16.0000
   1
Ａ
   7
STANDARD
   0
LINE
   8
LEVEL022
   6
CONTINUOUS
  62
3
  10
 319.723
  20
 790.651
  30
0.0
  11
 319.723
  21
 805.875
  31
0.0
   0
ARC
   8
LEVEL022
   6
CONTINUOUS
  62
7
  10
 337.059
  20
 803.013
  30
0.0
  40
 13.7196
  50
 159.744
  51
 200.256
   0
ARC
   8
LEVEL022
   6
CONTINUOUS
  62
7
  10
 337.059
  20
 793.513
  30
0.0
  40
 13.7196
  50
 159.744
  51
 200.256
   0
LINE
   8
LEVEL022
   6
CONTINUOUS
  62
7
  10
 323.340
  20
 788.763
  30
0.0
  11
 323.340
  21
 807.763
  31
0.0
   0
LINE
   8
LEVEL022
   6
CONTINUOUS
  62
7
  10
 323.340
  20
 807.763
  30
0.0
  11
 333.340
  21
 807.763
  31
0.0
   0
LINE
   8
LEVEL022
   6
CONTINUOUS
  62
7
  10
 333.340
  20
 807.763
  30
0.0
  11
 333.340
  21
 788.763
  31
0.0
   0
LINE
   8
LEVEL022
   6
CONTINUOUS
  62
7
  10
 333.340
  20
 788.763
  30
0.0
  11
 323.340
  21
 788.763
  31
0.0
   0
LINE
   8
LEVEL022
   6
CONTINUOUS
  62
7
  10
 324.188
  20
 798.263
  30
0.0
  11
 332.491
  21
 798.263
  31
0.0
   0
LINE
   8
LEVEL022
   6
CONTINUOUS
  62
7
  10
 323.340
  20
 789.682
  30
0.0
  11
 315.340
  21
 789.932
  31
0.0
   0
LINE
   8
LEVEL022
   6
CONTINUOUS
  62
7
  10
 323.340
  20
 806.844
  30
0.0
  11
 315.340
  21
 806.594
  31
0.0
   0
POINT
   8
LEVEL022
  62
7
  10
 315.340
  20
 798.263
  30
0.0
   0
ARC
   8
LEVEL022
   6
CONTINUOUS
  62
7
  10
 319.620
  20
 793.513
  30
0.0
  40
 13.7196
  50
 339.744
  51
 20.2563
   0
ARC
   8
LEVEL022
   6
CONTINUOUS
  62
7
  10
 319.620
  20
 803.013
  30
0.0
  40
 13.7196
  50
 339.744
  51
 20.2563
   0
LINE
   8
LEVEL022
   6
CONTINUOUS
  62
7
  10
 301.521
  20
 806.596
  30
0.0
  11
 292.430
  21
 826.429
  31
0.0
   0
LINE
   8
LEVEL022
   6
CONTINUOUS
  62
7
  10
 265.158
  20
 789.929
  30
0.0
  11
 274.249
  21
 770.096
  31
0.0
   0
LINE
   8
LEVEL022
   6
CONTINUOUS
  62
7
  10
 265.158
  20
 806.596
  30
0.0
  11
 274.249
  21
 826.429
  31
0.0
   0
ARC
   8
LEVEL022
   6
CONTINUOUS
  62
7
  10
 283.339
  20
 798.263
  30
0.0
  40
 20.0000
  50
 335.376
  51
 24.6244
   0
ARC
   8
LEVEL022
   6
CONTINUOUS
  62
7
  10
 283.340
  20
 798.263
  30
0.0
  40
 20.0000
  50
 155.375
  51
 204.624
   0
ARC
   8
LEVEL022
   6
CONTINUOUS
  62
7
  10
 283.339
  20
 774.263
  30
0.0
  40
 10.0000
  50
 204.624
  51
 335.376
   0
ARC
   8
LEVEL022
   6
CONTINUOUS
  62
7
  10
 305.200
  20
 785.956
  30
0.0
  40
 5.00000
  50
 97.1244
  51
 155.376
   0
ARC
   8
LEVEL022
   6
CONTINUOUS
  62
7
  10
 310.340
  20
 792.645
  30
0.0
  40
 1.00000
  50
 277.124
  51
 0.173500E-2
   0
LINE
   8
LEVEL022
   6
CONTINUOUS
  62
7
  10
 310.464
  20
 791.653
  30
0.0
  11
 304.580
  21
 790.918
  31
0.0
   0
LINE
   8
LEVEL022
   6
CONTINUOUS
  62
7
  10
 301.521
  20
 789.929
  30
0.0
  11
 292.430
  21
 770.096
  31
0.0
   0
ARC
   8
LEVEL022
   6
CONTINUOUS
  62
7
  10
 310.340
  20
 803.880
  30
0.0
  40
 1.00000
  50
 0.176206E-2
  51
 82.8756
   0
LINE
   8
LEVEL022
   6
CONTINUOUS
  62
7
  10
 310.464
  20
 804.872
  30
0.0
  11
 304.580
  21
 805.608
  31
0.0
   0
ARC
   8
LEVEL022
   6
CONTINUOUS
  62
7
  10
 305.200
  20
 810.569
  30
0.0
  40
 5.00000
  50
 204.624
  51
 262.876
   0
ARC
   8
LEVEL022
   6
CONTINUOUS
  62
7
  10
 283.339
  20
 798.263
  30
0.0
  40
 20.5000
  50
 155.376
  51
 204.624
   0
LINE
   8
LEVEL022
   6
CONTINUOUS
  62
7
  10
 273.340
  20
 769.679
  30
0.0
  11
 264.249
  21
 789.513
  31
0.0
   0
LINE
   8
LEVEL022
   6
CONTINUOUS
  62
7
  10
 264.249
  20
 807.013
  30
0.0
  11
 273.340
  21
 826.846
  31
0.0
   0
LINE
   8
LEVEL022
   6
CONTINUOUS
  62
7
  10
 293.339
  20
 826.846
  30
0.0
  11
 302.430
  21
 807.013
  31
0.0
   0
ARC
   8
LEVEL022
   6
CONTINUOUS
  62
7
  10
 283.340
  20
 774.263
  30
0.0
  40
 11.0000
  50
 204.625
  51
 335.375
   0
POINT
   8
LEVEL022
  62
7
  10
 257.340
  20
 780.763
  30
0.0
   0
POINT
   8
LEVEL022
  62
7
  10
 257.340
  20
 815.763
  30
0.0
   0
ARC
   8
LEVEL022
   6
CONTINUOUS
  62
7
  10
 283.340
  20
 798.263
  30
0.0
  40
 21.0000
  50
 155.375
  51
 204.624
   0
ARC
   8
LEVEL022
   6
CONTINUOUS
  62
7
  10
 258.340
  20
 827.763
  30
0.0
  40
 1.00000
  50
 90.0000
  51
 180.000
   0
ARC
   8
LEVEL022
   6
CONTINUOUS
  62
7
  10
 258.340
  20
 768.763
  30
0.0
  40
 1.00000
  50
 180.000
  51
 270.000
   0
LINE
   8
LEVEL022
   6
CONTINUOUS
  62
7
  10
 257.340
  20
 827.763
  30
0.0
  11
 257.340
  21
 768.763
  31
0.0
   0
ARC
   8
LEVEL022
   6
CONTINUOUS
  62
7
  10
 273.056
  20
 831.763
  30
0.0
  40
 3.00000
  50
 270.000
  51
 317.268
   0
ARC
   8
LEVEL022
   6
CONTINUOUS
  62
7
  10
 273.056
  20
 764.763
  30
0.0
  40
 3.00000
  50
 42.7319
  51
 90.0000
   0
LINE
   8
LEVEL022
   6
CONTINUOUS
  62
7
  10
 273.056
  20
 767.763
  30
0.0
  11
 258.340
  21
 767.763
  31
0.0
   0
LINE
   8
LEVEL022
   6
CONTINUOUS
  62
7
  10
 273.056
  20
 828.763
  30
0.0
  11
 258.340
  21
 828.763
  31
0.0
   0
ARC
   8
LEVEL022
   6
CONTINUOUS
  62
7
  10
 314.340
  20
 810.263
  30
0.0
  40
 1.00000
  50
 0.132881E-8
  51
 90.0000
   0
ARC
   8
LEVEL022
   6
CONTINUOUS
  62
7
  10
 314.340
  20
 786.263
  30
0.0
  40
 1.00000
  50
 270.000
  51
0.0
   0
LINE
   8
LEVEL022
   6
CONTINUOUS
  62
7
  10
 315.340
  20
 810.263
  30
0.0
  11
 315.340
  21
 786.263
  31
0.0
   0
POINT
   8
LEVEL022
  62
7
  10
 315.340
  20
 798.263
  30
0.0
   0
ARC
   8
LEVEL022
   6
CONTINUOUS
  62
7
  10
 293.623
  20
 831.763
  30
0.0
  40
 3.00000
  50
 222.732
  51
 270.000
   0
ARC
   8
LEVEL022
   6
CONTINUOUS
  62
7
  10
 306.340
  20
 827.763
  30
0.0
  40
 1.00000
  50
0.0
  51
 90.0000
   0
LINE
   8
LEVEL022
   6
CONTINUOUS
  62
7
  10
 293.623
  20
 828.763
  30
0.0
  11
 306.340
  21
 828.763
  31
0.0
   0
ARC
   8
LEVEL022
   6
CONTINUOUS
  62
7
  10
 309.340
  20
 813.263
  30
0.0
  40
 2.00000
  50
 180.000
  51
 270.000
   0
LINE
   8
LEVEL022
   6
CONTINUOUS
  62
7
  10
 309.340
  20
 811.263
  30
0.0
  11
 314.340
  21
 811.263
  31
0.0
   0
LINE
   8
LEVEL022
   6
CONTINUOUS
  62
7
  10
 307.340
  20
 827.763
  30
0.0
  11
 307.340
  21
 813.263
  31
0.0
   0
POINT
   8
LEVEL022
  62
7
  10
 307.340
  20
 820.263
  30
0.0
   0
ARC
   8
LEVEL022
   6
CONTINUOUS
  62
7
  10
 302.407
  20
 782.263
  30
0.0
  40
 3.00000
  50
 89.9989
  51
 155.376
   0
LINE
   8
LEVEL022
   6
CONTINUOUS
  62
7
  10
 302.407
  20
 785.263
  30
0.0
  11
 314.340
  21
 785.263
  31
0.0
   0
LINE
   8
LEVEL022
   6
CONTINUOUS
  62
7
  10
 299.680
  20
 783.513
  30
0.0
  11
 293.339
  21
 769.679
  31
0.0
   0
LINE
   8
LEVEL022
   6
DASHDOT
  62
1
  10
 272.340
  20
 774.263
  30
0.0
  11
 294.340
  21
 774.263
  31
0.0
   0
ARC
   8
LEVEL022
   6
CONTINUOUS
  62
7
  10
 302.538
  20
 809.996
  30
0.0
  40
 10.0000
  50
 183.018
  51
 211.431
   0
ARC
   8
LEVEL022
   6
CONTINUOUS
  62
7
  10
 264.141
  20
 809.996
  30
0.0
  40
 10.0000
  50
 328.569
  51
 356.983
   0
LINE
   8
LEVEL022
   6
CONTINUOUS
  62
7
  10
 298.465
  20
 813.263
  30
0.0
  11
 292.352
  21
 813.263
  31
0.0
   0
LINE
   8
LEVEL022
   6
CONTINUOUS
  62
7
  10
 274.327
  20
 813.263
  30
0.0
  11
 268.214
  21
 813.263
  31
0.0
   0
ARC
   8
LEVEL022
   6
CONTINUOUS
  62
7
  10
 283.339
  20
 798.263
  30
0.0
  40
 14.0000
  50
 16.6010
  51
 48.4987
   0
ARC
   8
LEVEL022
   6
CONTINUOUS
  62
7
  10
 283.340
  20
 798.263
  30
0.0
  40
 14.0000
  50
 131.501
  51
 163.399
   0
ARC
   8
LEVEL022
   6
CONTINUOUS
  62
7
  10
 270.800
  20
 793.263
  30
0.0
  40
 1.00000
  50
 21.7379
  51
 90.0004
   0
ARC
   8
LEVEL022
   6
CONTINUOUS
  62
7
  10
 270.800
  20
 803.263
  30
0.0
  40
 1.00000
  50
 270.003
  51
 338.262
   0
ARC
   8
LEVEL022
   6
CONTINUOUS
  62
7
  10
 295.879
  20
 803.263
  30
0.0
  40
 1.00000
  50
 201.738
  51
 269.997
   0
ARC
   8
LEVEL022
   6
CONTINUOUS
  62
7
  10
 295.879
  20
 793.263
  30
0.0
  40
 1.00000
  50
 90.0031
  51
 158.262
   0
ARC
   8
LEVEL022
   6
CONTINUOUS
  62
7
  10
 273.978
  20
 783.477
  30
0.0
  40
 5.00000
  50
 29.9996
  51
 57.6603
   0
LINE
   8
LEVEL022
   6
CONTINUOUS
  62
7
  10
 281.607
  20
 780.263
  30
0.0
  11
 278.308
  21
 785.977
  31
0.0
   0
ARC
   8
LEVEL022
   6
CONTINUOUS
  62
7
  10
 292.701
  20
 783.477
  30
0.0
  40
 5.00000
  50
 122.338
  51
 150.000
   0
LINE
   8
LEVEL022
   6
CONTINUOUS
  62
7
  10
 285.072
  20
 780.263
  30
0.0
  11
 288.371
  21
 785.977
  31
0.0
   0
ARC
   8
LEVEL022
   6
CONTINUOUS
  62
7
  10
 283.340
  20
 781.263
  30
0.0
  40
 2.00000
  50
 210.000
  51
 330.000
   0
ARC
   8
LEVEL022
   6
CONTINUOUS
  62
7
  10
 283.339
  20
 774.263
  30
0.0
  40
 8.00000
  50
 109.193
  51
 70.8068
   0
ARC
   8
LEVEL022
   6
CONTINUOUS
  62
7
  10
 283.339
  20
 774.263
  30
0.0
  40
 7.13397
  50
 107.862
  51
 72.1377
   0
ARC
   8
LEVEL022
   6
CONTINUOUS
  62
7
  10
 283.339
  20
 798.263
  30
0.0
  40
 14.0000
  50
 196.602
  51
 251.410
   0
ARC
   8
LEVEL022
   6
CONTINUOUS
  62
7
  10
 283.339
  20
 798.263
  30
0.0
  40
 14.0000
  50
 288.590
  51
 343.398
   0
ARC
   8
LEVEL022
   6
CONTINUOUS
  62
7
  10
 283.340
  20
 798.263
  30
0.0
  40
 15.0000
  50
 127.723
  51
 255.573
   0
ARC
   8
LEVEL022
   6
CONTINUOUS
  62
7
  10
 283.340
  20
 798.263
  30
0.0
  40
 15.0000
  50
 284.427
  51
 52.2766
   0
LINE
   8
LEVEL022
   6
CONTINUOUS
  62
7
  10
 298.465
  20
 783.263
  30
0.0
  11
 286.804
  21
 783.263
  31
0.0
   0
LINE
   8
LEVEL022
   6
CONTINUOUS
  62
7
  10
 279.875
  20
 783.263
  30
0.0
  11
 268.214
  21
 783.263
  31
0.0
   0
ARC
   8
LEVEL022
   6
CONTINUOUS
  62
7
  10
 283.339
  20
 798.263
  30
0.0
  40
 12.5000
  50
 246.266
  51
 293.734
   0
ARC
   8
LEVEL022
   6
CONTINUOUS
  62
7
  10
 283.339
  20
 798.263
  30
0.0
  40
 12.5000
  50
 201.739
  51
 237.661
   0
ARC
   8
LEVEL022
   6
CONTINUOUS
  62
7
  10
 283.340
  20
 798.263
  30
0.0
  40
 12.5000
  50
 148.569
  51
 158.262
   0
ARC
   8
LEVEL022
   6
CONTINUOUS
  62
7
  10
 283.340
  20
 798.263
  30
0.0
  40
 12.5000
  50
 166.216
  51
 193.784
   0
ARC
   8
LEVEL022
   6
CONTINUOUS
  62
7
  10
 283.340
  20
 798.263
  30
0.0
  40
 12.5000
  50
 21.7380
  51
 31.4306
   0
ARC
   8
LEVEL022
   6
CONTINUOUS
  62
7
  10
 283.340
  20
 798.263
  30
0.0
  40
 12.5000
  50
 302.339
  51
 338.261
   0
ARC
   8
LEVEL022
   6
CONTINUOUS
  62
7
  10
 283.340
  20
 798.263
  30
0.0
  40
 12.5000
  50
 346.216
  51
 13.7843
   0
LINE
   8
LEVEL022
   6
DASHDOT
  62
1
  10
 272.340
  20
 822.263
  30
0.0
  11
 294.340
  21
 822.263
  31
0.0
   0
ARC
   8
LEVEL022
   6
CONTINUOUS
  62
7
  10
 299.459
  20
 868.423
  30
0.0
  40
 10.0000
  50
 143.703
  51
 183.017
   0
ARC
   8
LEVEL022
   6
CONTINUOUS
  62
7
  10
 267.220
  20
 868.423
  30
0.0
  40
 10.0000
  50
 356.983
  51
 36.2973
   0
LINE
   8
LEVEL022
   6
CONTINUOUS
  62
7
  10
 274.127
  20
 809.470
  30
0.0
  11
 277.207
  21
 867.897
  31
0.0
   0
LINE
   8
LEVEL022
   6
CONTINUOUS
  62
7
  10
 289.473
  20
 867.897
  30
0.0
  11
 292.552
  21
 809.469
  31
0.0
   0
ARC
   8
LEVEL022
   6
CONTINUOUS
  62
7
  10
 283.340
  20
 880.263
  30
0.0
  40
 10.0000
  50
 239.793
  51
 300.207
   0
ARC
   8
LEVEL022
   6
CONTINUOUS
  62
7
  10
 283.340
  20
 880.263
  30
0.0
  40
 10.0000
  50
 323.703
  51
 216.297
   0
LINE
   8
LEVEL022
   6
DASHDOT
  62
1
  10
 283.340
  20
 758.263
  30
0.0
  11
 283.340
  21
 893.263
  31
0.0
   0
LINE
   8
LEVEL022
   6
DASHDOT
  62
1
  10
 297.340
  20
 880.263
  30
0.0
  11
 269.340
  21
 880.263
  31
0.0
   0
LINE
   8
LEVEL022
   6
DASHDOT
  62
1
  10
 257.340
  20
 815.763
  30
0.0
  11
 272.340
  21
 815.763
  31
0.0
   0
LINE
   8
LEVEL022
   6
DASHDOT
  62
1
  10
 257.340
  20
 780.763
  30
0.0
  11
 272.340
  21
 780.763
  31
0.0
   0
ARC
   8
LEVEL022
   6
CONTINUOUS
  62
7
  10
 283.340
  20
 822.263
  30
0.0
  40
 10.0000
  50
 24.6247
  51
 34.5185
   0
ARC
   8
LEVEL022
   6
CONTINUOUS
  62
7
  10
 283.340
  20
 822.263
  30
0.0
  40
 10.0000
  50
 145.483
  51
 155.377
   0
TEXT
   8
LEVEL022
  62
7
  10
 259.340
  20
 783.263
  30
0.0
  40
 5.00000
   1
Ｂ
  50
 270.000
   7
STANDARD
  72
1
  11
 259.340
  21
 780.763
  31
0.0
   0
TEXT
   8
LEVEL022
  62
7
  10
 259.340
  20
 818.263
  30
0.0
  40
 5.00000
   1
Ａ
  50
 270.000
   7
STANDARD
  72
1
  11
 259.340
  21
 815.763
  31
0.0
   0
TEXT
   8
LEVEL022
  62
7
  10
 305.340
  20
 817.763
  30
0.0
  40
 5.00000
   1
Ｔ
  50
 90.0000
   7
STANDARD
  72
1
  11
 305.340
  21
 820.263
  31
0.0
   0
TEXT
   8
LEVEL022
  62
7
  10
 313.340
  20
 795.763
  30
0.0
  40
 5.00000
   1
Ｐ
  50
 90.0000
   7
STANDARD
  72
1
  11
 313.340
  21
 798.263
  31
0.0
   0
LINE
   8
LEVEL022
   6
CONTINUOUS
  62
7
  10
 337.340
  20
 813.263
  30
0.0
  11
 337.340
  21
 827.263
  31
0.0
   0
LINE
   8
LEVEL022
   6
CONTINUOUS
  62
7
  10
 337.340
  20
 827.263
  30
0.0
  11
 330.340
  21
 827.263
  31
0.0
   0
LINE
   8
LEVEL022
   6
CONTINUOUS
  62
7
  10
 330.340
  20
 827.263
  30
0.0
  11
 330.340
  21
 813.263
  31
0.0
   0
LINE
   8
LEVEL022
   6
CONTINUOUS
  62
7
  10
 330.340
  20
 813.263
  30
0.0
  11
 337.340
  21
 813.263
  31
0.0
   0
ARC
   8
LEVEL022
   6
CONTINUOUS
  62
7
  10
 340.449
  20
 816.763
  30
0.0
  40
 10.1093
  50
 159.744
  51
 200.256
   0
ARC
   8
LEVEL022
   6
CONTINUOUS
  62
7
  10
 340.449
  20
 823.763
  30
0.0
  40
 10.1093
  50
 159.744
  51
 200.256
   0
LINE
   8
LEVEL022
   6
CONTINUOUS
  62
7
  10
 336.714
  20
 820.263
  30
0.0
  11
 330.965
  21
 820.263
  31
0.0
   0
LINE
   8
LEVEL022
   6
CONTINUOUS
  62
3
  10
 308.340
  20
 826.017
  30
0.0
  11
 308.340
  21
 814.509
  31
0.0
   0
ARC
   8
LEVEL022
   6
CONTINUOUS
  62
7
  10
 316.840
  20
 824.263
  30
0.0
  40
 0.500000
  50
 180.000
  51
 270.000
   0
ARC
   8
LEVEL022
   6
CONTINUOUS
  62
7
  10
 316.840
  20
 816.263
  30
0.0
  40
 0.500000
  50
 90.0000
  51
 180.000
   0
LINE
   8
LEVEL022
   6
CONTINUOUS
  62
7
  10
 316.840
  20
 823.763
  30
0.0
  11
 330.340
  21
 823.763
  31
0.0
   0
LINE
   8
LEVEL022
   6
CONTINUOUS
  62
7
  10
 316.840
  20
 816.763
  30
0.0
  11
 330.340
  21
 816.763
  31
0.0
   0
LINE
   8
LEVEL022
   6
CONTINUOUS
  62
7
  10
 316.340
  20
 813.263
  30
0.0
  11
 316.340
  21
 827.263
  31
0.0
   0
LINE
   8
LEVEL022
   6
CONTINUOUS
  62
7
  10
 316.340
  20
 827.263
  30
0.0
  11
 311.340
  21
 827.263
  31
0.0
   0
LINE
   8
LEVEL022
   6
CONTINUOUS
  62
7
  10
 311.340
  20
 827.263
  30
0.0
  11
 311.340
  21
 813.263
  31
0.0
   0
LINE
   8
LEVEL022
   6
CONTINUOUS
  62
7
  10
 311.340
  20
 813.263
  30
0.0
  11
 316.340
  21
 813.263
  31
0.0
   0
LINE
   8
LEVEL022
   6
CONTINUOUS
  62
7
  10
 315.714
  20
 820.263
  30
0.0
  11
 311.965
  21
 820.263
  31
0.0
   0
ARC
   8
LEVEL022
   6
CONTINUOUS
  62
7
  10
 321.449
  20
 823.763
  30
0.0
  40
 10.1093
  50
 159.744
  51
 200.256
   0
ARC
   8
LEVEL022
   6
CONTINUOUS
  62
7
  10
 321.449
  20
 816.763
  30
0.0
  40
 10.1093
  50
 159.744
  51
 200.256
   0
LINE
   8
LEVEL022
   6
CONTINUOUS
  62
7
  10
 307.340
  20
 813.684
  30
0.0
  11
 311.340
  21
 813.559
  31
0.0
   0
LINE
   8
LEVEL022
   6
CONTINUOUS
  62
7
  10
 307.340
  20
 826.841
  30
0.0
  11
 311.340
  21
 826.966
  31
0.0
   0
POINT
   8
LEVEL022
  62
7
  10
 307.340
  20
 820.263
  30
0.0
   0
LINE
   8
LEVEL022
   6
DASHDOT
  62
1
  10
 301.340
  20
 820.263
  30
0.0
  11
 350.340
  21
 820.263
  31
0.0
   0
LINE
   8
LEVEL022
   6
DASHDOT
  62
1
  10
 341.340
  20
 798.263
  30
0.0
  11
 253.340
  21
 798.263
  31
0.0
   0
ARC
   8
LEVEL022
   6
DASHDOT
  62
1
  10
 245.126
  20
 859.272
  30
0.0
  40
 10.0000
  50
 188.703
  51
 228.017
   0
ARC
   8
LEVEL022
   6
DASHDOT
  62
1
  10
 222.330
  20
 836.476
  30
0.0
  40
 10.0000
  50
 41.9827
  51
 81.2970
   0
ARC
   8
LEVEL022
   6
DASHDOT
  62
1
  10
 225.357
  20
 856.245
  30
0.0
  40
 10.0000
  50
 284.793
  51
 345.207
   0
ARC
   8
LEVEL022
   6
DASHDOT
  62
1
  10
 225.357
  20
 856.245
  30
0.0
  40
 10.0000
  50
 8.70245
  51
 261.297
   0
LINE
   8
LEVEL022
   6
DASHDOT
  62
1
  10
 235.256
  20
 866.145
  30
0.0
  11
 215.457
  21
 846.346
  31
0.0
   0
LINE
   8
LEVEL022
   6
DASHDOT
  62
1
  10
 238.437
  20
 851.838
  30
0.0
  11
 256.743
  21
 835.366
  31
0.0
   0
LINE
   8
LEVEL022
   6
DASHDOT
  62
1
  10
 251.059
  20
 830.543
  30
0.0
  11
 216.164
  21
 865.438
  31
0.0
   0
LINE
   8
LEVEL022
   6
DASHDOT
  62
1
  10
 246.237
  20
 824.859
  30
0.0
  11
 229.764
  21
 843.165
  31
0.0
   0
ARC
   8
LEVEL022
   6
DASHDOT
  62
1
  10
 321.553
  20
 859.272
  30
0.0
  40
 10.0000
  50
 311.983
  51
 351.297
   0
ARC
   8
LEVEL022
   6
DASHDOT
  62
1
  10
 341.322
  20
 856.245
  30
0.0
  40
 10.0000
  50
 194.793
  51
 255.207
   0
ARC
   8
LEVEL022
   6
DASHDOT
  62
1
  10
 341.322
  20
 856.246
  30
0.0
  40
 10.0000
  50
 278.702
  51
 171.297
   0
LINE
   8
LEVEL022
   6
DASHDOT
  62
1
  10
 351.222
  20
 846.346
  30
0.0
  11
 331.423
  21
 866.145
  31
0.0
   0
LINE
   8
LEVEL022
   6
DASHDOT
  62
1
  10
 309.936
  20
 835.366
  30
0.0
  11
 328.242
  21
 851.838
  31
0.0
   0
LINE
   8
LEVEL022
   6
DASHDOT
  62
1
  10
 336.915
  20
 843.165
  30
0.0
  11
 320.442
  21
 824.859
  31
0.0
   0
LINE
   8
LEVEL022
   6
DASHDOT
  62
1
  10
 315.620
  20
 830.543
  30
0.0
  11
 350.515
  21
 865.438
  31
0.0
   0
LINE
   8
LEVEL022
   6
CONTINUOUS
  62
7
  10
 311.340
  20
 803.880
  30
0.0
  11
 311.340
  21
 792.645
  31
0.0
   0
LINE
   8
LEVEL022
   6
CONTINUOUS
  62
3
  10
 315.340
  20
 805.738
  30
0.0
  11
 319.723
  21
 805.875
  31
0.0
   0
LINE
   8
LEVEL022
   6
CONTINUOUS
  62
3
  10
 319.723
  20
 805.875
  30
0.0
  11
 323.340
  21
 806.844
  31
0.0
   0
LINE
   8
LEVEL022
   6
CONTINUOUS
  62
3
  10
 333.340
  20
 806.844
  30
0.0
  11
 336.956
  21
 805.875
  31
0.0
   0
LINE
   8
LEVEL022
   6
CONTINUOUS
  62
3
  10
 336.956
  20
 805.875
  30
0.0
  11
 341.340
  21
 805.738
  31
0.0
   0
LINE
   8
LEVEL022
   6
CONTINUOUS
  62
3
  10
 333.340
  20
 789.682
  30
0.0
  11
 336.956
  21
 790.651
  31
0.0
   0
LINE
   8
LEVEL022
   6
CONTINUOUS
  62
3
  10
 336.956
  20
 790.651
  30
0.0
  11
 341.340
  21
 790.788
  31
0.0
   0
LINE
   8
LEVEL022
   6
CONTINUOUS
  62
3
  10
 315.340
  20
 790.788
  30
0.0
  11
 319.723
  21
 790.651
  31
0.0
   0
LINE
   8
LEVEL022
   6
CONTINUOUS
  62
3
  10
 319.723
  20
 790.651
  30
0.0
  11
 323.340
  21
 789.682
  31
0.0
   0
LINE
   8
LEVEL022
   6
CONTINUOUS
  62
3
  10
 307.340
  20
 825.985
  30
0.0
  11
 308.340
  21
 826.017
  31
0.0
   0
LINE
   8
LEVEL022
   6
CONTINUOUS
  62
3
  10
 308.340
  20
 826.017
  30
0.0
  11
 311.340
  21
 826.966
  31
0.0
   0
LINE
   8
LEVEL022
   6
CONTINUOUS
  62
3
  10
 307.340
  20
 814.540
  30
0.0
  11
 308.340
  21
 814.509
  31
0.0
   0
LINE
   8
LEVEL022
   6
CONTINUOUS
  62
3
  10
 308.340
  20
 814.509
  30
0.0
  11
 311.340
  21
 813.559
  31
0.0
   0
LINE
   8
LEVEL022
   6
CONTINUOUS
  62
7
  10
 270.260
  20
 817.727
  30
0.0
  11
 269.710
  21
 817.727
  31
0.0
   0
LINE
   8
LEVEL022
   6
CONTINUOUS
  62
7
  10
 269.710
  20
 817.727
  30
0.0
  11
 264.704
  21
 806.804
  31
0.0
   0
LINE
   8
LEVEL022
   6
CONTINUOUS
  62
7
  10
 266.031
  20
 808.500
  30
0.0
  11
 268.340
  21
 806.192
  31
0.0
   0
LINE
   8
LEVEL022
   6
CONTINUOUS
  62
7
  10
 268.340
  20
 806.192
  30
0.0
  11
 268.734
  21
 801.681
  31
0.0
   0
LINE
   8
LEVEL022
   6
CONTINUOUS
  62
7
  10
 270.800
  20
 802.263
  30
0.0
  11
 269.340
  21
 802.263
  31
0.0
   0
LINE
   8
LEVEL022
   6
CONTINUOUS
  62
7
  10
 269.340
  20
 802.263
  30
0.0
  11
 269.340
  21
 794.263
  31
0.0
   0
LINE
   8
LEVEL022
   6
CONTINUOUS
  62
7
  10
 269.340
  20
 794.263
  30
0.0
  11
 270.800
  21
 794.263
  31
0.0
   0
LINE
   8
LEVEL022
   6
CONTINUOUS
  62
7
  10
 266.031
  20
 788.025
  30
0.0
  11
 268.340
  21
 790.334
  31
0.0
   0
LINE
   8
LEVEL022
   6
CONTINUOUS
  62
7
  10
 268.340
  20
 790.334
  30
0.0
  11
 268.734
  21
 794.845
  31
0.0
   0
LINE
   8
LEVEL022
   6
CONTINUOUS
  62
7
  10
 270.260
  20
 778.798
  30
0.0
  11
 269.710
  21
 778.798
  31
0.0
   0
LINE
   8
LEVEL022
   6
CONTINUOUS
  62
7
  10
 269.710
  20
 778.798
  30
0.0
  11
 264.704
  21
 789.721
  31
0.0
   0
LINE
   8
LEVEL022
   6
CONTINUOUS
  62
7
  10
 279.340
  20
 771.953
  30
0.0
  11
 279.340
  21
 776.572
  31
0.0
   0
LINE
   8
LEVEL022
   6
CONTINUOUS
  62
7
  10
 279.340
  20
 776.572
  30
0.0
  11
 283.340
  21
 778.882
  31
0.0
   0
LINE
   8
LEVEL022
   6
CONTINUOUS
  62
7
  10
 283.340
  20
 778.882
  30
0.0
  11
 287.340
  21
 776.572
  31
0.0
   0
LINE
   8
LEVEL022
   6
CONTINUOUS
  62
7
  10
 287.340
  20
 776.572
  30
0.0
  11
 287.340
  21
 771.953
  31
0.0
   0
LINE
   8
LEVEL022
   6
CONTINUOUS
  62
7
  10
 287.340
  20
 771.953
  30
0.0
  11
 283.340
  21
 769.644
  31
0.0
   0
LINE
   8
LEVEL022
   6
CONTINUOUS
  62
7
  10
 283.340
  20
 769.644
  30
0.0
  11
 279.340
  21
 771.953
  31
0.0
   0
LINE
   8
LEVEL022
   6
CONTINUOUS
  62
7
  10
 297.945
  20
 794.845
  30
0.0
  11
 298.340
  21
 790.334
  31
0.0
   0
LINE
   8
LEVEL022
   6
CONTINUOUS
  62
7
  10
 298.340
  20
 790.334
  30
0.0
  11
 300.648
  21
 788.025
  31
0.0
   0
LINE
   8
LEVEL022
   6
CONTINUOUS
  62
7
  10
 295.879
  20
 802.263
  30
0.0
  11
 297.340
  21
 802.263
  31
0.0
   0
LINE
   8
LEVEL022
   6
CONTINUOUS
  62
7
  10
 297.340
  20
 802.263
  30
0.0
  11
 297.340
  21
 794.263
  31
0.0
   0
LINE
   8
LEVEL022
   6
CONTINUOUS
  62
7
  10
 297.340
  20
 794.263
  30
0.0
  11
 295.879
  21
 794.263
  31
0.0
   0
LINE
   8
LEVEL022
   6
CONTINUOUS
  62
7
  10
 297.945
  20
 801.681
  30
0.0
  11
 298.340
  21
 806.192
  31
0.0
   0
LINE
   8
LEVEL022
   6
CONTINUOUS
  62
7
  10
 298.340
  20
 806.192
  30
0.0
  11
 300.648
  21
 808.500
  31
0.0
   0
ARC
   8
LEVEL022
   6
CONTINUOUS
  62
7
  10
 283.340
  20
 822.263
  30
0.0
  40
 11.0000
  50
 137.799
  51
 155.375
   0
ARC
   8
LEVEL022
   6
CONTINUOUS
  62
7
  10
 283.340
  20
 822.263
  30
0.0
  40
 11.0000
  50
 24.6247
  51
 42.2014
   0
ARC
   8
LEVEL022
   6
CONTINUOUS
  62
7
  10
 306.230
  20
 816.763
  30
0.0
  40
 10.1093
  50
 339.744
  51
 20.2560
   0
ARC
   8
LEVEL022
   6
CONTINUOUS
  62
7
  10
 306.230
  20
 823.763
  30
0.0
  40
 10.1093
  50
 339.744
  51
 20.2558
   0
LINE
   8
LEVEL003
   6
CONTINUOUS
  62
3
  10
 373.183
  20
 848.263
  30
0.0
  11
 198.429
  21
 848.263
  31
0.0
   0
LINE
   8
LEVEL003
   6
CONTINUOUS
  62
3
  10
 249.340
  20
 805.263
  30
0.0
  11
 198.429
  21
 805.263
  31
0.0
   0
LINE
   8
LEVEL003
   6
CONTINUOUS
  62
3
  10
 206.429
  20
 848.263
  30
0.0
  11
 206.429
  21
 805.263
  31
0.0
   0
LINE
   8
LEVEL003
   6
CONTINUOUS
  62
3
  10
 206.429
  20
 848.263
  30
0.0
  11
 204.313
  21
 836.263
  31
0.0
   0
LINE
   8
LEVEL003
   6
CONTINUOUS
  62
3
  10
 206.429
  20
 848.263
  30
0.0
  11
 208.545
  21
 836.263
  31
0.0
   0
LINE
   8
LEVEL003
   6
CONTINUOUS
  62
3
  10
 206.429
  20
 805.263
  30
0.0
  11
 208.545
  21
 817.263
  31
0.0
   0
LINE
   8
LEVEL003
   6
CONTINUOUS
  62
3
  10
 206.429
  20
 805.263
  30
0.0
  11
 204.313
  21
 817.263
  31
0.0
   0
TEXT
   8
LEVEL003
  62
3
  10
 203.229
  20
 818.763
  30
0.0
  40
 16.0000
   1
43
  50
 90.0000
  41
 0.500000
   7
STANDARD
  72
1
  11
 203.229
  21
 826.763
  31
0.0
   0
LINE
   8
LEVEL003
   6
CONTINUOUS
  62
3
  10
 249.340
  20
 805.263
  30
0.0
  11
 198.429
  21
 805.263
  31
0.0
   0
LINE
   8
LEVEL003
   6
CONTINUOUS
  62
3
  10
 373.966
  20
 753.263
  30
0.0
  11
 198.429
  21
 753.263
  31
0.0
   0
LINE
   8
LEVEL003
   6
CONTINUOUS
  62
3
  10
 206.429
  20
 805.263
  30
0.0
  11
 206.429
  21
 753.263
  31
0.0
   0
LINE
   8
LEVEL003
   6
CONTINUOUS
  62
3
  10
 206.429
  20
 805.263
  30
0.0
  11
 204.313
  21
 793.263
  31
0.0
   0
LINE
   8
LEVEL003
   6
CONTINUOUS
  62
3
  10
 206.429
  20
 805.263
  30
0.0
  11
 208.545
  21
 793.263
  31
0.0
   0
LINE
   8
LEVEL003
   6
CONTINUOUS
  62
3
  10
 206.429
  20
 753.263
  30
0.0
  11
 208.545
  21
 765.263
  31
0.0
   0
LINE
   8
LEVEL003
   6
CONTINUOUS
  62
3
  10
 206.429
  20
 753.263
  30
0.0
  11
 204.313
  21
 765.263
  31
0.0
   0
TEXT
   8
LEVEL003
  62
3
  10
 203.229
  20
 771.263
  30
0.0
  40
 16.0000
   1
52
  50
 90.0000
  41
 0.500000
   7
STANDARD
  72
1
  11
 203.229
  21
 779.263
  31
0.0
   0
LINE
   8
LEVEL003
   6
CONTINUOUS
  62
3
  10
 373.183
  20
 848.263
  30
0.0
  11
 158.429
  21
 848.263
  31
0.0
   0
LINE
   8
LEVEL003
   6
CONTINUOUS
  62
3
  10
 373.966
  20
 753.263
  30
0.0
  11
 158.429
  21
 753.263
  31
0.0
   0
LINE
   8
LEVEL003
   6
CONTINUOUS
  62
3
  10
 166.429
  20
 848.263
  30
0.0
  11
 166.429
  21
 753.263
  31
0.0
   0
LINE
   8
LEVEL003
   6
CONTINUOUS
  62
3
  10
 166.429
  20
 848.263
  30
0.0
  11
 164.313
  21
 836.263
  31
0.0
   0
LINE
   8
LEVEL003
   6
CONTINUOUS
  62
3
  10
 166.429
  20
 848.263
  30
0.0
  11
 168.545
  21
 836.263
  31
0.0
   0
LINE
   8
LEVEL003
   6
CONTINUOUS
  62
3
  10
 166.429
  20
 753.263
  30
0.0
  11
 168.545
  21
 765.263
  31
0.0
   0
LINE
   8
LEVEL003
   6
CONTINUOUS
  62
3
  10
 166.429
  20
 753.263
  30
0.0
  11
 164.313
  21
 765.263
  31
0.0
   0
TEXT
   8
LEVEL003
  62
3
  10
 163.229
  20
 792.763
  30
0.0
  40
 16.0000
   1
95
  50
 90.0000
  41
 0.500000
   7
STANDARD
  72
1
  11
 163.229
  21
 800.763
  31
0.0
   0
ARC
   8
LEVEL022
   6
DASHDOT
  62
1
  10
 344.348
  20
 836.476
  30
0.0
  40
 10.0000
  50
 98.7026
  51
 138.017
   0
LINE
   8
LEVEL022
   6
CONTINUOUS
  62
7
  10
 341.340
  20
 813.684
  30
0.0
  11
 337.340
  21
 813.559
  31
0.0
   0
LINE
   8
LEVEL022
   6
CONTINUOUS
  62
7
  10
 341.340
  20
 826.841
  30
0.0
  11
 337.340
  21
 826.966
  31
0.0
   0
ARC
   8
LEVEL022
   6
CONTINUOUS
  62
7
  10
 327.230
  20
 816.763
  30
0.0
  40
 10.1093
  50
 339.744
  51
 20.2560
   0
ARC
   8
LEVEL022
   6
CONTINUOUS
  62
7
  10
 327.230
  20
 823.763
  30
0.0
  40
 10.1093
  50
 339.744
  51
 20.2558
   0
LINE
   8
LEVEL022
   6
CONTINUOUS
  62
3
  10
 336.956
  20
 790.651
  30
0.0
  11
 336.956
  21
 805.875
  31
0.0
   0
LINE
   8
LEVEL022
   6
CONTINUOUS
  62
3
  10
 337.340
  20
 826.966
  30
0.0
  11
 340.340
  21
 826.017
  31
0.0
   0
LINE
   8
LEVEL022
   6
CONTINUOUS
  62
3
  10
 340.340
  20
 826.017
  30
0.0
  11
 341.340
  21
 825.985
  31
0.0
   0
LINE
   8
LEVEL022
   6
CONTINUOUS
  62
3
  10
 337.340
  20
 813.559
  30
0.0
  11
 340.340
  21
 814.509
  31
0.0
   0
LINE
   8
LEVEL022
   6
CONTINUOUS
  62
3
  10
 340.340
  20
 814.509
  30
0.0
  11
 341.340
  21
 814.540
  31
0.0
   0
LINE
   8
LEVEL022
   6
CONTINUOUS
  62
3
  10
 340.340
  20
 826.017
  30
0.0
  11
 340.340
  21
 814.509
  31
0.0
   0
TEXT
   8
LEVEL003
  62
3
  10
 199.383
  20
 970.261
  30
0.0
  40
 16.0000
   1
レリ－スバルブ
   7
STANDARD
   0
LINE
   8
LEVEL003
   6
CONTINUOUS
  62
3
  10
 361.152
  20
 888.254
  30
0.0
  11
 325.964
  21
 968.540
  31
0.0
   0
LINE
   8
LEVEL003
   6
CONTINUOUS
  62
3
  10
 325.964
  20
 968.540
  30
0.0
  11
 198.844
  21
 968.540
  31
0.0
   0
LINE
   8
LEVEL003
   6
CONTINUOUS
  62
3
  10
 361.152
  20
 888.254
  30
0.0
  11
 358.273
  21
 900.094
  31
0.0
   0
LINE
   8
LEVEL003
   6
CONTINUOUS
  62
3
  10
 361.152
  20
 888.254
  30
0.0
  11
 354.397
  21
 898.395
  31
0.0
   0
LINE
   8
LEVEL003
   6
CONTINUOUS
  62
3
  10
 128.486
  20
 359.701
  30
0.0
  11
 108.460
  21
 503.822
  31
0.0
   0
LINE
   8
LEVEL003
   6
CONTINUOUS
  62
3
  10
 108.460
  20
 503.822
  30
0.0
  11
 28.1216
  21
 503.822
  31
0.0
   0
LINE
   8
LEVEL003
   6
CONTINUOUS
  62
3
  10
 128.486
  20
 359.701
  30
0.0
  11
 128.930
  21
 371.878
  31
0.0
   0
LINE
   8
LEVEL003
   6
CONTINUOUS
  62
3
  10
 128.486
  20
 359.701
  30
0.0
  11
 124.738
  21
 371.296
  31
0.0
   0
LINE
   8
LEVEL003
   6
CONTINUOUS
  62
3
  10
 165.817
  20
 359.696
  30
0.0
  11
 186.581
  21
 504.213
  31
0.0
   0
LINE
   8
LEVEL003
   6
CONTINUOUS
  62
3
  10
 186.581
  20
 504.213
  30
0.0
  11
 268.876
  21
 504.213
  31
0.0
   0
LINE
   8
LEVEL003
   6
CONTINUOUS
  62
3
  10
 165.817
  20
 359.696
  30
0.0
  11
 169.618
  21
 371.273
  31
0.0
   0
LINE
   8
LEVEL003
   6
CONTINUOUS
  62
3
  10
 165.817
  20
 359.696
  30
0.0
  11
 165.429
  21
 371.874
  31
0.0
   0
LINE
   8
LEVEL003
   6
CONTINUOUS
  62
3
  10
 292.594
  20
 420.988
  30
0.0
  11
 315.732
  21
 504.580
  31
0.0
   0
LINE
   8
LEVEL003
   6
CONTINUOUS
  62
3
  10
 292.594
  20
 420.988
  30
0.0
  11
 297.834
  21
 431.988
  31
0.0
   0
LINE
   8
LEVEL003
   6
CONTINUOUS
  62
3
  10
 292.594
  20
 420.988
  30
0.0
  11
 293.755
  21
 433.117
  31
0.0
   0
TEXT
   8
LEVEL003
  62
3
  10
 311.200
  20
 510.400
  30
0.0
  40
 16.4571
   1
2
  41
 0.500000
   7
STANDARD
   0
CIRCLE
   8
LEVEL003
   6
CONTINUOUS
  62
3
  10
 320.000
  20
 520.000
  30
0.0
  40
 16.0000
   0
TEXT
   8
LEVEL003
  62
3
  10
 351.200
  20
 510.400
  30
0.0
  40
 16.4571
   1
1
  41
 0.500000
   7
STANDARD
   0
CIRCLE
   8
LEVEL003
   6
CONTINUOUS
  62
3
  10
 360.000
  20
 520.000
  30
0.0
  40
 16.0000
   0
LINE
   8
LEVEL022
   6
CONTINUOUS
  62
7
  10
 333.340
  20
 806.844
  30
0.0
  11
 341.340
  21
 806.594
  31
0.0
   0
LINE
   8
LEVEL022
   6
CONTINUOUS
  62
7
  10
 333.340
  20
 789.682
  30
0.0
  11
 341.340
  21
 789.932
  31
0.0
   0
LINE
   8
LEVEL001
   6
CONTINUOUS
  62
3
  10
 404.215
  20
 769.026
  30
0.0
  11
 404.215
  21
 769.263
  31
0.0
   0
LINE
   8
LEVEL003
   6
CONTINUOUS
  62
3
  10
 374.833
  20
 445.836
  30
0.0
  11
 363.138
  21
 504.311
  31
0.0
   0
LINE
   8
LEVEL003
   6
CONTINUOUS
  62
3
  10
 374.833
  20
 445.836
  30
0.0
  11
 374.554
  21
 458.018
  31
0.0
   0
LINE
   8
LEVEL003
   6
CONTINUOUS
  62
3
  10
 374.833
  20
 445.836
  30
0.0
  11
 370.405
  21
 457.188
  31
0.0
   0
LINE
   8
LEVEL001
   6
CONTINUOUS
  62
3
  10
 404.215
  20
 769.026
  30
0.0
  11
 404.215
  21
 769.263
  31
0.0
   0
TEXT
   8
LEVEL003
  62
3
  10
 443.414
  20
 938.587
  30
0.0
  40
 16.0000
   1
高圧安全弁
   7
STANDARD
   0
TEXT
   8
LEVEL003
  62
3
  10
 443.414
  20
 898.587
  30
0.0
  40
 16.0000
   1
低圧安全弁
   7
STANDARD
   0
LINE
   8
LEVEL003
   6
CONTINUOUS
  62
3
  10
 384.604
  20
 842.486
  30
0.0
  11
 439.528
  21
 937.160
  31
0.0
   0
LINE
   8
LEVEL003
   6
CONTINUOUS
  62
3
  10
 439.528
  20
 937.160
  30
0.0
  11
 530.141
  21
 937.160
  31
0.0
   0
LINE
   8
LEVEL003
   6
CONTINUOUS
  62
3
  10
 384.604
  20
 842.486
  30
0.0
  11
 392.456
  21
 851.804
  31
0.0
   0
LINE
   8
LEVEL003
   6
CONTINUOUS
  62
3
  10
 384.604
  20
 842.486
  30
0.0
  11
 388.795
  21
 853.928
  31
0.0
   0
LINE
   8
LEVEL003
   6
CONTINUOUS
  62
3
  10
 406.402
  20
 838.853
  30
0.0
  11
 442.520
  21
 896.982
  31
0.0
   0
LINE
   8
LEVEL003
   6
CONTINUOUS
  62
3
  10
 442.520
  20
 896.982
  30
0.0
  11
 527.576
  21
 896.982
  31
0.0
   0
LINE
   8
LEVEL003
   6
CONTINUOUS
  62
3
  10
 406.402
  20
 838.853
  30
0.0
  11
 414.533
  21
 847.929
  31
0.0
   0
LINE
   8
LEVEL003
   6
CONTINUOUS
  62
3
  10
 406.402
  20
 838.853
  30
0.0
  11
 410.938
  21
 850.163
  31
0.0
   0
TEXT
   8
LEVEL003
  62
3
  10
 432.196
  20
 696.812
  30
0.0
  40
 16.0000
   1
サクション＆デリベリ（低圧）
   7
STANDARD
   0
TEXT
   8
LEVEL003
  62
3
  10
 432.196
  20
 656.812
  30
0.0
  40
 16.0000
   1
サクション＆デリベリ（高圧）
   7
STANDARD
   0
LINE
   8
LEVEL003
   6
CONTINUOUS
  62
3
  10
 404.693
  20
 766.155
  30
0.0
  11
 432.261
  21
 695.845
  31
0.0
   0
LINE
   8
LEVEL003
   6
CONTINUOUS
  62
3
  10
 432.261
  20
 695.845
  30
0.0
  11
 649.949
  21
 695.845
  31
0.0
   0
LINE
   8
LEVEL003
   6
CONTINUOUS
  62
3
  10
 404.693
  20
 766.155
  30
0.0
  11
 407.103
  21
 754.211
  31
0.0
   0
LINE
   8
LEVEL003
   6
CONTINUOUS
  62
3
  10
 404.693
  20
 766.155
  30
0.0
  11
 411.043
  21
 755.756
  31
0.0
   0
LINE
   8
LEVEL003
   6
CONTINUOUS
  62
3
  10
 384.520
  20
 766.155
  30
0.0
  11
 432.178
  21
 655.240
  31
0.0
   0
LINE
   8
LEVEL003
   6
CONTINUOUS
  62
3
  10
 432.178
  20
 655.240
  30
0.0
  11
 648.880
  21
 655.240
  31
0.0
   0
LINE
   8
LEVEL003
   6
CONTINUOUS
  62
3
  10
 384.520
  20
 766.155
  30
0.0
  11
 387.314
  21
 754.295
  31
0.0
   0
LINE
   8
LEVEL003
   6
CONTINUOUS
  62
3
  10
 384.520
  20
 766.155
  30
0.0
  11
 391.202
  21
 755.965
  31
0.0
   0
LINE
   8
LEVEL003
   6
CONTINUOUS
  62
3
  10
 850.094
  20
 860.005
  30
0.0
  11
 865.774
  21
 927.757
  31
0.0
   0
LINE
   8
LEVEL003
   6
CONTINUOUS
  62
3
  10
 865.774
  20
 927.757
  30
0.0
  11
 1034.39
  21
 927.757
  31
0.0
   0
LINE
   8
LEVEL003
   6
CONTINUOUS
  62
3
  10
 850.094
  20
 860.005
  30
0.0
  11
 854.861
  21
 871.219
  31
0.0
   0
LINE
   8
LEVEL003
   6
CONTINUOUS
  62
3
  10
 850.094
  20
 860.005
  30
0.0
  11
 850.739
  21
 872.173
  31
0.0
   0
TEXT
   8
LEVEL003
  62
3
  10
 870.255
  20
 929.223
  30
0.0
  40
 16.0000
   1
エア抜きプラグ
   7
STANDARD
   0
TEXT
   8
LEVEL003
  62
3
  10
 870.255
  20
 907.890
  30
0.0
  40
 16.0000
   1
検油棒及び給油口兼用
   7
STANDARD
   0
LINE
   8
LEVEL003
   6
CONTINUOUS
  62
3
  10
 706.060
  20
 880.263
  30
0.0
  11
 706.060
  21
 730.263
  31
0.0
   0
LINE
   8
LEVEL003
   6
CONTINUOUS
  62
3
  10
 706.060
  20
 880.263
  30
0.0
  11
 703.944
  21
 868.263
  31
0.0
   0
LINE
   8
LEVEL003
   6
CONTINUOUS
  62
3
  10
 706.060
  20
 880.263
  30
0.0
  11
 708.176
  21
 868.263
  31
0.0
   0
LINE
   8
LEVEL003
   6
CONTINUOUS
  62
3
  10
 706.060
  20
 730.263
  30
0.0
  11
 708.176
  21
 742.263
  31
0.0
   0
LINE
   8
LEVEL003
   6
CONTINUOUS
  62
3
  10
 706.060
  20
 730.263
  30
0.0
  11
 703.944
  21
 742.263
  31
0.0
   0
TEXT
   8
LEVEL003
  62
3
  10
 702.860
  20
 793.263
  30
0.0
  40
 16.0000
   1
150
  50
 90.0000
  41
 0.500000
   7
STANDARD
  72
1
  11
 702.860
  21
 805.263
  31
0.0
   0
LINE
   8
LEVEL003
   6
CONTINUOUS
  62
3
  10
 988.540
  20
 882.763
  30
0.0
  11
 1102.37
  21
 882.763
  31
0.0
   0
LINE
   8
LEVEL003
   6
CONTINUOUS
  62
3
  10
 988.540
  20
 727.763
  30
0.0
  11
 1102.37
  21
 727.763
  31
0.0
   0
LINE
   8
LEVEL003
   6
CONTINUOUS
  62
3
  10
 1094.37
  20
 882.763
  30
0.0
  11
 1094.37
  21
 727.763
  31
0.0
   0
LINE
   8
LEVEL003
   6
CONTINUOUS
  62
3
  10
 1094.37
  20
 882.763
  30
0.0
  11
 1092.26
  21
 870.763
  31
0.0
   0
LINE
   8
LEVEL003
   6
CONTINUOUS
  62
3
  10
 1094.37
  20
 882.763
  30
0.0
  11
 1096.49
  21
 870.763
  31
0.0
   0
LINE
   8
LEVEL003
   6
CONTINUOUS
  62
3
  10
 1094.37
  20
 727.763
  30
0.0
  11
 1096.49
  21
 739.763
  31
0.0
   0
LINE
   8
LEVEL003
   6
CONTINUOUS
  62
3
  10
 1094.37
  20
 727.763
  30
0.0
  11
 1092.26
  21
 739.763
  31
0.0
   0
TEXT
   8
LEVEL003
  62
3
  10
 1091.17
  20
 793.263
  30
0.0
  40
 16.0000
   1
155
  50
 90.0000
  41
 0.500000
   7
STANDARD
  72
1
  11
 1091.17
  21
 805.263
  31
0.0
   0
LINE
   8
LEVEL001
   6
CONTINUOUS
  62
3
  10
 404.210
  20
 769.026
  30
0.0
  11
 404.210
  21
 769.263
  31
0.0
   0
ARC
   8
LEVEL001
   6
CONTINUOUS
  62
7
  10
 455.504
  20
 819.763
  30
0.0
  40
 2.00000
  50
 2.00010
  51
 90.0001
   0
LINE
   8
LEVEL001
   6
CONTINUOUS
  62
7
  10
 457.503
  20
 819.833
  30
0.0
  11
 457.806
  21
 811.158
  31
0.0
   0
ARC
   8
LEVEL001
   6
CONTINUOUS
  62
7
  10
 492.907
  20
 821.763
  30
0.0
  40
 1.00000
  50
 90.0006
  51
 179.999
   0
LINE
   8
LEVEL001
   6
CONTINUOUS
  62
7
  10
 491.907
  20
 821.763
  30
0.0
  11
 491.907
  21
 788.763
  31
0.0
   0
LINE
   8
LEVEL001
   6
CONTINUOUS
  62
7
  10
 492.907
  20
 822.763
  30
0.0
  11
 499.407
  21
 822.763
  31
0.0
   0
LINE
   8
LEVEL001
   6
CONTINUOUS
  62
7
  10
 499.407
  20
 822.763
  30
0.0
  11
 500.407
  21
 821.763
  31
0.0
   0
LINE
   8
LEVEL001
   6
CONTINUOUS
  62
7
  10
 499.407
  20
 822.763
  30
0.0
  11
 499.407
  21
 787.763
  31
0.0
   0
ARC
   8
LEVEL001
   6
CONTINUOUS
  62
7
  10
 455.504
  20
 790.763
  30
0.0
  40
 2.00000
  50
 270.000
  51
 358.000
   0
LINE
   8
LEVEL001
   6
CONTINUOUS
  62
7
  10
 457.806
  20
 799.368
  30
0.0
  11
 457.503
  21
 790.693
  31
0.0
   0
ARC
   8
LEVEL001
   6
CONTINUOUS
  62
7
  10
 492.907
  20
 788.763
  30
0.0
  40
 1.00000
  50
 180.001
  51
 270.000
   0
LINE
   8
LEVEL001
   6
CONTINUOUS
  62
7
  10
 500.407
  20
 821.763
  30
0.0
  11
 500.407
  21
 788.763
  31
0.0
   0
LINE
   8
LEVEL001
   6
CONTINUOUS
  62
7
  10
 500.407
  20
 788.763
  30
0.0
  11
 499.407
  21
 787.763
  31
0.0
   0
LINE
   8
LEVEL001
   6
CONTINUOUS
  62
7
  10
 492.907
  20
 787.763
  30
0.0
  11
 499.407
  21
 787.763
  31
0.0
   0
ARC
   8
LEVEL001
   6
CONTINUOUS
  62
7
  10
 460.804
  20
 811.263
  30
0.0
  40
 3.00000
  50
 182.000
  51
 270.000
   0
ARC
   8
LEVEL001
   6
CONTINUOUS
  62
7
  10
 460.804
  20
 799.263
  30
0.0
  40
 3.00000
  50
 90.0001
  51
 178.000
   0
LINE
   8
LEVEL014
   6
CONTINUOUS
  62
7
  10
 967.182
  20
 791.763
  30
0.0
  11
 967.182
  21
 818.763
  31
0.0
   0
LINE
   8
LEVEL014
   6
CONTINUOUS
  62
7
  10
 967.182
  20
 818.763
  30
0.0
  11
 977.182
  21
 817.763
  31
0.0
   0
LINE
   8
LEVEL014
   6
CONTINUOUS
  62
7
  10
 977.182
  20
 817.763
  30
0.0
  11
 977.182
  21
 792.763
  31
0.0
   0
LINE
   8
LEVEL014
   6
CONTINUOUS
  62
7
  10
 977.182
  20
 792.763
  30
0.0
  11
 967.182
  21
 791.763
  31
0.0
   0
LINE
   8
LEVEL014
   6
CONTINUOUS
  62
3
  10
 979.182
  20
 792.609
  30
0.0
  11
 979.182
  21
 817.917
  31
0.0
   0
LINE
   8
LEVEL014
   6
CONTINUOUS
  62
3
  10
 979.182
  20
 817.917
  30
0.0
  11
 981.182
  21
 818.070
  31
0.0
   0
LINE
   8
LEVEL014
   6
CONTINUOUS
  62
3
  10
 981.182
  20
 818.070
  30
0.0
  11
 981.182
  21
 792.455
  31
0.0
   0
LINE
   8
LEVEL014
   6
CONTINUOUS
  62
3
  10
 981.182
  20
 792.455
  30
0.0
  11
 979.182
  21
 792.609
  31
0.0
   0
LINE
   8
LEVEL014
   6
CONTINUOUS
  62
3
  10
 977.182
  20
 816.258
  30
0.0
  11
 979.182
  21
 816.412
  31
0.0
   0
LINE
   8
LEVEL014
   6
CONTINUOUS
  62
3
  10
 983.182
  20
 792.301
  30
0.0
  11
 983.182
  21
 818.224
  31
0.0
   0
LINE
   8
LEVEL014
   6
CONTINUOUS
  62
3
  10
 983.182
  20
 818.224
  30
0.0
  11
 985.182
  21
 818.378
  31
0.0
   0
LINE
   8
LEVEL014
   6
CONTINUOUS
  62
3
  10
 985.182
  20
 818.378
  30
0.0
  11
 985.182
  21
 792.147
  31
0.0
   0
LINE
   8
LEVEL014
   6
CONTINUOUS
  62
3
  10
 985.182
  20
 792.147
  30
0.0
  11
 983.182
  21
 792.301
  31
0.0
   0
LINE
   8
LEVEL014
   6
CONTINUOUS
  62
3
  10
 987.182
  20
 791.994
  30
0.0
  11
 987.182
  21
 818.532
  31
0.0
   0
LINE
   8
LEVEL014
   6
CONTINUOUS
  62
3
  10
 987.182
  20
 818.532
  30
0.0
  11
 989.182
  21
 818.686
  31
0.0
   0
LINE
   8
LEVEL014
   6
CONTINUOUS
  62
3
  10
 989.182
  20
 818.686
  30
0.0
  11
 989.182
  21
 791.840
  31
0.0
   0
LINE
   8
LEVEL014
   6
CONTINUOUS
  62
3
  10
 989.182
  20
 791.840
  30
0.0
  11
 987.182
  21
 791.994
  31
0.0
   0
LINE
   8
LEVEL014
   6
CONTINUOUS
  62
3
  10
 991.182
  20
 791.686
  30
0.0
  11
 991.182
  21
 818.840
  31
0.0
   0
LINE
   8
LEVEL014
   6
CONTINUOUS
  62
3
  10
 991.182
  20
 818.840
  30
0.0
  11
 993.182
  21
 818.994
  31
0.0
   0
LINE
   8
LEVEL014
   6
CONTINUOUS
  62
3
  10
 993.182
  20
 818.994
  30
0.0
  11
 993.182
  21
 791.532
  31
0.0
   0
LINE
   8
LEVEL014
   6
CONTINUOUS
  62
3
  10
 993.182
  20
 791.532
  30
0.0
  11
 991.182
  21
 791.686
  31
0.0
   0
LINE
   8
LEVEL014
   6
CONTINUOUS
  62
3
  10
 995.182
  20
 791.378
  30
0.0
  11
 995.182
  21
 819.147
  31
0.0
   0
LINE
   8
LEVEL014
   6
CONTINUOUS
  62
3
  10
 995.182
  20
 819.147
  30
0.0
  11
 997.182
  21
 819.301
  31
0.0
   0
LINE
   8
LEVEL014
   6
CONTINUOUS
  62
3
  10
 997.182
  20
 819.301
  30
0.0
  11
 997.182
  21
 791.224
  31
0.0
   0
LINE
   8
LEVEL014
   6
CONTINUOUS
  62
3
  10
 997.182
  20
 791.224
  30
0.0
  11
 995.182
  21
 791.378
  31
0.0
   0
LINE
   8
LEVEL014
   6
CONTINUOUS
  62
3
  10
 999.182
  20
 791.070
  30
0.0
  11
 999.182
  21
 819.455
  31
0.0
   0
LINE
   8
LEVEL014
   6
CONTINUOUS
  62
3
  10
 999.182
  20
 819.455
  30
0.0
  11
 1001.18
  21
 819.609
  31
0.0
   0
LINE
   8
LEVEL014
   6
CONTINUOUS
  62
3
  10
 1001.18
  20
 819.609
  30
0.0
  11
 1001.18
  21
 790.917
  31
0.0
   0
LINE
   8
LEVEL014
   6
CONTINUOUS
  62
3
  10
 1001.18
  20
 790.917
  30
0.0
  11
 999.182
  21
 791.070
  31
0.0
   0
LINE
   8
LEVEL014
   6
CONTINUOUS
  62
3
  10
 1003.18
  20
 790.763
  30
0.0
  11
 1003.18
  21
 819.763
  31
0.0
   0
LINE
   8
LEVEL014
   6
CONTINUOUS
  62
3
  10
 1003.18
  20
 819.763
  30
0.0
  11
 1005.18
  21
 819.917
  31
0.0
   0
LINE
   8
LEVEL014
   6
CONTINUOUS
  62
3
  10
 1005.18
  20
 819.917
  30
0.0
  11
 1005.18
  21
 790.609
  31
0.0
   0
LINE
   8
LEVEL014
   6
CONTINUOUS
  62
3
  10
 1005.18
  20
 790.609
  30
0.0
  11
 1003.18
  21
 790.763
  31
0.0
   0
LINE
   8
LEVEL014
   6
CONTINUOUS
  62
3
  10
 981.182
  20
 816.566
  30
0.0
  11
 983.182
  21
 816.720
  31
0.0
   0
LINE
   8
LEVEL014
   6
CONTINUOUS
  62
3
  10
 985.182
  20
 816.874
  30
0.0
  11
 987.182
  21
 817.028
  31
0.0
   0
LINE
   8
LEVEL014
   6
CONTINUOUS
  62
3
  10
 989.182
  20
 817.181
  30
0.0
  11
 991.182
  21
 817.335
  31
0.0
   0
LINE
   8
LEVEL014
   6
CONTINUOUS
  62
3
  10
 993.182
  20
 817.489
  30
0.0
  11
 995.182
  21
 817.643
  31
0.0
   0
LINE
   8
LEVEL014
   6
CONTINUOUS
  62
3
  10
 997.182
  20
 817.797
  30
0.0
  11
 999.182
  21
 817.951
  31
0.0
   0
LINE
   8
LEVEL014
   6
CONTINUOUS
  62
3
  10
 1001.18
  20
 818.104
  30
0.0
  11
 1003.18
  21
 818.258
  31
0.0
   0
LINE
   8
LEVEL014
   6
CONTINUOUS
  62
3
  10
 1015.18
  20
 790.729
  30
0.0
  11
 1015.18
  21
 819.797
  31
0.0
   0
LINE
   8
LEVEL014
   6
CONTINUOUS
  62
3
  10
 1015.18
  20
 819.797
  30
0.0
  11
 1017.18
  21
 819.627
  31
0.0
   0
LINE
   8
LEVEL014
   6
CONTINUOUS
  62
3
  10
 1017.18
  20
 819.627
  30
0.0
  11
 1017.18
  21
 790.898
  31
0.0
   0
LINE
   8
LEVEL014
   6
CONTINUOUS
  62
3
  10
 1017.18
  20
 790.898
  30
0.0
  11
 1015.18
  21
 790.729
  31
0.0
   0
LINE
   8
LEVEL014
   6
CONTINUOUS
  62
3
  10
 1019.18
  20
 791.068
  30
0.0
  11
 1019.18
  21
 819.458
  31
0.0
   0
LINE
   8
LEVEL014
   6
CONTINUOUS
  62
3
  10
 1019.18
  20
 819.458
  30
0.0
  11
 1021.18
  21
 819.288
  31
0.0
   0
LINE
   8
LEVEL014
   6
CONTINUOUS
  62
3
  10
 1021.18
  20
 819.288
  30
0.0
  11
 1021.18
  21
 791.237
  31
0.0
   0
LINE
   8
LEVEL014
   6
CONTINUOUS
  62
3
  10
 1021.18
  20
 791.237
  30
0.0
  11
 1019.18
  21
 791.068
  31
0.0
   0
LINE
   8
LEVEL014
   6
CONTINUOUS
  62
3
  10
 1023.18
  20
 791.407
  30
0.0
  11
 1023.18
  21
 819.119
  31
0.0
   0
LINE
   8
LEVEL014
   6
CONTINUOUS
  62
3
  10
 1023.18
  20
 819.119
  30
0.0
  11
 1025.18
  21
 818.949
  31
0.0
   0
LINE
   8
LEVEL014
   6
CONTINUOUS
  62
3
  10
 1025.18
  20
 818.949
  30
0.0
  11
 1025.18
  21
 791.576
  31
0.0
   0
LINE
   8
LEVEL014
   6
CONTINUOUS
  62
3
  10
 1025.18
  20
 791.576
  30
0.0
  11
 1023.18
  21
 791.407
  31
0.0
   0
LINE
   8
LEVEL014
   6
CONTINUOUS
  62
3
  10
 1027.18
  20
 791.746
  30
0.0
  11
 1027.18
  21
 818.780
  31
0.0
   0
LINE
   8
LEVEL014
   6
CONTINUOUS
  62
3
  10
 1027.18
  20
 818.780
  30
0.0
  11
 1029.18
  21
 818.610
  31
0.0
   0
LINE
   8
LEVEL014
   6
CONTINUOUS
  62
3
  10
 1029.18
  20
 818.610
  30
0.0
  11
 1029.18
  21
 791.915
  31
0.0
   0
LINE
   8
LEVEL014
   6
CONTINUOUS
  62
3
  10
 1029.18
  20
 791.915
  30
0.0
  11
 1027.18
  21
 791.746
  31
0.0
   0
LINE
   8
LEVEL014
   6
CONTINUOUS
  62
3
  10
 1031.18
  20
 792.085
  30
0.0
  11
 1031.18
  21
 818.441
  31
0.0
   0
LINE
   8
LEVEL014
   6
CONTINUOUS
  62
3
  10
 1031.18
  20
 818.441
  30
0.0
  11
 1033.18
  21
 818.271
  31
0.0
   0
LINE
   8
LEVEL014
   6
CONTINUOUS
  62
3
  10
 1033.18
  20
 818.271
  30
0.0
  11
 1033.18
  21
 792.254
  31
0.0
   0
LINE
   8
LEVEL014
   6
CONTINUOUS
  62
3
  10
 1033.18
  20
 792.254
  30
0.0
  11
 1031.18
  21
 792.085
  31
0.0
   0
LINE
   8
LEVEL014
   6
CONTINUOUS
  62
3
  10
 1035.18
  20
 792.424
  30
0.0
  11
 1035.18
  21
 818.102
  31
0.0
   0
LINE
   8
LEVEL014
   6
CONTINUOUS
  62
3
  10
 1035.18
  20
 818.102
  30
0.0
  11
 1037.18
  21
 817.932
  31
0.0
   0
LINE
   8
LEVEL014
   6
CONTINUOUS
  62
3
  10
 1037.18
  20
 817.932
  30
0.0
  11
 1037.18
  21
 792.593
  31
0.0
   0
LINE
   8
LEVEL014
   6
CONTINUOUS
  62
3
  10
 1037.18
  20
 792.593
  30
0.0
  11
 1035.18
  21
 792.424
  31
0.0
   0
LINE
   8
LEVEL014
   6
CONTINUOUS
  62
3
  10
 1005.18
  20
 818.412
  30
0.0
  11
 1007.18
  21
 818.566
  31
0.0
   0
LINE
   8
LEVEL014
   6
CONTINUOUS
  62
3
  10
 1009.18
  20
 818.800
  30
0.0
  11
 1011.18
  21
 818.630
  31
0.0
   0
LINE
   8
LEVEL014
   6
CONTINUOUS
  62
3
  10
 1013.18
  20
 818.461
  30
0.0
  11
 1015.18
  21
 818.291
  31
0.0
   0
LINE
   8
LEVEL014
   6
CONTINUOUS
  62
3
  10
 1017.18
  20
 818.122
  30
0.0
  11
 1019.18
  21
 817.952
  31
0.0
   0
LINE
   8
LEVEL014
   6
CONTINUOUS
  62
3
  10
 1021.18
  20
 817.783
  30
0.0
  11
 1023.18
  21
 817.613
  31
0.0
   0
LINE
   8
LEVEL014
   6
CONTINUOUS
  62
3
  10
 1025.18
  20
 817.444
  30
0.0
  11
 1027.18
  21
 817.274
  31
0.0
   0
LINE
   8
LEVEL014
   6
CONTINUOUS
  62
3
  10
 1029.18
  20
 817.105
  30
0.0
  11
 1031.18
  21
 816.935
  31
0.0
   0
LINE
   8
LEVEL014
   6
CONTINUOUS
  62
3
  10
 1033.18
  20
 816.766
  30
0.0
  11
 1035.18
  21
 816.596
  31
0.0
   0
LINE
   8
LEVEL014
   6
CONTINUOUS
  62
3
  10
 1037.18
  20
 816.427
  30
0.0
  11
 1039.18
  21
 816.257
  31
0.0
   0
ARC
   8
LEVEL014
   6
CONTINUOUS
  62
7
  10
 1020.31
  20
 805.263
  30
0.0
  40
 31.8750
  50
 334.942
  51
 25.0576
   0
LINE
   8
LEVEL014
   6
CONTINUOUS
  62
7
  10
 1039.18
  20
 792.763
  30
0.0
  11
 1039.18
  21
 817.763
  31
0.0
   0
LINE
   8
LEVEL014
   6
CONTINUOUS
  62
7
  10
 1039.18
  20
 817.763
  30
0.0
  11
 1049.18
  21
 818.763
  31
0.0
   0
LINE
   8
LEVEL014
   6
CONTINUOUS
  62
7
  10
 1049.18
  20
 818.763
  30
0.0
  11
 1049.18
  21
 791.763
  31
0.0
   0
LINE
   8
LEVEL014
   6
CONTINUOUS
  62
7
  10
 1049.18
  20
 791.763
  30
0.0
  11
 1039.18
  21
 792.763
  31
0.0
   0
LINE
   8
LEVEL014
   6
CONTINUOUS
  62
3
  10
 977.182
  20
 794.267
  30
0.0
  11
 979.182
  21
 794.113
  31
0.0
   0
LINE
   8
LEVEL014
   6
CONTINUOUS
  62
3
  10
 981.182
  20
 793.960
  30
0.0
  11
 983.182
  21
 793.806
  31
0.0
   0
LINE
   8
LEVEL014
   6
CONTINUOUS
  62
3
  10
 985.182
  20
 793.652
  30
0.0
  11
 987.182
  21
 793.498
  31
0.0
   0
LINE
   8
LEVEL014
   6
CONTINUOUS
  62
3
  10
 989.182
  20
 793.344
  30
0.0
  11
 991.182
  21
 793.190
  31
0.0
   0
LINE
   8
LEVEL014
   6
CONTINUOUS
  62
3
  10
 993.182
  20
 793.036
  30
0.0
  11
 995.182
  21
 792.883
  31
0.0
   0
LINE
   8
LEVEL014
   6
CONTINUOUS
  62
3
  10
 997.182
  20
 792.729
  30
0.0
  11
 999.182
  21
 792.575
  31
0.0
   0
LINE
   8
LEVEL014
   6
CONTINUOUS
  62
3
  10
 1001.18
  20
 792.421
  30
0.0
  11
 1003.18
  21
 792.267
  31
0.0
   0
LINE
   8
LEVEL014
   6
CONTINUOUS
  62
3
  10
 1025.18
  20
 793.082
  30
0.0
  11
 1027.18
  21
 793.251
  31
0.0
   0
LINE
   8
LEVEL014
   6
CONTINUOUS
  62
3
  10
 1029.18
  20
 793.421
  30
0.0
  11
 1031.18
  21
 793.590
  31
0.0
   0
LINE
   8
LEVEL014
   6
CONTINUOUS
  62
3
  10
 1033.18
  20
 793.760
  30
0.0
  11
 1035.18
  21
 793.929
  31
0.0
   0
LINE
   8
LEVEL014
   6
CONTINUOUS
  62
3
  10
 1037.18
  20
 794.099
  30
0.0
  11
 1039.18
  21
 794.268
  31
0.0
   0
LINE
   8
LEVEL014
   6
CONTINUOUS
  62
3
  10
 1005.18
  20
 792.113
  30
0.0
  11
 1007.18
  21
 791.960
  31
0.0
   0
LINE
   8
LEVEL014
   6
CONTINUOUS
  62
3
  10
 1009.18
  20
 791.726
  30
0.0
  11
 1011.18
  21
 791.895
  31
0.0
   0
LINE
   8
LEVEL014
   6
CONTINUOUS
  62
3
  10
 1013.18
  20
 792.065
  30
0.0
  11
 1015.18
  21
 792.234
  31
0.0
   0
LINE
   8
LEVEL014
   6
CONTINUOUS
  62
3
  10
 1017.18
  20
 792.404
  30
0.0
  11
 1019.18
  21
 792.573
  31
0.0
   0
LINE
   8
LEVEL014
   6
CONTINUOUS
  62
3
  10
 1021.18
  20
 792.743
  30
0.0
  11
 1023.18
  21
 792.912
  31
0.0
   0
LINE
   8
LEVEL014
   6
CONTINUOUS
  62
7
  10
 942.525
  20
 794.513
  30
0.0
  11
 942.525
  21
 816.013
  31
0.0
   0
LINE
   8
LEVEL014
   6
CONTINUOUS
  62
7
  10
 945.275
  20
 797.263
  30
0.0
  11
 945.275
  21
 813.263
  31
0.0
   0
LINE
   8
LEVEL003
   6
CONTINUOUS
  62
7
  10
 952.835
  20
 816.263
  30
0.0
  11
 953.335
  21
 816.263
  31
0.0
   0
LINE
   8
LEVEL003
   6
CONTINUOUS
  62
7
  10
 952.835
  20
 794.263
  30
0.0
  11
 953.335
  21
 794.263
  31
0.0
   0
LINE
   8
LEVEL003
   6
CONTINUOUS
  62
7
  10
 967.182
  20
 817.263
  30
0.0
  11
 956.835
  21
 817.263
  31
0.0
   0
LINE
   8
LEVEL003
   6
CONTINUOUS
  62
7
  10
 956.835
  20
 817.263
  30
0.0
  11
 956.835
  21
 813.263
  31
0.0
   0
ARC
   8
LEVEL003
   6
CONTINUOUS
  62
7
  10
 950.505
  20
 811.263
  30
0.0
  40
 17.3301
  50
 15.7734
  51
 20.2562
   0
LINE
   8
LEVEL003
   6
CONTINUOUS
  62
7
  10
 956.835
  20
 797.263
  30
0.0
  11
 956.835
  21
 793.263
  31
0.0
   0
LINE
   8
LEVEL003
   6
CONTINUOUS
  62
7
  10
 956.835
  20
 793.263
  30
0.0
  11
 967.182
  21
 793.263
  31
0.0
   0
ARC
   8
LEVEL003
   6
CONTINUOUS
  62
7
  10
 950.505
  20
 799.263
  30
0.0
  40
 17.3301
  50
 339.744
  51
 344.227
   0
LINE
   8
LEVEL001
   6
CONTINUOUS
  62
7
  10
 431.835
  20
 837.763
  30
0.0
  11
 432.835
  21
 836.763
  31
0.0
   0
LINE
   8
LEVEL001
   6
CONTINUOUS
  62
7
  10
 432.835
  20
 836.763
  30
0.0
  11
 432.835
  21
 821.763
  31
0.0
   0
LINE
   8
LEVEL001
   6
CONTINUOUS
  62
7
  10
 431.835
  20
 837.763
  30
0.0
  11
 431.835
  21
 821.763
  31
0.0
   0
LINE
   8
LEVEL001
   6
CONTINUOUS
  62
7
  10
 432.835
  20
 788.763
  30
0.0
  11
 432.835
  21
 773.763
  31
0.0
   0
LINE
   8
LEVEL001
   6
CONTINUOUS
  62
7
  10
 432.835
  20
 773.763
  30
0.0
  11
 431.835
  21
 772.763
  31
0.0
   0
LINE
   8
LEVEL001
   6
CONTINUOUS
  62
7
  10
 431.835
  20
 788.763
  30
0.0
  11
 431.835
  21
 772.763
  31
0.0
   0
LINE
   8
LEVEL001
   6
CONTINUOUS
  62
7
  10
 435.835
  20
 833.263
  30
0.0
  11
 435.835
  21
 833.463
  31
0.0
   0
LINE
   8
LEVEL001
   6
CONTINUOUS
  62
7
  10
 427.835
  20
 833.263
  30
0.0
  11
 427.835
  21
 833.463
  31
0.0
   0
LINE
   8
LEVEL003
   6
CONTINUOUS
  62
7
  10
 440.835
  20
 833.263
  30
0.0
  11
 442.685
  21
 835.113
  31
0.0
   0
LINE
   8
LEVEL001
   6
CONTINUOUS
  62
7
  10
 452.835
  20
 833.263
  30
0.0
  11
 462.835
  21
 833.263
  31
0.0
   0
LINE
   8
LEVEL001
   6
CONTINUOUS
  62
7
  10
 442.685
  20
 835.113
  30
0.0
  11
 450.985
  21
 835.113
  31
0.0
   0
LINE
   8
LEVEL001
   6
CONTINUOUS
  62
7
  10
 452.835
  20
 833.263
  30
0.0
  11
 450.985
  21
 835.113
  31
0.0
   0
LINE
   8
LEVEL003
   6
CONTINUOUS
  62
7
  10
 440.835
  20
 777.263
  30
0.0
  11
 442.685
  21
 775.413
  31
0.0
   0
LINE
   8
LEVEL001
   6
CONTINUOUS
  62
7
  10
 452.835
  20
 777.263
  30
0.0
  11
 462.835
  21
 777.263
  31
0.0
   0
LINE
   8
LEVEL001
   6
CONTINUOUS
  62
7
  10
 442.685
  20
 775.413
  30
0.0
  11
 450.985
  21
 775.413
  31
0.0
   0
LINE
   8
LEVEL001
   6
CONTINUOUS
  62
7
  10
 452.835
  20
 777.263
  30
0.0
  11
 450.985
  21
 775.413
  31
0.0
   0
LINE
   8
LEVEL003
   6
DASHDOT
  62
1
  10
 866.585
  20
 850.263
  30
0.0
  11
 829.085
  21
 850.263
  31
0.0
   0
LINE
   8
LEVEL003
   6
DASHDOT
  62
1
  10
 847.835
  20
 869.013
  30
0.0
  11
 847.835
  21
 831.513
  31
0.0
   0
LINE
   8
LEVEL003
   6
CONTINUOUS
  62
7
  10
 948.535
  20
 727.763
  30
0.0
  11
 985.535
  21
 727.763
  31
0.0
   0
ARC
   8
LEVEL003
   6
CONTINUOUS
  62
7
  10
 948.535
  20
 730.763
  30
0.0
  40
 3.00000
  50
 180.000
  51
 270.000
   0
LINE
   8
LEVEL003
   6
CONTINUOUS
  62
7
  10
 985.535
  20
 730.063
  30
0.0
  11
 948.535
  21
 730.063
  31
0.0
   0
ARC
   8
LEVEL003
   6
CONTINUOUS
  62
7
  10
 948.535
  20
 730.763
  30
0.0
  40
 0.700000
  50
 180.000
  51
 270.000
   0
LINE
   8
LEVEL003
   6
CONTINUOUS
  62
7
  10
 955.535
  20
 730.063
  30
0.0
  11
 955.535
  21
 727.763
  31
0.0
   0
LINE
   8
LEVEL003
   6
CONTINUOUS
  62
7
  10
 948.535
  20
 882.763
  30
0.0
  11
 985.535
  21
 882.763
  31
0.0
   0
ARC
   8
LEVEL003
   6
CONTINUOUS
  62
7
  10
 948.535
  20
 879.763
  30
0.0
  40
 3.00000
  50
 90.0000
  51
 180.000
   0
LINE
   8
LEVEL003
   6
CONTINUOUS
  62
7
  10
 948.535
  20
 880.463
  30
0.0
  11
 985.535
  21
 880.463
  31
0.0
   0
ARC
   8
LEVEL003
   6
CONTINUOUS
  62
7
  10
 948.535
  20
 879.763
  30
0.0
  40
 0.700000
  50
 90.0000
  51
 180.000
   0
LINE
   8
LEVEL003
   6
CONTINUOUS
  62
7
  10
 955.535
  20
 880.463
  30
0.0
  11
 955.535
  21
 882.763
  31
0.0
   0
ARC
   8
LEVEL001
   6
CONTINUOUS
  62
7
  10
 431.835
  20
 829.688
  30
0.0
  40
 5.50000
  50
 43.3418
  51
 79.5243
   0
LINE
   8
LEVEL003
   6
CONTINUOUS
  62
7
  10
 432.835
  20
 777.263
  30
0.0
  11
 440.835
  21
 777.263
  31
0.0
   0
LINE
   8
LEVEL003
   6
CONTINUOUS
  62
7
  10
 432.835
  20
 833.263
  30
0.0
  11
 440.835
  21
 833.263
  31
0.0
   0
LINE
   8
LEVEL003
   6
CONTINUOUS
  62
7
  10
 440.835
  20
 833.263
  30
0.0
  11
 440.835
  21
 821.763
  31
0.0
   0
LINE
   8
LEVEL003
   6
CONTINUOUS
  62
7
  10
 440.835
  20
 788.763
  30
0.0
  11
 440.835
  21
 777.263
  31
0.0
   0
LINE
   8
LEVEL001
   6
CONTINUOUS
  62
7
  10
 442.685
  20
 835.113
  30
0.0
  11
 442.685
  21
 821.763
  31
0.0
   0
LINE
   8
LEVEL001
   6
CONTINUOUS
  62
7
  10
 442.685
  20
 788.763
  30
0.0
  11
 442.685
  21
 775.413
  31
0.0
   0
LINE
   8
LEVEL001
   6
CONTINUOUS
  62
7
  10
 450.985
  20
 775.413
  30
0.0
  11
 450.985
  21
 788.763
  31
0.0
   0
LINE
   8
LEVEL001
   6
CONTINUOUS
  62
7
  10
 450.985
  20
 821.763
  30
0.0
  11
 450.985
  21
 835.113
  31
0.0
   0
LINE
   8
LEVEL001
   6
CONTINUOUS
  62
7
  10
 452.835
  20
 833.263
  30
0.0
  11
 452.835
  21
 821.763
  31
0.0
   0
LINE
   8
LEVEL001
   6
CONTINUOUS
  62
7
  10
 452.835
  20
 788.763
  30
0.0
  11
 452.835
  21
 777.263
  31
0.0
   0
LINE
   8
LEVEL001
   6
CONTINUOUS
  62
7
  10
 462.835
  20
 880.263
  30
0.0
  11
 462.835
  21
 821.763
  31
0.0
   0
LINE
   8
LEVEL001
   6
CONTINUOUS
  62
7
  10
 462.835
  20
 788.763
  30
0.0
  11
 462.835
  21
 730.263
  31
0.0
   0
LINE
   8
LEVEL003
   6
CONTINUOUS
  62
7
  10
 985.535
  20
 727.763
  30
0.0
  11
 985.535
  21
 793.625
  31
0.0
   0
LINE
   8
LEVEL003
   6
CONTINUOUS
  62
7
  10
 985.535
  20
 816.901
  30
0.0
  11
 985.535
  21
 882.763
  31
0.0
   0
LINE
   8
LEVEL003
   6
CONTINUOUS
  62
7
  10
 947.835
  20
 730.763
  30
0.0
  11
 947.835
  21
 797.263
  31
0.0
   0
LINE
   8
LEVEL003
   6
CONTINUOUS
  62
7
  10
 947.835
  20
 813.263
  30
0.0
  11
 947.835
  21
 879.763
  31
0.0
   0
LINE
   8
LEVEL003
   6
CONTINUOUS
  62
7
  10
 947.835
  20
 823.763
  30
0.0
  11
 951.835
  21
 823.763
  31
0.0
   0
LINE
   8
LEVEL003
   6
CONTINUOUS
  62
7
  10
 951.835
  20
 823.763
  30
0.0
  11
 952.835
  21
 822.763
  31
0.0
   0
LINE
   8
LEVEL003
   6
CONTINUOUS
  62
7
  10
 951.835
  20
 823.763
  30
0.0
  11
 951.835
  21
 813.263
  31
0.0
   0
LINE
   8
LEVEL003
   6
CONTINUOUS
  62
7
  10
 952.835
  20
 822.763
  30
0.0
  11
 952.835
  21
 813.263
  31
0.0
   0
LINE
   8
LEVEL003
   6
CONTINUOUS
  62
7
  10
 952.835
  20
 787.763
  30
0.0
  11
 951.835
  21
 786.763
  31
0.0
   0
LINE
   8
LEVEL003
   6
CONTINUOUS
  62
7
  10
 947.835
  20
 786.763
  30
0.0
  11
 951.835
  21
 786.763
  31
0.0
   0
LINE
   8
LEVEL003
   6
CONTINUOUS
  62
7
  10
 951.835
  20
 797.263
  30
0.0
  11
 951.835
  21
 786.763
  31
0.0
   0
LINE
   8
LEVEL003
   6
CONTINUOUS
  62
7
  10
 952.835
  20
 797.263
  30
0.0
  11
 952.835
  21
 787.763
  31
0.0
   0
LINE
   8
LEVEL003
   6
CONTINUOUS
  62
7
  10
 462.835
  20
 880.263
  30
0.0
  11
 945.535
  21
 880.263
  31
0.0
   0
LINE
   8
LEVEL003
   6
CONTINUOUS
  62
7
  10
 462.835
  20
 730.263
  30
0.0
  11
 945.535
  21
 730.263
  31
0.0
   0
LINE
   8
LEVEL003
   6
CONTINUOUS
  62
7
  10
 953.335
  20
 823.692
  30
0.0
  11
 955.535
  21
 823.692
  31
0.0
   0
LINE
   8
LEVEL003
   6
CONTINUOUS
  62
7
  10
 955.535
  20
 823.692
  30
0.0
  11
 955.535
  21
 788.263
  31
0.0
   0
LINE
   8
LEVEL003
   6
CONTINUOUS
  62
7
  10
 953.335
  20
 823.692
  30
0.0
  11
 953.335
  21
 788.263
  31
0.0
   0
LINE
   8
LEVEL003
   6
CONTINUOUS
  62
7
  10
 955.535
  20
 788.263
  30
0.0
  11
 953.335
  21
 788.263
  31
0.0
   0
LINE
   8
LEVEL003
   6
CONTINUOUS
  62
7
  10
 955.535
  20
 794.449
  30
0.0
  11
 953.335
  21
 794.449
  31
0.0
   0
LINE
   8
LEVEL014
   6
CONTINUOUS
  62
7
  10
 955.535
  20
 813.263
  30
0.0
  11
 967.182
  21
 813.263
  31
0.0
   0
LINE
   8
LEVEL003
   6
CONTINUOUS
  62
7
  10
 955.535
  20
 816.263
  30
0.0
  11
 956.835
  21
 816.263
  31
0.0
   0
LINE
   8
LEVEL014
   6
CONTINUOUS
  62
7
  10
 955.535
  20
 797.263
  30
0.0
  11
 967.182
  21
 797.263
  31
0.0
   0
LINE
   8
LEVEL003
   6
CONTINUOUS
  62
7
  10
 955.535
  20
 794.263
  30
0.0
  11
 956.835
  21
 794.263
  31
0.0
   0
LINE
   8
LEVEL001
   6
CONTINUOUS
  62
7
  10
 415.335
  20
 838.263
  30
0.0
  11
 414.835
  21
 838.763
  31
0.0
   0
LINE
   8
LEVEL001
   6
DASHDOT
  62
1
  10
 337.835
  20
 798.263
  30
0.0
  11
 367.835
  21
 798.263
  31
0.0
   0
LINE
   8
LEVEL001
   6
CONTINUOUS
  62
3
  10
 404.210
  20
 769.026
  30
0.0
  11
 404.210
  21
 769.263
  31
0.0
   0
LINE
   8
LEVEL001
   6
DASHDOT
  62
1
  10
 355.835
  20
 820.263
  30
0.0
  11
 339.835
  21
 820.263
  31
0.0
   0
LINE
   8
LEVEL001
   6
DASHDOT
  62
1
  10
 387.835
  20
 783.427
  30
0.0
  11
 387.835
  21
 827.780
  31
0.0
   0
ARC
   8
LEVEL001
   6
CONTINUOUS
  62
7
  10
 347.761
  20
 812.263
  30
0.0
  40
 3.00000
  50
 270.000
  51
 355.000
   0
ARC
   8
LEVEL001
   6
CONTINUOUS
  62
7
  10
 345.835
  20
 807.263
  30
0.0
  40
 2.00000
  50
 90.0000
  51
 180.000
   0
LINE
   8
LEVEL001
   6
CONTINUOUS
  62
7
  10
 343.835
  20
 807.263
  30
0.0
  11
 343.835
  21
 803.263
  31
0.0
   0
ARC
   8
LEVEL001
   6
CONTINUOUS
  62
7
  10
 345.835
  20
 803.263
  30
0.0
  40
 2.00000
  50
 180.000
  51
 270.000
   0
LINE
   8
LEVEL001
   6
CONTINUOUS
  62
7
  10
 341.335
  20
 831.325
  30
0.0
  11
 341.335
  21
 776.688
  31
0.0
   0
ARC
   8
LEVEL001
   6
CONTINUOUS
  62
7
  10
 343.030
  20
 830.263
  30
0.0
  40
 2.00000
  50
 90.0000
  51
 147.933
   0
LINE
   8
LEVEL001
   6
CONTINUOUS
  62
7
  10
 371.943
  20
 769.691
  30
0.0
  11
 372.980
  21
 757.827
  31
0.0
   0
ARC
   8
LEVEL001
   6
CONTINUOUS
  62
7
  10
 377.961
  20
 758.263
  30
0.0
  40
 5.00000
  50
 185.000
  51
 270.000
   0
ARC
   8
LEVEL001
   6
CONTINUOUS
  62
7
  10
 399.704
  20
 758.263
  30
0.0
  40
 5.00000
  50
 270.000
  51
 355.000
   0
LINE
   8
LEVEL001
   6
CONTINUOUS
  62
7
  10
 377.961
  20
 753.263
  30
0.0
  11
 399.704
  21
 753.263
  31
0.0
   0
ARC
   8
LEVEL001
   6
CONTINUOUS
  62
7
  10
 352.124
  20
 812.263
  30
0.0
  40
 3.00000
  50
 270.000
  51
 355.000
   0
LINE
   8
LEVEL001
   6
CONTINUOUS
  62
7
  10
 345.835
  20
 809.263
  30
0.0
  11
 352.124
  21
 809.263
  31
0.0
   0
ARC
   8
LEVEL001
   6
CONTINUOUS
  62
7
  10
 352.124
  20
 798.263
  30
0.0
  40
 3.00000
  50
 5.00000
  51
 90.0000
   0
LINE
   8
LEVEL001
   6
CONTINUOUS
  62
7
  10
 345.835
  20
 801.263
  30
0.0
  11
 352.124
  21
 801.263
  31
0.0
   0
LINE
   8
LEVEL001
   6
DASHDOT
  62
1
  10
 380.835
  20
 850.263
  30
0.0
  11
 380.835
  21
 764.179
  31
0.0
   0
ARC
   8
LEVEL001
   6
CONTINUOUS
  62
7
  10
 350.335
  20
 823.763
  30
0.0
  40
 2.00000
  50
 270.000
  51
 0.749084E-9
   0
ARC
   8
LEVEL001
   6
CONTINUOUS
  62
7
  10
 343.632
  20
 819.763
  30
0.0
  40
 2.00000
  50
 90.0001
  51
 178.000
   0
ARC
   8
LEVEL001
   6
CONTINUOUS
  62
7
  10
 400.835
  20
 823.763
  30
0.0
  40
 2.00000
  50
 180.000
  51
 270.000
   0
LINE
   8
LEVEL001
   6
CONTINUOUS
  62
7
  10
 352.335
  20
 823.763
  30
0.0
  11
 398.835
  21
 823.763
  31
0.0
   0
LINE
   8
LEVEL001
   6
CONTINUOUS
  62
7
  10
 343.632
  20
 821.763
  30
0.0
  11
 491.907
  21
 821.763
  31
0.0
   0
ARC
   8
LEVEL001
   6
CONTINUOUS
  62
7
  10
 350.335
  20
 786.763
  30
0.0
  40
 2.00000
  50
 0.125268E-3
  51
 90.0000
   0
ARC
   8
LEVEL001
   6
CONTINUOUS
  62
7
  10
 343.632
  20
 790.763
  30
0.0
  40
 2.00000
  50
 182.000
  51
 270.000
   0
ARC
   8
LEVEL001
   6
CONTINUOUS
  62
7
  10
 400.835
  20
 786.763
  30
0.0
  40
 2.00000
  50
 90.0000
  51
 180.000
   0
LINE
   8
LEVEL001
   6
CONTINUOUS
  62
7
  10
 352.335
  20
 786.763
  30
0.0
  11
 398.835
  21
 786.763
  31
0.0
   0
LINE
   8
LEVEL001
   6
CONTINUOUS
  62
7
  10
 343.632
  20
 788.763
  30
0.0
  11
 491.907
  21
 788.763
  31
0.0
   0
LINE
   8
LEVEL001
   6
CONTINUOUS
  62
7
  10
 412.789
  20
 776.217
  30
0.0
  11
 413.887
  21
 788.763
  31
0.0
   0
LINE
   8
LEVEL003
   6
CONTINUOUS
  62
7
  10
 389.835
  20
 773.364
  30
0.0
  11
 389.765
  21
 774.418
  31
0.0
   0
LINE
   8
LEVEL003
   6
CONTINUOUS
  62
7
  10
 389.765
  20
 774.418
  30
0.0
  11
 389.555
  21
 775.456
  31
0.0
   0
LINE
   8
LEVEL003
   6
CONTINUOUS
  62
7
  10
 389.555
  20
 775.456
  30
0.0
  11
 389.210
  21
 776.461
  31
0.0
   0
LINE
   8
LEVEL003
   6
CONTINUOUS
  62
7
  10
 389.210
  20
 776.461
  30
0.0
  11
 388.733
  21
 777.418
  31
0.0
   0
LINE
   8
LEVEL003
   6
CONTINUOUS
  62
7
  10
 388.733
  20
 777.418
  30
0.0
  11
 388.134
  21
 778.312
  31
0.0
   0
LINE
   8
LEVEL003
   6
CONTINUOUS
  62
7
  10
 388.134
  20
 778.312
  30
0.0
  11
 387.420
  21
 779.128
  31
0.0
   0
LINE
   8
LEVEL003
   6
CONTINUOUS
  62
7
  10
 387.420
  20
 779.128
  30
0.0
  11
 386.604
  21
 779.855
  31
0.0
   0
LINE
   8
LEVEL003
   6
CONTINUOUS
  62
7
  10
 386.604
  20
 779.855
  30
0.0
  11
 385.698
  21
 780.480
  31
0.0
   0
LINE
   8
LEVEL003
   6
CONTINUOUS
  62
7
  10
 385.698
  20
 780.480
  30
0.0
  11
 384.716
  21
 780.994
  31
0.0
   0
LINE
   8
LEVEL003
   6
CONTINUOUS
  62
7
  10
 384.716
  20
 780.994
  30
0.0
  11
 383.673
  21
 781.389
  31
0.0
   0
LINE
   8
LEVEL003
   6
CONTINUOUS
  62
7
  10
 383.673
  20
 781.389
  30
0.0
  11
 382.586
  21
 781.659
  31
0.0
   0
LINE
   8
LEVEL003
   6
CONTINUOUS
  62
7
  10
 382.586
  20
 781.659
  30
0.0
  11
 381.472
  21
 781.800
  31
0.0
   0
LINE
   8
LEVEL003
   6
CONTINUOUS
  62
7
  10
 381.472
  20
 781.800
  30
0.0
  11
 380.347
  21
 781.808
  31
0.0
   0
LINE
   8
LEVEL003
   6
CONTINUOUS
  62
7
  10
 380.347
  20
 781.808
  30
0.0
  11
 379.231
  21
 781.685
  31
0.0
   0
LINE
   8
LEVEL003
   6
CONTINUOUS
  62
7
  10
 379.231
  20
 781.685
  30
0.0
  11
 378.139
  21
 781.433
  31
0.0
   0
LINE
   8
LEVEL003
   6
CONTINUOUS
  62
7
  10
 378.139
  20
 781.433
  30
0.0
  11
 377.090
  21
 781.054
  31
0.0
   0
LINE
   8
LEVEL003
   6
CONTINUOUS
  62
7
  10
 377.090
  20
 781.054
  30
0.0
  11
 376.099
  21
 780.555
  31
0.0
   0
LINE
   8
LEVEL003
   6
CONTINUOUS
  62
7
  10
 376.099
  20
 780.555
  30
0.0
  11
 375.181
  21
 779.944
  31
0.0
   0
LINE
   8
LEVEL003
   6
CONTINUOUS
  62
7
  10
 375.181
  20
 779.944
  30
0.0
  11
 374.352
  21
 779.230
  31
0.0
   0
LINE
   8
LEVEL003
   6
CONTINUOUS
  62
7
  10
 374.352
  20
 779.230
  30
0.0
  11
 373.625
  21
 778.425
  31
0.0
   0
LINE
   8
LEVEL003
   6
CONTINUOUS
  62
7
  10
 373.625
  20
 778.425
  30
0.0
  11
 373.009
  21
 777.541
  31
0.0
   0
LINE
   8
LEVEL003
   6
CONTINUOUS
  62
7
  10
 373.009
  20
 777.541
  30
0.0
  11
 372.516
  21
 776.591
  31
0.0
   0
LINE
   8
LEVEL003
   6
CONTINUOUS
  62
7
  10
 372.516
  20
 776.591
  30
0.0
  11
 372.153
  21
 775.592
  31
0.0
   0
LINE
   8
LEVEL003
   6
CONTINUOUS
  62
7
  10
 372.153
  20
 775.592
  30
0.0
  11
 371.925
  21
 774.557
  31
0.0
   0
LINE
   8
LEVEL003
   6
CONTINUOUS
  62
7
  10
 371.925
  20
 774.557
  30
0.0
  11
 371.836
  21
 773.504
  31
0.0
   0
LINE
   8
LEVEL003
   6
CONTINUOUS
  62
7
  10
 371.836
  20
 773.504
  30
0.0
  11
 371.888
  21
 772.449
  31
0.0
   0
LINE
   8
LEVEL003
   6
CONTINUOUS
  62
7
  10
 371.888
  20
 772.449
  30
0.0
  11
 372.079
  21
 771.408
  31
0.0
   0
LINE
   8
LEVEL003
   6
CONTINUOUS
  62
7
  10
 372.079
  20
 771.408
  30
0.0
  11
 372.407
  21
 770.397
  31
0.0
   0
LINE
   8
LEVEL003
   6
CONTINUOUS
  62
7
  10
 372.407
  20
 770.397
  30
0.0
  11
 372.866
  21
 769.433
  31
0.0
   0
LINE
   8
LEVEL003
   6
CONTINUOUS
  62
7
  10
 372.866
  20
 769.433
  30
0.0
  11
 373.450
  21
 768.530
  31
0.0
   0
LINE
   8
LEVEL003
   6
CONTINUOUS
  62
7
  10
 373.450
  20
 768.530
  30
0.0
  11
 374.149
  21
 767.702
  31
0.0
   0
LINE
   8
LEVEL003
   6
CONTINUOUS
  62
7
  10
 374.149
  20
 767.702
  30
0.0
  11
 374.952
  21
 766.963
  31
0.0
   0
LINE
   8
LEVEL003
   6
CONTINUOUS
  62
7
  10
 374.952
  20
 766.963
  30
0.0
  11
 375.847
  21
 766.324
  31
0.0
   0
LINE
   8
LEVEL003
   6
CONTINUOUS
  62
7
  10
 375.847
  20
 766.324
  30
0.0
  11
 376.820
  21
 765.795
  31
0.0
   0
LINE
   8
LEVEL003
   6
CONTINUOUS
  62
7
  10
 376.820
  20
 765.795
  30
0.0
  11
 377.856
  21
 765.383
  31
0.0
   0
LINE
   8
LEVEL003
   6
CONTINUOUS
  62
7
  10
 377.856
  20
 765.383
  30
0.0
  11
 378.938
  21
 765.096
  31
0.0
   0
LINE
   8
LEVEL003
   6
CONTINUOUS
  62
7
  10
 378.938
  20
 765.096
  30
0.0
  11
 380.049
  21
 764.939
  31
0.0
   0
LINE
   8
LEVEL003
   6
CONTINUOUS
  62
7
  10
 380.049
  20
 764.939
  30
0.0
  11
 381.173
  21
 764.912
  31
0.0
   0
LINE
   8
LEVEL003
   6
CONTINUOUS
  62
7
  10
 381.173
  20
 764.912
  30
0.0
  11
 382.292
  21
 765.018
  31
0.0
   0
LINE
   8
LEVEL003
   6
CONTINUOUS
  62
7
  10
 382.292
  20
 765.018
  30
0.0
  11
 383.388
  21
 765.254
  31
0.0
   0
LINE
   8
LEVEL003
   6
CONTINUOUS
  62
7
  10
 383.388
  20
 765.254
  30
0.0
  11
 384.444
  21
 765.616
  31
0.0
   0
LINE
   8
LEVEL003
   6
CONTINUOUS
  62
7
  10
 384.444
  20
 765.616
  30
0.0
  11
 385.444
  21
 766.099
  31
0.0
   0
LINE
   8
LEVEL003
   6
CONTINUOUS
  62
7
  10
 385.444
  20
 766.099
  30
0.0
  11
 386.372
  21
 766.696
  31
0.0
   0
LINE
   8
LEVEL003
   6
CONTINUOUS
  62
7
  10
 386.372
  20
 766.696
  30
0.0
  11
 387.213
  21
 767.397
  31
0.0
   0
LINE
   8
LEVEL003
   6
CONTINUOUS
  62
7
  10
 387.213
  20
 767.397
  30
0.0
  11
 387.955
  21
 768.191
  31
0.0
   0
LINE
   8
LEVEL003
   6
CONTINUOUS
  62
7
  10
 387.955
  20
 768.191
  30
0.0
  11
 388.586
  21
 769.065
  31
0.0
   0
LINE
   8
LEVEL003
   6
CONTINUOUS
  62
7
  10
 388.586
  20
 769.065
  30
0.0
  11
 389.096
  21
 770.007
  31
0.0
   0
LINE
   8
LEVEL003
   6
CONTINUOUS
  62
7
  10
 389.096
  20
 770.007
  30
0.0
  11
 389.476
  21
 771.001
  31
0.0
   0
LINE
   8
LEVEL003
   6
CONTINUOUS
  62
7
  10
 389.476
  20
 771.001
  30
0.0
  11
 389.723
  21
 772.031
  31
0.0
   0
LINE
   8
LEVEL003
   6
CONTINUOUS
  62
7
  10
 389.723
  20
 772.031
  30
0.0
  11
 389.830
  21
 773.083
  31
0.0
   0
LINE
   8
LEVEL003
   6
CONTINUOUS
  62
7
  10
 389.830
  20
 773.083
  30
0.0
  11
 389.835
  21
 773.364
  31
0.0
   0
LINE
   8
LEVEL003
   6
CONTINUOUS
  62
7
  10
 371.835
  20
 773.364
  30
0.0
  11
 371.835
  21
 777.263
  31
0.0
   0
LINE
   8
LEVEL003
   6
CONTINUOUS
  62
7
  10
 389.835
  20
 773.364
  30
0.0
  11
 389.835
  21
 777.263
  31
0.0
   0
LINE
   8
LEVEL003
   6
CONTINUOUS
  62
7
  10
 388.835
  20
 773.158
  30
0.0
  11
 388.773
  21
 774.096
  31
0.0
   0
LINE
   8
LEVEL003
   6
CONTINUOUS
  62
7
  10
 388.773
  20
 774.096
  30
0.0
  11
 388.586
  21
 775.018
  31
0.0
   0
LINE
   8
LEVEL003
   6
CONTINUOUS
  62
7
  10
 388.586
  20
 775.018
  30
0.0
  11
 388.279
  21
 775.912
  31
0.0
   0
LINE
   8
LEVEL003
   6
CONTINUOUS
  62
7
  10
 388.279
  20
 775.912
  30
0.0
  11
 387.856
  21
 776.763
  31
0.0
   0
LINE
   8
LEVEL003
   6
CONTINUOUS
  62
7
  10
 387.856
  20
 776.763
  30
0.0
  11
 387.323
  21
 777.557
  31
0.0
   0
LINE
   8
LEVEL003
   6
CONTINUOUS
  62
7
  10
 387.323
  20
 777.557
  30
0.0
  11
 386.688
  21
 778.283
  31
0.0
   0
LINE
   8
LEVEL003
   6
CONTINUOUS
  62
7
  10
 386.688
  20
 778.283
  30
0.0
  11
 385.963
  21
 778.929
  31
0.0
   0
LINE
   8
LEVEL003
   6
CONTINUOUS
  62
7
  10
 385.963
  20
 778.929
  30
0.0
  11
 385.157
  21
 779.484
  31
0.0
   0
LINE
   8
LEVEL003
   6
CONTINUOUS
  62
7
  10
 385.157
  20
 779.484
  30
0.0
  11
 384.284
  21
 779.941
  31
0.0
   0
LINE
   8
LEVEL003
   6
CONTINUOUS
  62
7
  10
 384.284
  20
 779.941
  30
0.0
  11
 383.358
  21
 780.293
  31
0.0
   0
LINE
   8
LEVEL003
   6
CONTINUOUS
  62
7
  10
 383.358
  20
 780.293
  30
0.0
  11
 382.391
  21
 780.532
  31
0.0
   0
LINE
   8
LEVEL003
   6
CONTINUOUS
  62
7
  10
 382.391
  20
 780.532
  30
0.0
  11
 381.401
  21
 780.657
  31
0.0
   0
LINE
   8
LEVEL003
   6
CONTINUOUS
  62
7
  10
 381.401
  20
 780.657
  30
0.0
  11
 380.402
  21
 780.665
  31
0.0
   0
LINE
   8
LEVEL003
   6
CONTINUOUS
  62
7
  10
 380.402
  20
 780.665
  30
0.0
  11
 379.409
  21
 780.556
  31
0.0
   0
LINE
   8
LEVEL003
   6
CONTINUOUS
  62
7
  10
 379.409
  20
 780.556
  30
0.0
  11
 378.439
  21
 780.331
  31
0.0
   0
LINE
   8
LEVEL003
   6
CONTINUOUS
  62
7
  10
 378.439
  20
 780.331
  30
0.0
  11
 377.506
  21
 779.994
  31
0.0
   0
LINE
   8
LEVEL003
   6
CONTINUOUS
  62
7
  10
 377.506
  20
 779.994
  30
0.0
  11
 376.625
  21
 779.551
  31
0.0
   0
LINE
   8
LEVEL003
   6
CONTINUOUS
  62
7
  10
 376.625
  20
 779.551
  30
0.0
  11
 375.810
  21
 779.008
  31
0.0
   0
LINE
   8
LEVEL003
   6
CONTINUOUS
  62
7
  10
 375.810
  20
 779.008
  30
0.0
  11
 375.073
  21
 778.373
  31
0.0
   0
LINE
   8
LEVEL003
   6
CONTINUOUS
  62
7
  10
 375.073
  20
 778.373
  30
0.0
  11
 374.426
  21
 777.658
  31
0.0
   0
LINE
   8
LEVEL003
   6
CONTINUOUS
  62
7
  10
 374.426
  20
 777.658
  30
0.0
  11
 373.879
  21
 776.872
  31
0.0
   0
LINE
   8
LEVEL003
   6
CONTINUOUS
  62
7
  10
 373.879
  20
 776.872
  30
0.0
  11
 373.441
  21
 776.028
  31
0.0
   0
LINE
   8
LEVEL003
   6
CONTINUOUS
  62
7
  10
 373.441
  20
 776.028
  30
0.0
  11
 373.118
  21
 775.139
  31
0.0
   0
LINE
   8
LEVEL003
   6
CONTINUOUS
  62
7
  10
 373.118
  20
 775.139
  30
0.0
  11
 372.915
  21
 774.219
  31
0.0
   0
LINE
   8
LEVEL003
   6
CONTINUOUS
  62
7
  10
 372.915
  20
 774.219
  30
0.0
  11
 372.836
  21
 773.283
  31
0.0
   0
LINE
   8
LEVEL003
   6
CONTINUOUS
  62
7
  10
 372.836
  20
 773.283
  30
0.0
  11
 372.882
  21
 772.345
  31
0.0
   0
LINE
   8
LEVEL003
   6
CONTINUOUS
  62
7
  10
 372.882
  20
 772.345
  30
0.0
  11
 373.052
  21
 771.420
  31
0.0
   0
LINE
   8
LEVEL003
   6
CONTINUOUS
  62
7
  10
 373.052
  20
 771.420
  30
0.0
  11
 373.343
  21
 770.521
  31
0.0
   0
LINE
   8
LEVEL003
   6
CONTINUOUS
  62
7
  10
 373.343
  20
 770.521
  30
0.0
  11
 373.752
  21
 769.664
  31
0.0
   0
LINE
   8
LEVEL003
   6
CONTINUOUS
  62
7
  10
 373.752
  20
 769.664
  30
0.0
  11
 374.270
  21
 768.862
  31
0.0
   0
LINE
   8
LEVEL003
   6
CONTINUOUS
  62
7
  10
 374.270
  20
 768.862
  30
0.0
  11
 374.892
  21
 768.126
  31
0.0
   0
LINE
   8
LEVEL003
   6
CONTINUOUS
  62
7
  10
 374.892
  20
 768.126
  30
0.0
  11
 375.606
  21
 767.469
  31
0.0
   0
LINE
   8
LEVEL003
   6
CONTINUOUS
  62
7
  10
 375.606
  20
 767.469
  30
0.0
  11
 376.401
  21
 766.901
  31
0.0
   0
LINE
   8
LEVEL003
   6
CONTINUOUS
  62
7
  10
 376.401
  20
 766.901
  30
0.0
  11
 377.266
  21
 766.430
  31
0.0
   0
LINE
   8
LEVEL003
   6
CONTINUOUS
  62
7
  10
 377.266
  20
 766.430
  30
0.0
  11
 378.187
  21
 766.065
  31
0.0
   0
LINE
   8
LEVEL003
   6
CONTINUOUS
  62
7
  10
 378.187
  20
 766.065
  30
0.0
  11
 379.149
  21
 765.810
  31
0.0
   0
LINE
   8
LEVEL003
   6
CONTINUOUS
  62
7
  10
 379.149
  20
 765.810
  30
0.0
  11
 380.137
  21
 765.670
  31
0.0
   0
LINE
   8
LEVEL003
   6
CONTINUOUS
  62
7
  10
 380.137
  20
 765.670
  30
0.0
  11
 381.136
  21
 765.646
  31
0.0
   0
LINE
   8
LEVEL003
   6
CONTINUOUS
  62
7
  10
 381.136
  20
 765.646
  30
0.0
  11
 382.130
  21
 765.740
  31
0.0
   0
LINE
   8
LEVEL003
   6
CONTINUOUS
  62
7
  10
 382.130
  20
 765.740
  30
0.0
  11
 383.104
  21
 765.950
  31
0.0
   0
LINE
   8
LEVEL003
   6
CONTINUOUS
  62
7
  10
 383.104
  20
 765.950
  30
0.0
  11
 384.043
  21
 766.272
  31
0.0
   0
LINE
   8
LEVEL003
   6
CONTINUOUS
  62
7
  10
 384.043
  20
 766.272
  30
0.0
  11
 384.932
  21
 766.701
  31
0.0
   0
LINE
   8
LEVEL003
   6
CONTINUOUS
  62
7
  10
 384.932
  20
 766.701
  30
0.0
  11
 385.756
  21
 767.232
  31
0.0
   0
LINE
   8
LEVEL003
   6
CONTINUOUS
  62
7
  10
 385.756
  20
 767.232
  30
0.0
  11
 386.504
  21
 767.855
  31
0.0
   0
LINE
   8
LEVEL003
   6
CONTINUOUS
  62
7
  10
 386.504
  20
 767.855
  30
0.0
  11
 387.164
  21
 768.560
  31
0.0
   0
LINE
   8
LEVEL003
   6
CONTINUOUS
  62
7
  10
 387.164
  20
 768.560
  30
0.0
  11
 387.725
  21
 769.337
  31
0.0
   0
LINE
   8
LEVEL003
   6
CONTINUOUS
  62
7
  10
 387.725
  20
 769.337
  30
0.0
  11
 388.178
  21
 770.174
  31
0.0
   0
LINE
   8
LEVEL003
   6
CONTINUOUS
  62
7
  10
 388.178
  20
 770.174
  30
0.0
  11
 388.516
  21
 771.058
  31
0.0
   0
LINE
   8
LEVEL003
   6
CONTINUOUS
  62
7
  10
 388.516
  20
 771.058
  30
0.0
  11
 388.735
  21
 771.974
  31
0.0
   0
LINE
   8
LEVEL003
   6
CONTINUOUS
  62
7
  10
 388.735
  20
 771.974
  30
0.0
  11
 388.831
  21
 772.909
  31
0.0
   0
LINE
   8
LEVEL003
   6
CONTINUOUS
  62
7
  10
 388.831
  20
 772.909
  30
0.0
  11
 388.835
  21
 773.158
  31
0.0
   0
LINE
   8
LEVEL003
   6
CONTINUOUS
  62
7
  10
 380.835
  20
 778.389
  30
0.0
  11
 385.835
  21
 776.045
  31
0.0
   0
LINE
   8
LEVEL003
   6
CONTINUOUS
  62
7
  10
 385.835
  20
 776.045
  30
0.0
  11
 385.835
  21
 770.272
  31
0.0
   0
LINE
   8
LEVEL003
   6
CONTINUOUS
  62
7
  10
 385.835
  20
 770.272
  30
0.0
  11
 380.835
  21
 767.928
  31
0.0
   0
LINE
   8
LEVEL003
   6
CONTINUOUS
  62
7
  10
 380.835
  20
 767.928
  30
0.0
  11
 375.835
  21
 770.272
  31
0.0
   0
LINE
   8
LEVEL003
   6
CONTINUOUS
  62
7
  10
 375.835
  20
 770.272
  30
0.0
  11
 375.835
  21
 776.045
  31
0.0
   0
LINE
   8
LEVEL003
   6
CONTINUOUS
  62
7
  10
 375.835
  20
 776.045
  30
0.0
  11
 380.835
  21
 778.389
  31
0.0
   0
LINE
   8
LEVEL003
   6
CONTINUOUS
  62
7
  10
 409.835
  20
 773.364
  30
0.0
  11
 409.765
  21
 774.418
  31
0.0
   0
LINE
   8
LEVEL003
   6
CONTINUOUS
  62
7
  10
 409.765
  20
 774.418
  30
0.0
  11
 409.555
  21
 775.456
  31
0.0
   0
LINE
   8
LEVEL003
   6
CONTINUOUS
  62
7
  10
 409.555
  20
 775.456
  30
0.0
  11
 409.210
  21
 776.461
  31
0.0
   0
LINE
   8
LEVEL003
   6
CONTINUOUS
  62
7
  10
 409.210
  20
 776.461
  30
0.0
  11
 408.733
  21
 777.418
  31
0.0
   0
LINE
   8
LEVEL003
   6
CONTINUOUS
  62
7
  10
 408.733
  20
 777.418
  30
0.0
  11
 408.134
  21
 778.312
  31
0.0
   0
LINE
   8
LEVEL003
   6
CONTINUOUS
  62
7
  10
 408.134
  20
 778.312
  30
0.0
  11
 407.420
  21
 779.128
  31
0.0
   0
LINE
   8
LEVEL003
   6
CONTINUOUS
  62
7
  10
 407.420
  20
 779.128
  30
0.0
  11
 406.604
  21
 779.855
  31
0.0
   0
LINE
   8
LEVEL003
   6
CONTINUOUS
  62
7
  10
 406.604
  20
 779.855
  30
0.0
  11
 405.698
  21
 780.480
  31
0.0
   0
LINE
   8
LEVEL003
   6
CONTINUOUS
  62
7
  10
 405.698
  20
 780.480
  30
0.0
  11
 404.716
  21
 780.994
  31
0.0
   0
LINE
   8
LEVEL003
   6
CONTINUOUS
  62
7
  10
 404.716
  20
 780.994
  30
0.0
  11
 403.673
  21
 781.389
  31
0.0
   0
LINE
   8
LEVEL003
   6
CONTINUOUS
  62
7
  10
 403.673
  20
 781.389
  30
0.0
  11
 402.586
  21
 781.659
  31
0.0
   0
LINE
   8
LEVEL003
   6
CONTINUOUS
  62
7
  10
 402.586
  20
 781.659
  30
0.0
  11
 401.472
  21
 781.800
  31
0.0
   0
LINE
   8
LEVEL003
   6
CONTINUOUS
  62
7
  10
 401.472
  20
 781.800
  30
0.0
  11
 400.347
  21
 781.808
  31
0.0
   0
LINE
   8
LEVEL003
   6
CONTINUOUS
  62
7
  10
 400.347
  20
 781.808
  30
0.0
  11
 399.231
  21
 781.685
  31
0.0
   0
LINE
   8
LEVEL003
   6
CONTINUOUS
  62
7
  10
 399.231
  20
 781.685
  30
0.0
  11
 398.139
  21
 781.433
  31
0.0
   0
LINE
   8
LEVEL003
   6
CONTINUOUS
  62
7
  10
 398.139
  20
 781.433
  30
0.0
  11
 397.090
  21
 781.054
  31
0.0
   0
LINE
   8
LEVEL003
   6
CONTINUOUS
  62
7
  10
 397.090
  20
 781.054
  30
0.0
  11
 396.099
  21
 780.555
  31
0.0
   0
LINE
   8
LEVEL003
   6
CONTINUOUS
  62
7
  10
 396.099
  20
 780.555
  30
0.0
  11
 395.181
  21
 779.944
  31
0.0
   0
LINE
   8
LEVEL003
   6
CONTINUOUS
  62
7
  10
 395.181
  20
 779.944
  30
0.0
  11
 394.352
  21
 779.230
  31
0.0
   0
LINE
   8
LEVEL003
   6
CONTINUOUS
  62
7
  10
 394.352
  20
 779.230
  30
0.0
  11
 393.625
  21
 778.425
  31
0.0
   0
LINE
   8
LEVEL003
   6
CONTINUOUS
  62
7
  10
 393.625
  20
 778.425
  30
0.0
  11
 393.009
  21
 777.541
  31
0.0
   0
LINE
   8
LEVEL003
   6
CONTINUOUS
  62
7
  10
 393.009
  20
 777.541
  30
0.0
  11
 392.516
  21
 776.591
  31
0.0
   0
LINE
   8
LEVEL003
   6
CONTINUOUS
  62
7
  10
 392.516
  20
 776.591
  30
0.0
  11
 392.153
  21
 775.592
  31
0.0
   0
LINE
   8
LEVEL003
   6
CONTINUOUS
  62
7
  10
 392.153
  20
 775.592
  30
0.0
  11
 391.925
  21
 774.557
  31
0.0
   0
LINE
   8
LEVEL003
   6
CONTINUOUS
  62
7
  10
 391.925
  20
 774.557
  30
0.0
  11
 391.836
  21
 773.504
  31
0.0
   0
LINE
   8
LEVEL003
   6
CONTINUOUS
  62
7
  10
 391.836
  20
 773.504
  30
0.0
  11
 391.888
  21
 772.449
  31
0.0
   0
LINE
   8
LEVEL003
   6
CONTINUOUS
  62
7
  10
 391.888
  20
 772.449
  30
0.0
  11
 392.079
  21
 771.408
  31
0.0
   0
LINE
   8
LEVEL003
   6
CONTINUOUS
  62
7
  10
 392.079
  20
 771.408
  30
0.0
  11
 392.407
  21
 770.397
  31
0.0
   0
LINE
   8
LEVEL003
   6
CONTINUOUS
  62
7
  10
 392.407
  20
 770.397
  30
0.0
  11
 392.866
  21
 769.433
  31
0.0
   0
LINE
   8
LEVEL003
   6
CONTINUOUS
  62
7
  10
 392.866
  20
 769.433
  30
0.0
  11
 393.450
  21
 768.530
  31
0.0
   0
LINE
   8
LEVEL003
   6
CONTINUOUS
  62
7
  10
 393.450
  20
 768.530
  30
0.0
  11
 394.149
  21
 767.702
  31
0.0
   0
LINE
   8
LEVEL003
   6
CONTINUOUS
  62
7
  10
 394.149
  20
 767.702
  30
0.0
  11
 394.952
  21
 766.963
  31
0.0
   0
LINE
   8
LEVEL003
   6
CONTINUOUS
  62
7
  10
 394.952
  20
 766.963
  30
0.0
  11
 395.847
  21
 766.324
  31
0.0
   0
LINE
   8
LEVEL003
   6
CONTINUOUS
  62
7
  10
 395.847
  20
 766.324
  30
0.0
  11
 396.820
  21
 765.795
  31
0.0
   0
LINE
   8
LEVEL003
   6
CONTINUOUS
  62
7
  10
 396.820
  20
 765.795
  30
0.0
  11
 397.856
  21
 765.383
  31
0.0
   0
LINE
   8
LEVEL003
   6
CONTINUOUS
  62
7
  10
 397.856
  20
 765.383
  30
0.0
  11
 398.938
  21
 765.096
  31
0.0
   0
LINE
   8
LEVEL003
   6
CONTINUOUS
  62
7
  10
 398.938
  20
 765.096
  30
0.0
  11
 400.049
  21
 764.939
  31
0.0
   0
LINE
   8
LEVEL003
   6
CONTINUOUS
  62
7
  10
 400.049
  20
 764.939
  30
0.0
  11
 401.173
  21
 764.912
  31
0.0
   0
LINE
   8
LEVEL003
   6
CONTINUOUS
  62
7
  10
 401.173
  20
 764.912
  30
0.0
  11
 402.292
  21
 765.018
  31
0.0
   0
LINE
   8
LEVEL003
   6
CONTINUOUS
  62
7
  10
 402.292
  20
 765.018
  30
0.0
  11
 403.388
  21
 765.254
  31
0.0
   0
LINE
   8
LEVEL003
   6
CONTINUOUS
  62
7
  10
 403.388
  20
 765.254
  30
0.0
  11
 404.444
  21
 765.616
  31
0.0
   0
LINE
   8
LEVEL003
   6
CONTINUOUS
  62
7
  10
 404.444
  20
 765.616
  30
0.0
  11
 405.444
  21
 766.099
  31
0.0
   0
LINE
   8
LEVEL003
   6
CONTINUOUS
  62
7
  10
 405.444
  20
 766.099
  30
0.0
  11
 406.372
  21
 766.696
  31
0.0
   0
LINE
   8
LEVEL003
   6
CONTINUOUS
  62
7
  10
 406.372
  20
 766.696
  30
0.0
  11
 407.213
  21
 767.397
  31
0.0
   0
LINE
   8
LEVEL003
   6
CONTINUOUS
  62
7
  10
 407.213
  20
 767.397
  30
0.0
  11
 407.955
  21
 768.191
  31
0.0
   0
LINE
   8
LEVEL003
   6
CONTINUOUS
  62
7
  10
 407.955
  20
 768.191
  30
0.0
  11
 408.586
  21
 769.065
  31
0.0
   0
LINE
   8
LEVEL003
   6
CONTINUOUS
  62
7
  10
 408.586
  20
 769.065
  30
0.0
  11
 409.096
  21
 770.007
  31
0.0
   0
LINE
   8
LEVEL003
   6
CONTINUOUS
  62
7
  10
 409.096
  20
 770.007
  30
0.0
  11
 409.476
  21
 771.001
  31
0.0
   0
LINE
   8
LEVEL003
   6
CONTINUOUS
  62
7
  10
 409.476
  20
 771.001
  30
0.0
  11
 409.723
  21
 772.031
  31
0.0
   0
LINE
   8
LEVEL003
   6
CONTINUOUS
  62
7
  10
 409.723
  20
 772.031
  30
0.0
  11
 409.830
  21
 773.083
  31
0.0
   0
LINE
   8
LEVEL003
   6
CONTINUOUS
  62
7
  10
 409.830
  20
 773.083
  30
0.0
  11
 409.835
  21
 773.364
  31
0.0
   0
LINE
   8
LEVEL003
   6
CONTINUOUS
  62
7
  10
 391.835
  20
 773.364
  30
0.0
  11
 391.835
  21
 777.263
  31
0.0
   0
LINE
   8
LEVEL003
   6
CONTINUOUS
  62
7
  10
 409.835
  20
 773.364
  30
0.0
  11
 409.835
  21
 777.263
  31
0.0
   0
LINE
   8
LEVEL003
   6
CONTINUOUS
  62
7
  10
 408.835
  20
 773.158
  30
0.0
  11
 408.773
  21
 774.096
  31
0.0
   0
LINE
   8
LEVEL003
   6
CONTINUOUS
  62
7
  10
 408.773
  20
 774.096
  30
0.0
  11
 408.586
  21
 775.018
  31
0.0
   0
LINE
   8
LEVEL003
   6
CONTINUOUS
  62
7
  10
 408.586
  20
 775.018
  30
0.0
  11
 408.279
  21
 775.912
  31
0.0
   0
LINE
   8
LEVEL003
   6
CONTINUOUS
  62
7
  10
 408.279
  20
 775.912
  30
0.0
  11
 407.856
  21
 776.763
  31
0.0
   0
LINE
   8
LEVEL003
   6
CONTINUOUS
  62
7
  10
 407.856
  20
 776.763
  30
0.0
  11
 407.323
  21
 777.557
  31
0.0
   0
LINE
   8
LEVEL003
   6
CONTINUOUS
  62
7
  10
 407.323
  20
 777.557
  30
0.0
  11
 406.688
  21
 778.283
  31
0.0
   0
LINE
   8
LEVEL003
   6
CONTINUOUS
  62
7
  10
 406.688
  20
 778.283
  30
0.0
  11
 405.963
  21
 778.929
  31
0.0
   0
LINE
   8
LEVEL003
   6
CONTINUOUS
  62
7
  10
 405.963
  20
 778.929
  30
0.0
  11
 405.157
  21
 779.484
  31
0.0
   0
LINE
   8
LEVEL003
   6
CONTINUOUS
  62
7
  10
 405.157
  20
 779.484
  30
0.0
  11
 404.284
  21
 779.941
  31
0.0
   0
LINE
   8
LEVEL003
   6
CONTINUOUS
  62
7
  10
 404.284
  20
 779.941
  30
0.0
  11
 403.358
  21
 780.293
  31
0.0
   0
LINE
   8
LEVEL003
   6
CONTINUOUS
  62
7
  10
 403.358
  20
 780.293
  30
0.0
  11
 402.391
  21
 780.532
  31
0.0
   0
LINE
   8
LEVEL003
   6
CONTINUOUS
  62
7
  10
 402.391
  20
 780.532
  30
0.0
  11
 401.401
  21
 780.657
  31
0.0
   0
LINE
   8
LEVEL003
   6
CONTINUOUS
  62
7
  10
 401.401
  20
 780.657
  30
0.0
  11
 400.402
  21
 780.665
  31
0.0
   0
LINE
   8
LEVEL003
   6
CONTINUOUS
  62
7
  10
 400.402
  20
 780.665
  30
0.0
  11
 399.409
  21
 780.556
  31
0.0
   0
LINE
   8
LEVEL003
   6
CONTINUOUS
  62
7
  10
 399.409
  20
 780.556
  30
0.0
  11
 398.439
  21
 780.331
  31
0.0
   0
LINE
   8
LEVEL003
   6
CONTINUOUS
  62
7
  10
 398.439
  20
 780.331
  30
0.0
  11
 397.506
  21
 779.994
  31
0.0
   0
LINE
   8
LEVEL003
   6
CONTINUOUS
  62
7
  10
 397.506
  20
 779.994
  30
0.0
  11
 396.625
  21
 779.551
  31
0.0
   0
LINE
   8
LEVEL003
   6
CONTINUOUS
  62
7
  10
 396.625
  20
 779.551
  30
0.0
  11
 395.810
  21
 779.008
  31
0.0
   0
LINE
   8
LEVEL003
   6
CONTINUOUS
  62
7
  10
 395.810
  20
 779.008
  30
0.0
  11
 395.073
  21
 778.373
  31
0.0
   0
LINE
   8
LEVEL003
   6
CONTINUOUS
  62
7
  10
 395.073
  20
 778.373
  30
0.0
  11
 394.426
  21
 777.658
  31
0.0
   0
LINE
   8
LEVEL003
   6
CONTINUOUS
  62
7
  10
 394.426
  20
 777.658
  30
0.0
  11
 393.879
  21
 776.872
  31
0.0
   0
LINE
   8
LEVEL003
   6
CONTINUOUS
  62
7
  10
 393.879
  20
 776.872
  30
0.0
  11
 393.441
  21
 776.028
  31
0.0
   0
LINE
   8
LEVEL003
   6
CONTINUOUS
  62
7
  10
 393.441
  20
 776.028
  30
0.0
  11
 393.118
  21
 775.139
  31
0.0
   0
LINE
   8
LEVEL003
   6
CONTINUOUS
  62
7
  10
 393.118
  20
 775.139
  30
0.0
  11
 392.915
  21
 774.219
  31
0.0
   0
LINE
   8
LEVEL003
   6
CONTINUOUS
  62
7
  10
 392.915
  20
 774.219
  30
0.0
  11
 392.836
  21
 773.283
  31
0.0
   0
LINE
   8
LEVEL003
   6
CONTINUOUS
  62
7
  10
 392.836
  20
 773.283
  30
0.0
  11
 392.882
  21
 772.345
  31
0.0
   0
LINE
   8
LEVEL003
   6
CONTINUOUS
  62
7
  10
 392.882
  20
 772.345
  30
0.0
  11
 393.052
  21
 771.420
  31
0.0
   0
LINE
   8
LEVEL003
   6
CONTINUOUS
  62
7
  10
 393.052
  20
 771.420
  30
0.0
  11
 393.343
  21
 770.521
  31
0.0
   0
LINE
   8
LEVEL003
   6
CONTINUOUS
  62
7
  10
 393.343
  20
 770.521
  30
0.0
  11
 393.752
  21
 769.664
  31
0.0
   0
LINE
   8
LEVEL003
   6
CONTINUOUS
  62
7
  10
 393.752
  20
 769.664
  30
0.0
  11
 394.270
  21
 768.862
  31
0.0
   0
LINE
   8
LEVEL003
   6
CONTINUOUS
  62
7
  10
 394.270
  20
 768.862
  30
0.0
  11
 394.892
  21
 768.126
  31
0.0
   0
LINE
   8
LEVEL003
   6
CONTINUOUS
  62
7
  10
 394.892
  20
 768.126
  30
0.0
  11
 395.606
  21
 767.469
  31
0.0
   0
LINE
   8
LEVEL003
   6
CONTINUOUS
  62
7
  10
 395.606
  20
 767.469
  30
0.0
  11
 396.401
  21
 766.901
  31
0.0
   0
LINE
   8
LEVEL003
   6
CONTINUOUS
  62
7
  10
 396.401
  20
 766.901
  30
0.0
  11
 397.266
  21
 766.430
  31
0.0
   0
LINE
   8
LEVEL003
   6
CONTINUOUS
  62
7
  10
 397.266
  20
 766.430
  30
0.0
  11
 398.187
  21
 766.065
  31
0.0
   0
LINE
   8
LEVEL003
   6
CONTINUOUS
  62
7
  10
 398.187
  20
 766.065
  30
0.0
  11
 399.149
  21
 765.810
  31
0.0
   0
LINE
   8
LEVEL003
   6
CONTINUOUS
  62
7
  10
 399.149
  20
 765.810
  30
0.0
  11
 400.137
  21
 765.670
  31
0.0
   0
LINE
   8
LEVEL003
   6
CONTINUOUS
  62
7
  10
 400.137
  20
 765.670
  30
0.0
  11
 401.136
  21
 765.646
  31
0.0
   0
LINE
   8
LEVEL003
   6
CONTINUOUS
  62
7
  10
 401.136
  20
 765.646
  30
0.0
  11
 402.130
  21
 765.740
  31
0.0
   0
LINE
   8
LEVEL003
   6
CONTINUOUS
  62
7
  10
 402.130
  20
 765.740
  30
0.0
  11
 403.104
  21
 765.950
  31
0.0
   0
LINE
   8
LEVEL003
   6
CONTINUOUS
  62
7
  10
 403.104
  20
 765.950
  30
0.0
  11
 404.043
  21
 766.272
  31
0.0
   0
LINE
   8
LEVEL003
   6
CONTINUOUS
  62
7
  10
 404.043
  20
 766.272
  30
0.0
  11
 404.932
  21
 766.701
  31
0.0
   0
LINE
   8
LEVEL003
   6
CONTINUOUS
  62
7
  10
 404.932
  20
 766.701
  30
0.0
  11
 405.756
  21
 767.232
  31
0.0
   0
LINE
   8
LEVEL003
   6
CONTINUOUS
  62
7
  10
 405.756
  20
 767.232
  30
0.0
  11
 406.504
  21
 767.855
  31
0.0
   0
LINE
   8
LEVEL003
   6
CONTINUOUS
  62
7
  10
 406.504
  20
 767.855
  30
0.0
  11
 407.164
  21
 768.560
  31
0.0
   0
LINE
   8
LEVEL003
   6
CONTINUOUS
  62
7
  10
 407.164
  20
 768.560
  30
0.0
  11
 407.725
  21
 769.337
  31
0.0
   0
LINE
   8
LEVEL003
   6
CONTINUOUS
  62
7
  10
 407.725
  20
 769.337
  30
0.0
  11
 408.178
  21
 770.174
  31
0.0
   0
LINE
   8
LEVEL003
   6
CONTINUOUS
  62
7
  10
 408.178
  20
 770.174
  30
0.0
  11
 408.516
  21
 771.058
  31
0.0
   0
LINE
   8
LEVEL003
   6
CONTINUOUS
  62
7
  10
 408.516
  20
 771.058
  30
0.0
  11
 408.735
  21
 771.974
  31
0.0
   0
LINE
   8
LEVEL003
   6
CONTINUOUS
  62
7
  10
 408.735
  20
 771.974
  30
0.0
  11
 408.831
  21
 772.909
  31
0.0
   0
LINE
   8
LEVEL003
   6
CONTINUOUS
  62
7
  10
 408.831
  20
 772.909
  30
0.0
  11
 408.835
  21
 773.158
  31
0.0
   0
LINE
   8
LEVEL003
   6
CONTINUOUS
  62
7
  10
 409.835
  20
 777.263
  30
0.0
  11
 409.765
  21
 778.317
  31
0.0
   0
LINE
   8
LEVEL003
   6
CONTINUOUS
  62
7
  10
 409.765
  20
 778.317
  30
0.0
  11
 409.555
  21
 779.355
  31
0.0
   0
LINE
   8
LEVEL003
   6
CONTINUOUS
  62
7
  10
 409.555
  20
 779.355
  30
0.0
  11
 409.210
  21
 780.360
  31
0.0
   0
LINE
   8
LEVEL003
   6
CONTINUOUS
  62
7
  10
 409.210
  20
 780.360
  30
0.0
  11
 408.733
  21
 781.317
  31
0.0
   0
LINE
   8
LEVEL003
   6
CONTINUOUS
  62
7
  10
 408.733
  20
 781.317
  30
0.0
  11
 408.134
  21
 782.211
  31
0.0
   0
LINE
   8
LEVEL003
   6
CONTINUOUS
  62
7
  10
 408.134
  20
 782.211
  30
0.0
  11
 407.420
  21
 783.028
  31
0.0
   0
LINE
   8
LEVEL003
   6
CONTINUOUS
  62
7
  10
 407.420
  20
 783.028
  30
0.0
  11
 406.604
  21
 783.754
  31
0.0
   0
LINE
   8
LEVEL003
   6
CONTINUOUS
  62
7
  10
 406.604
  20
 783.754
  30
0.0
  11
 405.698
  21
 784.379
  31
0.0
   0
LINE
   8
LEVEL003
   6
CONTINUOUS
  62
7
  10
 405.698
  20
 784.379
  30
0.0
  11
 404.716
  21
 784.893
  31
0.0
   0
LINE
   8
LEVEL003
   6
CONTINUOUS
  62
7
  10
 404.716
  20
 784.893
  30
0.0
  11
 403.673
  21
 785.289
  31
0.0
   0
LINE
   8
LEVEL003
   6
CONTINUOUS
  62
7
  10
 403.673
  20
 785.289
  30
0.0
  11
 402.586
  21
 785.558
  31
0.0
   0
LINE
   8
LEVEL003
   6
CONTINUOUS
  62
7
  10
 402.586
  20
 785.558
  30
0.0
  11
 401.472
  21
 785.699
  31
0.0
   0
LINE
   8
LEVEL003
   6
CONTINUOUS
  62
7
  10
 401.472
  20
 785.699
  30
0.0
  11
 400.347
  21
 785.708
  31
0.0
   0
LINE
   8
LEVEL003
   6
CONTINUOUS
  62
7
  10
 400.347
  20
 785.708
  30
0.0
  11
 399.231
  21
 785.585
  31
0.0
   0
LINE
   8
LEVEL003
   6
CONTINUOUS
  62
7
  10
 399.231
  20
 785.585
  30
0.0
  11
 398.139
  21
 785.332
  31
0.0
   0
LINE
   8
LEVEL003
   6
CONTINUOUS
  62
7
  10
 398.139
  20
 785.332
  30
0.0
  11
 397.090
  21
 784.953
  31
0.0
   0
LINE
   8
LEVEL003
   6
CONTINUOUS
  62
7
  10
 397.090
  20
 784.953
  30
0.0
  11
 396.099
  21
 784.454
  31
0.0
   0
LINE
   8
LEVEL003
   6
CONTINUOUS
  62
7
  10
 396.099
  20
 784.454
  30
0.0
  11
 395.181
  21
 783.843
  31
0.0
   0
LINE
   8
LEVEL003
   6
CONTINUOUS
  62
7
  10
 395.181
  20
 783.843
  30
0.0
  11
 394.352
  21
 783.129
  31
0.0
   0
LINE
   8
LEVEL003
   6
CONTINUOUS
  62
7
  10
 394.352
  20
 783.129
  30
0.0
  11
 393.625
  21
 782.324
  31
0.0
   0
LINE
   8
LEVEL003
   6
CONTINUOUS
  62
7
  10
 393.625
  20
 782.324
  30
0.0
  11
 393.009
  21
 781.440
  31
0.0
   0
LINE
   8
LEVEL003
   6
CONTINUOUS
  62
7
  10
 393.009
  20
 781.440
  30
0.0
  11
 392.516
  21
 780.491
  31
0.0
   0
LINE
   8
LEVEL003
   6
CONTINUOUS
  62
7
  10
 392.516
  20
 780.491
  30
0.0
  11
 392.153
  21
 779.491
  31
0.0
   0
LINE
   8
LEVEL003
   6
CONTINUOUS
  62
7
  10
 392.153
  20
 779.491
  30
0.0
  11
 391.925
  21
 778.456
  31
0.0
   0
LINE
   8
LEVEL003
   6
CONTINUOUS
  62
7
  10
 391.925
  20
 778.456
  30
0.0
  11
 391.836
  21
 777.403
  31
0.0
   0
LINE
   8
LEVEL003
   6
CONTINUOUS
  62
7
  10
 391.836
  20
 777.403
  30
0.0
  11
 391.835
  21
 777.263
  31
0.0
   0
LINE
   8
LEVEL003
   6
CONTINUOUS
  62
7
  10
 400.835
  20
 778.389
  30
0.0
  11
 405.835
  21
 776.045
  31
0.0
   0
LINE
   8
LEVEL003
   6
CONTINUOUS
  62
7
  10
 405.835
  20
 776.045
  30
0.0
  11
 405.835
  21
 770.272
  31
0.0
   0
LINE
   8
LEVEL003
   6
CONTINUOUS
  62
7
  10
 405.835
  20
 770.272
  30
0.0
  11
 400.835
  21
 767.928
  31
0.0
   0
LINE
   8
LEVEL003
   6
CONTINUOUS
  62
7
  10
 400.835
  20
 767.928
  30
0.0
  11
 395.835
  21
 770.272
  31
0.0
   0
LINE
   8
LEVEL003
   6
CONTINUOUS
  62
7
  10
 395.835
  20
 770.272
  30
0.0
  11
 395.835
  21
 776.045
  31
0.0
   0
LINE
   8
LEVEL003
   6
CONTINUOUS
  62
7
  10
 395.835
  20
 776.045
  30
0.0
  11
 400.835
  21
 778.389
  31
0.0
   0
LINE
   8
LEVEL003
   6
DASHDOT
  62
1
  10
 412.835
  20
 773.158
  30
0.0
  11
 388.835
  21
 773.158
  31
0.0
   0
LINE
   8
LEVEL003
   6
DASHDOT
  62
1
  10
 392.835
  20
 773.158
  30
0.0
  11
 368.835
  21
 773.158
  31
0.0
   0
LINE
   8
LEVEL001
   6
CONTINUOUS
  62
7
  10
 415.335
  20
 772.263
  30
0.0
  11
 415.335
  21
 788.763
  31
0.0
   0
LINE
   8
LEVEL001
   6
CONTINUOUS
  62
7
  10
 415.335
  20
 821.763
  30
0.0
  11
 415.335
  21
 838.263
  31
0.0
   0
LINE
   8
LEVEL001
   6
CONTINUOUS
  62
7
  10
 382.835
  20
 824.013
  30
0.0
  11
 392.835
  21
 824.013
  31
0.0
   0
LINE
   8
LEVEL001
   6
CONTINUOUS
  62
7
  10
 392.835
  20
 824.013
  30
0.0
  11
 392.835
  21
 823.763
  31
0.0
   0
LINE
   8
LEVEL001
   6
CONTINUOUS
  62
7
  10
 392.835
  20
 824.013
  30
0.0
  11
 391.835
  21
 825.013
  31
0.0
   0
LINE
   8
LEVEL001
   6
CONTINUOUS
  62
7
  10
 382.835
  20
 824.013
  30
0.0
  11
 382.835
  21
 823.763
  31
0.0
   0
LINE
   8
LEVEL001
   6
CONTINUOUS
  62
7
  10
 382.835
  20
 824.013
  30
0.0
  11
 383.835
  21
 825.013
  31
0.0
   0
LINE
   8
LEVEL001
   6
CONTINUOUS
  62
7
  10
 383.835
  20
 825.013
  30
0.0
  11
 391.835
  21
 825.013
  31
0.0
   0
LINE
   8
LEVEL001
   6
CONTINUOUS
  62
7
  10
 382.835
  20
 786.513
  30
0.0
  11
 392.835
  21
 786.513
  31
0.0
   0
LINE
   8
LEVEL001
   6
CONTINUOUS
  62
7
  10
 382.835
  20
 786.513
  30
0.0
  11
 382.835
  21
 786.763
  31
0.0
   0
LINE
   8
LEVEL001
   6
CONTINUOUS
  62
7
  10
 382.835
  20
 786.513
  30
0.0
  11
 383.835
  21
 785.513
  31
0.0
   0
LINE
   8
LEVEL001
   6
CONTINUOUS
  62
7
  10
 392.835
  20
 786.513
  30
0.0
  11
 392.835
  21
 786.763
  31
0.0
   0
LINE
   8
LEVEL001
   6
CONTINUOUS
  62
7
  10
 392.835
  20
 786.513
  30
0.0
  11
 391.835
  21
 785.513
  31
0.0
   0
LINE
   8
LEVEL001
   6
CONTINUOUS
  62
7
  10
 383.835
  20
 785.513
  30
0.0
  11
 391.835
  21
 785.513
  31
0.0
   0
ARC
   8
LEVEL001
   6
CONTINUOUS
  62
7
  10
 387.835
  20
 805.263
  30
0.0
  40
 20.0000
  50
 102.108
  51
 112.332
   0
ARC
   8
LEVEL001
   6
CONTINUOUS
  62
7
  10
 387.835
  20
 805.263
  30
0.0
  40
 20.0000
  50
 67.6685
  51
 77.8932
   0
ARC
   8
LEVEL001
   6
CONTINUOUS
  62
7
  10
 387.835
  20
 805.263
  30
0.0
  40
 20.0000
  50
 80.9313
  51
 99.0687
   0
ARC
   8
LEVEL001
   6
CONTINUOUS
  62
7
  10
 387.835
  20
 805.263
  30
0.0
  40
 20.0000
  50
 247.668
  51
 257.892
   0
ARC
   8
LEVEL001
   6
CONTINUOUS
  62
7
  10
 387.835
  20
 805.263
  30
0.0
  40
 20.0000
  50
 260.931
  51
 279.069
   0
ARC
   8
LEVEL001
   6
CONTINUOUS
  62
7
  10
 387.835
  20
 805.263
  30
0.0
  40
 20.0000
  50
 282.107
  51
 292.332
   0
LINE
   8
LEVEL001
   6
CONTINUOUS
  62
7
  10
 368.887
  20
 776.217
  30
0.0
  11
 369.119
  21
 774.826
  31
0.0
   0
LINE
   8
LEVEL001
   6
CONTINUOUS
  62
7
  10
 369.119
  20
 774.826
  30
0.0
  11
 369.533
  21
 773.472
  31
0.0
   0
LINE
   8
LEVEL001
   6
CONTINUOUS
  62
7
  10
 369.533
  20
 773.472
  30
0.0
  11
 370.124
  21
 772.178
  31
0.0
   0
LINE
   8
LEVEL001
   6
CONTINUOUS
  62
7
  10
 370.124
  20
 772.178
  30
0.0
  11
 370.883
  21
 770.962
  31
0.0
   0
LINE
   8
LEVEL001
   6
CONTINUOUS
  62
7
  10
 370.883
  20
 770.962
  30
0.0
  11
 371.796
  21
 769.846
  31
0.0
   0
LINE
   8
LEVEL001
   6
CONTINUOUS
  62
7
  10
 371.796
  20
 769.846
  30
0.0
  11
 372.851
  21
 768.845
  31
0.0
   0
LINE
   8
LEVEL001
   6
CONTINUOUS
  62
7
  10
 372.851
  20
 768.845
  30
0.0
  11
 373.724
  21
 768.179
  31
0.0
   0
LINE
   8
LEVEL001
   6
CONTINUOUS
  62
7
  10
 385.236
  20
 765.986
  30
0.0
  11
 396.434
  21
 765.986
  31
0.0
   0
LINE
   8
LEVEL001
   6
CONTINUOUS
  62
7
  10
 407.946
  20
 768.179
  30
0.0
  11
 409.095
  21
 769.083
  31
0.0
   0
LINE
   8
LEVEL001
   6
CONTINUOUS
  62
7
  10
 409.095
  20
 769.083
  30
0.0
  11
 410.116
  21
 770.115
  31
0.0
   0
LINE
   8
LEVEL001
   6
CONTINUOUS
  62
7
  10
 410.116
  20
 770.115
  30
0.0
  11
 410.992
  21
 771.258
  31
0.0
   0
LINE
   8
LEVEL001
   6
CONTINUOUS
  62
7
  10
 410.992
  20
 771.258
  30
0.0
  11
 411.709
  21
 772.495
  31
0.0
   0
LINE
   8
LEVEL001
   6
CONTINUOUS
  62
7
  10
 411.709
  20
 772.495
  30
0.0
  11
 412.257
  21
 773.806
  31
0.0
   0
LINE
   8
LEVEL001
   6
CONTINUOUS
  62
7
  10
 412.257
  20
 773.806
  30
0.0
  11
 412.627
  21
 775.171
  31
0.0
   0
LINE
   8
LEVEL001
   6
CONTINUOUS
  62
7
  10
 412.627
  20
 775.171
  30
0.0
  11
 412.783
  21
 776.217
  31
0.0
   0
LINE
   8
LEVEL001
   6
DASHDOT
  62
1
  10
 364.835
  20
 777.316
  30
0.0
  11
 364.835
  21
 832.316
  31
0.0
   0
LINE
   8
LEVEL001
   6
CONTINUOUS
  62
7
  10
 359.835
  20
 828.763
  30
0.0
  11
 360.835
  21
 829.763
  31
0.0
   0
LINE
   8
LEVEL001
   6
CONTINUOUS
  62
7
  10
 360.835
  20
 829.763
  30
0.0
  11
 368.835
  21
 829.763
  31
0.0
   0
LINE
   8
LEVEL001
   6
CONTINUOUS
  62
7
  10
 368.835
  20
 829.763
  30
0.0
  11
 369.835
  21
 828.763
  31
0.0
   0
LINE
   8
LEVEL001
   6
CONTINUOUS
  62
7
  10
 359.835
  20
 828.763
  30
0.0
  11
 369.835
  21
 828.763
  31
0.0
   0
LINE
   8
LEVEL001
   6
CONTINUOUS
  62
7
  10
 368.881
  20
 776.217
  30
0.0
  11
 368.483
  21
 780.763
  31
0.0
   0
ARC
   8
LEVEL001
   6
CONTINUOUS
  62
7
  10
 351.220
  20
 826.263
  30
0.0
  40
 0.800000
  50
 90.0000
  51
 270.000
   0
LINE
   8
LEVEL001
   6
CONTINUOUS
  62
7
  10
 351.220
  20
 827.063
  30
0.0
  11
 378.131
  21
 827.063
  31
0.0
   0
LINE
   8
LEVEL001
   6
CONTINUOUS
  62
7
  10
 351.220
  20
 825.463
  30
0.0
  11
 378.131
  21
 825.463
  31
0.0
   0
LINE
   8
LEVEL001
   6
DASHDOT
  62
1
  10
 349.677
  20
 826.263
  30
0.0
  11
 379.049
  21
 826.263
  31
0.0
   0
LINE
   8
LEVEL001
   6
CONTINUOUS
  62
7
  10
 378.131
  20
 827.063
  30
0.0
  11
 378.131
  21
 825.463
  31
0.0
   0
ARC
   8
LEVEL001
   6
CONTINUOUS
  62
7
  10
 375.949
  20
 826.263
  30
0.0
  40
 0.800000
  50
 270.000
  51
 90.0000
   0
LINE
   8
LEVEL001
   6
CONTINUOUS
  62
7
  10
 369.835
  20
 827.063
  30
0.0
  11
 369.835
  21
 828.763
  31
0.0
   0
LINE
   8
LEVEL001
   6
CONTINUOUS
  62
7
  10
 359.835
  20
 828.763
  30
0.0
  11
 359.835
  21
 827.063
  31
0.0
   0
LINE
   8
LEVEL001
   6
CONTINUOUS
  62
7
  10
 359.835
  20
 825.463
  30
0.0
  11
 359.835
  21
 823.763
  31
0.0
   0
LINE
   8
LEVEL001
   6
CONTINUOUS
  62
7
  10
 359.835
  20
 781.763
  30
0.0
  11
 360.835
  21
 780.763
  31
0.0
   0
LINE
   8
LEVEL001
   6
CONTINUOUS
  62
7
  10
 360.835
  20
 780.763
  30
0.0
  11
 368.835
  21
 780.763
  31
0.0
   0
LINE
   8
LEVEL001
   6
CONTINUOUS
  62
7
  10
 359.835
  20
 781.763
  30
0.0
  11
 369.835
  21
 781.763
  31
0.0
   0
LINE
   8
LEVEL001
   6
CONTINUOUS
  62
7
  10
 351.220
  20
 783.463
  30
0.0
  11
 378.131
  21
 783.463
  31
0.0
   0
LINE
   8
LEVEL001
   6
CONTINUOUS
  62
7
  10
 351.220
  20
 785.063
  30
0.0
  11
 378.131
  21
 785.063
  31
0.0
   0
LINE
   8
LEVEL001
   6
DASHDOT
  62
1
  10
 349.677
  20
 784.263
  30
0.0
  11
 379.049
  21
 784.263
  31
0.0
   0
LINE
   8
LEVEL001
   6
CONTINUOUS
  62
7
  10
 359.835
  20
 781.763
  30
0.0
  11
 359.835
  21
 783.463
  31
0.0
   0
LINE
   8
LEVEL001
   6
CONTINUOUS
  62
7
  10
 359.835
  20
 785.063
  30
0.0
  11
 359.835
  21
 786.763
  31
0.0
   0
LINE
   8
LEVEL001
   6
CONTINUOUS
  62
7
  10
 368.835
  20
 780.763
  30
0.0
  11
 369.835
  21
 781.763
  31
0.0
   0
LINE
   8
LEVEL001
   6
CONTINUOUS
  62
7
  10
 369.835
  20
 783.463
  30
0.0
  11
 369.835
  21
 781.763
  31
0.0
   0
LINE
   8
LEVEL001
   6
CONTINUOUS
  62
7
  10
 378.131
  20
 783.463
  30
0.0
  11
 378.131
  21
 785.063
  31
0.0
   0
ARC
   8
LEVEL001
   6
CONTINUOUS
  62
7
  10
 375.949
  20
 784.263
  30
0.0
  40
 0.800000
  50
 270.000
  51
 90.0000
   0
ARC
   8
LEVEL001
   6
CONTINUOUS
  62
7
  10
 351.220
  20
 784.263
  30
0.0
  40
 0.800000
  50
 90.0000
  51
 270.000
   0
LINE
   8
LEVEL001
   6
CONTINUOUS
  62
7
  10
 369.835
  20
 823.763
  30
0.0
  11
 369.835
  21
 825.463
  31
0.0
   0
LINE
   8
LEVEL001
   6
CONTINUOUS
  62
7
  10
 369.835
  20
 786.763
  30
0.0
  11
 369.835
  21
 785.063
  31
0.0
   0
LINE
   8
LEVEL003
   6
CONTINUOUS
  62
7
  10
 389.835
  20
 777.263
  30
0.0
  11
 389.765
  21
 778.317
  31
0.0
   0
LINE
   8
LEVEL003
   6
CONTINUOUS
  62
7
  10
 389.765
  20
 778.317
  30
0.0
  11
 389.555
  21
 779.355
  31
0.0
   0
LINE
   8
LEVEL003
   6
CONTINUOUS
  62
7
  10
 389.555
  20
 779.355
  30
0.0
  11
 389.210
  21
 780.360
  31
0.0
   0
LINE
   8
LEVEL003
   6
CONTINUOUS
  62
7
  10
 389.210
  20
 780.360
  30
0.0
  11
 388.733
  21
 781.317
  31
0.0
   0
LINE
   8
LEVEL003
   6
CONTINUOUS
  62
7
  10
 388.733
  20
 781.317
  30
0.0
  11
 388.134
  21
 782.211
  31
0.0
   0
LINE
   8
LEVEL003
   6
CONTINUOUS
  62
7
  10
 388.134
  20
 782.211
  30
0.0
  11
 387.420
  21
 783.028
  31
0.0
   0
LINE
   8
LEVEL003
   6
CONTINUOUS
  62
7
  10
 387.420
  20
 783.028
  30
0.0
  11
 386.604
  21
 783.754
  31
0.0
   0
LINE
   8
LEVEL003
   6
CONTINUOUS
  62
7
  10
 386.604
  20
 783.754
  30
0.0
  11
 385.698
  21
 784.379
  31
0.0
   0
LINE
   8
LEVEL003
   6
CONTINUOUS
  62
7
  10
 385.698
  20
 784.379
  30
0.0
  11
 384.716
  21
 784.893
  31
0.0
   0
LINE
   8
LEVEL003
   6
CONTINUOUS
  62
7
  10
 384.716
  20
 784.893
  30
0.0
  11
 383.673
  21
 785.289
  31
0.0
   0
LINE
   8
LEVEL003
   6
CONTINUOUS
  62
7
  10
 383.673
  20
 785.289
  30
0.0
  11
 382.586
  21
 785.558
  31
0.0
   0
LINE
   8
LEVEL003
   6
CONTINUOUS
  62
7
  10
 382.586
  20
 785.558
  30
0.0
  11
 381.472
  21
 785.699
  31
0.0
   0
LINE
   8
LEVEL003
   6
CONTINUOUS
  62
7
  10
 381.472
  20
 785.699
  30
0.0
  11
 380.347
  21
 785.708
  31
0.0
   0
LINE
   8
LEVEL003
   6
CONTINUOUS
  62
7
  10
 380.347
  20
 785.708
  30
0.0
  11
 379.231
  21
 785.585
  31
0.0
   0
LINE
   8
LEVEL003
   6
CONTINUOUS
  62
7
  10
 379.231
  20
 785.585
  30
0.0
  11
 378.139
  21
 785.332
  31
0.0
   0
LINE
   8
LEVEL003
   6
CONTINUOUS
  62
7
  10
 378.139
  20
 785.332
  30
0.0
  11
 377.356
  21
 785.063
  31
0.0
   0
LINE
   8
LEVEL003
   6
CONTINUOUS
  62
7
  10
 374.714
  20
 783.463
  30
0.0
  11
 373.939
  21
 782.697
  31
0.0
   0
LINE
   8
LEVEL003
   6
CONTINUOUS
  62
7
  10
 373.939
  20
 782.697
  30
0.0
  11
 373.272
  21
 781.847
  31
0.0
   0
LINE
   8
LEVEL003
   6
CONTINUOUS
  62
7
  10
 373.272
  20
 781.847
  30
0.0
  11
 372.723
  21
 780.925
  31
0.0
   0
LINE
   8
LEVEL003
   6
CONTINUOUS
  62
7
  10
 372.723
  20
 780.925
  30
0.0
  11
 372.300
  21
 779.946
  31
0.0
   0
LINE
   8
LEVEL003
   6
CONTINUOUS
  62
7
  10
 372.300
  20
 779.946
  30
0.0
  11
 372.011
  21
 778.925
  31
0.0
   0
LINE
   8
LEVEL003
   6
CONTINUOUS
  62
7
  10
 372.011
  20
 778.925
  30
0.0
  11
 371.859
  21
 777.878
  31
0.0
   0
LINE
   8
LEVEL003
   6
CONTINUOUS
  62
7
  10
 371.859
  20
 777.878
  30
0.0
  11
 371.835
  21
 777.263
  31
0.0
   0
LINE
   8
LEVEL001
   6
CONTINUOUS
  62
7
  10
 370.375
  20
 836.178
  30
0.0
  11
 369.735
  21
 828.863
  31
0.0
   0
ARC
   8
LEVEL001
   6
CONTINUOUS
  62
7
  10
 365.487
  20
 837.263
  30
0.0
  40
 5.00000
  50
 270.000
  51
 355.000
   0
LINE
   8
LEVEL001
   6
CONTINUOUS
  62
7
  10
 343.030
  20
 832.263
  30
0.0
  11
 365.487
  21
 832.263
  31
0.0
   0
LINE
   8
LEVEL001
   6
CONTINUOUS
  62
7
  10
 341.634
  20
 819.832
  30
0.0
  11
 341.457
  21
 814.762
  31
0.0
   0
LINE
   8
LEVEL001
   6
CONTINUOUS
  62
7
  10
 341.457
  20
 795.763
  30
0.0
  11
 341.634
  21
 790.693
  31
0.0
   0
LINE
   8
LEVEL001
   6
CONTINUOUS
  62
7
  10
 350.992
  20
 814.763
  30
0.0
  11
 350.750
  21
 812.001
  31
0.0
   0
LINE
   8
LEVEL001
   6
CONTINUOUS
  62
7
  10
 355.112
  20
 812.001
  30
0.0
  11
 355.354
  21
 814.763
  31
0.0
   0
LINE
   8
LEVEL001
   6
CONTINUOUS
  62
7
  10
 354.835
  20
 805.263
  30
0.0
  11
 355.666
  21
 814.763
  31
0.0
   0
LINE
   8
LEVEL001
   6
CONTINUOUS
  62
7
  10
 341.439
  20
 795.763
  30
0.0
  11
 365.407
  21
 795.763
  31
0.0
   0
LINE
   8
LEVEL001
   6
CONTINUOUS
  62
7
  10
 341.439
  20
 814.763
  30
0.0
  11
 365.407
  21
 814.763
  31
0.0
   0
LINE
   8
LEVEL001
   6
CONTINUOUS
  62
7
  10
 365.407
  20
 814.763
  30
0.0
  11
 365.407
  21
 795.763
  31
0.0
   0
LINE
   8
LEVEL001
   6
CONTINUOUS
  62
7
  10
 355.112
  20
 798.524
  30
0.0
  11
 355.354
  21
 795.763
  31
0.0
   0
LINE
   8
LEVEL001
   6
CONTINUOUS
  62
7
  10
 354.835
  20
 805.263
  30
0.0
  11
 355.666
  21
 795.763
  31
0.0
   0
LINE
   8
LEVEL001
   6
CONTINUOUS
  62
7
  10
 378.335
  20
 848.263
  30
0.0
  11
 400.491
  21
 848.263
  31
0.0
   0
LINE
   8
LEVEL001
   6
CONTINUOUS
  62
7
  10
 414.835
  20
 771.263
  30
0.0
  11
 415.335
  21
 771.763
  31
0.0
   0
LINE
   8
LEVEL001
   6
CONTINUOUS
  62
7
  10
 415.335
  20
 771.763
  30
0.0
  11
 415.335
  21
 772.763
  31
0.0
   0
ARC
   8
LEVEL001
   6
CONTINUOUS
  62
7
  10
 343.730
  20
 772.263
  30
0.0
  40
 2.00000
  50
 185.000
  51
 270.000
   0
LINE
   8
LEVEL001
   6
CONTINUOUS
  62
7
  10
 341.335
  20
 776.688
  30
0.0
  11
 341.737
  21
 772.088
  31
0.0
   0
LINE
   8
LEVEL001
   6
CONTINUOUS
  62
7
  10
 343.730
  20
 770.263
  30
0.0
  11
 371.427
  21
 770.263
  31
0.0
   0
LINE
   8
LEVEL001
   6
DASHDOT
  62
1
  10
 339.460
  20
 777.263
  30
0.0
  11
 408.712
  21
 777.263
  31
0.0
   0
LINE
   8
LEVEL001
   6
CONTINUOUS
  62
7
  10
 405.407
  20
 766.079
  30
0.0
  11
 404.685
  21
 757.827
  31
0.0
   0
LINE
   8
LEVEL003
   6
CONTINUOUS
  62
7
  10
 410.995
  20
 771.263
  30
0.0
  11
 414.835
  21
 771.263
  31
0.0
   0
LINE
   8
LEVEL001
   6
CONTINUOUS
  62
7
  10
 352.660
  20
 845.267
  30
0.0
  11
 351.922
  21
 836.827
  31
0.0
   0
ARC
   8
LEVEL001
   6
CONTINUOUS
  62
7
  10
 346.941
  20
 837.263
  30
0.0
  40
 5.00000
  50
 270.000
  51
 355.000
   0
LINE
   8
LEVEL001
   6
CONTINUOUS
  62
7
  10
 353.747
  20
 846.263
  30
0.0
  11
 352.660
  21
 845.267
  31
0.0
   0
LINE
   8
LEVEL001
   6
CONTINUOUS
  62
7
  10
 379.922
  20
 846.263
  30
0.0
  11
 381.010
  21
 845.267
  31
0.0
   0
LINE
   8
LEVEL001
   6
CONTINUOUS
  62
7
  10
 353.747
  20
 846.263
  30
0.0
  11
 366.835
  21
 846.263
  31
0.0
   0
LINE
   8
LEVEL001
   6
CONTINUOUS
  62
7
  10
 379.922
  20
 846.263
  30
0.0
  11
 366.835
  21
 846.263
  31
0.0
   0
LINE
   8
LEVEL001
   6
CONTINUOUS
  62
7
  10
 352.660
  20
 845.267
  30
0.0
  11
 381.010
  21
 845.267
  31
0.0
   0
LINE
   8
LEVEL003
   6
CONTINUOUS
  62
7
  10
 366.835
  20
 846.263
  30
0.0
  11
 366.835
  21
 856.236
  31
0.0
   0
ARC
   8
LEVEL003
   6
CONTINUOUS
  62
7
  10
 372.585
  20
 840.655
  30
0.0
  40
 16.6080
  50
 69.7438
  51
 110.256
   0
ARC
   8
LEVEL003
   6
CONTINUOUS
  62
7
  10
 361.085
  20
 840.655
  30
0.0
  40
 16.6080
  50
 69.7438
  51
 110.256
   0
LINE
   8
LEVEL003
   6
CONTINUOUS
  62
7
  10
 378.335
  20
 846.263
  30
0.0
  11
 378.335
  21
 857.263
  31
0.0
   0
LINE
   8
LEVEL003
   6
CONTINUOUS
  62
7
  10
 378.335
  20
 857.263
  30
0.0
  11
 355.335
  21
 857.263
  31
0.0
   0
LINE
   8
LEVEL003
   6
CONTINUOUS
  62
7
  10
 355.335
  20
 857.263
  30
0.0
  11
 355.335
  21
 846.263
  31
0.0
   0
LINE
   8
LEVEL001
   6
DASHDOT
  62
1
  10
 366.835
  20
 892.951
  30
0.0
  11
 366.835
  21
 835.000
  31
0.0
   0
LINE
   8
LEVEL001
   6
CONTINUOUS
  62
7
  10
 354.627
  20
 865.855
  30
0.0
  11
 361.835
  21
 865.855
  31
0.0
   0
LINE
   8
LEVEL001
   6
CONTINUOUS
  62
7
  10
 371.835
  20
 865.855
  30
0.0
  11
 379.043
  21
 865.855
  31
0.0
   0
ARC
   8
LEVEL001
   6
CONTINUOUS
  62
7
  10
 349.250
  20
 872.855
  30
0.0
  40
 3.00000
  50
 8.53108
  51
 89.9986
   0
ARC
   8
LEVEL001
   6
CONTINUOUS
  62
7
  10
 343.978
  20
 885.080
  30
0.0
  40
 2.00000
  50
 98.8840
  51
 180.000
   0
LINE
   8
LEVEL001
   6
CONTINUOUS
  62
7
  10
 349.542
  20
 887.855
  30
0.0
  11
 384.125
  21
 887.855
  31
0.0
   0
ARC
   8
LEVEL001
   6
CONTINUOUS
  62
7
  10
 366.834
  20
 738.855
  30
0.0
  40
 150.000
  50
 96.6196
  51
 98.8839
   0
LINE
   8
LEVEL001
   6
CONTINUOUS
  62
7
  10
 341.978
  20
 876.855
  30
0.0
  11
 341.978
  21
 885.080
  31
0.0
   0
ARC
   8
LEVEL001
   6
CONTINUOUS
  62
7
  10
 342.978
  20
 876.855
  30
0.0
  40
 1.00000
  50
 180.000
  51
 270.000
   0
LINE
   8
LEVEL001
   6
CONTINUOUS
  62
7
  10
 342.978
  20
 875.855
  30
0.0
  11
 366.835
  21
 875.855
  31
0.0
   0
ARC
   8
LEVEL010
   6
CONTINUOUS
  62
7
  10
 354.361
  20
 876.855
  30
0.0
  40
 1.00000
  50
 180.000
  51
 270.000
   0
ARC
   8
LEVEL010
   6
CONTINUOUS
  62
7
  10
 355.361
  20
 885.056
  30
0.0
  40
 2.00000
  50
 90.0000
  51
 180.000
   0
LINE
   8
LEVEL010
   6
CONTINUOUS
  62
7
  10
 363.335
  20
 887.855
  30
0.0
  11
 355.164
  21
 887.046
  31
0.0
   0
ARC
   8
LEVEL010
   6
CONTINUOUS
  62
7
  10
 352.361
  20
 876.855
  30
0.0
  40
 1.00000
  50
 270.000
  51
0.0
   0
ARC
   8
LEVEL010
   6
CONTINUOUS
  62
7
  10
 351.361
  20
 885.056
  30
0.0
  40
 2.00000
  50
0.0
  51
 90.0000
   0
LINE
   8
LEVEL010
   6
CONTINUOUS
  62
7
  10
 353.361
  20
 876.855
  30
0.0
  11
 353.361
  21
 885.056
  31
0.0
   0
LINE
   8
LEVEL010
   6
CONTINUOUS
  62
7
  10
 351.361
  20
 887.056
  30
0.0
  11
 345.860
  21
 887.056
  31
0.0
   0
LINE
   8
LEVEL010
   6
CONTINUOUS
  62
7
  10
 363.335
  20
 876.855
  30
0.0
  11
 363.335
  21
 885.056
  31
0.0
   0
ARC
   8
LEVEL001
   6
CONTINUOUS
  62
7
  10
 384.417
  20
 872.855
  30
0.0
  40
 3.00000
  50
 89.9990
  51
 171.469
   0
ARC
   8
LEVEL001
   6
CONTINUOUS
  62
7
  10
 390.690
  20
 876.855
  30
0.0
  40
 1.00000
  50
 270.000
  51
 0.924956E-9
   0
ARC
   8
LEVEL001
   6
CONTINUOUS
  62
7
  10
 389.690
  20
 885.080
  30
0.0
  40
 2.00000
  50
 0.325689E-11
  51
 81.1169
   0
LINE
   8
LEVEL001
   6
CONTINUOUS
  62
7
  10
 391.690
  20
 876.855
  30
0.0
  11
 391.690
  21
 885.080
  31
0.0
   0
ARC
   8
LEVEL001
   6
CONTINUOUS
  62
7
  10
 366.834
  20
 738.855
  30
0.0
  40
 150.000
  50
 81.1161
  51
 83.3804
   0
LINE
   8
LEVEL001
   6
CONTINUOUS
  62
7
  10
 366.835
  20
 875.855
  30
0.0
  11
 390.690
  21
 875.855
  31
0.0
   0
ARC
   8
LEVEL010
   6
CONTINUOUS
  62
7
  10
 379.309
  20
 876.855
  30
0.0
  40
 1.00000
  50
 270.000
  51
 0.143303E-9
   0
ARC
   8
LEVEL010
   6
CONTINUOUS
  62
7
  10
 378.309
  20
 885.056
  30
0.0
  40
 2.00000
  50
0.0
  51
 90.0000
   0
LINE
   8
LEVEL010
   6
CONTINUOUS
  62
7
  10
 370.335
  20
 887.855
  30
0.0
  11
 378.506
  21
 887.046
  31
0.0
   0
ARC
   8
LEVEL010
   6
CONTINUOUS
  62
7
  10
 381.309
  20
 876.855
  30
0.0
  40
 1.00000
  50
 180.000
  51
 270.000
   0
ARC
   8
LEVEL010
   6
CONTINUOUS
  62
7
  10
 382.309
  20
 885.056
  30
0.0
  40
 2.00000
  50
 90.0000
  51
 180.000
   0
LINE
   8
LEVEL010
   6
CONTINUOUS
  62
7
  10
 380.309
  20
 876.855
  30
0.0
  11
 380.309
  21
 885.056
  31
0.0
   0
LINE
   8
LEVEL010
   6
CONTINUOUS
  62
7
  10
 382.309
  20
 887.056
  30
0.0
  11
 387.810
  21
 887.056
  31
0.0
   0
LINE
   8
LEVEL010
   6
CONTINUOUS
  62
7
  10
 370.335
  20
 876.855
  30
0.0
  11
 370.335
  21
 885.056
  31
0.0
   0
ARC
   8
LEVEL001
   6
CONTINUOUS
  62
7
  10
 378.611
  20
 867.855
  30
0.0
  40
 2.00000
  50
 270.001
  51
 351.469
   0
LINE
   8
LEVEL001
   6
CONTINUOUS
  62
7
  10
 380.589
  20
 867.559
  30
0.0
  11
 381.450
  21
 873.300
  31
0.0
   0
LINE
   8
LEVEL001
   6
CONTINUOUS
  62
7
  10
 366.835
  20
 865.855
  30
0.0
  11
 378.611
  21
 865.855
  31
0.0
   0
ARC
   8
LEVEL001
   6
CONTINUOUS
  62
7
  10
 355.056
  20
 867.855
  30
0.0
  40
 2.00000
  50
 188.531
  51
 270.001
   0
LINE
   8
LEVEL001
   6
CONTINUOUS
  62
7
  10
 353.078
  20
 867.559
  30
0.0
  11
 352.217
  21
 873.300
  31
0.0
   0
LINE
   8
LEVEL001
   6
CONTINUOUS
  62
7
  10
 355.056
  20
 865.855
  30
0.0
  11
 366.835
  21
 865.855
  31
0.0
   0
ARC
   8
LEVEL001
   6
CONTINUOUS
  62
7
  10
 366.835
  20
 738.855
  30
0.0
  40
 150.000
  50
 80.9510
  51
 99.0490
   0
LINE
   8
LEVEL001
   6
CONTINUOUS
  62
7
  10
 360.484
  20
 865.855
  30
0.0
  11
 360.484
  21
 857.263
  31
0.0
   0
LINE
   8
LEVEL001
   6
CONTINUOUS
  62
7
  10
 373.184
  20
 865.855
  30
0.0
  11
 373.184
  21
 857.263
  31
0.0
   0
POINT
   8
LEVEL001
  62
7
  10
 368.835
  20
 805.263
  30
0.0
   0
POINT
   8
LEVEL001
  62
7
  10
 341.335
  20
 798.263
  30
0.0
   0
LINE
   8
LEVEL001
   6
CONTINUOUS
  62
7
  10
 431.835
  20
 837.763
  30
0.0
  11
 415.335
  21
 837.763
  31
0.0
   0
LINE
   8
LEVEL001
   6
CONTINUOUS
  62
7
  10
 415.335
  20
 772.763
  30
0.0
  11
 431.835
  21
 772.763
  31
0.0
   0
CIRCLE
   8
LEVEL001
   6
CONTINUOUS
  62
7
  10
 380.835
  20
 835.263
  30
0.0
  40
 7.50000
   0
LINE
   8
LEVEL001
   6
CONTINUOUS
  62
7
  10
 380.835
  20
 825.801
  30
0.0
  11
 372.335
  21
 830.355
  31
0.0
   0
LINE
   8
LEVEL001
   6
CONTINUOUS
  62
7
  10
 372.335
  20
 830.355
  30
0.0
  11
 372.335
  21
 839.636
  31
0.0
   0
LINE
   8
LEVEL001
   6
CONTINUOUS
  62
7
  10
 372.335
  20
 839.636
  30
0.0
  11
 380.835
  21
 844.247
  31
0.0
   0
LINE
   8
LEVEL001
   6
CONTINUOUS
  62
7
  10
 380.835
  20
 844.247
  30
0.0
  11
 389.335
  21
 839.636
  31
0.0
   0
LINE
   8
LEVEL001
   6
CONTINUOUS
  62
7
  10
 389.335
  20
 839.636
  30
0.0
  11
 389.335
  21
 830.355
  31
0.0
   0
LINE
   8
LEVEL001
   6
CONTINUOUS
  62
7
  10
 389.335
  20
 830.355
  30
0.0
  11
 380.835
  21
 825.801
  31
0.0
   0
LINE
   8
LEVEL001
   6
CONTINUOUS
  62
7
  10
 372.335
  20
 834.998
  30
0.0
  11
 372.401
  21
 834.002
  31
0.0
   0
LINE
   8
LEVEL001
   6
CONTINUOUS
  62
7
  10
 372.401
  20
 834.002
  30
0.0
  11
 372.599
  21
 833.022
  31
0.0
   0
LINE
   8
LEVEL001
   6
CONTINUOUS
  62
7
  10
 372.599
  20
 833.022
  30
0.0
  11
 372.926
  21
 832.073
  31
0.0
   0
LINE
   8
LEVEL001
   6
CONTINUOUS
  62
7
  10
 372.926
  20
 832.073
  30
0.0
  11
 373.376
  21
 831.169
  31
0.0
   0
LINE
   8
LEVEL001
   6
CONTINUOUS
  62
7
  10
 373.376
  20
 831.169
  30
0.0
  11
 373.942
  21
 830.325
  31
0.0
   0
LINE
   8
LEVEL001
   6
CONTINUOUS
  62
7
  10
 373.942
  20
 830.325
  30
0.0
  11
 374.616
  21
 829.554
  31
0.0
   0
LINE
   8
LEVEL001
   6
CONTINUOUS
  62
7
  10
 374.616
  20
 829.554
  30
0.0
  11
 375.386
  21
 828.867
  31
0.0
   0
LINE
   8
LEVEL001
   6
CONTINUOUS
  62
7
  10
 375.386
  20
 828.867
  30
0.0
  11
 376.242
  21
 828.277
  31
0.0
   0
LINE
   8
LEVEL001
   6
CONTINUOUS
  62
7
  10
 376.242
  20
 828.277
  30
0.0
  11
 377.170
  21
 827.791
  31
0.0
   0
LINE
   8
LEVEL001
   6
CONTINUOUS
  62
7
  10
 377.170
  20
 827.791
  30
0.0
  11
 378.155
  21
 827.418
  31
0.0
   0
LINE
   8
LEVEL001
   6
CONTINUOUS
  62
7
  10
 378.155
  20
 827.418
  30
0.0
  11
 379.181
  21
 827.163
  31
0.0
   0
LINE
   8
LEVEL001
   6
CONTINUOUS
  62
7
  10
 379.181
  20
 827.163
  30
0.0
  11
 380.234
  21
 827.031
  31
0.0
   0
LINE
   8
LEVEL001
   6
CONTINUOUS
  62
7
  10
 380.234
  20
 827.031
  30
0.0
  11
 381.295
  21
 827.022
  31
0.0
   0
LINE
   8
LEVEL001
   6
CONTINUOUS
  62
7
  10
 381.295
  20
 827.022
  30
0.0
  11
 382.350
  21
 827.139
  31
0.0
   0
LINE
   8
LEVEL001
   6
CONTINUOUS
  62
7
  10
 382.350
  20
 827.139
  30
0.0
  11
 383.381
  21
 827.377
  31
0.0
   0
LINE
   8
LEVEL001
   6
CONTINUOUS
  62
7
  10
 383.381
  20
 827.377
  30
0.0
  11
 384.372
  21
 827.735
  31
0.0
   0
LINE
   8
LEVEL001
   6
CONTINUOUS
  62
7
  10
 384.372
  20
 827.735
  30
0.0
  11
 385.308
  21
 828.206
  31
0.0
   0
LINE
   8
LEVEL001
   6
CONTINUOUS
  62
7
  10
 385.308
  20
 828.206
  30
0.0
  11
 386.174
  21
 828.783
  31
0.0
   0
LINE
   8
LEVEL001
   6
CONTINUOUS
  62
7
  10
 386.174
  20
 828.783
  30
0.0
  11
 386.957
  21
 829.457
  31
0.0
   0
LINE
   8
LEVEL001
   6
CONTINUOUS
  62
7
  10
 386.957
  20
 829.457
  30
0.0
  11
 387.645
  21
 830.218
  31
0.0
   0
LINE
   8
LEVEL001
   6
CONTINUOUS
  62
7
  10
 387.645
  20
 830.218
  30
0.0
  11
 388.226
  21
 831.053
  31
0.0
   0
LINE
   8
LEVEL001
   6
CONTINUOUS
  62
7
  10
 388.226
  20
 831.053
  30
0.0
  11
 388.692
  21
 831.950
  31
0.0
   0
LINE
   8
LEVEL001
   6
CONTINUOUS
  62
7
  10
 388.692
  20
 831.950
  30
0.0
  11
 389.035
  21
 832.894
  31
0.0
   0
LINE
   8
LEVEL001
   6
CONTINUOUS
  62
7
  10
 389.035
  20
 832.894
  30
0.0
  11
 389.250
  21
 833.871
  31
0.0
   0
LINE
   8
LEVEL001
   6
CONTINUOUS
  62
7
  10
 389.250
  20
 833.871
  30
0.0
  11
 389.334
  21
 834.866
  31
0.0
   0
LINE
   8
LEVEL001
   6
CONTINUOUS
  62
7
  10
 389.334
  20
 834.866
  30
0.0
  11
 389.285
  21
 835.862
  31
0.0
   0
LINE
   8
LEVEL001
   6
CONTINUOUS
  62
7
  10
 389.285
  20
 835.862
  30
0.0
  11
 389.104
  21
 836.846
  31
0.0
   0
LINE
   8
LEVEL001
   6
CONTINUOUS
  62
7
  10
 389.104
  20
 836.846
  30
0.0
  11
 388.795
  21
 837.800
  31
0.0
   0
LINE
   8
LEVEL001
   6
CONTINUOUS
  62
7
  10
 388.795
  20
 837.800
  30
0.0
  11
 388.361
  21
 838.711
  31
0.0
   0
LINE
   8
LEVEL001
   6
CONTINUOUS
  62
7
  10
 388.361
  20
 838.711
  30
0.0
  11
 387.810
  21
 839.563
  31
0.0
   0
LINE
   8
LEVEL001
   6
CONTINUOUS
  62
7
  10
 387.810
  20
 839.563
  30
0.0
  11
 387.150
  21
 840.345
  31
0.0
   0
LINE
   8
LEVEL001
   6
CONTINUOUS
  62
7
  10
 387.150
  20
 840.345
  30
0.0
  11
 386.391
  21
 841.043
  31
0.0
   0
LINE
   8
LEVEL001
   6
CONTINUOUS
  62
7
  10
 386.391
  20
 841.043
  30
0.0
  11
 385.546
  21
 841.647
  31
0.0
   0
LINE
   8
LEVEL001
   6
CONTINUOUS
  62
7
  10
 385.546
  20
 841.647
  30
0.0
  11
 384.627
  21
 842.147
  31
0.0
   0
LINE
   8
LEVEL001
   6
CONTINUOUS
  62
7
  10
 384.627
  20
 842.147
  30
0.0
  11
 383.649
  21
 842.535
  31
0.0
   0
LINE
   8
LEVEL001
   6
CONTINUOUS
  62
7
  10
 383.649
  20
 842.535
  30
0.0
  11
 382.627
  21
 842.806
  31
0.0
   0
LINE
   8
LEVEL001
   6
CONTINUOUS
  62
7
  10
 382.627
  20
 842.806
  30
0.0
  11
 381.577
  21
 842.955
  31
0.0
   0
LINE
   8
LEVEL001
   6
CONTINUOUS
  62
7
  10
 381.577
  20
 842.955
  30
0.0
  11
 380.515
  21
 842.980
  31
0.0
   0
LINE
   8
LEVEL001
   6
CONTINUOUS
  62
7
  10
 380.515
  20
 842.980
  30
0.0
  11
 379.459
  21
 842.880
  31
0.0
   0
LINE
   8
LEVEL001
   6
CONTINUOUS
  62
7
  10
 379.459
  20
 842.880
  30
0.0
  11
 378.424
  21
 842.657
  31
0.0
   0
LINE
   8
LEVEL001
   6
CONTINUOUS
  62
7
  10
 378.424
  20
 842.657
  30
0.0
  11
 377.426
  21
 842.315
  31
0.0
   0
LINE
   8
LEVEL001
   6
CONTINUOUS
  62
7
  10
 377.426
  20
 842.315
  30
0.0
  11
 376.482
  21
 841.859
  31
0.0
   0
LINE
   8
LEVEL001
   6
CONTINUOUS
  62
7
  10
 376.482
  20
 841.859
  30
0.0
  11
 375.606
  21
 841.295
  31
0.0
   0
LINE
   8
LEVEL001
   6
CONTINUOUS
  62
7
  10
 375.606
  20
 841.295
  30
0.0
  11
 374.811
  21
 840.634
  31
0.0
   0
LINE
   8
LEVEL001
   6
CONTINUOUS
  62
7
  10
 374.811
  20
 840.634
  30
0.0
  11
 374.111
  21
 839.884
  31
0.0
   0
LINE
   8
LEVEL001
   6
CONTINUOUS
  62
7
  10
 374.111
  20
 839.884
  30
0.0
  11
 373.515
  21
 839.058
  31
0.0
   0
LINE
   8
LEVEL001
   6
CONTINUOUS
  62
7
  10
 373.515
  20
 839.058
  30
0.0
  11
 373.033
  21
 838.169
  31
0.0
   0
LINE
   8
LEVEL001
   6
CONTINUOUS
  62
7
  10
 373.033
  20
 838.169
  30
0.0
  11
 372.674
  21
 837.230
  31
0.0
   0
LINE
   8
LEVEL001
   6
CONTINUOUS
  62
7
  10
 372.674
  20
 837.230
  30
0.0
  11
 372.441
  21
 836.256
  31
0.0
   0
LINE
   8
LEVEL001
   6
CONTINUOUS
  62
7
  10
 372.441
  20
 836.256
  30
0.0
  11
 372.340
  21
 835.263
  31
0.0
   0
LINE
   8
LEVEL001
   6
CONTINUOUS
  62
7
  10
 372.340
  20
 835.263
  30
0.0
  11
 372.335
  21
 834.998
  31
0.0
   0
LINE
   8
LEVEL001
   6
CONTINUOUS
  62
7
  10
 370.468
  20
 836.827
  30
0.0
  11
 370.341
  21
 835.600
  31
0.0
   0
LINE
   8
LEVEL001
   6
CONTINUOUS
  62
7
  10
 370.341
  20
 835.600
  30
0.0
  11
 370.378
  21
 834.368
  31
0.0
   0
LINE
   8
LEVEL001
   6
CONTINUOUS
  62
7
  10
 370.378
  20
 834.368
  30
0.0
  11
 370.578
  21
 833.150
  31
0.0
   0
LINE
   8
LEVEL001
   6
CONTINUOUS
  62
7
  10
 370.578
  20
 833.150
  30
0.0
  11
 370.939
  21
 831.965
  31
0.0
   0
LINE
   8
LEVEL001
   6
CONTINUOUS
  62
7
  10
 370.939
  20
 831.965
  30
0.0
  11
 371.454
  21
 830.831
  31
0.0
   0
LINE
   8
LEVEL001
   6
CONTINUOUS
  62
7
  10
 371.454
  20
 830.831
  30
0.0
  11
 372.115
  21
 829.767
  31
0.0
   0
LINE
   8
LEVEL001
   6
CONTINUOUS
  62
7
  10
 372.115
  20
 829.767
  30
0.0
  11
 372.335
  21
 829.470
  31
0.0
   0
LINE
   8
LEVEL001
   6
CONTINUOUS
  62
7
  10
 373.163
  20
 827.063
  30
0.0
  11
 372.335
  21
 827.512
  31
0.0
   0
LINE
   8
LEVEL001
   6
CONTINUOUS
  62
7
  10
 372.335
  20
 827.512
  30
0.0
  11
 372.335
  21
 830.355
  31
0.0
   0
LINE
   8
LEVEL001
   6
CONTINUOUS
  62
7
  10
 389.891
  20
 840.256
  30
0.0
  11
 389.158
  21
 841.278
  31
0.0
   0
LINE
   8
LEVEL001
   6
CONTINUOUS
  62
7
  10
 389.158
  20
 841.278
  30
0.0
  11
 388.295
  21
 842.206
  31
0.0
   0
LINE
   8
LEVEL001
   6
CONTINUOUS
  62
7
  10
 388.295
  20
 842.206
  30
0.0
  11
 387.316
  21
 843.026
  31
0.0
   0
LINE
   8
LEVEL001
   6
CONTINUOUS
  62
7
  10
 387.316
  20
 843.026
  30
0.0
  11
 386.235
  21
 843.725
  31
0.0
   0
LINE
   8
LEVEL001
   6
CONTINUOUS
  62
7
  10
 386.235
  20
 843.725
  30
0.0
  11
 385.070
  21
 844.291
  31
0.0
   0
LINE
   8
LEVEL001
   6
CONTINUOUS
  62
7
  10
 385.070
  20
 844.291
  30
0.0
  11
 383.839
  21
 844.717
  31
0.0
   0
LINE
   8
LEVEL001
   6
CONTINUOUS
  62
7
  10
 383.839
  20
 844.717
  30
0.0
  11
 382.562
  21
 844.995
  31
0.0
   0
LINE
   8
LEVEL001
   6
CONTINUOUS
  62
7
  10
 382.562
  20
 844.995
  30
0.0
  11
 381.257
  21
 845.122
  31
0.0
   0
LINE
   8
LEVEL001
   6
CONTINUOUS
  62
7
  10
 381.257
  20
 845.122
  30
0.0
  11
 379.946
  21
 845.094
  31
0.0
   0
LINE
   8
LEVEL001
   6
CONTINUOUS
  62
7
  10
 379.946
  20
 845.094
  30
0.0
  11
 378.648
  21
 844.913
  31
0.0
   0
LINE
   8
LEVEL001
   6
CONTINUOUS
  62
7
  10
 378.648
  20
 844.913
  30
0.0
  11
 377.385
  21
 844.582
  31
0.0
   0
LINE
   8
LEVEL001
   6
CONTINUOUS
  62
7
  10
 377.385
  20
 844.582
  30
0.0
  11
 376.175
  21
 844.105
  31
0.0
   0
LINE
   8
LEVEL001
   6
CONTINUOUS
  62
7
  10
 376.175
  20
 844.105
  30
0.0
  11
 375.039
  21
 843.490
  31
0.0
   0
LINE
   8
LEVEL001
   6
CONTINUOUS
  62
7
  10
 375.039
  20
 843.490
  30
0.0
  11
 373.992
  21
 842.747
  31
0.0
   0
LINE
   8
LEVEL001
   6
CONTINUOUS
  62
7
  10
 373.992
  20
 842.747
  30
0.0
  11
 373.053
  21
 841.887
  31
0.0
   0
LINE
   8
LEVEL001
   6
CONTINUOUS
  62
7
  10
 373.053
  20
 841.887
  30
0.0
  11
 372.235
  21
 840.923
  31
0.0
   0
LINE
   8
LEVEL001
   6
CONTINUOUS
  62
7
  10
 372.235
  20
 840.923
  30
0.0
  11
 371.551
  21
 839.871
  31
0.0
   0
LINE
   8
LEVEL001
   6
CONTINUOUS
  62
7
  10
 371.551
  20
 839.871
  30
0.0
  11
 371.012
  21
 838.748
  31
0.0
   0
LINE
   8
LEVEL001
   6
CONTINUOUS
  62
7
  10
 371.012
  20
 838.748
  30
0.0
  11
 370.626
  21
 837.570
  31
0.0
   0
LINE
   8
LEVEL001
   6
CONTINUOUS
  62
7
  10
 370.626
  20
 837.570
  30
0.0
  11
 370.400
  21
 836.356
  31
0.0
   0
LINE
   8
LEVEL001
   6
CONTINUOUS
  62
7
  10
 370.400
  20
 836.356
  30
0.0
  11
 370.380
  21
 836.177
  31
0.0
   0
ARC
   8
LEVEL001
   6
CONTINUOUS
  62
7
  10
 390.785
  20
 843.663
  30
0.0
  40
 3.00000
  50
 231.910
  51
 308.090
   0
LINE
   8
LEVEL001
   6
CONTINUOUS
  62
7
  10
 414.290
  20
 836.177
  30
0.0
  11
 414.087
  21
 837.395
  31
0.0
   0
LINE
   8
LEVEL001
   6
CONTINUOUS
  62
7
  10
 414.087
  20
 837.395
  30
0.0
  11
 413.724
  21
 838.580
  31
0.0
   0
LINE
   8
LEVEL001
   6
CONTINUOUS
  62
7
  10
 413.724
  20
 838.580
  30
0.0
  11
 413.207
  21
 839.712
  31
0.0
   0
LINE
   8
LEVEL001
   6
CONTINUOUS
  62
7
  10
 413.207
  20
 839.712
  30
0.0
  11
 412.543
  21
 840.775
  31
0.0
   0
LINE
   8
LEVEL001
   6
CONTINUOUS
  62
7
  10
 412.543
  20
 840.775
  30
0.0
  11
 411.744
  21
 841.753
  31
0.0
   0
LINE
   8
LEVEL001
   6
CONTINUOUS
  62
7
  10
 411.744
  20
 841.753
  30
0.0
  11
 410.821
  21
 842.629
  31
0.0
   0
LINE
   8
LEVEL001
   6
CONTINUOUS
  62
7
  10
 410.821
  20
 842.629
  30
0.0
  11
 409.789
  21
 843.390
  31
0.0
   0
LINE
   8
LEVEL001
   6
CONTINUOUS
  62
7
  10
 409.789
  20
 843.390
  30
0.0
  11
 408.665
  21
 844.024
  31
0.0
   0
LINE
   8
LEVEL001
   6
CONTINUOUS
  62
7
  10
 408.665
  20
 844.024
  30
0.0
  11
 407.465
  21
 844.521
  31
0.0
   0
LINE
   8
LEVEL001
   6
CONTINUOUS
  62
7
  10
 407.465
  20
 844.521
  30
0.0
  11
 406.208
  21
 844.874
  31
0.0
   0
LINE
   8
LEVEL001
   6
CONTINUOUS
  62
7
  10
 406.208
  20
 844.874
  30
0.0
  11
 404.914
  21
 845.077
  31
0.0
   0
LINE
   8
LEVEL001
   6
CONTINUOUS
  62
7
  10
 404.914
  20
 845.077
  30
0.0
  11
 403.604
  21
 845.127
  31
0.0
   0
LINE
   8
LEVEL001
   6
CONTINUOUS
  62
7
  10
 403.604
  20
 845.127
  30
0.0
  11
 402.297
  21
 845.023
  31
0.0
   0
LINE
   8
LEVEL001
   6
CONTINUOUS
  62
7
  10
 402.297
  20
 845.023
  30
0.0
  11
 401.014
  21
 844.767
  31
0.0
   0
LINE
   8
LEVEL001
   6
CONTINUOUS
  62
7
  10
 401.014
  20
 844.767
  30
0.0
  11
 399.775
  21
 844.362
  31
0.0
   0
LINE
   8
LEVEL001
   6
CONTINUOUS
  62
7
  10
 399.775
  20
 844.362
  30
0.0
  11
 398.599
  21
 843.815
  31
0.0
   0
LINE
   8
LEVEL001
   6
CONTINUOUS
  62
7
  10
 398.599
  20
 843.815
  30
0.0
  11
 397.505
  21
 843.135
  31
0.0
   0
LINE
   8
LEVEL001
   6
CONTINUOUS
  62
7
  10
 397.505
  20
 843.135
  30
0.0
  11
 396.510
  21
 842.332
  31
0.0
   0
LINE
   8
LEVEL001
   6
CONTINUOUS
  62
7
  10
 396.510
  20
 842.332
  30
0.0
  11
 395.629
  21
 841.419
  31
0.0
   0
LINE
   8
LEVEL001
   6
CONTINUOUS
  62
7
  10
 395.629
  20
 841.419
  30
0.0
  11
 394.877
  21
 840.410
  31
0.0
   0
LINE
   8
LEVEL001
   6
CONTINUOUS
  62
7
  10
 394.877
  20
 840.410
  30
0.0
  11
 394.812
  21
 840.308
  31
0.0
   0
LINE
   8
LEVEL001
   6
CONTINUOUS
  62
7
  10
 400.785
  20
 845.130
  30
0.0
  11
 399.476
  21
 845.053
  31
0.0
   0
LINE
   8
LEVEL001
   6
CONTINUOUS
  62
7
  10
 399.476
  20
 845.053
  30
0.0
  11
 398.187
  21
 844.823
  31
0.0
   0
LINE
   8
LEVEL001
   6
CONTINUOUS
  62
7
  10
 398.187
  20
 844.823
  30
0.0
  11
 396.939
  21
 844.444
  31
0.0
   0
LINE
   8
LEVEL001
   6
CONTINUOUS
  62
7
  10
 396.939
  20
 844.444
  30
0.0
  11
 395.751
  21
 843.922
  31
0.0
   0
LINE
   8
LEVEL001
   6
CONTINUOUS
  62
7
  10
 395.751
  20
 843.922
  30
0.0
  11
 394.642
  21
 843.264
  31
0.0
   0
LINE
   8
LEVEL001
   6
CONTINUOUS
  62
7
  10
 394.642
  20
 843.264
  30
0.0
  11
 393.628
  21
 842.482
  31
0.0
   0
LINE
   8
LEVEL001
   6
CONTINUOUS
  62
7
  10
 393.628
  20
 842.482
  30
0.0
  11
 392.726
  21
 841.587
  31
0.0
   0
LINE
   8
LEVEL001
   6
CONTINUOUS
  62
7
  10
 392.726
  20
 841.587
  30
0.0
  11
 392.540
  21
 841.372
  31
0.0
   0
CIRCLE
   8
LEVEL001
   6
CONTINUOUS
  62
7
  10
 403.885
  20
 835.263
  30
0.0
  40
 7.50000
   0
LINE
   8
LEVEL001
   6
CONTINUOUS
  62
7
  10
 403.885
  20
 825.801
  30
0.0
  11
 395.385
  21
 830.355
  31
0.0
   0
LINE
   8
LEVEL001
   6
CONTINUOUS
  62
7
  10
 395.385
  20
 830.355
  30
0.0
  11
 395.385
  21
 839.636
  31
0.0
   0
LINE
   8
LEVEL001
   6
CONTINUOUS
  62
7
  10
 395.385
  20
 839.636
  30
0.0
  11
 403.885
  21
 844.247
  31
0.0
   0
LINE
   8
LEVEL001
   6
CONTINUOUS
  62
7
  10
 403.885
  20
 844.247
  30
0.0
  11
 412.385
  21
 839.636
  31
0.0
   0
LINE
   8
LEVEL001
   6
CONTINUOUS
  62
7
  10
 412.385
  20
 839.636
  30
0.0
  11
 412.385
  21
 830.355
  31
0.0
   0
LINE
   8
LEVEL001
   6
CONTINUOUS
  62
7
  10
 412.385
  20
 830.355
  30
0.0
  11
 403.885
  21
 825.801
  31
0.0
   0
LINE
   8
LEVEL001
   6
CONTINUOUS
  62
7
  10
 395.385
  20
 834.998
  30
0.0
  11
 395.451
  21
 834.002
  31
0.0
   0
LINE
   8
LEVEL001
   6
CONTINUOUS
  62
7
  10
 395.451
  20
 834.002
  30
0.0
  11
 395.649
  21
 833.022
  31
0.0
   0
LINE
   8
LEVEL001
   6
CONTINUOUS
  62
7
  10
 395.649
  20
 833.022
  30
0.0
  11
 395.976
  21
 832.073
  31
0.0
   0
LINE
   8
LEVEL001
   6
CONTINUOUS
  62
7
  10
 395.976
  20
 832.073
  30
0.0
  11
 396.425
  21
 831.169
  31
0.0
   0
LINE
   8
LEVEL001
   6
CONTINUOUS
  62
7
  10
 396.425
  20
 831.169
  30
0.0
  11
 396.992
  21
 830.325
  31
0.0
   0
LINE
   8
LEVEL001
   6
CONTINUOUS
  62
7
  10
 396.992
  20
 830.325
  30
0.0
  11
 397.665
  21
 829.554
  31
0.0
   0
LINE
   8
LEVEL001
   6
CONTINUOUS
  62
7
  10
 397.665
  20
 829.554
  30
0.0
  11
 398.436
  21
 828.867
  31
0.0
   0
LINE
   8
LEVEL001
   6
CONTINUOUS
  62
7
  10
 398.436
  20
 828.867
  30
0.0
  11
 399.292
  21
 828.277
  31
0.0
   0
LINE
   8
LEVEL001
   6
CONTINUOUS
  62
7
  10
 399.292
  20
 828.277
  30
0.0
  11
 400.220
  21
 827.791
  31
0.0
   0
LINE
   8
LEVEL001
   6
CONTINUOUS
  62
7
  10
 400.220
  20
 827.791
  30
0.0
  11
 401.205
  21
 827.418
  31
0.0
   0
LINE
   8
LEVEL001
   6
CONTINUOUS
  62
7
  10
 401.205
  20
 827.418
  30
0.0
  11
 402.231
  21
 827.163
  31
0.0
   0
LINE
   8
LEVEL001
   6
CONTINUOUS
  62
7
  10
 402.231
  20
 827.163
  30
0.0
  11
 403.284
  21
 827.031
  31
0.0
   0
LINE
   8
LEVEL001
   6
CONTINUOUS
  62
7
  10
 403.284
  20
 827.031
  30
0.0
  11
 404.345
  21
 827.022
  31
0.0
   0
LINE
   8
LEVEL001
   6
CONTINUOUS
  62
7
  10
 404.345
  20
 827.022
  30
0.0
  11
 405.400
  21
 827.139
  31
0.0
   0
LINE
   8
LEVEL001
   6
CONTINUOUS
  62
7
  10
 405.400
  20
 827.139
  30
0.0
  11
 406.431
  21
 827.377
  31
0.0
   0
LINE
   8
LEVEL001
   6
CONTINUOUS
  62
7
  10
 406.431
  20
 827.377
  30
0.0
  11
 407.422
  21
 827.735
  31
0.0
   0
LINE
   8
LEVEL001
   6
CONTINUOUS
  62
7
  10
 407.422
  20
 827.735
  30
0.0
  11
 408.358
  21
 828.206
  31
0.0
   0
LINE
   8
LEVEL001
   6
CONTINUOUS
  62
7
  10
 408.358
  20
 828.206
  30
0.0
  11
 409.224
  21
 828.783
  31
0.0
   0
LINE
   8
LEVEL001
   6
CONTINUOUS
  62
7
  10
 409.224
  20
 828.783
  30
0.0
  11
 410.007
  21
 829.457
  31
0.0
   0
LINE
   8
LEVEL001
   6
CONTINUOUS
  62
7
  10
 410.007
  20
 829.457
  30
0.0
  11
 410.695
  21
 830.218
  31
0.0
   0
LINE
   8
LEVEL001
   6
CONTINUOUS
  62
7
  10
 410.695
  20
 830.218
  30
0.0
  11
 411.276
  21
 831.053
  31
0.0
   0
LINE
   8
LEVEL001
   6
CONTINUOUS
  62
7
  10
 411.276
  20
 831.053
  30
0.0
  11
 411.741
  21
 831.950
  31
0.0
   0
LINE
   8
LEVEL001
   6
CONTINUOUS
  62
7
  10
 411.741
  20
 831.950
  30
0.0
  11
 412.085
  21
 832.894
  31
0.0
   0
LINE
   8
LEVEL001
   6
CONTINUOUS
  62
7
  10
 412.085
  20
 832.894
  30
0.0
  11
 412.300
  21
 833.871
  31
0.0
   0
LINE
   8
LEVEL001
   6
CONTINUOUS
  62
7
  10
 412.300
  20
 833.871
  30
0.0
  11
 412.384
  21
 834.866
  31
0.0
   0
LINE
   8
LEVEL001
   6
CONTINUOUS
  62
7
  10
 412.384
  20
 834.866
  30
0.0
  11
 412.335
  21
 835.862
  31
0.0
   0
LINE
   8
LEVEL001
   6
CONTINUOUS
  62
7
  10
 412.335
  20
 835.862
  30
0.0
  11
 412.154
  21
 836.846
  31
0.0
   0
LINE
   8
LEVEL001
   6
CONTINUOUS
  62
7
  10
 412.154
  20
 836.846
  30
0.0
  11
 411.845
  21
 837.800
  31
0.0
   0
LINE
   8
LEVEL001
   6
CONTINUOUS
  62
7
  10
 411.845
  20
 837.800
  30
0.0
  11
 411.411
  21
 838.711
  31
0.0
   0
LINE
   8
LEVEL001
   6
CONTINUOUS
  62
7
  10
 411.411
  20
 838.711
  30
0.0
  11
 410.860
  21
 839.563
  31
0.0
   0
LINE
   8
LEVEL001
   6
CONTINUOUS
  62
7
  10
 410.860
  20
 839.563
  30
0.0
  11
 410.199
  21
 840.345
  31
0.0
   0
LINE
   8
LEVEL001
   6
CONTINUOUS
  62
7
  10
 410.199
  20
 840.345
  30
0.0
  11
 409.441
  21
 841.043
  31
0.0
   0
LINE
   8
LEVEL001
   6
CONTINUOUS
  62
7
  10
 409.441
  20
 841.043
  30
0.0
  11
 408.595
  21
 841.647
  31
0.0
   0
LINE
   8
LEVEL001
   6
CONTINUOUS
  62
7
  10
 408.595
  20
 841.647
  30
0.0
  11
 407.677
  21
 842.147
  31
0.0
   0
LINE
   8
LEVEL001
   6
CONTINUOUS
  62
7
  10
 407.677
  20
 842.147
  30
0.0
  11
 406.699
  21
 842.535
  31
0.0
   0
LINE
   8
LEVEL001
   6
CONTINUOUS
  62
7
  10
 406.699
  20
 842.535
  30
0.0
  11
 405.677
  21
 842.806
  31
0.0
   0
LINE
   8
LEVEL001
   6
CONTINUOUS
  62
7
  10
 405.677
  20
 842.806
  30
0.0
  11
 404.627
  21
 842.955
  31
0.0
   0
LINE
   8
LEVEL001
   6
CONTINUOUS
  62
7
  10
 404.627
  20
 842.955
  30
0.0
  11
 403.565
  21
 842.980
  31
0.0
   0
LINE
   8
LEVEL001
   6
CONTINUOUS
  62
7
  10
 403.565
  20
 842.980
  30
0.0
  11
 402.509
  21
 842.880
  31
0.0
   0
LINE
   8
LEVEL001
   6
CONTINUOUS
  62
7
  10
 402.509
  20
 842.880
  30
0.0
  11
 401.474
  21
 842.657
  31
0.0
   0
LINE
   8
LEVEL001
   6
CONTINUOUS
  62
7
  10
 401.474
  20
 842.657
  30
0.0
  11
 400.476
  21
 842.315
  31
0.0
   0
LINE
   8
LEVEL001
   6
CONTINUOUS
  62
7
  10
 400.476
  20
 842.315
  30
0.0
  11
 399.532
  21
 841.859
  31
0.0
   0
LINE
   8
LEVEL001
   6
CONTINUOUS
  62
7
  10
 399.532
  20
 841.859
  30
0.0
  11
 398.656
  21
 841.295
  31
0.0
   0
LINE
   8
LEVEL001
   6
CONTINUOUS
  62
7
  10
 398.656
  20
 841.295
  30
0.0
  11
 397.861
  21
 840.634
  31
0.0
   0
LINE
   8
LEVEL001
   6
CONTINUOUS
  62
7
  10
 397.861
  20
 840.634
  30
0.0
  11
 397.160
  21
 839.884
  31
0.0
   0
LINE
   8
LEVEL001
   6
CONTINUOUS
  62
7
  10
 397.160
  20
 839.884
  30
0.0
  11
 396.565
  21
 839.058
  31
0.0
   0
LINE
   8
LEVEL001
   6
CONTINUOUS
  62
7
  10
 396.565
  20
 839.058
  30
0.0
  11
 396.083
  21
 838.169
  31
0.0
   0
LINE
   8
LEVEL001
   6
CONTINUOUS
  62
7
  10
 396.083
  20
 838.169
  30
0.0
  11
 395.723
  21
 837.230
  31
0.0
   0
LINE
   8
LEVEL001
   6
CONTINUOUS
  62
7
  10
 395.723
  20
 837.230
  30
0.0
  11
 395.491
  21
 836.256
  31
0.0
   0
LINE
   8
LEVEL001
   6
CONTINUOUS
  62
7
  10
 395.491
  20
 836.256
  30
0.0
  11
 395.390
  21
 835.263
  31
0.0
   0
LINE
   8
LEVEL001
   6
CONTINUOUS
  62
7
  10
 395.390
  20
 835.263
  30
0.0
  11
 395.385
  21
 834.998
  31
0.0
   0
LINE
   8
LEVEL001
   6
CONTINUOUS
  62
7
  10
 389.335
  20
 829.470
  30
0.0
  11
 390.037
  21
 830.511
  31
0.0
   0
LINE
   8
LEVEL001
   6
CONTINUOUS
  62
7
  10
 390.037
  20
 830.511
  30
0.0
  11
 390.596
  21
 831.626
  31
0.0
   0
LINE
   8
LEVEL001
   6
CONTINUOUS
  62
7
  10
 390.596
  20
 831.626
  30
0.0
  11
 391.002
  21
 832.798
  31
0.0
   0
LINE
   8
LEVEL001
   6
CONTINUOUS
  62
7
  10
 391.002
  20
 832.798
  30
0.0
  11
 391.250
  21
 834.009
  31
0.0
   0
LINE
   8
LEVEL001
   6
CONTINUOUS
  62
7
  10
 391.250
  20
 834.009
  30
0.0
  11
 391.335
  21
 835.238
  31
0.0
   0
LINE
   8
LEVEL001
   6
CONTINUOUS
  62
7
  10
 391.335
  20
 835.238
  30
0.0
  11
 391.256
  21
 836.469
  31
0.0
   0
LINE
   8
LEVEL001
   6
CONTINUOUS
  62
7
  10
 391.256
  20
 836.469
  30
0.0
  11
 391.015
  21
 837.680
  31
0.0
   0
LINE
   8
LEVEL001
   6
CONTINUOUS
  62
7
  10
 391.015
  20
 837.680
  30
0.0
  11
 390.615
  21
 838.854
  31
0.0
   0
LINE
   8
LEVEL001
   6
CONTINUOUS
  62
7
  10
 390.615
  20
 838.854
  30
0.0
  11
 390.242
  21
 839.646
  31
0.0
   0
LINE
   8
LEVEL001
   6
CONTINUOUS
  62
7
  10
 394.812
  20
 840.308
  30
0.0
  11
 394.213
  21
 839.212
  31
0.0
   0
LINE
   8
LEVEL001
   6
CONTINUOUS
  62
7
  10
 394.213
  20
 839.212
  30
0.0
  11
 393.764
  21
 838.054
  31
0.0
   0
LINE
   8
LEVEL001
   6
CONTINUOUS
  62
7
  10
 393.764
  20
 838.054
  30
0.0
  11
 393.472
  21
 836.852
  31
0.0
   0
LINE
   8
LEVEL001
   6
CONTINUOUS
  62
7
  10
 393.472
  20
 836.852
  30
0.0
  11
 393.342
  21
 835.626
  31
0.0
   0
LINE
   8
LEVEL001
   6
CONTINUOUS
  62
7
  10
 393.342
  20
 835.626
  30
0.0
  11
 393.376
  21
 834.393
  31
0.0
   0
LINE
   8
LEVEL001
   6
CONTINUOUS
  62
7
  10
 393.376
  20
 834.393
  30
0.0
  11
 393.573
  21
 833.175
  31
0.0
   0
LINE
   8
LEVEL001
   6
CONTINUOUS
  62
7
  10
 393.573
  20
 833.175
  30
0.0
  11
 393.930
  21
 831.989
  31
0.0
   0
LINE
   8
LEVEL001
   6
CONTINUOUS
  62
7
  10
 393.930
  20
 831.989
  30
0.0
  11
 394.441
  21
 830.854
  31
0.0
   0
LINE
   8
LEVEL001
   6
CONTINUOUS
  62
7
  10
 394.441
  20
 830.854
  30
0.0
  11
 395.100
  21
 829.788
  31
0.0
   0
LINE
   8
LEVEL001
   6
CONTINUOUS
  62
7
  10
 395.100
  20
 829.788
  30
0.0
  11
 395.385
  21
 829.406
  31
0.0
   0
LINE
   8
LEVEL001
   6
DASHDOT
  62
1
  10
 369.335
  20
 835.263
  30
0.0
  11
 392.335
  21
 835.263
  31
0.0
   0
LINE
   8
LEVEL001
   6
DASHDOT
  62
1
  10
 413.618
  20
 835.263
  30
0.0
  11
 394.376
  21
 835.263
  31
0.0
   0
LINE
   8
LEVEL001
   6
DASHDOT
  62
1
  10
 403.835
  20
 850.263
  30
0.0
  11
 403.835
  21
 820.017
  31
0.0
   0
LINE
   8
LEVEL001
   6
CONTINUOUS
  62
7
  10
 403.835
  20
 845.130
  30
0.0
  11
 400.785
  21
 845.130
  31
0.0
   0
LINE
   8
LEVEL001
   6
CONTINUOUS
  62
7
  10
 414.295
  20
 836.178
  30
0.0
  11
 415.335
  21
 824.291
  31
0.0
   0
LINE
   8
LEVEL001
   6
CONTINUOUS
  62
7
  10
 412.385
  20
 830.355
  30
0.0
  11
 412.385
  21
 827.512
  31
0.0
   0
LINE
   8
LEVEL001
   6
CONTINUOUS
  62
7
  10
 412.385
  20
 827.512
  30
0.0
  11
 403.885
  21
 822.901
  31
0.0
   0
LINE
   8
LEVEL001
   6
CONTINUOUS
  62
7
  10
 403.885
  20
 822.901
  30
0.0
  11
 395.385
  21
 827.512
  31
0.0
   0
LINE
   8
LEVEL001
   6
CONTINUOUS
  62
7
  10
 395.385
  20
 827.512
  30
0.0
  11
 395.385
  21
 830.355
  31
0.0
   0
LINE
   8
LEVEL001
   6
CONTINUOUS
  62
7
  10
 412.385
  20
 829.535
  30
0.0
  11
 413.078
  21
 830.582
  31
0.0
   0
LINE
   8
LEVEL001
   6
CONTINUOUS
  62
7
  10
 413.078
  20
 830.582
  30
0.0
  11
 413.627
  21
 831.701
  31
0.0
   0
LINE
   8
LEVEL001
   6
CONTINUOUS
  62
7
  10
 413.627
  20
 831.701
  30
0.0
  11
 414.023
  21
 832.876
  31
0.0
   0
LINE
   8
LEVEL001
   6
CONTINUOUS
  62
7
  10
 414.023
  20
 832.876
  30
0.0
  11
 414.260
  21
 834.088
  31
0.0
   0
LINE
   8
LEVEL001
   6
CONTINUOUS
  62
7
  10
 414.260
  20
 834.088
  30
0.0
  11
 414.335
  21
 835.319
  31
0.0
   0
LINE
   8
LEVEL001
   6
CONTINUOUS
  62
7
  10
 414.335
  20
 835.319
  30
0.0
  11
 414.290
  21
 836.177
  31
0.0
   0
LINE
   8
LEVEL001
   6
CONTINUOUS
  62
7
  10
 389.335
  20
 830.355
  30
0.0
  11
 389.335
  21
 827.512
  31
0.0
   0
LINE
   8
LEVEL001
   6
CONTINUOUS
  62
7
  10
 389.335
  20
 827.512
  30
0.0
  11
 384.693
  21
 824.994
  31
0.0
   0
LINE
   8
LEVEL001
   6
CONTINUOUS
  62
7
  10
 379.246
  20
 823.763
  30
0.0
  11
 376.089
  21
 825.475
  31
0.0
   0
LINE
   8
LEVEL001
   6
CONTINUOUS
  62
7
  10
 414.835
  20
 838.763
  30
0.0
  11
 413.652
  21
 838.763
  31
0.0
   0
ARC
   8
LEVEL001
   6
CONTINUOUS
  62
7
  10
 400.491
  20
 843.263
  30
0.0
  40
 5.00000
  50
 20.9505
  51
 90.0000
   0
LINE
   8
LEVEL001
   6
DASHDOT
  62
1
  10
 400.835
  20
 787.495
  30
0.0
  11
 400.835
  21
 764.179
  31
0.0
   0
LINE
   8
LEVEL014
   6
CONTINUOUS
  62
3
  10
 1007.18
  20
 805.263
  30
0.0
  11
 1007.18
  21
 820.070
  31
0.0
   0
LINE
   8
LEVEL014
   6
CONTINUOUS
  62
3
  10
 1007.18
  20
 820.070
  30
0.0
  11
 1009.18
  21
 820.224
  31
0.0
   0
LINE
   8
LEVEL014
   6
CONTINUOUS
  62
3
  10
 1009.18
  20
 820.224
  30
0.0
  11
 1009.18
  21
 805.263
  31
0.0
   0
LINE
   8
LEVEL014
   6
CONTINUOUS
  62
3
  10
 1007.18
  20
 805.263
  30
0.0
  11
 1007.18
  21
 790.455
  31
0.0
   0
LINE
   8
LEVEL014
   6
CONTINUOUS
  62
3
  10
 1007.18
  20
 790.455
  30
0.0
  11
 1009.18
  21
 790.301
  31
0.0
   0
LINE
   8
LEVEL014
   6
CONTINUOUS
  62
3
  10
 1009.18
  20
 790.301
  30
0.0
  11
 1009.18
  21
 805.263
  31
0.0
   0
LINE
   8
LEVEL014
   6
CONTINUOUS
  62
3
  10
 1011.18
  20
 805.263
  30
0.0
  11
 1011.18
  21
 820.136
  31
0.0
   0
LINE
   8
LEVEL014
   6
CONTINUOUS
  62
3
  10
 1011.18
  20
 820.136
  30
0.0
  11
 1013.18
  21
 819.966
  31
0.0
   0
LINE
   8
LEVEL014
   6
CONTINUOUS
  62
3
  10
 1013.18
  20
 819.966
  30
0.0
  11
 1013.18
  21
 805.263
  31
0.0
   0
LINE
   8
LEVEL014
   6
CONTINUOUS
  62
3
  10
 1011.18
  20
 805.263
  30
0.0
  11
 1011.18
  21
 790.390
  31
0.0
   0
LINE
   8
LEVEL014
   6
CONTINUOUS
  62
3
  10
 1011.18
  20
 790.390
  30
0.0
  11
 1013.18
  21
 790.559
  31
0.0
   0
LINE
   8
LEVEL014
   6
CONTINUOUS
  62
3
  10
 1013.18
  20
 790.559
  30
0.0
  11
 1013.18
  21
 805.263
  31
0.0
   0
CIRCLE
   8
LEVEL003
   6
CONTINUOUS
  62
7
  10
 847.835
  20
 850.263
  30
0.0
  40
 12.5000
   0
CIRCLE
   8
LEVEL003
   6
CONTINUOUS
  62
7
  10
 847.835
  20
 850.263
  30
0.0
  40
 11.5000
   0
CIRCLE
   8
LEVEL001
   6
CONTINUOUS
  62
7
  10
 847.835
  20
 850.263
  30
0.0
  40
 14.5000
   0
CIRCLE
   8
LEVEL001
   6
CONTINUOUS
  62
7
  10
 847.835
  20
 850.263
  30
0.0
  40
 10.0000
   0
LINE
   8
LEVEL014
   6
CONTINUOUS
  62
7
  10
 500.407
  20
 816.013
  30
0.0
  11
 681.484
  21
 816.013
  31
0.0
   0
LINE
   8
LEVEL014
   6
CONTINUOUS
  62
7
  10
 712.780
  20
 816.013
  30
0.0
  11
 942.525
  21
 816.013
  31
0.0
   0
LINE
   8
LEVEL014
   6
CONTINUOUS
  62
7
  10
 942.525
  20
 816.013
  30
0.0
  11
 945.275
  21
 813.263
  31
0.0
   0
LINE
   8
LEVEL014
   6
CONTINUOUS
  62
7
  10
 945.275
  20
 813.263
  30
0.0
  11
 953.335
  21
 813.263
  31
0.0
   0
LINE
   8
LEVEL001
   6
DASHDOT
  62
1
  10
 712.780
  20
 805.263
  30
0.0
  11
 1060.43
  21
 805.263
  31
0.0
   0
LINE
   8
LEVEL014
   6
CONTINUOUS
  62
7
  10
 500.407
  20
 794.513
  30
0.0
  11
 681.484
  21
 794.513
  31
0.0
   0
LINE
   8
LEVEL014
   6
CONTINUOUS
  62
7
  10
 712.780
  20
 794.513
  30
0.0
  11
 942.525
  21
 794.513
  31
0.0
   0
LINE
   8
LEVEL014
   6
CONTINUOUS
  62
7
  10
 942.525
  20
 794.513
  30
0.0
  11
 945.275
  21
 797.263
  31
0.0
   0
LINE
   8
LEVEL014
   6
CONTINUOUS
  62
7
  10
 945.275
  20
 797.263
  30
0.0
  11
 953.335
  21
 797.263
  31
0.0
   0
TEXT
   8
LEVEL003
  62
3
  10
 626.429
  20
 500.000
  30
0.0
  40
 16.0000
   1
ハンドル棒
   7
STANDARD
   0
TEXT
   8
LEVEL003
  62
3
  10
 686.429
  20
 460.000
  30
0.0
  40
 16.0000
   1
オイルタンク
   7
STANDARD
   0
LINE
   8
LEVEL003
   6
CONTINUOUS
  62
3
  10
 408.814
  20
 301.908
  30
0.0
  11
 408.814
  21
 252.000
  31
0.0
   0
LINE
   8
LEVEL003
   6
CONTINUOUS
  62
3
  10
 368.835
  20
 301.000
  30
0.0
  11
 368.835
  21
 252.000
  31
0.0
   0
LINE
   8
LEVEL003
   6
CONTINUOUS
  62
3
  10
 408.814
  20
 260.000
  30
0.0
  11
 368.835
  21
 260.000
  31
0.0
   0
LINE
   8
LEVEL003
   6
CONTINUOUS
  62
3
  10
 408.814
  20
 260.000
  30
0.0
  11
 396.814
  21
 262.116
  31
0.0
   0
LINE
   8
LEVEL003
   6
CONTINUOUS
  62
3
  10
 408.814
  20
 260.000
  30
0.0
  11
 396.814
  21
 257.884
  31
0.0
   0
LINE
   8
LEVEL003
   6
CONTINUOUS
  62
3
  10
 368.835
  20
 260.000
  30
0.0
  11
 380.835
  21
 257.884
  31
0.0
   0
LINE
   8
LEVEL003
   6
CONTINUOUS
  62
3
  10
 368.835
  20
 260.000
  30
0.0
  11
 380.835
  21
 262.116
  31
0.0
   0
TEXT
   8
LEVEL003
  62
3
  10
 380.825
  20
 263.200
  30
0.0
  40
 16.0000
   1
40
  41
 0.500000
   7
STANDARD
  72
1
  11
 388.825
  21
 263.200
  31
0.0
   0
LINE
   8
LEVEL003
   6
CONTINUOUS
  62
3
  10
 368.835
  20
 301.000
  30
0.0
  11
 368.835
  21
 212.000
  31
0.0
   0
LINE
   8
LEVEL003
   6
CONTINUOUS
  62
3
  10
 985.694
  20
 301.000
  30
0.0
  11
 985.694
  21
 212.000
  31
0.0
   0
LINE
   8
LEVEL003
   6
CONTINUOUS
  62
3
  10
 368.835
  20
 220.000
  30
0.0
  11
 985.694
  21
 220.000
  31
0.0
   0
LINE
   8
LEVEL003
   6
CONTINUOUS
  62
3
  10
 368.835
  20
 220.000
  30
0.0
  11
 380.835
  21
 217.884
  31
0.0
   0
LINE
   8
LEVEL003
   6
CONTINUOUS
  62
3
  10
 368.835
  20
 220.000
  30
0.0
  11
 380.835
  21
 222.116
  31
0.0
   0
LINE
   8
LEVEL003
   6
CONTINUOUS
  62
3
  10
 985.694
  20
 220.000
  30
0.0
  11
 973.694
  21
 222.116
  31
0.0
   0
LINE
   8
LEVEL003
   6
CONTINUOUS
  62
3
  10
 985.694
  20
 220.000
  30
0.0
  11
 973.694
  21
 217.884
  31
0.0
   0
TEXT
   8
LEVEL003
  62
3
  10
 657.264
  20
 223.200
  30
0.0
  40
 16.0000
   1
約615
   7
STANDARD
  72
1
  11
 677.264
  21
 223.200
  31
0.0
   0
LINE
   8
LEVEL003
   6
CONTINUOUS
  62
3
  10
 945.611
  20
 304.211
  30
0.0
  11
 945.611
  21
 252.000
  31
0.0
   0
LINE
   8
LEVEL003
   6
CONTINUOUS
  62
3
  10
 985.694
  20
 301.000
  30
0.0
  11
 985.694
  21
 252.000
  31
0.0
   0
LINE
   8
LEVEL003
   6
CONTINUOUS
  62
3
  10
 945.611
  20
 260.000
  30
0.0
  11
 985.694
  21
 260.000
  31
0.0
   0
LINE
   8
LEVEL003
   6
CONTINUOUS
  62
3
  10
 945.611
  20
 260.000
  30
0.0
  11
 957.611
  21
 257.884
  31
0.0
   0
LINE
   8
LEVEL003
   6
CONTINUOUS
  62
3
  10
 945.611
  20
 260.000
  30
0.0
  11
 957.611
  21
 262.116
  31
0.0
   0
LINE
   8
LEVEL003
   6
CONTINUOUS
  62
3
  10
 985.694
  20
 260.000
  30
0.0
  11
 973.694
  21
 262.116
  31
0.0
   0
LINE
   8
LEVEL003
   6
CONTINUOUS
  62
3
  10
 985.694
  20
 260.000
  30
0.0
  11
 973.694
  21
 257.884
  31
0.0
   0
TEXT
   8
LEVEL003
  62
3
  10
 957.652
  20
 263.200
  30
0.0
  40
 16.0000
   1
40
  41
 0.500000
   7
STANDARD
  72
1
  11
 965.652
  21
 263.200
  31
0.0
   0
LINE
   8
LEVEL003
   6
CONTINUOUS
  62
3
  10
 655.694
  20
 391.354
  30
0.0
  11
 684.449
  21
 459.845
  31
0.0
   0
LINE
   8
LEVEL003
   6
CONTINUOUS
  62
3
  10
 684.449
  20
 459.845
  30
0.0
  11
 785.356
  21
 459.845
  31
0.0
   0
LINE
   8
LEVEL003
   6
CONTINUOUS
  62
3
  10
 655.694
  20
 391.354
  30
0.0
  11
 662.290
  21
 401.600
  31
0.0
   0
LINE
   8
LEVEL003
   6
CONTINUOUS
  62
3
  10
 655.694
  20
 391.354
  30
0.0
  11
 658.388
  21
 403.238
  31
0.0
   0
LINE
   8
LEVEL003
   6
CONTINUOUS
  62
3
  10
 600.274
  20
 432.658
  30
0.0
  11
 624.847
  21
 499.580
  31
0.0
   0
LINE
   8
LEVEL003
   6
CONTINUOUS
  62
3
  10
 624.847
  20
 499.580
  30
0.0
  11
 714.774
  21
 499.580
  31
0.0
   0
LINE
   8
LEVEL003
   6
CONTINUOUS
  62
3
  10
 600.274
  20
 432.658
  30
0.0
  11
 606.396
  21
 443.193
  31
0.0
   0
LINE
   8
LEVEL003
   6
CONTINUOUS
  62
3
  10
 600.274
  20
 432.658
  30
0.0
  11
 602.424
  21
 444.652
  31
0.0
   0
LINE
   8
LEVEL001
   6
DASHDOT
  62
1
  10
 383.795
  20
 333.347
  30
0.0
  11
 376.597
  21
 333.183
  31
0.0
   0
LINE
   8
LEVEL001
   6
DASHDOT
  62
1
  10
 403.790
  20
 333.801
  30
0.0
  11
 396.592
  21
 333.637
  31
0.0
   0
ARC
   8
LEVEL001
   6
CONTINUOUS
  62
7
  10
 408.894
  20
 390.974
  30
0.0
  40
 3.00000
  50
 181.300
  51
 271.300
   0
LINE
   8
LEVEL001
   6
CONTINUOUS
  62
7
  10
 408.962
  20
 387.975
  30
0.0
  11
 410.206
  21
 388.003
  31
0.0
   0
ARC
   8
LEVEL001
   6
CONTINUOUS
  62
7
  10
 410.252
  20
 386.004
  30
0.0
  40
 2.00000
  50
 1.30047
  51
 91.3005
   0
ARC
   8
LEVEL001
   6
CONTINUOUS
  62
7
  10
 363.543
  20
 405.906
  30
0.0
  40
 3.00000
  50
 181.300
  51
 271.300
   0
LINE
   8
LEVEL001
   6
CONTINUOUS
  62
7
  10
 360.544
  20
 405.838
  30
0.0
  11
 360.530
  21
 406.483
  31
0.0
   0
LINE
   8
LEVEL001
   6
CONTINUOUS
  62
7
  10
 363.612
  20
 402.907
  30
0.0
  11
 365.611
  21
 402.952
  31
0.0
   0
LINE
   8
LEVEL001
   6
CONTINUOUS
  62
7
  10
 405.601
  20
 403.860
  30
0.0
  11
 404.578
  21
 404.837
  31
0.0
   0
LINE
   8
LEVEL001
   6
CONTINUOUS
  62
7
  10
 366.588
  20
 403.974
  30
0.0
  11
 365.611
  21
 402.952
  31
0.0
   0
LINE
   8
LEVEL001
   6
CONTINUOUS
  62
7
  10
 405.895
  20
 390.906
  30
0.0
  11
 405.601
  21
 403.860
  31
0.0
   0
ARC
   8
LEVEL001
   6
CONTINUOUS
  62
7
  10
 375.526
  20
 406.824
  30
0.0
  40
 15.0000
  50
 141.914
  51
 181.300
   0
ARC
   8
LEVEL001
   6
CONTINUOUS
  62
7
  10
 371.553
  20
 405.588
  30
0.0
  40
 30.0000
  50
 149.857
  51
 213.688
   0
LINE
   8
LEVEL001
   6
DASHDOT
  62
1
  10
 365.655
  20
 356.941
  30
0.0
  11
 365.791
  21
 350.943
  31
0.0
   0
LINE
   8
LEVEL001
   6
DASHDOT
  62
1
  10
 335.731
  20
 353.261
  30
0.0
  11
 399.715
  21
 354.714
  31
0.0
   0
ARC
   8
LEVEL001
   6
CONTINUOUS
  62
7
  10
 334.110
  20
 380.627
  30
0.0
  40
 15.0000
  50
 1.30033
  51
 33.6879
   0
ARC
   8
LEVEL001
   6
CONTINUOUS
  62
7
  10
 334.110
  20
 380.627
  30
0.0
  40
 15.0000
  50
 1.30033
  51
 33.6879
   0
LINE
   8
LEVEL001
   6
CONTINUOUS
  62
7
  10
 339.799
  20
 372.358
  30
0.0
  11
 340.593
  21
 337.367
  31
0.0
   0
ARC
   8
LEVEL001
   6
CONTINUOUS
  62
7
  10
 361.721
  20
 334.846
  30
0.0
  40
 3.00000
  50
 75.3377
  51
 91.3005
   0
ARC
   8
LEVEL001
   6
CONTINUOUS
  62
7
  10
 366.723
  20
 353.965
  30
0.0
  40
 16.7620
  50
 255.338
  51
 260.709
   0
LINE
   8
LEVEL001
   6
CONTINUOUS
  62
7
  10
 340.593
  20
 337.367
  30
0.0
  11
 361.653
  21
 337.845
  31
0.0
   0
ARC
   8
LEVEL001
   6
CONTINUOUS
  62
7
  10
 363.210
  20
 332.488
  30
0.0
  40
 5.00000
  50
 1.30048
  51
 80.7089
   0
LINE
   8
LEVEL001
   6
CONTINUOUS
  62
7
  10
 368.835
  20
 305.000
  30
0.0
  11
 408.814
  21
 305.908
  31
0.0
   0
LINE
   8
LEVEL001
   6
CONTINUOUS
  62
7
  10
 368.835
  20
 305.000
  30
0.0
  11
 368.208
  21
 332.602
  31
0.0
   0
LINE
   8
LEVEL001
   6
DASHDOT
  62
1
  10
 366.102
  20
 317.441
  30
0.0
  11
 393.508
  21
 318.063
  31
0.0
   0
ARC
   8
LEVEL001
   6
CONTINUOUS
  62
7
  10
 417.376
  20
 380.621
  30
0.0
  40
 5.00000
  50
 181.300
  51
 222.803
   0
LINE
   8
LEVEL001
   6
CONTINUOUS
  62
7
  10
 412.251
  20
 386.049
  30
0.0
  11
 412.377
  21
 380.508
  31
0.0
   0
ARC
   8
LEVEL001
   6
CONTINUOUS
  62
7
  10
 411.783
  20
 305.475
  30
0.0
  40
 3.00000
  50
 91.3005
  51
 171.706
   0
LINE
   8
LEVEL001
   6
DASHDOT
  62
1
  10
 387.830
  20
 305.431
  30
0.0
  11
 384.899
  21
 434.562
  31
0.0
   0
LINE
   8
LEVEL001
   6
CONTINUOUS
  62
7
  10
 404.578
  20
 404.837
  30
0.0
  11
 366.588
  21
 403.974
  31
0.0
   0
LINE
   8
LEVEL001
   6
CONTINUOUS
  62
7
  10
 359.545
  20
 405.815
  30
0.0
  11
 359.340
  21
 414.813
  31
0.0
   0
LINE
   8
LEVEL001
   6
CONTINUOUS
  62
7
  10
 358.545
  20
 405.792
  30
0.0
  11
 358.322
  21
 415.627
  31
0.0
   0
ARC
   8
LEVEL001
   6
CONTINUOUS
  62
7
  10
 363.543
  20
 405.906
  30
0.0
  40
 4.00000
  50
 181.298
  51
 271.300
   0
ARC
   8
LEVEL001
   6
CONTINUOUS
  62
7
  10
 363.543
  20
 405.906
  30
0.0
  40
 5.00000
  50
 181.300
  51
 271.168
   0
ARC
   8
LEVEL001
   6
CONTINUOUS
  62
7
  10
 363.543
  20
 405.906
  30
0.0
  40
 11.0000
  50
 181.300
  51
 271.300
   0
ARC
   8
LEVEL001
   6
CONTINUOUS
  62
7
  10
 363.543
  20
 405.906
  30
0.0
  40
 10.0000
  50
 181.300
  51
 271.201
   0
LINE
   8
LEVEL001
   6
CONTINUOUS
  62
7
  10
 352.546
  20
 405.656
  30
0.0
  11
 352.332
  21
 415.117
  31
0.0
   0
LINE
   8
LEVEL001
   6
CONTINUOUS
  62
7
  10
 353.546
  20
 405.679
  30
0.0
  11
 353.330
  21
 415.201
  31
0.0
   0
ARC
   8
LEVEL001
   6
CONTINUOUS
  62
7
  10
 362.339
  20
 414.881
  30
0.0
  40
 3.00000
  50
 163.803
  51
 181.300
   0
ARC
   8
LEVEL001
   6
CONTINUOUS
  62
7
  10
 355.954
  20
 409.735
  30
0.0
  40
 2.50000
  50
 157.722
  51
 181.300
   0
LINE
   8
LEVEL001
   6
CONTINUOUS
  62
7
  10
 353.641
  20
 410.683
  30
0.0
  11
 358.222
  21
 410.787
  31
0.0
   0
LINE
   8
LEVEL001
   6
CONTINUOUS
  62
7
  10
 379.438
  20
 366.652
  30
0.0
  11
 399.433
  21
 367.106
  31
0.0
   0
ARC
   8
LEVEL003
   6
CONTINUOUS
  62
7
  10
 406.392
  20
 391.044
  30
0.0
  40
 3.00000
  50
 121.300
  51
 181.300
   0
LINE
   8
LEVEL003
   6
CONTINUOUS
  62
7
  10
 368.349
  20
 392.512
  30
0.0
  11
 403.340
  21
 393.306
  31
0.0
   0
ARC
   8
LEVEL003
   6
CONTINUOUS
  62
7
  10
 365.402
  20
 390.114
  30
0.0
  40
 3.00000
  50
 1.30048
  51
 61.3005
   0
ARC
   8
LEVEL003
   6
CONTINUOUS
  62
7
  10
 367.803
  20
 394.500
  30
0.0
  40
 2.00000
  50
 181.300
  51
 241.300
   0
LINE
   8
LEVEL003
   6
CONTINUOUS
  62
7
  10
 365.793
  20
 394.954
  30
0.0
  11
 365.804
  21
 394.454
  31
0.0
   0
ARC
   8
LEVEL003
   6
CONTINUOUS
  62
7
  10
 371.269
  20
 404.081
  30
0.0
  40
 2.00000
  50
 271.300
  51
 1.30048
   0
ARC
   8
LEVEL003
   6
CONTINUOUS
  62
7
  10
 371.292
  20
 403.081
  30
0.0
  40
 2.00000
  50
 271.300
  51
 1.30048
   0
ARC
   8
LEVEL003
   6
CONTINUOUS
  62
7
  10
 371.519
  20
 393.084
  30
0.0
  40
 2.00000
  50
 1.30048
  51
 91.3005
   0
ARC
   8
LEVEL003
   6
CONTINUOUS
  62
7
  10
 371.496
  20
 394.083
  30
0.0
  40
 2.00000
  50
 1.30047
  51
 91.3005
   0
LINE
   8
LEVEL001
   6
CONTINUOUS
  62
7
  10
 371.314
  20
 402.081
  30
0.0
  11
 363.634
  21
 401.907
  31
0.0
   0
LINE
   8
LEVEL001
   6
CONTINUOUS
  62
7
  10
 371.337
  20
 401.082
  30
0.0
  11
 363.645
  21
 400.907
  31
0.0
   0
LINE
   8
LEVEL001
   6
CONTINUOUS
  62
7
  10
 371.451
  20
 396.083
  30
0.0
  11
 363.753
  21
 395.908
  31
0.0
   0
LINE
   8
LEVEL001
   6
CONTINUOUS
  62
7
  10
 371.473
  20
 395.083
  30
0.0
  11
 363.793
  21
 394.909
  31
0.0
   0
LINE
   8
LEVEL003
   6
CONTINUOUS
  62
7
  10
 387.087
  20
 382.210
  30
0.0
  11
 387.017
  21
 382.550
  31
0.0
   0
LINE
   8
LEVEL003
   6
CONTINUOUS
  62
7
  10
 387.017
  20
 382.550
  30
0.0
  11
 386.823
  21
 382.882
  31
0.0
   0
LINE
   8
LEVEL003
   6
CONTINUOUS
  62
7
  10
 386.823
  20
 382.882
  30
0.0
  11
 386.509
  21
 383.200
  31
0.0
   0
LINE
   8
LEVEL003
   6
CONTINUOUS
  62
7
  10
 386.509
  20
 383.200
  30
0.0
  11
 386.078
  21
 383.500
  31
0.0
   0
LINE
   8
LEVEL003
   6
CONTINUOUS
  62
7
  10
 386.078
  20
 383.500
  30
0.0
  11
 385.539
  21
 383.777
  31
0.0
   0
LINE
   8
LEVEL003
   6
CONTINUOUS
  62
7
  10
 385.539
  20
 383.777
  30
0.0
  11
 384.899
  21
 384.026
  31
0.0
   0
LINE
   8
LEVEL003
   6
CONTINUOUS
  62
7
  10
 384.899
  20
 384.026
  30
0.0
  11
 384.168
  21
 384.245
  31
0.0
   0
LINE
   8
LEVEL003
   6
CONTINUOUS
  62
7
  10
 384.168
  20
 384.245
  30
0.0
  11
 383.358
  21
 384.429
  31
0.0
   0
LINE
   8
LEVEL003
   6
CONTINUOUS
  62
7
  10
 383.358
  20
 384.429
  30
0.0
  11
 382.482
  21
 384.575
  31
0.0
   0
LINE
   8
LEVEL003
   6
CONTINUOUS
  62
7
  10
 382.482
  20
 384.575
  30
0.0
  11
 381.552
  21
 384.682
  31
0.0
   0
LINE
   8
LEVEL003
   6
CONTINUOUS
  62
7
  10
 381.552
  20
 384.682
  30
0.0
  11
 380.584
  21
 384.747
  31
0.0
   0
LINE
   8
LEVEL003
   6
CONTINUOUS
  62
7
  10
 380.584
  20
 384.747
  30
0.0
  11
 379.593
  21
 384.770
  31
0.0
   0
LINE
   8
LEVEL003
   6
CONTINUOUS
  62
7
  10
 379.593
  20
 384.770
  30
0.0
  11
 378.594
  21
 384.750
  31
0.0
   0
LINE
   8
LEVEL003
   6
CONTINUOUS
  62
7
  10
 378.594
  20
 384.750
  30
0.0
  11
 377.603
  21
 384.688
  31
0.0
   0
LINE
   8
LEVEL003
   6
CONTINUOUS
  62
7
  10
 377.603
  20
 384.688
  30
0.0
  11
 376.634
  21
 384.584
  31
0.0
   0
LINE
   8
LEVEL003
   6
CONTINUOUS
  62
7
  10
 376.634
  20
 384.584
  30
0.0
  11
 375.705
  21
 384.441
  31
0.0
   0
LINE
   8
LEVEL003
   6
CONTINUOUS
  62
7
  10
 375.705
  20
 384.441
  30
0.0
  11
 374.828
  21
 384.259
  31
0.0
   0
LINE
   8
LEVEL003
   6
CONTINUOUS
  62
7
  10
 374.828
  20
 384.259
  30
0.0
  11
 374.017
  21
 384.043
  31
0.0
   0
LINE
   8
LEVEL003
   6
CONTINUOUS
  62
7
  10
 374.017
  20
 384.043
  30
0.0
  11
 373.286
  21
 383.796
  31
0.0
   0
LINE
   8
LEVEL003
   6
CONTINUOUS
  62
7
  10
 373.286
  20
 383.796
  30
0.0
  11
 372.645
  21
 383.521
  31
0.0
   0
LINE
   8
LEVEL003
   6
CONTINUOUS
  62
7
  10
 372.645
  20
 383.521
  30
0.0
  11
 372.104
  21
 383.222
  31
0.0
   0
LINE
   8
LEVEL003
   6
CONTINUOUS
  62
7
  10
 372.104
  20
 383.222
  30
0.0
  11
 371.673
  21
 382.905
  31
0.0
   0
LINE
   8
LEVEL003
   6
CONTINUOUS
  62
7
  10
 371.673
  20
 382.905
  30
0.0
  11
 371.358
  21
 382.574
  31
0.0
   0
LINE
   8
LEVEL003
   6
CONTINUOUS
  62
7
  10
 371.358
  20
 382.574
  30
0.0
  11
 371.163
  21
 382.235
  31
0.0
   0
LINE
   8
LEVEL003
   6
CONTINUOUS
  62
7
  10
 371.163
  20
 382.235
  30
0.0
  11
 371.092
  21
 381.893
  31
0.0
   0
LINE
   8
LEVEL003
   6
CONTINUOUS
  62
7
  10
 371.092
  20
 381.893
  30
0.0
  11
 371.145
  21
 381.552
  31
0.0
   0
LINE
   8
LEVEL003
   6
CONTINUOUS
  62
7
  10
 371.145
  20
 381.552
  30
0.0
  11
 371.323
  21
 381.220
  31
0.0
   0
LINE
   8
LEVEL003
   6
CONTINUOUS
  62
7
  10
 371.323
  20
 381.220
  30
0.0
  11
 371.621
  21
 380.899
  31
0.0
   0
LINE
   8
LEVEL003
   6
CONTINUOUS
  62
7
  10
 371.621
  20
 380.899
  30
0.0
  11
 372.037
  21
 380.597
  31
0.0
   0
LINE
   8
LEVEL003
   6
CONTINUOUS
  62
7
  10
 372.037
  20
 380.597
  30
0.0
  11
 372.562
  21
 380.316
  31
0.0
   0
LINE
   8
LEVEL003
   6
CONTINUOUS
  62
7
  10
 372.562
  20
 380.316
  30
0.0
  11
 373.189
  21
 380.063
  31
0.0
   0
LINE
   8
LEVEL003
   6
CONTINUOUS
  62
7
  10
 373.189
  20
 380.063
  30
0.0
  11
 373.909
  21
 379.840
  31
0.0
   0
LINE
   8
LEVEL003
   6
CONTINUOUS
  62
7
  10
 373.909
  20
 379.840
  30
0.0
  11
 374.709
  21
 379.651
  31
0.0
   0
LINE
   8
LEVEL003
   6
CONTINUOUS
  62
7
  10
 374.709
  20
 379.651
  30
0.0
  11
 375.577
  21
 379.500
  31
0.0
   0
LINE
   8
LEVEL003
   6
CONTINUOUS
  62
7
  10
 375.577
  20
 379.500
  30
0.0
  11
 376.500
  21
 379.388
  31
0.0
   0
LINE
   8
LEVEL003
   6
CONTINUOUS
  62
7
  10
 376.500
  20
 379.388
  30
0.0
  11
 377.464
  21
 379.317
  31
0.0
   0
LINE
   8
LEVEL003
   6
CONTINUOUS
  62
7
  10
 377.464
  20
 379.317
  30
0.0
  11
 378.453
  21
 379.288
  31
0.0
   0
LINE
   8
LEVEL003
   6
CONTINUOUS
  62
7
  10
 378.453
  20
 379.288
  30
0.0
  11
 379.452
  21
 379.302
  31
0.0
   0
LINE
   8
LEVEL003
   6
CONTINUOUS
  62
7
  10
 379.452
  20
 379.302
  30
0.0
  11
 380.445
  21
 379.359
  31
0.0
   0
LINE
   8
LEVEL003
   6
CONTINUOUS
  62
7
  10
 380.445
  20
 379.359
  30
0.0
  11
 381.418
  21
 379.457
  31
0.0
   0
LINE
   8
LEVEL003
   6
CONTINUOUS
  62
7
  10
 381.418
  20
 379.457
  30
0.0
  11
 382.353
  21
 379.596
  31
0.0
   0
LINE
   8
LEVEL003
   6
CONTINUOUS
  62
7
  10
 382.353
  20
 379.596
  30
0.0
  11
 383.238
  21
 379.772
  31
0.0
   0
LINE
   8
LEVEL003
   6
CONTINUOUS
  62
7
  10
 383.238
  20
 379.772
  30
0.0
  11
 384.058
  21
 379.984
  31
0.0
   0
LINE
   8
LEVEL003
   6
CONTINUOUS
  62
7
  10
 384.058
  20
 379.984
  30
0.0
  11
 384.801
  21
 380.228
  31
0.0
   0
LINE
   8
LEVEL003
   6
CONTINUOUS
  62
7
  10
 384.801
  20
 380.228
  30
0.0
  11
 385.455
  21
 380.499
  31
0.0
   0
LINE
   8
LEVEL003
   6
CONTINUOUS
  62
7
  10
 385.455
  20
 380.499
  30
0.0
  11
 386.009
  21
 380.795
  31
0.0
   0
LINE
   8
LEVEL003
   6
CONTINUOUS
  62
7
  10
 386.009
  20
 380.795
  30
0.0
  11
 386.455
  21
 381.110
  31
0.0
   0
LINE
   8
LEVEL003
   6
CONTINUOUS
  62
7
  10
 386.455
  20
 381.110
  30
0.0
  11
 386.786
  21
 381.439
  31
0.0
   0
LINE
   8
LEVEL003
   6
CONTINUOUS
  62
7
  10
 386.786
  20
 381.439
  30
0.0
  11
 386.997
  21
 381.777
  31
0.0
   0
LINE
   8
LEVEL003
   6
CONTINUOUS
  62
7
  10
 386.997
  20
 381.777
  30
0.0
  11
 387.085
  21
 382.120
  31
0.0
   0
LINE
   8
LEVEL003
   6
CONTINUOUS
  62
7
  10
 387.085
  20
 382.120
  30
0.0
  11
 387.087
  21
 382.210
  31
0.0
   0
LINE
   8
LEVEL003
   6
CONTINUOUS
  62
7
  10
 372.332
  20
 383.358
  30
0.0
  11
 371.646
  21
 383.039
  31
0.0
   0
LINE
   8
LEVEL003
   6
CONTINUOUS
  62
7
  10
 371.646
  20
 383.039
  30
0.0
  11
 371.076
  21
 382.696
  31
0.0
   0
LINE
   8
LEVEL003
   6
CONTINUOUS
  62
7
  10
 371.076
  20
 382.696
  30
0.0
  11
 370.632
  21
 382.334
  31
0.0
   0
LINE
   8
LEVEL003
   6
CONTINUOUS
  62
7
  10
 370.632
  20
 382.334
  30
0.0
  11
 370.319
  21
 381.958
  31
0.0
   0
LINE
   8
LEVEL003
   6
CONTINUOUS
  62
7
  10
 370.319
  20
 381.958
  30
0.0
  11
 370.144
  21
 381.575
  31
0.0
   0
LINE
   8
LEVEL003
   6
CONTINUOUS
  62
7
  10
 370.144
  20
 381.575
  30
0.0
  11
 370.109
  21
 381.190
  31
0.0
   0
LINE
   8
LEVEL003
   6
CONTINUOUS
  62
7
  10
 370.109
  20
 381.190
  30
0.0
  11
 370.213
  21
 380.809
  31
0.0
   0
LINE
   8
LEVEL003
   6
CONTINUOUS
  62
7
  10
 370.213
  20
 380.809
  30
0.0
  11
 370.457
  21
 380.438
  31
0.0
   0
LINE
   8
LEVEL003
   6
CONTINUOUS
  62
7
  10
 370.457
  20
 380.438
  30
0.0
  11
 370.835
  21
 380.084
  31
0.0
   0
LINE
   8
LEVEL003
   6
CONTINUOUS
  62
7
  10
 370.835
  20
 380.084
  30
0.0
  11
 371.343
  21
 379.751
  31
0.0
   0
LINE
   8
LEVEL003
   6
CONTINUOUS
  62
7
  10
 371.343
  20
 379.751
  30
0.0
  11
 371.971
  21
 379.445
  31
0.0
   0
LINE
   8
LEVEL003
   6
CONTINUOUS
  62
7
  10
 371.971
  20
 379.445
  30
0.0
  11
 372.711
  21
 379.170
  31
0.0
   0
LINE
   8
LEVEL003
   6
CONTINUOUS
  62
7
  10
 372.711
  20
 379.170
  30
0.0
  11
 373.551
  21
 378.931
  31
0.0
   0
LINE
   8
LEVEL003
   6
CONTINUOUS
  62
7
  10
 373.551
  20
 378.931
  30
0.0
  11
 374.477
  21
 378.732
  31
0.0
   0
LINE
   8
LEVEL003
   6
CONTINUOUS
  62
7
  10
 374.477
  20
 378.732
  30
0.0
  11
 375.475
  21
 378.575
  31
0.0
   0
LINE
   8
LEVEL003
   6
CONTINUOUS
  62
7
  10
 375.475
  20
 378.575
  30
0.0
  11
 376.530
  21
 378.463
  31
0.0
   0
LINE
   8
LEVEL003
   6
CONTINUOUS
  62
7
  10
 376.530
  20
 378.463
  30
0.0
  11
 377.625
  21
 378.399
  31
0.0
   0
LINE
   8
LEVEL003
   6
CONTINUOUS
  62
7
  10
 377.625
  20
 378.399
  30
0.0
  11
 378.743
  21
 378.382
  31
0.0
   0
LINE
   8
LEVEL003
   6
CONTINUOUS
  62
7
  10
 378.743
  20
 378.382
  30
0.0
  11
 379.867
  21
 378.413
  31
0.0
   0
LINE
   8
LEVEL003
   6
CONTINUOUS
  62
7
  10
 379.867
  20
 378.413
  30
0.0
  11
 380.979
  21
 378.492
  31
0.0
   0
LINE
   8
LEVEL003
   6
CONTINUOUS
  62
7
  10
 380.979
  20
 378.492
  30
0.0
  11
 382.061
  21
 378.617
  31
0.0
   0
LINE
   8
LEVEL003
   6
CONTINUOUS
  62
7
  10
 382.061
  20
 378.617
  30
0.0
  11
 383.098
  21
 378.787
  31
0.0
   0
LINE
   8
LEVEL003
   6
CONTINUOUS
  62
7
  10
 383.098
  20
 378.787
  30
0.0
  11
 384.072
  21
 378.998
  31
0.0
   0
LINE
   8
LEVEL003
   6
CONTINUOUS
  62
7
  10
 384.072
  20
 378.998
  30
0.0
  11
 384.968
  21
 379.248
  31
0.0
   0
LINE
   8
LEVEL003
   6
CONTINUOUS
  62
7
  10
 384.968
  20
 379.248
  30
0.0
  11
 385.773
  21
 379.533
  31
0.0
   0
LINE
   8
LEVEL003
   6
CONTINUOUS
  62
7
  10
 385.773
  20
 379.533
  30
0.0
  11
 386.474
  21
 379.847
  31
0.0
   0
LINE
   8
LEVEL003
   6
CONTINUOUS
  62
7
  10
 386.474
  20
 379.847
  30
0.0
  11
 387.060
  21
 380.187
  31
0.0
   0
LINE
   8
LEVEL003
   6
CONTINUOUS
  62
7
  10
 387.060
  20
 380.187
  30
0.0
  11
 387.521
  21
 380.547
  31
0.0
   0
LINE
   8
LEVEL003
   6
CONTINUOUS
  62
7
  10
 387.521
  20
 380.547
  30
0.0
  11
 387.851
  21
 380.922
  31
0.0
   0
LINE
   8
LEVEL003
   6
CONTINUOUS
  62
7
  10
 387.851
  20
 380.922
  30
0.0
  11
 388.045
  21
 381.304
  31
0.0
   0
LINE
   8
LEVEL003
   6
CONTINUOUS
  62
7
  10
 388.045
  20
 381.304
  30
0.0
  11
 388.099
  21
 381.690
  31
0.0
   0
LINE
   8
LEVEL003
   6
CONTINUOUS
  62
7
  10
 388.099
  20
 381.690
  30
0.0
  11
 388.013
  21
 382.071
  31
0.0
   0
LINE
   8
LEVEL003
   6
CONTINUOUS
  62
7
  10
 388.013
  20
 382.071
  30
0.0
  11
 387.788
  21
 382.444
  31
0.0
   0
LINE
   8
LEVEL003
   6
CONTINUOUS
  62
7
  10
 387.788
  20
 382.444
  30
0.0
  11
 387.427
  21
 382.801
  31
0.0
   0
LINE
   8
LEVEL003
   6
CONTINUOUS
  62
7
  10
 387.427
  20
 382.801
  30
0.0
  11
 386.936
  21
 383.137
  31
0.0
   0
LINE
   8
LEVEL003
   6
CONTINUOUS
  62
7
  10
 386.936
  20
 383.137
  30
0.0
  11
 386.323
  21
 383.447
  31
0.0
   0
LINE
   8
LEVEL003
   6
CONTINUOUS
  62
7
  10
 386.323
  20
 383.447
  30
0.0
  11
 385.779
  21
 383.663
  31
0.0
   0
LINE
   8
LEVEL003
   6
CONTINUOUS
  62
7
  10
 370.348
  20
 370.551
  30
0.0
  11
 370.427
  21
 370.169
  31
0.0
   0
LINE
   8
LEVEL003
   6
CONTINUOUS
  62
7
  10
 370.427
  20
 370.169
  30
0.0
  11
 370.645
  21
 369.796
  31
0.0
   0
LINE
   8
LEVEL003
   6
CONTINUOUS
  62
7
  10
 370.645
  20
 369.796
  30
0.0
  11
 370.998
  21
 369.438
  31
0.0
   0
LINE
   8
LEVEL003
   6
CONTINUOUS
  62
7
  10
 370.998
  20
 369.438
  30
0.0
  11
 371.483
  21
 369.101
  31
0.0
   0
LINE
   8
LEVEL003
   6
CONTINUOUS
  62
7
  10
 371.483
  20
 369.101
  30
0.0
  11
 372.089
  21
 368.789
  31
0.0
   0
LINE
   8
LEVEL003
   6
CONTINUOUS
  62
7
  10
 372.089
  20
 368.789
  30
0.0
  11
 372.809
  21
 368.508
  31
0.0
   0
LINE
   8
LEVEL003
   6
CONTINUOUS
  62
7
  10
 372.809
  20
 368.508
  30
0.0
  11
 373.631
  21
 368.263
  31
0.0
   0
LINE
   8
LEVEL003
   6
CONTINUOUS
  62
7
  10
 373.631
  20
 368.263
  30
0.0
  11
 374.543
  21
 368.056
  31
0.0
   0
LINE
   8
LEVEL003
   6
CONTINUOUS
  62
7
  10
 374.543
  20
 368.056
  30
0.0
  11
 375.529
  21
 367.891
  31
0.0
   0
LINE
   8
LEVEL003
   6
CONTINUOUS
  62
7
  10
 375.529
  20
 367.891
  30
0.0
  11
 376.574
  21
 367.771
  31
0.0
   0
LINE
   8
LEVEL003
   6
CONTINUOUS
  62
7
  10
 376.574
  20
 367.771
  30
0.0
  11
 377.663
  21
 367.697
  31
0.0
   0
LINE
   8
LEVEL003
   6
CONTINUOUS
  62
7
  10
 377.663
  20
 367.697
  30
0.0
  11
 378.779
  21
 367.671
  31
0.0
   0
LINE
   8
LEVEL003
   6
CONTINUOUS
  62
7
  10
 378.779
  20
 367.671
  30
0.0
  11
 379.903
  21
 367.694
  31
0.0
   0
LINE
   8
LEVEL003
   6
CONTINUOUS
  62
7
  10
 379.903
  20
 367.694
  30
0.0
  11
 381.018
  21
 367.764
  31
0.0
   0
LINE
   8
LEVEL003
   6
CONTINUOUS
  62
7
  10
 381.018
  20
 367.764
  30
0.0
  11
 382.107
  21
 367.881
  31
0.0
   0
LINE
   8
LEVEL003
   6
CONTINUOUS
  62
7
  10
 382.107
  20
 367.881
  30
0.0
  11
 383.153
  21
 368.042
  31
0.0
   0
LINE
   8
LEVEL003
   6
CONTINUOUS
  62
7
  10
 383.153
  20
 368.042
  30
0.0
  11
 384.140
  21
 368.246
  31
0.0
   0
LINE
   8
LEVEL003
   6
CONTINUOUS
  62
7
  10
 384.140
  20
 368.246
  30
0.0
  11
 385.052
  21
 368.489
  31
0.0
   0
LINE
   8
LEVEL003
   6
CONTINUOUS
  62
7
  10
 385.052
  20
 368.489
  30
0.0
  11
 385.875
  21
 368.768
  31
0.0
   0
LINE
   8
LEVEL003
   6
CONTINUOUS
  62
7
  10
 385.875
  20
 368.768
  30
0.0
  11
 386.596
  21
 369.077
  31
0.0
   0
LINE
   8
LEVEL003
   6
CONTINUOUS
  62
7
  10
 386.596
  20
 369.077
  30
0.0
  11
 387.203
  21
 369.413
  31
0.0
   0
LINE
   8
LEVEL003
   6
CONTINUOUS
  62
7
  10
 387.203
  20
 369.413
  30
0.0
  11
 387.689
  21
 369.770
  31
0.0
   0
LINE
   8
LEVEL003
   6
CONTINUOUS
  62
7
  10
 387.689
  20
 369.770
  30
0.0
  11
 388.044
  21
 370.142
  31
0.0
   0
LINE
   8
LEVEL003
   6
CONTINUOUS
  62
7
  10
 388.044
  20
 370.142
  30
0.0
  11
 388.263
  21
 370.523
  31
0.0
   0
LINE
   8
LEVEL003
   6
CONTINUOUS
  62
7
  10
 388.263
  20
 370.523
  30
0.0
  11
 388.343
  21
 370.909
  31
0.0
   0
LINE
   8
LEVEL003
   6
CONTINUOUS
  62
7
  10
 388.343
  20
 370.909
  30
0.0
  11
 388.343
  21
 370.960
  31
0.0
   0
LINE
   8
LEVEL003
   6
CONTINUOUS
  62
7
  10
 370.104
  20
 381.261
  30
0.0
  11
 370.348
  21
 370.551
  31
0.0
   0
LINE
   8
LEVEL003
   6
CONTINUOUS
  62
7
  10
 388.100
  20
 381.669
  30
0.0
  11
 388.343
  21
 370.960
  31
0.0
   0
LINE
   8
LEVEL003
   6
CONTINUOUS
  62
7
  10
 407.082
  20
 382.664
  30
0.0
  11
 407.012
  21
 383.004
  31
0.0
   0
LINE
   8
LEVEL003
   6
CONTINUOUS
  62
7
  10
 407.012
  20
 383.004
  30
0.0
  11
 406.818
  21
 383.335
  31
0.0
   0
LINE
   8
LEVEL003
   6
CONTINUOUS
  62
7
  10
 406.818
  20
 383.335
  30
0.0
  11
 406.504
  21
 383.654
  31
0.0
   0
LINE
   8
LEVEL003
   6
CONTINUOUS
  62
7
  10
 406.504
  20
 383.654
  30
0.0
  11
 406.073
  21
 383.954
  31
0.0
   0
LINE
   8
LEVEL003
   6
CONTINUOUS
  62
7
  10
 406.073
  20
 383.954
  30
0.0
  11
 405.534
  21
 384.231
  31
0.0
   0
LINE
   8
LEVEL003
   6
CONTINUOUS
  62
7
  10
 405.534
  20
 384.231
  30
0.0
  11
 404.894
  21
 384.480
  31
0.0
   0
LINE
   8
LEVEL003
   6
CONTINUOUS
  62
7
  10
 404.894
  20
 384.480
  30
0.0
  11
 404.163
  21
 384.699
  31
0.0
   0
LINE
   8
LEVEL003
   6
CONTINUOUS
  62
7
  10
 404.163
  20
 384.699
  30
0.0
  11
 403.353
  21
 384.883
  31
0.0
   0
LINE
   8
LEVEL003
   6
CONTINUOUS
  62
7
  10
 403.353
  20
 384.883
  30
0.0
  11
 402.477
  21
 385.029
  31
0.0
   0
LINE
   8
LEVEL003
   6
CONTINUOUS
  62
7
  10
 402.477
  20
 385.029
  30
0.0
  11
 401.547
  21
 385.136
  31
0.0
   0
LINE
   8
LEVEL003
   6
CONTINUOUS
  62
7
  10
 401.547
  20
 385.136
  30
0.0
  11
 400.579
  21
 385.201
  31
0.0
   0
LINE
   8
LEVEL003
   6
CONTINUOUS
  62
7
  10
 400.579
  20
 385.201
  30
0.0
  11
 399.588
  21
 385.224
  31
0.0
   0
LINE
   8
LEVEL003
   6
CONTINUOUS
  62
7
  10
 399.588
  20
 385.224
  30
0.0
  11
 398.589
  21
 385.204
  31
0.0
   0
LINE
   8
LEVEL003
   6
CONTINUOUS
  62
7
  10
 398.589
  20
 385.204
  30
0.0
  11
 397.598
  21
 385.142
  31
0.0
   0
LINE
   8
LEVEL003
   6
CONTINUOUS
  62
7
  10
 397.598
  20
 385.142
  30
0.0
  11
 396.629
  21
 385.038
  31
0.0
   0
LINE
   8
LEVEL003
   6
CONTINUOUS
  62
7
  10
 396.629
  20
 385.038
  30
0.0
  11
 395.699
  21
 384.895
  31
0.0
   0
LINE
   8
LEVEL003
   6
CONTINUOUS
  62
7
  10
 395.699
  20
 384.895
  30
0.0
  11
 394.822
  21
 384.713
  31
0.0
   0
LINE
   8
LEVEL003
   6
CONTINUOUS
  62
7
  10
 394.822
  20
 384.713
  30
0.0
  11
 394.012
  21
 384.497
  31
0.0
   0
LINE
   8
LEVEL003
   6
CONTINUOUS
  62
7
  10
 394.012
  20
 384.497
  30
0.0
  11
 393.280
  21
 384.250
  31
0.0
   0
LINE
   8
LEVEL003
   6
CONTINUOUS
  62
7
  10
 393.280
  20
 384.250
  30
0.0
  11
 392.640
  21
 383.974
  31
0.0
   0
LINE
   8
LEVEL003
   6
CONTINUOUS
  62
7
  10
 392.640
  20
 383.974
  30
0.0
  11
 392.099
  21
 383.676
  31
0.0
   0
LINE
   8
LEVEL003
   6
CONTINUOUS
  62
7
  10
 392.099
  20
 383.676
  30
0.0
  11
 391.668
  21
 383.359
  31
0.0
   0
LINE
   8
LEVEL003
   6
CONTINUOUS
  62
7
  10
 391.668
  20
 383.359
  30
0.0
  11
 391.352
  21
 383.028
  31
0.0
   0
LINE
   8
LEVEL003
   6
CONTINUOUS
  62
7
  10
 391.352
  20
 383.028
  30
0.0
  11
 391.158
  21
 382.689
  31
0.0
   0
LINE
   8
LEVEL003
   6
CONTINUOUS
  62
7
  10
 391.158
  20
 382.689
  30
0.0
  11
 391.086
  21
 382.347
  31
0.0
   0
LINE
   8
LEVEL003
   6
CONTINUOUS
  62
7
  10
 391.086
  20
 382.347
  30
0.0
  11
 391.140
  21
 382.006
  31
0.0
   0
LINE
   8
LEVEL003
   6
CONTINUOUS
  62
7
  10
 391.140
  20
 382.006
  30
0.0
  11
 391.318
  21
 381.673
  31
0.0
   0
LINE
   8
LEVEL003
   6
CONTINUOUS
  62
7
  10
 391.318
  20
 381.673
  30
0.0
  11
 391.616
  21
 381.353
  31
0.0
   0
LINE
   8
LEVEL003
   6
CONTINUOUS
  62
7
  10
 391.616
  20
 381.353
  30
0.0
  11
 392.032
  21
 381.051
  31
0.0
   0
LINE
   8
LEVEL003
   6
CONTINUOUS
  62
7
  10
 392.032
  20
 381.051
  30
0.0
  11
 392.557
  21
 380.770
  31
0.0
   0
LINE
   8
LEVEL003
   6
CONTINUOUS
  62
7
  10
 392.557
  20
 380.770
  30
0.0
  11
 393.184
  21
 380.517
  31
0.0
   0
LINE
   8
LEVEL003
   6
CONTINUOUS
  62
7
  10
 393.184
  20
 380.517
  30
0.0
  11
 393.903
  21
 380.294
  31
0.0
   0
LINE
   8
LEVEL003
   6
CONTINUOUS
  62
7
  10
 393.903
  20
 380.294
  30
0.0
  11
 394.704
  21
 380.105
  31
0.0
   0
LINE
   8
LEVEL003
   6
CONTINUOUS
  62
7
  10
 394.704
  20
 380.105
  30
0.0
  11
 395.572
  21
 379.954
  31
0.0
   0
LINE
   8
LEVEL003
   6
CONTINUOUS
  62
7
  10
 395.572
  20
 379.954
  30
0.0
  11
 396.495
  21
 379.841
  31
0.0
   0
LINE
   8
LEVEL003
   6
CONTINUOUS
  62
7
  10
 396.495
  20
 379.841
  30
0.0
  11
 397.459
  21
 379.771
  31
0.0
   0
LINE
   8
LEVEL003
   6
CONTINUOUS
  62
7
  10
 397.459
  20
 379.771
  30
0.0
  11
 398.448
  21
 379.742
  31
0.0
   0
LINE
   8
LEVEL003
   6
CONTINUOUS
  62
7
  10
 398.448
  20
 379.742
  30
0.0
  11
 399.447
  21
 379.756
  31
0.0
   0
LINE
   8
LEVEL003
   6
CONTINUOUS
  62
7
  10
 399.447
  20
 379.756
  30
0.0
  11
 400.440
  21
 379.813
  31
0.0
   0
LINE
   8
LEVEL003
   6
CONTINUOUS
  62
7
  10
 400.440
  20
 379.813
  30
0.0
  11
 401.412
  21
 379.911
  31
0.0
   0
LINE
   8
LEVEL003
   6
CONTINUOUS
  62
7
  10
 401.412
  20
 379.911
  30
0.0
  11
 402.348
  21
 380.050
  31
0.0
   0
LINE
   8
LEVEL003
   6
CONTINUOUS
  62
7
  10
 402.348
  20
 380.050
  30
0.0
  11
 403.233
  21
 380.226
  31
0.0
   0
LINE
   8
LEVEL003
   6
CONTINUOUS
  62
7
  10
 403.233
  20
 380.226
  30
0.0
  11
 404.053
  21
 380.438
  31
0.0
   0
LINE
   8
LEVEL003
   6
CONTINUOUS
  62
7
  10
 404.053
  20
 380.438
  30
0.0
  11
 404.796
  21
 380.681
  31
0.0
   0
LINE
   8
LEVEL003
   6
CONTINUOUS
  62
7
  10
 404.796
  20
 380.681
  30
0.0
  11
 405.449
  21
 380.953
  31
0.0
   0
LINE
   8
LEVEL003
   6
CONTINUOUS
  62
7
  10
 405.449
  20
 380.953
  30
0.0
  11
 406.004
  21
 381.249
  31
0.0
   0
LINE
   8
LEVEL003
   6
CONTINUOUS
  62
7
  10
 406.004
  20
 381.249
  30
0.0
  11
 406.450
  21
 381.564
  31
0.0
   0
LINE
   8
LEVEL003
   6
CONTINUOUS
  62
7
  10
 406.450
  20
 381.564
  30
0.0
  11
 406.781
  21
 381.893
  31
0.0
   0
LINE
   8
LEVEL003
   6
CONTINUOUS
  62
7
  10
 406.781
  20
 381.893
  30
0.0
  11
 406.992
  21
 382.231
  31
0.0
   0
LINE
   8
LEVEL003
   6
CONTINUOUS
  62
7
  10
 406.992
  20
 382.231
  30
0.0
  11
 407.080
  21
 382.573
  31
0.0
   0
LINE
   8
LEVEL003
   6
CONTINUOUS
  62
7
  10
 407.080
  20
 382.573
  30
0.0
  11
 407.082
  21
 382.664
  31
0.0
   0
LINE
   8
LEVEL003
   6
CONTINUOUS
  62
7
  10
 392.327
  20
 383.811
  30
0.0
  11
 391.641
  21
 383.493
  31
0.0
   0
LINE
   8
LEVEL003
   6
CONTINUOUS
  62
7
  10
 391.641
  20
 383.493
  30
0.0
  11
 391.071
  21
 383.150
  31
0.0
   0
LINE
   8
LEVEL003
   6
CONTINUOUS
  62
7
  10
 391.071
  20
 383.150
  30
0.0
  11
 390.626
  21
 382.788
  31
0.0
   0
LINE
   8
LEVEL003
   6
CONTINUOUS
  62
7
  10
 390.626
  20
 382.788
  30
0.0
  11
 390.314
  21
 382.412
  31
0.0
   0
LINE
   8
LEVEL003
   6
CONTINUOUS
  62
7
  10
 390.314
  20
 382.412
  30
0.0
  11
 390.139
  21
 382.029
  31
0.0
   0
LINE
   8
LEVEL003
   6
CONTINUOUS
  62
7
  10
 390.139
  20
 382.029
  30
0.0
  11
 390.103
  21
 381.644
  31
0.0
   0
LINE
   8
LEVEL003
   6
CONTINUOUS
  62
7
  10
 390.103
  20
 381.644
  30
0.0
  11
 390.208
  21
 381.263
  31
0.0
   0
LINE
   8
LEVEL003
   6
CONTINUOUS
  62
7
  10
 390.208
  20
 381.263
  30
0.0
  11
 390.452
  21
 380.892
  31
0.0
   0
LINE
   8
LEVEL003
   6
CONTINUOUS
  62
7
  10
 390.452
  20
 380.892
  30
0.0
  11
 390.830
  21
 380.538
  31
0.0
   0
LINE
   8
LEVEL003
   6
CONTINUOUS
  62
7
  10
 390.830
  20
 380.538
  30
0.0
  11
 391.338
  21
 380.205
  31
0.0
   0
LINE
   8
LEVEL003
   6
CONTINUOUS
  62
7
  10
 391.338
  20
 380.205
  30
0.0
  11
 391.966
  21
 379.898
  31
0.0
   0
LINE
   8
LEVEL003
   6
CONTINUOUS
  62
7
  10
 391.966
  20
 379.898
  30
0.0
  11
 392.706
  21
 379.624
  31
0.0
   0
LINE
   8
LEVEL003
   6
CONTINUOUS
  62
7
  10
 392.706
  20
 379.624
  30
0.0
  11
 393.546
  21
 379.385
  31
0.0
   0
LINE
   8
LEVEL003
   6
CONTINUOUS
  62
7
  10
 393.546
  20
 379.385
  30
0.0
  11
 394.472
  21
 379.185
  31
0.0
   0
LINE
   8
LEVEL003
   6
CONTINUOUS
  62
7
  10
 394.472
  20
 379.185
  30
0.0
  11
 395.470
  21
 379.029
  31
0.0
   0
LINE
   8
LEVEL003
   6
CONTINUOUS
  62
7
  10
 395.470
  20
 379.029
  30
0.0
  11
 396.525
  21
 378.917
  31
0.0
   0
LINE
   8
LEVEL003
   6
CONTINUOUS
  62
7
  10
 396.525
  20
 378.917
  30
0.0
  11
 397.620
  21
 378.852
  31
0.0
   0
LINE
   8
LEVEL003
   6
CONTINUOUS
  62
7
  10
 397.620
  20
 378.852
  30
0.0
  11
 398.738
  21
 378.836
  31
0.0
   0
LINE
   8
LEVEL003
   6
CONTINUOUS
  62
7
  10
 398.738
  20
 378.836
  30
0.0
  11
 399.862
  21
 378.867
  31
0.0
   0
LINE
   8
LEVEL003
   6
CONTINUOUS
  62
7
  10
 399.862
  20
 378.867
  30
0.0
  11
 400.974
  21
 378.946
  31
0.0
   0
LINE
   8
LEVEL003
   6
CONTINUOUS
  62
7
  10
 400.974
  20
 378.946
  30
0.0
  11
 402.056
  21
 379.071
  31
0.0
   0
LINE
   8
LEVEL003
   6
CONTINUOUS
  62
7
  10
 402.056
  20
 379.071
  30
0.0
  11
 403.093
  21
 379.241
  31
0.0
   0
LINE
   8
LEVEL003
   6
CONTINUOUS
  62
7
  10
 403.093
  20
 379.241
  30
0.0
  11
 404.067
  21
 379.452
  31
0.0
   0
LINE
   8
LEVEL003
   6
CONTINUOUS
  62
7
  10
 404.067
  20
 379.452
  30
0.0
  11
 404.963
  21
 379.702
  31
0.0
   0
LINE
   8
LEVEL003
   6
CONTINUOUS
  62
7
  10
 404.963
  20
 379.702
  30
0.0
  11
 405.768
  21
 379.987
  31
0.0
   0
LINE
   8
LEVEL003
   6
CONTINUOUS
  62
7
  10
 405.768
  20
 379.987
  30
0.0
  11
 406.469
  21
 380.301
  31
0.0
   0
LINE
   8
LEVEL003
   6
CONTINUOUS
  62
7
  10
 406.469
  20
 380.301
  30
0.0
  11
 407.054
  21
 380.641
  31
0.0
   0
LINE
   8
LEVEL003
   6
CONTINUOUS
  62
7
  10
 407.054
  20
 380.641
  30
0.0
  11
 407.516
  21
 381.001
  31
0.0
   0
LINE
   8
LEVEL003
   6
CONTINUOUS
  62
7
  10
 407.516
  20
 381.001
  30
0.0
  11
 407.846
  21
 381.376
  31
0.0
   0
LINE
   8
LEVEL003
   6
CONTINUOUS
  62
7
  10
 407.846
  20
 381.376
  30
0.0
  11
 408.040
  21
 381.758
  31
0.0
   0
LINE
   8
LEVEL003
   6
CONTINUOUS
  62
7
  10
 408.040
  20
 381.758
  30
0.0
  11
 408.094
  21
 382.144
  31
0.0
   0
LINE
   8
LEVEL003
   6
CONTINUOUS
  62
7
  10
 408.094
  20
 382.144
  30
0.0
  11
 408.008
  21
 382.525
  31
0.0
   0
LINE
   8
LEVEL003
   6
CONTINUOUS
  62
7
  10
 408.008
  20
 382.525
  30
0.0
  11
 407.782
  21
 382.898
  31
0.0
   0
LINE
   8
LEVEL003
   6
CONTINUOUS
  62
7
  10
 407.782
  20
 382.898
  30
0.0
  11
 407.422
  21
 383.255
  31
0.0
   0
LINE
   8
LEVEL003
   6
CONTINUOUS
  62
7
  10
 407.422
  20
 383.255
  30
0.0
  11
 406.931
  21
 383.591
  31
0.0
   0
LINE
   8
LEVEL003
   6
CONTINUOUS
  62
7
  10
 406.931
  20
 383.591
  30
0.0
  11
 406.318
  21
 383.901
  31
0.0
   0
LINE
   8
LEVEL003
   6
CONTINUOUS
  62
7
  10
 406.318
  20
 383.901
  30
0.0
  11
 405.774
  21
 384.117
  31
0.0
   0
LINE
   8
LEVEL003
   6
CONTINUOUS
  62
7
  10
 390.099
  20
 381.715
  30
0.0
  11
 390.342
  21
 371.005
  31
0.0
   0
LINE
   8
LEVEL003
   6
CONTINUOUS
  62
7
  10
 390.342
  20
 371.005
  30
0.0
  11
 390.421
  21
 370.623
  31
0.0
   0
LINE
   8
LEVEL003
   6
CONTINUOUS
  62
7
  10
 390.421
  20
 370.623
  30
0.0
  11
 390.639
  21
 370.250
  31
0.0
   0
LINE
   8
LEVEL003
   6
CONTINUOUS
  62
7
  10
 390.639
  20
 370.250
  30
0.0
  11
 390.993
  21
 369.892
  31
0.0
   0
LINE
   8
LEVEL003
   6
CONTINUOUS
  62
7
  10
 390.993
  20
 369.892
  30
0.0
  11
 391.477
  21
 369.555
  31
0.0
   0
LINE
   8
LEVEL003
   6
CONTINUOUS
  62
7
  10
 391.477
  20
 369.555
  30
0.0
  11
 392.084
  21
 369.243
  31
0.0
   0
LINE
   8
LEVEL003
   6
CONTINUOUS
  62
7
  10
 392.084
  20
 369.243
  30
0.0
  11
 392.804
  21
 368.962
  31
0.0
   0
LINE
   8
LEVEL003
   6
CONTINUOUS
  62
7
  10
 392.804
  20
 368.962
  30
0.0
  11
 393.626
  21
 368.716
  31
0.0
   0
LINE
   8
LEVEL003
   6
CONTINUOUS
  62
7
  10
 393.626
  20
 368.716
  30
0.0
  11
 394.537
  21
 368.509
  31
0.0
   0
LINE
   8
LEVEL003
   6
CONTINUOUS
  62
7
  10
 394.537
  20
 368.509
  30
0.0
  11
 395.524
  21
 368.345
  31
0.0
   0
LINE
   8
LEVEL003
   6
CONTINUOUS
  62
7
  10
 395.524
  20
 368.345
  30
0.0
  11
 396.569
  21
 368.225
  31
0.0
   0
LINE
   8
LEVEL003
   6
CONTINUOUS
  62
7
  10
 396.569
  20
 368.225
  30
0.0
  11
 397.658
  21
 368.151
  31
0.0
   0
LINE
   8
LEVEL003
   6
CONTINUOUS
  62
7
  10
 397.658
  20
 368.151
  30
0.0
  11
 398.773
  21
 368.125
  31
0.0
   0
LINE
   8
LEVEL003
   6
CONTINUOUS
  62
7
  10
 398.773
  20
 368.125
  30
0.0
  11
 399.897
  21
 368.148
  31
0.0
   0
LINE
   8
LEVEL003
   6
CONTINUOUS
  62
7
  10
 399.897
  20
 368.148
  30
0.0
  11
 401.013
  21
 368.218
  31
0.0
   0
LINE
   8
LEVEL003
   6
CONTINUOUS
  62
7
  10
 401.013
  20
 368.218
  30
0.0
  11
 402.102
  21
 368.334
  31
0.0
   0
LINE
   8
LEVEL003
   6
CONTINUOUS
  62
7
  10
 402.102
  20
 368.334
  30
0.0
  11
 403.148
  21
 368.496
  31
0.0
   0
LINE
   8
LEVEL003
   6
CONTINUOUS
  62
7
  10
 403.148
  20
 368.496
  30
0.0
  11
 404.135
  21
 368.700
  31
0.0
   0
LINE
   8
LEVEL003
   6
CONTINUOUS
  62
7
  10
 404.135
  20
 368.700
  30
0.0
  11
 405.047
  21
 368.943
  31
0.0
   0
LINE
   8
LEVEL003
   6
CONTINUOUS
  62
7
  10
 405.047
  20
 368.943
  30
0.0
  11
 405.869
  21
 369.222
  31
0.0
   0
LINE
   8
LEVEL003
   6
CONTINUOUS
  62
7
  10
 405.869
  20
 369.222
  30
0.0
  11
 406.590
  21
 369.531
  31
0.0
   0
LINE
   8
LEVEL003
   6
CONTINUOUS
  62
7
  10
 406.590
  20
 369.531
  30
0.0
  11
 407.198
  21
 369.867
  31
0.0
   0
LINE
   8
LEVEL003
   6
CONTINUOUS
  62
7
  10
 407.198
  20
 369.867
  30
0.0
  11
 407.683
  21
 370.224
  31
0.0
   0
LINE
   8
LEVEL003
   6
CONTINUOUS
  62
7
  10
 407.683
  20
 370.224
  30
0.0
  11
 408.038
  21
 370.596
  31
0.0
   0
LINE
   8
LEVEL003
   6
CONTINUOUS
  62
7
  10
 408.038
  20
 370.596
  30
0.0
  11
 408.258
  21
 370.977
  31
0.0
   0
LINE
   8
LEVEL003
   6
CONTINUOUS
  62
7
  10
 408.258
  20
 370.977
  30
0.0
  11
 408.338
  21
 371.363
  31
0.0
   0
LINE
   8
LEVEL003
   6
CONTINUOUS
  62
7
  10
 408.338
  20
 371.363
  30
0.0
  11
 408.338
  21
 371.414
  31
0.0
   0
ARC
   8
LEVEL001
   6
CONTINUOUS
  62
7
  10
 383.140
  20
 384.845
  30
0.0
  40
 3.00000
  50
 335.872
  51
 181.571
   0
LINE
   8
LEVEL001
   6
CONTINUOUS
  62
7
  10
 387.624
  20
 382.624
  30
0.0
  11
 390.575
  21
 388.015
  31
0.0
   0
LINE
   8
LEVEL001
   6
CONTINUOUS
  62
7
  10
 390.575
  20
 388.015
  30
0.0
  11
 396.347
  21
 388.146
  31
0.0
   0
LINE
   8
LEVEL001
   6
CONTINUOUS
  62
7
  10
 396.347
  20
 388.146
  30
0.0
  11
 394.412
  21
 384.610
  31
0.0
   0
LINE
   8
LEVEL001
   6
CONTINUOUS
  62
7
  10
 390.184
  20
 378.003
  30
0.0
  11
 388.184
  21
 377.958
  31
0.0
   0
LINE
   8
LEVEL003
   6
CONTINUOUS
  62
7
  10
 403.393
  20
 390.976
  30
0.0
  11
 403.532
  21
 384.847
  31
0.0
   0
ARC
   8
LEVEL003
   6
CONTINUOUS
  62
7
  10
 363.656
  20
 378.899
  30
0.0
  40
 5.00000
  50
 299.934
  51
 1.30048
   0
LINE
   8
LEVEL003
   6
CONTINUOUS
  62
7
  10
 366.646
  20
 372.684
  30
0.0
  11
 367.408
  21
 370.106
  31
0.0
   0
LINE
   8
LEVEL003
   6
CONTINUOUS
  62
7
  10
 399.433
  20
 367.106
  30
0.0
  11
 400.928
  21
 367.172
  31
0.0
   0
LINE
   8
LEVEL003
   6
CONTINUOUS
  62
7
  10
 400.928
  20
 367.172
  30
0.0
  11
 402.398
  21
 367.301
  31
0.0
   0
LINE
   8
LEVEL003
   6
CONTINUOUS
  62
7
  10
 402.398
  20
 367.301
  30
0.0
  11
 403.821
  21
 367.491
  31
0.0
   0
LINE
   8
LEVEL003
   6
CONTINUOUS
  62
7
  10
 403.821
  20
 367.491
  30
0.0
  11
 405.174
  21
 367.739
  31
0.0
   0
LINE
   8
LEVEL003
   6
CONTINUOUS
  62
7
  10
 405.174
  20
 367.739
  30
0.0
  11
 406.435
  21
 368.041
  31
0.0
   0
LINE
   8
LEVEL003
   6
CONTINUOUS
  62
7
  10
 406.435
  20
 368.041
  30
0.0
  11
 407.586
  21
 368.393
  31
0.0
   0
LINE
   8
LEVEL003
   6
CONTINUOUS
  62
7
  10
 407.586
  20
 368.393
  30
0.0
  11
 408.608
  21
 368.788
  31
0.0
   0
LINE
   8
LEVEL003
   6
CONTINUOUS
  62
7
  10
 408.608
  20
 368.788
  30
0.0
  11
 409.486
  21
 369.222
  31
0.0
   0
LINE
   8
LEVEL003
   6
CONTINUOUS
  62
7
  10
 409.486
  20
 369.222
  30
0.0
  11
 410.205
  21
 369.686
  31
0.0
   0
LINE
   8
LEVEL003
   6
CONTINUOUS
  62
7
  10
 410.205
  20
 369.686
  30
0.0
  11
 410.754
  21
 370.174
  31
0.0
   0
LINE
   8
LEVEL003
   6
CONTINUOUS
  62
7
  10
 410.754
  20
 370.174
  30
0.0
  11
 411.126
  21
 370.678
  31
0.0
   0
LINE
   8
LEVEL003
   6
CONTINUOUS
  62
7
  10
 411.126
  20
 370.678
  30
0.0
  11
 411.294
  21
 371.102
  31
0.0
   0
LINE
   8
LEVEL003
   6
CONTINUOUS
  62
7
  10
 388.256
  20
 374.780
  30
0.0
  11
 390.256
  21
 374.826
  31
0.0
   0
LINE
   8
LEVEL003
   6
CONTINUOUS
  62
7
  10
 367.184
  20
 374.787
  30
0.0
  11
 370.253
  21
 374.734
  31
0.0
   0
LINE
   8
LEVEL003
   6
CONTINUOUS
  62
7
  10
 368.402
  20
 390.182
  30
0.0
  11
 368.655
  21
 379.012
  31
0.0
   0
LINE
   8
LEVEL003
   6
CONTINUOUS
  62
7
  10
 367.408
  20
 370.106
  30
0.0
  11
 367.651
  21
 369.604
  31
0.0
   0
LINE
   8
LEVEL003
   6
CONTINUOUS
  62
7
  10
 367.651
  20
 369.604
  30
0.0
  11
 368.076
  21
 369.121
  31
0.0
   0
LINE
   8
LEVEL003
   6
CONTINUOUS
  62
7
  10
 368.076
  20
 369.121
  30
0.0
  11
 368.677
  21
 368.664
  31
0.0
   0
LINE
   8
LEVEL003
   6
CONTINUOUS
  62
7
  10
 368.677
  20
 368.664
  30
0.0
  11
 369.445
  21
 368.238
  31
0.0
   0
LINE
   8
LEVEL003
   6
CONTINUOUS
  62
7
  10
 369.445
  20
 368.238
  30
0.0
  11
 370.367
  21
 367.853
  31
0.0
   0
LINE
   8
LEVEL003
   6
CONTINUOUS
  62
7
  10
 370.367
  20
 367.853
  30
0.0
  11
 371.429
  21
 367.512
  31
0.0
   0
LINE
   8
LEVEL003
   6
CONTINUOUS
  62
7
  10
 371.429
  20
 367.512
  30
0.0
  11
 372.615
  21
 367.222
  31
0.0
   0
LINE
   8
LEVEL003
   6
CONTINUOUS
  62
7
  10
 372.615
  20
 367.222
  30
0.0
  11
 373.905
  21
 366.988
  31
0.0
   0
LINE
   8
LEVEL003
   6
CONTINUOUS
  62
7
  10
 373.905
  20
 366.988
  30
0.0
  11
 375.281
  21
 366.812
  31
0.0
   0
LINE
   8
LEVEL003
   6
CONTINUOUS
  62
7
  10
 375.281
  20
 366.812
  30
0.0
  11
 376.720
  21
 366.697
  31
0.0
   0
LINE
   8
LEVEL003
   6
CONTINUOUS
  62
7
  10
 376.720
  20
 366.697
  30
0.0
  11
 378.200
  21
 366.646
  31
0.0
   0
LINE
   8
LEVEL003
   6
CONTINUOUS
  62
7
  10
 378.200
  20
 366.646
  30
0.0
  11
 379.438
  21
 366.652
  31
0.0
   0
ARC
   8
LEVEL003
   6
CONTINUOUS
  62
7
  10
 403.794
  20
 395.317
  30
0.0
  40
 2.00000
  50
 301.300
  51
 1.30048
   0
LINE
   8
LEVEL003
   6
CONTINUOUS
  62
7
  10
 408.095
  20
 382.123
  30
0.0
  11
 408.338
  21
 371.414
  31
0.0
   0
LINE
   8
LEVEL003
   6
CONTINUOUS
  62
7
  10
 411.919
  20
 373.633
  30
0.0
  11
 411.294
  21
 371.102
  31
0.0
   0
LINE
   8
LEVEL003
   6
CONTINUOUS
  62
7
  10
 412.469
  20
 375.862
  30
0.0
  11
 408.243
  21
 375.596
  31
0.0
   0
ARC
   8
LEVEL003
   6
CONTINUOUS
  62
7
  10
 414.832
  20
 372.915
  30
0.0
  40
 3.00000
  50
 111.305
  51
 166.140
   0
LINE
   8
LEVEL003
   6
CONTINUOUS
  62
7
  10
 400.139
  20
 336.028
  30
0.0
  11
 402.165
  21
 334.919
  31
0.0
   0
LINE
   8
LEVEL003
   6
CONTINUOUS
  62
7
  10
 402.165
  20
 334.919
  30
0.0
  11
 402.217
  21
 332.610
  31
0.0
   0
LINE
   8
LEVEL003
   6
CONTINUOUS
  62
7
  10
 402.217
  20
 332.610
  30
0.0
  11
 400.244
  21
 331.410
  31
0.0
   0
LINE
   8
LEVEL003
   6
CONTINUOUS
  62
7
  10
 400.244
  20
 331.410
  30
0.0
  11
 398.218
  21
 332.519
  31
0.0
   0
LINE
   8
LEVEL003
   6
CONTINUOUS
  62
7
  10
 398.218
  20
 332.519
  30
0.0
  11
 398.166
  21
 334.828
  31
0.0
   0
LINE
   8
LEVEL003
   6
CONTINUOUS
  62
7
  10
 398.166
  20
 334.828
  30
0.0
  11
 400.139
  21
 336.028
  31
0.0
   0
CIRCLE
   8
LEVEL003
   6
CONTINUOUS
  62
7
  10
 400.191
  20
 333.719
  30
0.0
  40
 4.00000
   0
LINE
   8
LEVEL003
   6
CONTINUOUS
  62
7
  10
 380.144
  20
 335.574
  30
0.0
  11
 382.170
  21
 334.465
  31
0.0
   0
LINE
   8
LEVEL003
   6
CONTINUOUS
  62
7
  10
 382.170
  20
 334.465
  30
0.0
  11
 382.222
  21
 332.156
  31
0.0
   0
LINE
   8
LEVEL003
   6
CONTINUOUS
  62
7
  10
 382.222
  20
 332.156
  30
0.0
  11
 380.249
  21
 330.956
  31
0.0
   0
LINE
   8
LEVEL003
   6
CONTINUOUS
  62
7
  10
 380.249
  20
 330.956
  30
0.0
  11
 378.223
  21
 332.065
  31
0.0
   0
LINE
   8
LEVEL003
   6
CONTINUOUS
  62
7
  10
 378.223
  20
 332.065
  30
0.0
  11
 378.171
  21
 334.374
  31
0.0
   0
LINE
   8
LEVEL003
   6
CONTINUOUS
  62
7
  10
 378.171
  20
 334.374
  30
0.0
  11
 380.144
  21
 335.574
  31
0.0
   0
CIRCLE
   8
LEVEL003
   6
CONTINUOUS
  62
7
  10
 380.196
  20
 333.265
  30
0.0
  40
 4.00000
   0
CIRCLE
   8
LEVEL003
   6
CONTINUOUS
  62
3
  10
 380.196
  20
 333.265
  30
0.0
  40
 3.37500
   0
CIRCLE
   8
LEVEL003
   6
CONTINUOUS
  62
3
  10
 400.191
  20
 333.719
  30
0.0
  40
 3.37500
   0
ARC
   8
LEVEL003
   6
CONTINUOUS
  62
7
  10
 362.289
  20
 377.870
  30
0.0
  40
 5.00000
  50
 271.300
  51
 313.975
   0
LINE
   8
LEVEL003
   6
CONTINUOUS
  62
7
  10
 367.246
  20
 337.132
  30
0.0
  11
 378.005
  21
 349.509
  31
0.0
   0
ARC
   8
LEVEL003
   6
CONTINUOUS
  62
7
  10
 372.722
  20
 354.101
  30
0.0
  40
 7.00000
  50
 319.001
  51
 42.0829
   0
LINE
   8
LEVEL003
   6
CONTINUOUS
  62
7
  10
 380.355
  20
 326.267
  30
0.0
  11
 400.350
  21
 326.721
  31
0.0
   0
LINE
   8
LEVEL003
   6
CONTINUOUS
  62
7
  10
 380.038
  20
 340.263
  30
0.0
  11
 400.032
  21
 340.717
  31
0.0
   0
ARC
   8
LEVEL003
   6
CONTINUOUS
  62
7
  10
 400.191
  20
 333.719
  30
0.0
  40
 7.00000
  50
 271.300
  51
 91.3002
   0
ARC
   8
LEVEL003
   6
CONTINUOUS
  62
7
  10
 380.196
  20
 333.265
  30
0.0
  40
 7.00000
  50
 91.3002
  51
 271.300
   0
LINE
   8
LEVEL003
   6
CONTINUOUS
  62
7
  10
 372.608
  20
 364.671
  30
0.0
  11
 377.917
  21
 358.792
  31
0.0
   0
LINE
   8
LEVEL001
   6
CONTINUOUS
  62
7
  10
 349.183
  20
 377.573
  30
0.0
  11
 349.106
  21
 380.968
  31
0.0
   0
ARC
   8
LEVEL001
   6
CONTINUOUS
  62
7
  10
 344.184
  20
 377.459
  30
0.0
  40
 5.00000
  50
 271.300
  51
 1.30047
   0
LINE
   8
LEVEL001
   6
CONTINUOUS
  62
7
  10
 339.799
  20
 372.358
  30
0.0
  11
 362.403
  21
 372.871
  31
0.0
   0
LINE
   8
LEVEL001
   6
CONTINUOUS
  62
7
  10
 365.295
  20
 373.875
  30
0.0
  11
 366.662
  21
 374.903
  31
0.0
   0
ARC
   8
LEVEL001
   6
CONTINUOUS
  62
7
  10
 375.287
  20
 309.148
  30
0.0
  40
 2.00000
  50
 91.3005
  51
 181.300
   0
LINE
   8
LEVEL001
   6
CONTINUOUS
  62
7
  10
 373.288
  20
 309.102
  30
0.0
  11
 373.367
  21
 305.603
  31
0.0
   0
LINE
   8
LEVEL003
   6
CONTINUOUS
  62
7
  10
 375.242
  20
 311.147
  30
0.0
  11
 402.141
  21
 311.758
  31
0.0
   0
LINE
   8
LEVEL001
   6
CONTINUOUS
  62
7
  10
 375.182
  20
 313.796
  30
0.0
  11
 402.081
  21
 314.406
  31
0.0
   0
LINE
   8
LEVEL001
   6
CONTINUOUS
  62
7
  10
 369.787
  20
 309.078
  30
0.0
  11
 371.326
  21
 311.582
  31
0.0
   0
ARC
   8
LEVEL001
   6
CONTINUOUS
  62
7
  10
 375.287
  20
 309.148
  30
0.0
  40
 4.64950
  50
 91.3005
  51
 148.424
   0
ARC
   8
LEVEL003
   6
CONTINUOUS
  62
7
  10
 402.186
  20
 309.758
  30
0.0
  40
 2.00000
  50
 1.30047
  51
 91.3005
   0
LINE
   8
LEVEL001
   6
CONTINUOUS
  62
7
  10
 404.186
  20
 309.804
  30
0.0
  11
 404.265
  21
 306.304
  31
0.0
   0
LINE
   8
LEVEL001
   6
CONTINUOUS
  62
7
  10
 407.684
  20
 309.938
  30
0.0
  11
 406.033
  21
 312.370
  31
0.0
   0
ARC
   8
LEVEL001
   6
CONTINUOUS
  62
7
  10
 402.186
  20
 309.758
  30
0.0
  40
 4.64950
  50
 34.1771
  51
 91.3005
   0
ARC
   8
LEVEL001
   6
CONTINUOUS
  62
7
  10
 375.367
  20
 305.648
  30
0.0
  40
 2.00000
  50
 181.300
  51
 195.778
   0
ARC
   8
LEVEL001
   6
CONTINUOUS
  62
7
  10
 402.266
  20
 306.259
  30
0.0
  40
 2.00000
  50
 346.823
  51
 1.30048
   0
ARC
   8
LEVEL001
   6
CONTINUOUS
  62
7
  10
 352.415
  20
 332.778
  30
0.0
  40
 4.00000
  50
 237.837
  51
 316.300
   0
LINE
   8
LEVEL001
   6
CONTINUOUS
  62
7
  10
 358.961
  20
 333.838
  30
0.0
  11
 355.307
  21
 330.015
  31
0.0
   0
ARC
   8
LEVEL001
   6
CONTINUOUS
  62
7
  10
 364.745
  20
 328.311
  30
0.0
  40
 8.00000
  50
 98.7712
  51
 136.300
   0
ARC
   8
LEVEL001
   6
CONTINUOUS
  62
7
  10
 365.723
  20
 353.942
  30
0.0
  40
 29.0000
  50
 214.764
  51
 237.837
   0
ARC
   8
LEVEL001
   6
CONTINUOUS
  62
7
  10
 366.574
  20
 316.452
  30
0.0
  40
 20.0000
  50
 90.8983
  51
 98.7712
   0
ARC
   8
LEVEL001
   6
CONTINUOUS
  62
7
  10
 365.723
  20
 353.942
  30
0.0
  40
 29.0000
  50
 124.764
  51
 140.368
   0
LINE
   8
LEVEL001
   6
CONTINUOUS
  62
7
  10
 411.715
  20
 308.474
  30
0.0
  11
 414.766
  21
 308.543
  31
0.0
   0
LINE
   8
LEVEL001
   6
CONTINUOUS
  62
7
  10
 414.766
  20
 308.543
  30
0.0
  11
 415.255
  21
 309.055
  31
0.0
   0
LINE
   8
LEVEL001
   6
CONTINUOUS
  62
7
  10
 415.255
  20
 309.055
  30
0.0
  11
 414.506
  21
 342.046
  31
0.0
   0
LINE
   8
LEVEL001
   6
CONTINUOUS
  62
7
  10
 414.506
  20
 342.046
  30
0.0
  11
 413.707
  21
 377.224
  31
0.0
   0
LINE
   8
LEVEL003
   6
CONTINUOUS
  62
7
  10
 411.384
  20
 369.416
  30
0.0
  11
 411.530
  21
 362.977
  31
0.0
   0
LINE
   8
LEVEL003
   6
CONTINUOUS
  62
7
  10
 411.848
  20
 348.962
  30
0.0
  11
 412.721
  21
 310.497
  31
0.0
   0
ARC
   8
LEVEL003
   6
CONTINUOUS
  62
7
  10
 414.529
  20
 363.045
  30
0.0
  40
 3.00000
  50
 181.300
  51
 261.706
   0
ARC
   8
LEVEL003
   6
CONTINUOUS
  62
7
  10
 414.848
  20
 349.030
  30
0.0
  40
 3.00000
  50
 100.895
  51
 181.300
   0
LINE
   8
LEVEL001
   6
DASHDOT
  62
1
  10
 398.984
  20
 386.898
  30
0.0
  11
 400.273
  21
 330.120
  31
0.0
   0
LINE
   8
LEVEL001
   6
DASHDOT
  62
1
  10
 378.995
  20
 386.205
  30
0.0
  11
 380.278
  21
 329.666
  31
0.0
   0
LINE
   8
LEVEL001
   6
CONTINUOUS
  62
7
  10
 415.244
  20
 309.554
  30
0.0
  11
 431.739
  21
 309.929
  31
0.0
   0
LINE
   8
LEVEL001
   6
CONTINUOUS
  62
7
  10
 430.264
  20
 374.912
  30
0.0
  11
 413.768
  21
 374.538
  31
0.0
   0
LINE
   8
LEVEL001
   6
CONTINUOUS
  62
7
  10
 430.264
  20
 374.912
  30
0.0
  11
 431.287
  21
 373.935
  31
0.0
   0
LINE
   8
LEVEL001
   6
CONTINUOUS
  62
7
  10
 431.287
  20
 373.935
  30
0.0
  11
 432.001
  21
 342.443
  31
0.0
   0
LINE
   8
LEVEL001
   6
CONTINUOUS
  62
7
  10
 431.739
  20
 309.929
  30
0.0
  11
 432.716
  21
 310.951
  31
0.0
   0
LINE
   8
LEVEL001
   6
CONTINUOUS
  62
7
  10
 432.716
  20
 310.951
  30
0.0
  11
 432.001
  21
 342.443
  31
0.0
   0
LINE
   8
LEVEL001
   6
CONTINUOUS
  62
7
  10
 430.264
  20
 374.912
  30
0.0
  11
 431.739
  21
 309.929
  31
0.0
   0
LINE
   8
LEVEL001
   6
DASHDOT
  62
1
  10
 402.009
  20
 341.762
  30
0.0
  11
 974.355
  21
 354.755
  31
0.0
   0
LINE
   8
LEVEL003
   6
CONTINUOUS
  62
7
  10
 955.709
  20
 361.262
  30
0.0
  11
 965.635
  21
 361.487
  31
0.0
   0
ARC
   8
LEVEL003
   6
CONTINUOUS
  62
7
  10
 954.059
  20
 366.298
  30
0.0
  40
 12.5359
  50
 337.436
  51
 1.30045
   0
ARC
   8
LEVEL001
   6
CONTINUOUS
  62
7
  10
 464.074
  20
 383.682
  30
0.0
  40
 3.00000
  50
 91.3005
  51
 181.300
   0
LINE
   8
LEVEL003
   6
CONTINUOUS
  62
7
  10
 439.364
  20
 370.618
  30
0.0
  11
 441.171
  21
 372.509
  31
0.0
   0
LINE
   8
LEVEL001
   6
CONTINUOUS
  62
7
  10
 451.361
  20
 370.890
  30
0.0
  11
 461.358
  21
 371.117
  31
0.0
   0
LINE
   8
LEVEL001
   6
CONTINUOUS
  62
7
  10
 441.171
  20
 372.509
  30
0.0
  11
 449.469
  21
 372.697
  31
0.0
   0
LINE
   8
LEVEL001
   6
CONTINUOUS
  62
7
  10
 451.361
  20
 370.890
  30
0.0
  11
 449.469
  21
 372.697
  31
0.0
   0
LINE
   8
LEVEL003
   6
CONTINUOUS
  62
7
  10
 440.635
  20
 314.632
  30
0.0
  11
 442.526
  21
 312.824
  31
0.0
   0
LINE
   8
LEVEL001
   6
CONTINUOUS
  62
7
  10
 442.526
  20
 312.824
  30
0.0
  11
 450.824
  21
 313.013
  31
0.0
   0
LINE
   8
LEVEL001
   6
CONTINUOUS
  62
7
  10
 452.632
  20
 314.904
  30
0.0
  11
 462.629
  21
 315.131
  31
0.0
   0
LINE
   8
LEVEL001
   6
CONTINUOUS
  62
7
  10
 452.632
  20
 314.904
  30
0.0
  11
 450.824
  21
 313.013
  31
0.0
   0
LINE
   8
LEVEL003
   6
CONTINUOUS
  62
7
  10
 462.777
  20
 308.633
  30
0.0
  11
 945.352
  21
 319.588
  31
0.0
   0
LINE
   8
LEVEL003
   6
CONTINUOUS
  62
7
  10
 833.411
  20
 395.067
  30
0.0
  11
 833.320
  21
 399.066
  31
0.0
   0
LINE
   8
LEVEL003
   6
CONTINUOUS
  62
7
  10
 834.297
  20
 400.088
  30
0.0
  11
 857.291
  21
 400.610
  31
0.0
   0
LINE
   8
LEVEL003
   6
CONTINUOUS
  62
7
  10
 834.297
  20
 400.088
  30
0.0
  11
 833.320
  21
 399.066
  31
0.0
   0
LINE
   8
LEVEL003
   6
CONTINUOUS
  62
7
  10
 858.404
  20
 395.634
  30
0.0
  11
 858.313
  21
 399.633
  31
0.0
   0
LINE
   8
LEVEL003
   6
CONTINUOUS
  62
7
  10
 857.291
  20
 400.610
  30
0.0
  11
 858.313
  21
 399.633
  31
0.0
   0
ARC
   8
LEVEL001
   6
CONTINUOUS
  62
7
  10
 942.950
  20
 394.553
  30
0.0
  40
 3.00000
  50
 1.30048
  51
 91.3005
   0
ARC
   8
LEVEL001
   6
CONTINUOUS
  62
7
  10
 948.610
  20
 308.280
  30
0.0
  40
 3.00000
  50
 181.300
  51
 269.582
   0
LINE
   8
LEVEL001
   6
CONTINUOUS
  62
7
  10
 948.588
  20
 305.280
  30
0.0
  11
 985.694
  21
 305.000
  31
0.0
   0
LINE
   8
LEVEL001
   6
CONTINUOUS
  62
7
  10
 985.126
  20
 329.994
  30
0.0
  11
 985.694
  21
 305.000
  31
0.0
   0
LINE
   8
LEVEL003
   6
CONTINUOUS
  62
7
  10
 945.611
  20
 308.211
  30
0.0
  11
 943.650
  21
 394.569
  31
0.0
   0
LINE
   8
LEVEL001
   6
CONTINUOUS
  62
7
  10
 833.320
  20
 399.066
  30
0.0
  11
 858.313
  21
 399.633
  31
0.0
   0
LINE
   8
LEVEL003
   6
CONTINUOUS
  62
7
  10
 464.006
  20
 386.681
  30
0.0
  11
 942.882
  21
 397.552
  31
0.0
   0
LINE
   8
LEVEL001
   6
CONTINUOUS
  62
7
  10
 461.075
  20
 383.614
  30
0.0
  11
 462.777
  21
 308.633
  31
0.0
   0
LINE
   8
LEVEL003
   6
CONTINUOUS
  62
7
  10
 431.366
  20
 370.436
  30
0.0
  11
 439.364
  21
 370.618
  31
0.0
   0
LINE
   8
LEVEL003
   6
CONTINUOUS
  62
7
  10
 432.637
  20
 314.450
  30
0.0
  11
 440.635
  21
 314.632
  31
0.0
   0
LINE
   8
LEVEL001
   6
CONTINUOUS
  62
7
  10
 439.364
  20
 370.618
  30
0.0
  11
 440.635
  21
 314.632
  31
0.0
   0
LINE
   8
LEVEL001
   6
CONTINUOUS
  62
7
  10
 442.526
  20
 312.824
  30
0.0
  11
 441.171
  21
 372.509
  31
0.0
   0
LINE
   8
LEVEL001
   6
CONTINUOUS
  62
7
  10
 449.469
  20
 372.697
  30
0.0
  11
 450.824
  21
 313.013
  31
0.0
   0
LINE
   8
LEVEL001
   6
CONTINUOUS
  62
7
  10
 452.632
  20
 314.904
  30
0.0
  11
 451.361
  21
 370.890
  31
0.0
   0
LINE
   8
LEVEL003
   6
CONTINUOUS
  62
7
  10
 946.449
  20
 372.627
  30
0.0
  11
 950.448
  21
 372.718
  31
0.0
   0
LINE
   8
LEVEL003
   6
CONTINUOUS
  62
7
  10
 950.448
  20
 372.718
  30
0.0
  11
 951.470
  21
 371.740
  31
0.0
   0
LINE
   8
LEVEL003
   6
CONTINUOUS
  62
7
  10
 951.618
  20
 365.242
  30
0.0
  11
 955.617
  21
 365.333
  31
0.0
   0
LINE
   8
LEVEL003
   6
CONTINUOUS
  62
7
  10
 950.122
  20
 453.168
  30
0.0
  11
 950.356
  21
 442.866
  31
0.0
   0
LINE
   8
LEVEL003
   6
CONTINUOUS
  62
7
  10
 950.356
  20
 442.866
  30
0.0
  11
 953.555
  21
 442.939
  31
0.0
   0
LINE
   8
LEVEL003
   6
CONTINUOUS
  62
7
  10
 953.555
  20
 442.939
  30
0.0
  11
 953.321
  21
 453.241
  31
0.0
   0
LINE
   8
LEVEL003
   6
CONTINUOUS
  62
7
  10
 953.321
  20
 453.241
  30
0.0
  11
 950.122
  21
 453.168
  31
0.0
   0
LINE
   8
LEVEL003
   6
CONTINUOUS
  62
7
  10
 951.834
  20
 377.750
  30
0.0
  11
 955.033
  21
 377.823
  31
0.0
   0
LINE
   8
LEVEL001
   6
DASHDOT
  62
1
  10
 965.516
  20
 387.563
  30
0.0
  11
 943.121
  21
 387.055
  31
0.0
   0
LINE
   8
LEVEL003
   6
CONTINUOUS
  62
7
  10
 946.530
  20
 394.640
  30
0.0
  11
 945.972
  21
 393.621
  31
0.0
   0
LINE
   8
LEVEL003
   6
CONTINUOUS
  62
7
  10
 945.972
  20
 393.621
  30
0.0
  11
 946.267
  21
 380.625
  31
0.0
   0
LINE
   8
LEVEL003
   6
CONTINUOUS
  62
7
  10
 946.267
  20
 380.625
  30
0.0
  11
 946.871
  21
 379.633
  31
0.0
   0
LINE
   8
LEVEL003
   6
CONTINUOUS
  62
7
  10
 946.871
  20
 379.633
  30
0.0
  11
 950.708
  21
 379.720
  31
0.0
   0
LINE
   8
LEVEL003
   6
CONTINUOUS
  62
7
  10
 950.708
  20
 379.720
  30
0.0
  11
 951.266
  21
 380.738
  31
0.0
   0
LINE
   8
LEVEL003
   6
CONTINUOUS
  62
7
  10
 951.266
  20
 380.738
  30
0.0
  11
 950.971
  21
 393.735
  31
0.0
   0
LINE
   8
LEVEL003
   6
CONTINUOUS
  62
7
  10
 950.971
  20
 393.735
  30
0.0
  11
 950.368
  21
 394.727
  31
0.0
   0
LINE
   8
LEVEL003
   6
CONTINUOUS
  62
7
  10
 950.368
  20
 394.727
  30
0.0
  11
 946.530
  21
 394.640
  31
0.0
   0
ARC
   8
LEVEL003
   6
CONTINUOUS
  62
7
  10
 952.761
  20
 393.775
  30
0.0
  40
 6.79029
  50
 181.300
  51
 205.165
   0
ARC
   8
LEVEL003
   6
CONTINUOUS
  62
7
  10
 953.056
  20
 380.779
  30
0.0
  40
 6.79029
  50
 157.436
  51
 181.300
   0
ARC
   8
LEVEL003
   6
CONTINUOUS
  62
7
  10
 944.478
  20
 380.584
  30
0.0
  40
 6.79029
  50
 1.30050
  51
 25.1654
   0
ARC
   8
LEVEL003
   6
CONTINUOUS
  62
7
  10
 944.182
  20
 393.581
  30
0.0
  40
 6.79029
  50
 337.436
  51
 1.30045
   0
ARC
   8
LEVEL003
   6
CONTINUOUS
  62
7
  10
 958.536
  20
 387.405
  30
0.0
  40
 12.4194
  50
 163.713
  51
 198.888
   0
ARC
   8
LEVEL003
   6
CONTINUOUS
  62
7
  10
 938.702
  20
 386.955
  30
0.0
  40
 12.4194
  50
 343.713
  51
 18.8884
   0
LINE
   8
LEVEL003
   6
CONTINUOUS
  62
7
  10
 946.615
  20
 390.888
  30
0.0
  11
 950.453
  21
 390.975
  31
0.0
   0
LINE
   8
LEVEL003
   6
CONTINUOUS
  62
7
  10
 946.785
  20
 383.384
  30
0.0
  11
 950.623
  21
 383.471
  31
0.0
   0
LINE
   8
LEVEL003
   6
CONTINUOUS
  62
7
  10
 950.999
  20
 392.485
  30
0.0
  11
 951.499
  21
 392.496
  31
0.0
   0
LINE
   8
LEVEL003
   6
CONTINUOUS
  62
7
  10
 954.698
  20
 392.569
  30
0.0
  11
 955.498
  21
 392.587
  31
0.0
   0
LINE
   8
LEVEL003
   6
CONTINUOUS
  62
7
  10
 951.238
  20
 381.988
  30
0.0
  11
 951.738
  21
 381.999
  31
0.0
   0
LINE
   8
LEVEL003
   6
CONTINUOUS
  62
7
  10
 954.937
  20
 382.072
  30
0.0
  11
 955.737
  21
 382.090
  31
0.0
   0
ARC
   8
LEVEL011
   6
CONTINUOUS
  62
7
  10
 341.032
  20
 428.909
  30
0.0
  40
 2.00000
  50
 121.722
  51
 222.387
   0
LINE
   8
LEVEL011
   6
CONTINUOUS
  62
7
  10
 350.693
  20
 415.357
  30
0.0
  11
 339.555
  21
 427.561
  31
0.0
   0
ARC
   8
LEVEL011
   6
CONTINUOUS
  62
7
  10
 379.415
  20
 366.814
  30
0.0
  40
 75.0000
  50
 105.656
  51
 121.722
   0
LINE
   8
LEVEL011
   6
CONTINUOUS
  62
7
  10
 349.845
  20
 416.286
  30
0.0
  11
 351.050
  21
 424.164
  31
0.0
   0
LINE
   8
LEVEL011
   6
CONTINUOUS
  62
7
  10
 350.693
  20
 415.357
  30
0.0
  11
 368.465
  21
 416.302
  31
0.0
   0
ARC
   8
LEVEL011
   6
CONTINUOUS
  62
7
  10
 361.568
  20
 426.951
  30
0.0
  40
 10.0000
  50
 69.5462
  51
 149.781
   0
CIRCLE
   8
LEVEL011
   6
CONTINUOUS
  62
7
  10
 362.044
  20
 427.878
  30
0.0
  40
 4.00000
   0
ARC
   8
LEVEL011
   6
CONTINUOUS
  62
7
  10
 362.044
  20
 427.878
  30
0.0
  40
 5.00000
  50
 191.142
  51
 138.746
   0
CIRCLE
   8
LEVEL011
   6
CONTINUOUS
  62
7
  10
 362.044
  20
 427.878
  30
0.0
  40
 5.00000
   0
LINE
   8
LEVEL011
   6
DASHDOT
  62
1
  10
 362.577
  20
 417.862
  30
0.0
  11
 361.525
  21
 437.636
  31
0.0
   0
ARC
   8
LEVEL011
   6
CONTINUOUS
  62
7
  10
 356.601
  20
 424.784
  30
0.0
  40
 2.00000
  50
 93.0449
  51
 146.175
   0
ARC
   8
LEVEL011
   6
CONTINUOUS
  62
7
  10
 355.128
  20
 432.989
  30
0.0
  40
 2.00000
  50
 234.176
  51
 323.533
   0
ARC
   8
LEVEL011
   6
CONTINUOUS
  62
7
  10
 356.601
  20
 424.784
  30
0.0
  40
 3.60000
  50
 93.0449
  51
 146.175
   0
ARC
   8
LEVEL011
   6
CONTINUOUS
  62
7
  10
 355.128
  20
 432.989
  30
0.0
  40
 3.60000
  50
 234.176
  51
 323.533
   0
ARC
   8
LEVEL011
   6
CONTINUOUS
  62
7
  10
 362.044
  20
 427.878
  30
0.0
  40
 6.59982
  50
 42.5565
  51
 143.533
   0
LINE
   8
LEVEL011
   6
CONTINUOUS
  62
7
  10
 356.409
  20
 428.379
  30
0.0
  11
 357.073
  21
 428.414
  31
0.0
   0
LINE
   8
LEVEL011
   6
CONTINUOUS
  62
7
  10
 356.494
  20
 426.781
  30
0.0
  11
 357.158
  21
 426.817
  31
0.0
   0
LINE
   8
LEVEL011
   6
DASHDOT
  62
1
  10
 352.058
  20
 427.346
  30
0.0
  11
 378.568
  21
 428.757
  31
0.0
   0
ARC
   8
LEVEL011
   6
CONTINUOUS
  62
7
  10
 351.616
  20
 428.124
  30
0.0
  40
 4.00000
  50
 54.1758
  51
 326.175
   0
ARC
   8
LEVEL011
   6
CONTINUOUS
  62
7
  10
 351.616
  20
 428.124
  30
0.0
  40
 2.40000
  50
 54.1764
  51
 326.175
   0
ARC
   8
LEVEL011
   6
CONTINUOUS
  62
7
  10
 361.568
  20
 426.951
  30
0.0
  40
 10.0000
  50
 159.507
  51
 171.304
   0
LINE
   8
LEVEL011
   6
CONTINUOUS
  62
7
  10
 351.292
  20
 425.746
  30
0.0
  11
 351.708
  21
 428.464
  31
0.0
   0
ARC
   8
LEVEL011
   6
CONTINUOUS
  62
7
  10
 358.366
  20
 441.920
  30
0.0
  40
 3.00000
  50
 285.656
  51
 3.04479
   0
LINE
   8
LEVEL011
   6
CONTINUOUS
  62
7
  10
 363.205
  20
 445.064
  30
0.0
  11
 403.576
  21
 447.211
  31
0.0
   0
LINE
   8
LEVEL011
   6
CONTINUOUS
  62
7
  10
 361.293
  20
 443.360
  30
0.0
  11
 361.361
  21
 442.080
  31
0.0
   0
ARC
   8
LEVEL011
   6
CONTINUOUS
  62
7
  10
 363.312
  20
 443.066
  30
0.0
  40
 2.00000
  50
 93.0449
  51
 183.045
   0
LINE
   8
LEVEL011
   6
DASHDOT
  62
1
  10
 376.984
  20
 417.757
  30
0.0
  11
 395.077
  21
 418.719
  31
0.0
   0
LINE
   8
LEVEL011
   6
DASHDOT
  62
1
  10
 385.758
  20
 405.658
  30
0.0
  11
 384.560
  21
 428.174
  31
0.0
   0
ARC
   8
LEVEL011
   6
CONTINUOUS
  62
7
  10
 406.126
  20
 399.279
  30
0.0
  40
 10.0000
  50
 3.04471
  51
 93.0449
   0
ARC
   8
LEVEL011
   6
CONTINUOUS
  62
7
  10
 406.126
  20
 399.279
  30
0.0
  40
 48.0000
  50
 46.1880
  51
 93.0449
   0
ARC
   8
LEVEL011
   6
CONTINUOUS
  62
7
  10
 453.202
  20
 448.349
  30
0.0
  40
 20.0000
  50
 226.188
  51
 273.045
   0
LINE
   8
LEVEL011
   6
CONTINUOUS
  62
7
  10
 454.264
  20
 428.377
  30
0.0
  11
 488.672
  21
 430.207
  31
0.0
   0
ARC
   8
LEVEL011
   6
CONTINUOUS
  62
7
  10
 437.693
  20
 389.442
  30
0.0
  40
 5.00000
  50
 93.0449
  51
 183.045
   0
ARC
   8
LEVEL011
   6
CONTINUOUS
  62
7
  10
 489.670
  20
 430.260
  30
0.0
  40
 1.00000
  50
 93.0455
  51
 183.044
   0
LINE
   8
LEVEL011
   6
CONTINUOUS
  62
7
  10
 497.160
  20
 430.659
  30
0.0
  11
 496.108
  21
 431.604
  31
0.0
   0
LINE
   8
LEVEL011
   6
CONTINUOUS
  62
7
  10
 489.617
  20
 431.259
  30
0.0
  11
 496.108
  21
 431.604
  31
0.0
   0
ARC
   8
LEVEL011
   6
CONTINUOUS
  62
7
  10
 491.423
  20
 397.307
  30
0.0
  40
 1.00000
  50
 183.046
  51
 273.044
   0
LINE
   8
LEVEL011
   6
CONTINUOUS
  62
7
  10
 498.913
  20
 397.705
  30
0.0
  11
 497.967
  21
 396.654
  31
0.0
   0
LINE
   8
LEVEL011
   6
CONTINUOUS
  62
7
  10
 491.476
  20
 396.308
  30
0.0
  11
 497.967
  21
 396.654
  31
0.0
   0
LINE
   8
LEVEL011
   6
DASHDOT
  62
1
  10
 415.612
  20
 409.798
  30
0.0
  11
 498.036
  21
 414.182
  31
0.0
   0
ARC
   8
LEVEL011
   6
CONTINUOUS
  62
7
  10
 368.996
  20
 406.316
  30
0.0
  40
 10.0000
  50
 36.4120
  51
 93.0449
   0
LINE
   8
LEVEL011
   6
CONTINUOUS
  62
7
  10
 373.762
  20
 434.168
  30
0.0
  11
 371.003
  21
 431.230
  31
0.0
   0
LINE
   8
LEVEL011
   6
CONTINUOUS
  62
7
  10
 372.596
  20
 435.263
  30
0.0
  11
 373.762
  21
 434.168
  31
0.0
   0
LINE
   8
LEVEL011
   6
CONTINUOUS
  62
7
  10
 372.596
  20
 435.263
  30
0.0
  11
 369.837
  21
 432.325
  31
0.0
   0
LINE
   8
LEVEL011
   6
CONTINUOUS
  62
7
  10
 375.283
  20
 429.383
  30
0.0
  11
 375.368
  21
 427.785
  31
0.0
   0
ARC
   8
LEVEL011
   6
CONTINUOUS
  62
7
  10
 368.379
  20
 433.694
  30
0.0
  40
 2.00000
  50
 222.556
  51
 316.807
   0
ARC
   8
LEVEL011
   6
CONTINUOUS
  62
7
  10
 368.379
  20
 433.694
  30
0.0
  40
 3.60000
  50
 222.557
  51
 316.805
   0
LINE
   8
LEVEL011
   6
CONTINUOUS
  62
7
  10
 366.930
  20
 428.939
  30
0.0
  11
 375.283
  21
 429.383
  31
0.0
   0
LINE
   8
LEVEL011
   6
CONTINUOUS
  62
7
  10
 367.015
  20
 427.341
  30
0.0
  11
 375.368
  21
 427.785
  31
0.0
   0
LINE
   8
LEVEL011
   6
CONTINUOUS
  62
7
  10
 365.087
  20
 436.322
  30
0.0
  11
 371.385
  21
 433.973
  31
0.0
   0
LINE
   8
LEVEL011
   6
CONTINUOUS
  62
7
  10
 373.010
  20
 433.367
  30
0.0
  11
 388.586
  21
 427.558
  31
0.0
   0
LINE
   8
LEVEL011
   6
CONTINUOUS
  62
7
  10
 385.623
  20
 408.202
  30
0.0
  11
 405.595
  21
 409.265
  31
0.0
   0
ARC
   8
LEVEL011
   6
CONTINUOUS
  62
7
  10
 385.092
  20
 418.188
  30
0.0
  40
 10.0000
  50
 216.412
  51
 273.045
   0
CIRCLE
   8
LEVEL001
   6
CONTINUOUS
  62
7
  10
 385.092
  20
 418.188
  30
0.0
  40
 5.00000
   0
ARC
   8
LEVEL011
   6
CONTINUOUS
  62
7
  10
 385.092
  20
 418.188
  30
0.0
  40
 10.0000
  50
 8.49756
  51
 69.5463
   0
LINE
   8
LEVEL011
   6
CONTINUOUS
  62
7
  10
 396.607
  20
 408.787
  30
0.0
  11
 394.982
  21
 419.666
  31
0.0
   0
LINE
   8
LEVEL011
   6
CONTINUOUS
  62
7
  10
 497.160
  20
 430.659
  30
0.0
  11
 498.036
  21
 414.182
  31
0.0
   0
LINE
   8
LEVEL011
   6
CONTINUOUS
  62
7
  10
 498.036
  20
 414.182
  30
0.0
  11
 498.913
  21
 397.705
  31
0.0
   0
ARC
   8
LEVEL011
   6
CONTINUOUS
  62
7
  10
 425.603
  20
 403.820
  30
0.0
  40
 10.0000
  50
 218.688
  51
 273.045
   0
ARC
   8
LEVEL011
   6
CONTINUOUS
  62
7
  10
 453.967
  20
 397.317
  30
0.0
  40
 2.00000
  50
 273.045
  51
 1.04497
   0
LINE
   8
LEVEL011
   6
CONTINUOUS
  62
7
  10
 455.808
  20
 406.032
  30
0.0
  11
 455.967
  21
 397.354
  31
0.0
   0
ARC
   8
LEVEL011
   6
CONTINUOUS
  62
7
  10
 452.427
  20
 426.276
  30
0.0
  40
 2.00000
  50
 5.04497
  51
 93.0450
   0
LINE
   8
LEVEL011
   6
CONTINUOUS
  62
7
  10
 454.419
  20
 426.452
  30
0.0
  11
 455.182
  21
 417.806
  31
0.0
   0
ARC
   8
LEVEL011
   6
CONTINUOUS
  62
7
  10
 458.170
  20
 418.070
  30
0.0
  40
 3.00000
  50
 185.045
  51
 273.045
   0
ARC
   8
LEVEL011
   6
CONTINUOUS
  62
7
  10
 458.808
  20
 406.087
  30
0.0
  40
 3.00000
  50
 93.0449
  51
 181.045
   0
LINE
   8
LEVEL011
   6
CONTINUOUS
  62
7
  10
 426.135
  20
 393.834
  30
0.0
  11
 490.425
  21
 397.254
  31
0.0
   0
LINE
   8
LEVEL001
   6
CONTINUOUS
  62
7
  10
 488.672
  20
 430.207
  30
0.0
  11
 490.425
  21
 397.254
  31
0.0
   0
ARC
   8
LEVEL011
   6
CONTINUOUS
  62
7
  10
 418.167
  20
 379.992
  30
0.0
  40
 3.00000
  50
 3.04501
  51
 81.5077
   0
ARC
   8
LEVEL011
   6
CONTINUOUS
  62
7
  10
 432.149
  20
 380.706
  30
0.0
  40
 3.00000
  50
 102.686
  51
 183.045
   0
ARC
   8
LEVEL011
   6
CONTINUOUS
  62
7
  10
 431.051
  20
 385.584
  30
0.0
  40
 2.00000
  50
 282.686
  51
 350.671
   0
LINE
   8
LEVEL011
   6
CONTINUOUS
  62
7
  10
 432.909
  20
 385.253
  30
0.0
  11
 432.700
  21
 389.176
  31
0.0
   0
ARC
   8
LEVEL011
   6
CONTINUOUS
  62
7
  10
 418.906
  20
 384.937
  30
0.0
  40
 2.00000
  50
 183.045
  51
 261.508
   0
LINE
   8
LEVEL011
   6
CONTINUOUS
  62
7
  10
 416.908
  20
 384.831
  30
0.0
  11
 416.112
  21
 399.810
  31
0.0
   0
LINE
   8
LEVEL011
   6
CONTINUOUS
  62
7
  10
 419.012
  20
 382.940
  30
0.0
  11
 431.157
  21
 383.586
  31
0.0
   0
LINE
   8
LEVEL012
   6
DASHDOT
  62
1
  10
 498.036
  20
 414.182
  30
0.0
  11
 1053.98
  21
 443.755
  31
0.0
   0
LINE
   8
LEVEL012
   6
CONTINUOUS
  62
7
  10
 965.094
  20
 425.508
  30
0.0
  11
 963.660
  21
 452.470
  31
0.0
   0
LINE
   8
LEVEL012
   6
CONTINUOUS
  62
7
  10
 963.660
  20
 452.470
  30
0.0
  11
 973.699
  21
 452.002
  31
0.0
   0
LINE
   8
LEVEL012
   6
CONTINUOUS
  62
7
  10
 973.699
  20
 452.002
  30
0.0
  11
 975.027
  21
 427.038
  31
0.0
   0
LINE
   8
LEVEL012
   6
CONTINUOUS
  62
7
  10
 975.027
  20
 427.038
  30
0.0
  11
 965.094
  21
 425.508
  31
0.0
   0
LINE
   8
LEVEL012
   6
CONTINUOUS
  62
7
  10
 1036.94
  20
 430.331
  30
0.0
  11
 1035.61
  21
 455.296
  31
0.0
   0
LINE
   8
LEVEL012
   6
CONTINUOUS
  62
7
  10
 1035.61
  20
 455.296
  30
0.0
  11
 1045.54
  21
 456.825
  31
0.0
   0
LINE
   8
LEVEL012
   6
CONTINUOUS
  62
7
  10
 1045.54
  20
 456.825
  30
0.0
  11
 1046.98
  21
 429.864
  31
0.0
   0
LINE
   8
LEVEL012
   6
CONTINUOUS
  62
7
  10
 1046.98
  20
 429.864
  30
0.0
  11
 1036.94
  21
 430.331
  31
0.0
   0
ARC
   8
LEVEL012
   6
CONTINUOUS
  62
7
  10
 1017.43
  20
 441.811
  30
0.0
  40
 31.8750
  50
 337.987
  51
 28.1026
   0
LINE
   8
LEVEL012
   6
CONTINUOUS
  62
3
  10
 977.032
  20
 426.990
  30
0.0
  11
 975.688
  21
 452.262
  31
0.0
   0
LINE
   8
LEVEL012
   6
CONTINUOUS
  62
3
  10
 975.688
  20
 452.262
  30
0.0
  11
 977.677
  21
 452.522
  31
0.0
   0
LINE
   8
LEVEL012
   6
CONTINUOUS
  62
3
  10
 977.677
  20
 452.522
  30
0.0
  11
 979.037
  21
 426.943
  31
0.0
   0
LINE
   8
LEVEL012
   6
CONTINUOUS
  62
3
  10
 979.037
  20
 426.943
  30
0.0
  11
 977.032
  21
 426.990
  31
0.0
   0
LINE
   8
LEVEL012
   6
CONTINUOUS
  62
3
  10
 973.779
  20
 450.500
  30
0.0
  11
 975.768
  21
 450.760
  31
0.0
   0
LINE
   8
LEVEL012
   6
CONTINUOUS
  62
3
  10
 981.043
  20
 426.895
  30
0.0
  11
 979.666
  21
 452.782
  31
0.0
   0
LINE
   8
LEVEL012
   6
CONTINUOUS
  62
3
  10
 979.666
  20
 452.782
  30
0.0
  11
 981.655
  21
 453.042
  31
0.0
   0
LINE
   8
LEVEL012
   6
CONTINUOUS
  62
3
  10
 981.655
  20
 453.042
  30
0.0
  11
 983.048
  21
 426.848
  31
0.0
   0
LINE
   8
LEVEL012
   6
CONTINUOUS
  62
3
  10
 983.048
  20
 426.848
  30
0.0
  11
 981.043
  21
 426.895
  31
0.0
   0
LINE
   8
LEVEL012
   6
CONTINUOUS
  62
3
  10
 985.054
  20
 426.801
  30
0.0
  11
 983.644
  21
 453.302
  31
0.0
   0
LINE
   8
LEVEL012
   6
CONTINUOUS
  62
3
  10
 983.644
  20
 453.302
  30
0.0
  11
 985.633
  21
 453.561
  31
0.0
   0
LINE
   8
LEVEL012
   6
CONTINUOUS
  62
3
  10
 985.633
  20
 453.561
  30
0.0
  11
 987.059
  21
 426.753
  31
0.0
   0
LINE
   8
LEVEL012
   6
CONTINUOUS
  62
3
  10
 987.059
  20
 426.753
  30
0.0
  11
 985.054
  21
 426.801
  31
0.0
   0
LINE
   8
LEVEL012
   6
CONTINUOUS
  62
3
  10
 989.064
  20
 426.706
  30
0.0
  11
 987.622
  21
 453.821
  31
0.0
   0
LINE
   8
LEVEL012
   6
CONTINUOUS
  62
3
  10
 987.622
  20
 453.821
  30
0.0
  11
 989.611
  21
 454.081
  31
0.0
   0
LINE
   8
LEVEL012
   6
CONTINUOUS
  62
3
  10
 989.611
  20
 454.081
  30
0.0
  11
 991.070
  21
 426.658
  31
0.0
   0
LINE
   8
LEVEL012
   6
CONTINUOUS
  62
3
  10
 991.070
  20
 426.658
  30
0.0
  11
 989.064
  21
 426.706
  31
0.0
   0
LINE
   8
LEVEL012
   6
CONTINUOUS
  62
3
  10
 993.075
  20
 426.611
  30
0.0
  11
 991.600
  21
 454.341
  31
0.0
   0
LINE
   8
LEVEL012
   6
CONTINUOUS
  62
3
  10
 991.600
  20
 454.341
  30
0.0
  11
 993.589
  21
 454.601
  31
0.0
   0
LINE
   8
LEVEL012
   6
CONTINUOUS
  62
3
  10
 993.589
  20
 454.601
  30
0.0
  11
 995.080
  21
 426.564
  31
0.0
   0
LINE
   8
LEVEL012
   6
CONTINUOUS
  62
3
  10
 995.080
  20
 426.564
  30
0.0
  11
 993.075
  21
 426.611
  31
0.0
   0
LINE
   8
LEVEL012
   6
CONTINUOUS
  62
3
  10
 997.086
  20
 426.516
  30
0.0
  11
 995.578
  21
 454.861
  31
0.0
   0
LINE
   8
LEVEL012
   6
CONTINUOUS
  62
3
  10
 995.578
  20
 454.861
  30
0.0
  11
 997.567
  21
 455.121
  31
0.0
   0
LINE
   8
LEVEL012
   6
CONTINUOUS
  62
3
  10
 997.567
  20
 455.121
  30
0.0
  11
 999.091
  21
 426.469
  31
0.0
   0
LINE
   8
LEVEL012
   6
CONTINUOUS
  62
3
  10
 999.091
  20
 426.469
  30
0.0
  11
 997.086
  21
 426.516
  31
0.0
   0
LINE
   8
LEVEL012
   6
CONTINUOUS
  62
3
  10
 1001.10
  20
 426.421
  30
0.0
  11
 999.556
  21
 455.380
  31
0.0
   0
LINE
   8
LEVEL012
   6
CONTINUOUS
  62
3
  10
 999.556
  20
 455.380
  30
0.0
  11
 1001.54
  21
 455.640
  31
0.0
   0
LINE
   8
LEVEL012
   6
CONTINUOUS
  62
3
  10
 1001.54
  20
 455.640
  30
0.0
  11
 1003.10
  21
 426.374
  31
0.0
   0
LINE
   8
LEVEL012
   6
CONTINUOUS
  62
3
  10
 1003.10
  20
 426.374
  30
0.0
  11
 1001.10
  21
 426.421
  31
0.0
   0
LINE
   8
LEVEL012
   6
CONTINUOUS
  62
3
  10
 977.757
  20
 451.020
  30
0.0
  11
 979.746
  21
 451.280
  31
0.0
   0
LINE
   8
LEVEL012
   6
CONTINUOUS
  62
3
  10
 981.735
  20
 451.539
  30
0.0
  11
 983.724
  21
 451.799
  31
0.0
   0
LINE
   8
LEVEL012
   6
CONTINUOUS
  62
3
  10
 985.713
  20
 452.059
  30
0.0
  11
 987.702
  21
 452.319
  31
0.0
   0
LINE
   8
LEVEL012
   6
CONTINUOUS
  62
3
  10
 974.947
  20
 428.540
  30
0.0
  11
 976.952
  21
 428.492
  31
0.0
   0
LINE
   8
LEVEL012
   6
CONTINUOUS
  62
3
  10
 978.958
  20
 428.445
  30
0.0
  11
 980.963
  21
 428.398
  31
0.0
   0
LINE
   8
LEVEL012
   6
CONTINUOUS
  62
3
  10
 982.968
  20
 428.350
  30
0.0
  11
 984.974
  21
 428.303
  31
0.0
   0
LINE
   8
LEVEL012
   6
CONTINUOUS
  62
3
  10
 986.979
  20
 428.255
  30
0.0
  11
 988.984
  21
 428.208
  31
0.0
   0
LINE
   8
LEVEL012
   6
CONTINUOUS
  62
3
  10
 990.990
  20
 428.161
  30
0.0
  11
 992.995
  21
 428.113
  31
0.0
   0
LINE
   8
LEVEL012
   6
CONTINUOUS
  62
3
  10
 995.000
  20
 428.066
  30
0.0
  11
 997.006
  21
 428.019
  31
0.0
   0
LINE
   8
LEVEL012
   6
CONTINUOUS
  62
3
  10
 999.011
  20
 427.971
  30
0.0
  11
 1001.02
  21
 427.924
  31
0.0
   0
LINE
   8
LEVEL012
   6
CONTINUOUS
  62
3
  10
 1013.08
  20
 427.025
  30
0.0
  11
 1011.54
  21
 456.052
  31
0.0
   0
LINE
   8
LEVEL012
   6
CONTINUOUS
  62
3
  10
 1011.54
  20
 456.052
  30
0.0
  11
 1013.54
  21
 455.989
  31
0.0
   0
LINE
   8
LEVEL012
   6
CONTINUOUS
  62
3
  10
 1013.54
  20
 455.989
  30
0.0
  11
 1015.07
  21
 427.301
  31
0.0
   0
LINE
   8
LEVEL012
   6
CONTINUOUS
  62
3
  10
 1015.07
  20
 427.301
  30
0.0
  11
 1013.08
  21
 427.025
  31
0.0
   0
LINE
   8
LEVEL012
   6
CONTINUOUS
  62
3
  10
 1017.06
  20
 427.576
  30
0.0
  11
 1015.55
  21
 455.926
  31
0.0
   0
LINE
   8
LEVEL012
   6
CONTINUOUS
  62
3
  10
 1015.55
  20
 455.926
  30
0.0
  11
 1017.56
  21
 455.863
  31
0.0
   0
LINE
   8
LEVEL012
   6
CONTINUOUS
  62
3
  10
 1017.56
  20
 455.863
  30
0.0
  11
 1019.05
  21
 427.852
  31
0.0
   0
LINE
   8
LEVEL012
   6
CONTINUOUS
  62
3
  10
 1019.05
  20
 427.852
  30
0.0
  11
 1017.06
  21
 427.576
  31
0.0
   0
LINE
   8
LEVEL012
   6
CONTINUOUS
  62
3
  10
 1021.03
  20
 428.127
  30
0.0
  11
 1019.56
  21
 455.800
  31
0.0
   0
LINE
   8
LEVEL012
   6
CONTINUOUS
  62
3
  10
 1019.56
  20
 455.800
  30
0.0
  11
 1021.57
  21
 455.737
  31
0.0
   0
LINE
   8
LEVEL012
   6
CONTINUOUS
  62
3
  10
 1021.57
  20
 455.737
  30
0.0
  11
 1023.02
  21
 428.402
  31
0.0
   0
LINE
   8
LEVEL012
   6
CONTINUOUS
  62
3
  10
 1023.02
  20
 428.402
  30
0.0
  11
 1021.03
  21
 428.127
  31
0.0
   0
LINE
   8
LEVEL012
   6
CONTINUOUS
  62
3
  10
 1025.01
  20
 428.678
  30
0.0
  11
 1023.57
  21
 455.674
  31
0.0
   0
LINE
   8
LEVEL012
   6
CONTINUOUS
  62
3
  10
 1023.57
  20
 455.674
  30
0.0
  11
 1025.58
  21
 455.611
  31
0.0
   0
LINE
   8
LEVEL012
   6
CONTINUOUS
  62
3
  10
 1025.58
  20
 455.611
  30
0.0
  11
 1027.00
  21
 428.953
  31
0.0
   0
LINE
   8
LEVEL012
   6
CONTINUOUS
  62
3
  10
 1027.00
  20
 428.953
  30
0.0
  11
 1025.01
  21
 428.678
  31
0.0
   0
LINE
   8
LEVEL012
   6
CONTINUOUS
  62
3
  10
 1028.99
  20
 429.229
  30
0.0
  11
 1027.59
  21
 455.548
  31
0.0
   0
LINE
   8
LEVEL012
   6
CONTINUOUS
  62
3
  10
 1027.59
  20
 455.548
  30
0.0
  11
 1029.59
  21
 455.485
  31
0.0
   0
LINE
   8
LEVEL012
   6
CONTINUOUS
  62
3
  10
 1029.59
  20
 455.485
  30
0.0
  11
 1030.97
  21
 429.504
  31
0.0
   0
LINE
   8
LEVEL012
   6
CONTINUOUS
  62
3
  10
 1030.97
  20
 429.504
  30
0.0
  11
 1028.99
  21
 429.229
  31
0.0
   0
LINE
   8
LEVEL012
   6
CONTINUOUS
  62
3
  10
 1032.96
  20
 429.780
  30
0.0
  11
 1031.60
  21
 455.422
  31
0.0
   0
LINE
   8
LEVEL012
   6
CONTINUOUS
  62
3
  10
 1031.60
  20
 455.422
  30
0.0
  11
 1033.61
  21
 455.359
  31
0.0
   0
LINE
   8
LEVEL012
   6
CONTINUOUS
  62
3
  10
 1033.61
  20
 455.359
  30
0.0
  11
 1034.95
  21
 430.055
  31
0.0
   0
LINE
   8
LEVEL012
   6
CONTINUOUS
  62
3
  10
 1034.95
  20
 430.055
  30
0.0
  11
 1032.96
  21
 429.780
  31
0.0
   0
LINE
   8
LEVEL012
   6
CONTINUOUS
  62
3
  10
 1022.94
  20
 429.906
  30
0.0
  11
 1024.93
  21
 430.181
  31
0.0
   0
LINE
   8
LEVEL012
   6
CONTINUOUS
  62
3
  10
 1026.92
  20
 430.457
  30
0.0
  11
 1028.91
  21
 430.732
  31
0.0
   0
LINE
   8
LEVEL012
   6
CONTINUOUS
  62
3
  10
 1030.89
  20
 431.008
  30
0.0
  11
 1032.88
  21
 431.283
  31
0.0
   0
LINE
   8
LEVEL012
   6
CONTINUOUS
  62
3
  10
 1034.87
  20
 431.559
  30
0.0
  11
 1036.86
  21
 431.834
  31
0.0
   0
LINE
   8
LEVEL012
   6
CONTINUOUS
  62
3
  10
 1003.02
  20
 427.876
  30
0.0
  11
 1005.03
  21
 427.829
  31
0.0
   0
LINE
   8
LEVEL012
   6
CONTINUOUS
  62
3
  10
 1007.04
  20
 427.702
  30
0.0
  11
 1009.02
  21
 427.977
  31
0.0
   0
LINE
   8
LEVEL012
   6
CONTINUOUS
  62
3
  10
 1011.01
  20
 428.253
  30
0.0
  11
 1013.00
  21
 428.528
  31
0.0
   0
LINE
   8
LEVEL012
   6
CONTINUOUS
  62
3
  10
 1014.99
  20
 428.804
  30
0.0
  11
 1016.98
  21
 429.079
  31
0.0
   0
LINE
   8
LEVEL012
   6
CONTINUOUS
  62
3
  10
 1018.97
  20
 429.355
  30
0.0
  11
 1020.95
  21
 429.630
  31
0.0
   0
LINE
   8
LEVEL012
   6
CONTINUOUS
  62
3
  10
 1004.32
  20
 441.113
  30
0.0
  11
 1003.53
  21
 455.900
  31
0.0
   0
LINE
   8
LEVEL012
   6
CONTINUOUS
  62
3
  10
 1003.53
  20
 455.900
  30
0.0
  11
 1005.52
  21
 456.160
  31
0.0
   0
LINE
   8
LEVEL012
   6
CONTINUOUS
  62
3
  10
 1005.52
  20
 456.160
  30
0.0
  11
 1006.32
  21
 441.220
  31
0.0
   0
LINE
   8
LEVEL012
   6
CONTINUOUS
  62
3
  10
 1008.31
  20
 441.326
  30
0.0
  11
 1007.52
  21
 456.178
  31
0.0
   0
LINE
   8
LEVEL012
   6
CONTINUOUS
  62
3
  10
 1007.52
  20
 456.178
  30
0.0
  11
 1009.53
  21
 456.115
  31
0.0
   0
LINE
   8
LEVEL012
   6
CONTINUOUS
  62
3
  10
 1009.53
  20
 456.115
  30
0.0
  11
 1010.31
  21
 441.432
  31
0.0
   0
LINE
   8
LEVEL012
   6
CONTINUOUS
  62
3
  10
 1004.32
  20
 441.113
  30
0.0
  11
 1005.11
  21
 426.327
  31
0.0
   0
LINE
   8
LEVEL012
   6
CONTINUOUS
  62
3
  10
 1005.11
  20
 426.327
  30
0.0
  11
 1007.11
  21
 426.279
  31
0.0
   0
LINE
   8
LEVEL012
   6
CONTINUOUS
  62
3
  10
 1007.11
  20
 426.279
  30
0.0
  11
 1006.32
  21
 441.220
  31
0.0
   0
LINE
   8
LEVEL012
   6
CONTINUOUS
  62
3
  10
 1008.31
  20
 441.326
  30
0.0
  11
 1009.10
  21
 426.474
  31
0.0
   0
LINE
   8
LEVEL012
   6
CONTINUOUS
  62
3
  10
 1009.10
  20
 426.474
  30
0.0
  11
 1011.09
  21
 426.750
  31
0.0
   0
LINE
   8
LEVEL012
   6
CONTINUOUS
  62
3
  10
 1011.09
  20
 426.750
  30
0.0
  11
 1010.31
  21
 441.432
  31
0.0
   0
LINE
   8
LEVEL012
   6
CONTINUOUS
  62
3
  10
 989.691
  20
 452.579
  30
0.0
  11
 991.680
  21
 452.839
  31
0.0
   0
LINE
   8
LEVEL012
   6
CONTINUOUS
  62
3
  10
 993.669
  20
 453.099
  30
0.0
  11
 995.658
  21
 453.358
  31
0.0
   0
LINE
   8
LEVEL012
   6
CONTINUOUS
  62
3
  10
 997.647
  20
 453.618
  30
0.0
  11
 999.636
  21
 453.878
  31
0.0
   0
LINE
   8
LEVEL012
   6
CONTINUOUS
  62
3
  10
 1001.62
  20
 454.138
  30
0.0
  11
 1003.61
  21
 454.398
  31
0.0
   0
LINE
   8
LEVEL012
   6
CONTINUOUS
  62
3
  10
 1005.60
  20
 454.738
  30
0.0
  11
 1007.60
  21
 454.675
  31
0.0
   0
LINE
   8
LEVEL012
   6
CONTINUOUS
  62
3
  10
 1009.61
  20
 454.612
  30
0.0
  11
 1011.62
  21
 454.549
  31
0.0
   0
LINE
   8
LEVEL012
   6
CONTINUOUS
  62
3
  10
 1013.62
  20
 454.485
  30
0.0
  11
 1015.63
  21
 454.422
  31
0.0
   0
LINE
   8
LEVEL012
   6
CONTINUOUS
  62
3
  10
 1017.64
  20
 454.359
  30
0.0
  11
 1019.64
  21
 454.297
  31
0.0
   0
LINE
   8
LEVEL012
   6
CONTINUOUS
  62
3
  10
 1021.65
  20
 454.233
  30
0.0
  11
 1023.65
  21
 454.170
  31
0.0
   0
LINE
   8
LEVEL012
   6
CONTINUOUS
  62
3
  10
 1025.66
  20
 454.107
  30
0.0
  11
 1027.67
  21
 454.044
  31
0.0
   0
LINE
   8
LEVEL012
   6
CONTINUOUS
  62
3
  10
 1029.67
  20
 453.981
  30
0.0
  11
 1031.68
  21
 453.918
  31
0.0
   0
LINE
   8
LEVEL012
   6
CONTINUOUS
  62
3
  10
 1033.69
  20
 453.855
  30
0.0
  11
 1035.69
  21
 453.792
  31
0.0
   0
LINE
   8
LEVEL012
   6
CONTINUOUS
  62
7
  10
 940.233
  20
 426.939
  30
0.0
  11
 939.091
  21
 448.409
  31
0.0
   0
LINE
   8
LEVEL012
   6
CONTINUOUS
  62
7
  10
 942.833
  20
 429.831
  30
0.0
  11
 941.983
  21
 445.809
  31
0.0
   0
LINE
   8
LEVEL012
   6
CONTINUOUS
  62
7
  10
 497.461
  20
 424.917
  30
0.0
  11
 939.091
  21
 448.409
  31
0.0
   0
LINE
   8
LEVEL012
   6
CONTINUOUS
  62
7
  10
 498.611
  20
 403.447
  30
0.0
  11
 940.233
  21
 426.939
  31
0.0
   0
LINE
   8
LEVEL012
   6
CONTINUOUS
  62
7
  10
 940.233
  20
 426.939
  30
0.0
  11
 942.833
  21
 429.831
  31
0.0
   0
LINE
   8
LEVEL012
   6
CONTINUOUS
  62
7
  10
 942.833
  20
 429.831
  30
0.0
  11
 964.802
  21
 431.000
  31
0.0
   0
ARC
   8
LEVEL001
   6
CONTINUOUS
  62
7
  10
 375.057
  20
 405.457
  30
0.0
  40
 1.00000
  50
 271.300
  51
 1.30047
   0
LINE
   8
LEVEL001
   6
CONTINUOUS
  62
7
  10
 376.056
  20
 405.479
  30
0.0
  11
 375.871
  21
 413.662
  31
0.0
   0
LINE
   8
LEVEL001
   6
CONTINUOUS
  62
7
  10
 398.573
  20
 404.990
  30
0.0
  11
 372.580
  21
 404.400
  31
0.0
   0
ARC
   8
LEVEL001
   6
CONTINUOUS
  62
7
  10
 396.051
  20
 405.933
  30
0.0
  40
 1.00000
  50
 181.300
  51
 271.300
   0
LINE
   8
LEVEL001
   6
CONTINUOUS
  62
7
  10
 395.051
  20
 405.911
  30
0.0
  11
 394.984
  21
 408.895
  31
0.0
   0
LINE
   8
LEVEL001
   6
CONTINUOUS
  62
7
  10
 398.869
  20
 404.707
  30
0.0
  11
 398.573
  21
 404.990
  31
0.0
   0
LINE
   8
LEVEL001
   6
CONTINUOUS
  62
7
  10
 372.297
  20
 404.104
  30
0.0
  11
 372.580
  21
 404.400
  31
0.0
   0
LINE
   8
LEVEL012
   6
CONTINUOUS
  62
7
  10
 953.476
  20
 446.420
  30
0.0
  11
 963.952
  21
 446.977
  31
0.0
   0
LINE
   8
LEVEL012
   6
CONTINUOUS
  62
7
  10
 939.091
  20
 448.409
  30
0.0
  11
 941.983
  21
 445.809
  31
0.0
   0
LINE
   8
LEVEL012
   6
CONTINUOUS
  62
7
  10
 941.983
  20
 445.809
  30
0.0
  11
 950.279
  21
 446.250
  31
0.0
   0
POINT
   8
LEVEL001
  62
7
  10
 368.835
  20
 305.000
  30
0.0
   0
LINE
   8
LEVEL001
   6
CONTINUOUS
  62
7
  10
 837.514
  20
 401.555
  30
0.0
  11
 854.010
  21
 401.929
  31
0.0
   0
LINE
   8
LEVEL050
   6
CONTINUOUS
  62
7
  10
 835.725
  20
 403.265
  30
0.0
  11
 855.720
  21
 403.719
  31
0.0
   0
ARC
   8
LEVEL001
   6
CONTINUOUS
  62
7
  10
 837.989
  20
 401.066
  30
0.0
  40
 0.500000
  50
 91.3005
  51
 231.300
   0
LINE
   8
LEVEL050
   6
CONTINUOUS
  62
7
  10
 835.725
  20
 403.265
  30
0.0
  11
 837.514
  21
 401.555
  31
0.0
   0
LINE
   8
LEVEL001
   6
CONTINUOUS
  62
3
  10
 836.560
  20
 410.536
  30
0.0
  11
 836.725
  21
 403.287
  31
0.0
   0
LINE
   8
LEVEL001
   6
CONTINUOUS
  62
3
  10
 838.049
  20
 411.069
  30
0.0
  11
 838.224
  21
 403.321
  31
0.0
   0
LINE
   8
LEVEL001
   6
CONTINUOUS
  62
3
  10
 839.548
  20
 411.104
  30
0.0
  11
 839.724
  21
 403.356
  31
0.0
   0
ARC
   8
LEVEL050
   6
CONTINUOUS
  62
7
  10
 840.605
  20
 408.627
  30
0.0
  40
 5.00000
  50
 91.3005
  51
 181.300
   0
LINE
   8
LEVEL050
   6
CONTINUOUS
  62
7
  10
 840.491
  20
 413.626
  30
0.0
  11
 850.489
  21
 413.853
  31
0.0
   0
LINE
   8
LEVEL001
   6
CONTINUOUS
  62
3
  10
 841.048
  20
 411.138
  30
0.0
  11
 841.224
  21
 403.390
  31
0.0
   0
LINE
   8
LEVEL001
   6
CONTINUOUS
  62
3
  10
 842.547
  20
 411.172
  30
0.0
  11
 842.723
  21
 403.424
  31
0.0
   0
LINE
   8
LEVEL001
   6
CONTINUOUS
  62
3
  10
 844.047
  20
 411.206
  30
0.0
  11
 844.223
  21
 403.458
  31
0.0
   0
LINE
   8
LEVEL050
   6
CONTINUOUS
  62
7
  10
 835.725
  20
 403.265
  30
0.0
  11
 835.606
  21
 408.513
  31
0.0
   0
ARC
   8
LEVEL001
   6
CONTINUOUS
  62
7
  10
 853.558
  20
 401.419
  30
0.0
  40
 0.500000
  50
 311.300
  51
 91.3005
   0
LINE
   8
LEVEL001
   6
CONTINUOUS
  62
3
  10
 851.545
  20
 411.376
  30
0.0
  11
 851.721
  21
 403.628
  31
0.0
   0
LINE
   8
LEVEL001
   6
CONTINUOUS
  62
3
  10
 853.045
  20
 411.410
  30
0.0
  11
 853.221
  21
 403.662
  31
0.0
   0
ARC
   8
LEVEL050
   6
CONTINUOUS
  62
7
  10
 850.602
  20
 408.854
  30
0.0
  40
 5.00000
  50
 1.30047
  51
 91.3005
   0
LINE
   8
LEVEL001
   6
CONTINUOUS
  62
7
  10
 853.888
  20
 401.043
  30
0.0
  11
 853.292
  21
 400.520
  31
0.0
   0
LINE
   8
LEVEL050
   6
CONTINUOUS
  62
7
  10
 855.720
  20
 403.719
  30
0.0
  11
 854.010
  21
 401.929
  31
0.0
   0
LINE
   8
LEVEL001
   6
CONTINUOUS
  62
3
  10
 847.046
  20
 411.274
  30
0.0
  11
 847.222
  21
 403.526
  31
0.0
   0
LINE
   8
LEVEL001
   6
CONTINUOUS
  62
3
  10
 848.546
  20
 411.308
  30
0.0
  11
 848.722
  21
 403.560
  31
0.0
   0
LINE
   8
LEVEL001
   6
CONTINUOUS
  62
3
  10
 850.045
  20
 411.342
  30
0.0
  11
 850.221
  21
 403.594
  31
0.0
   0
LINE
   8
LEVEL001
   6
CONTINUOUS
  62
3
  10
 854.556
  20
 410.944
  30
0.0
  11
 854.720
  21
 403.696
  31
0.0
   0
LINE
   8
LEVEL050
   6
CONTINUOUS
  62
7
  10
 855.720
  20
 403.719
  30
0.0
  11
 855.601
  21
 408.967
  31
0.0
   0
LINE
   8
LEVEL003
   6
DASHDOT
  62
1
  10
 845.405
  20
 417.460
  30
0.0
  11
 846.134
  21
 385.353
  31
0.0
   0
LINE
   8
LEVEL001
   6
CONTINUOUS
  62
7
  10
 837.676
  20
 400.675
  30
0.0
  11
 838.296
  21
 400.179
  31
0.0
   0
LINE
   8
LEVEL003
   6
CONTINUOUS
  62
7
  10
 944.456
  20
 359.078
  30
0.0
  11
 954.453
  21
 359.305
  31
0.0
   0
LINE
   8
LEVEL003
   6
CONTINUOUS
  62
7
  10
 954.453
  20
 359.305
  30
0.0
  11
 985.126
  21
 329.994
  31
0.0
   0
LINE
   8
LEVEL001
   6
CONTINUOUS
  62
7
  10
 946.755
  20
 359.130
  30
0.0
  11
 945.950
  21
 394.621
  31
0.0
   0
LINE
   8
LEVEL001
   6
CONTINUOUS
  62
7
  10
 950.448
  20
 372.718
  30
0.0
  11
 950.754
  21
 359.221
  31
0.0
   0
LINE
   8
LEVEL003
   6
CONTINUOUS
  62
7
  10
 951.470
  20
 371.740
  30
0.0
  11
 951.754
  21
 359.244
  31
0.0
   0
ARC
   8
LEVEL003
   6
CONTINUOUS
  62
7
  10
 943.941
  20
 354.065
  30
0.0
  40
 22.9282
  50
 345.115
  51
 18.8884
   0
LINE
   8
LEVEL003
   6
CONTINUOUS
  62
7
  10
 955.782
  20
 358.035
  30
0.0
  11
 955.552
  21
 368.189
  31
0.0
   0
LINE
   8
LEVEL003
   6
CONTINUOUS
  62
7
  10
 955.552
  20
 368.189
  30
0.0
  11
 965.478
  21
 368.414
  31
0.0
   0
LINE
   8
LEVEL003
   6
CONTINUOUS
  62
7
  10
 965.478
  20
 368.414
  30
0.0
  11
 966.591
  21
 366.582
  31
0.0
   0
LINE
   8
LEVEL003
   6
CONTINUOUS
  62
7
  10
 966.591
  20
 366.582
  30
0.0
  11
 967.029
  21
 347.287
  31
0.0
   0
ARC
   8
LEVEL011
   6
DASHDOT
  62
1
  10
 412.027
  20
 506.811
  30
0.0
  40
 20.0000
  50
 271.188
  51
 318.045
   0
ARC
   8
LEVEL011
   6
DASHDOT
  62
1
  10
 450.605
  20
 519.808
  30
0.0
  40
 1.00000
  50
 138.045
  51
 228.044
   0
ARC
   8
LEVEL011
   6
DASHDOT
  62
1
  10
 427.086
  20
 490.655
  30
0.0
  40
 2.00000
  50
 50.0450
  51
 138.045
   0
ARC
   8
LEVEL011
   6
DASHDOT
  62
1
  10
 436.951
  20
 488.914
  30
0.0
  40
 3.00000
  50
 230.045
  51
 318.045
   0
ARC
   8
LEVEL011
   6
DASHDOT
  62
1
  10
 445.875
  20
 480.892
  30
0.0
  40
 3.00000
  50
 138.045
  51
 226.045
   0
ARC
   8
LEVEL011
   6
DASHDOT
  62
1
  10
 475.146
  20
 497.746
  30
0.0
  40
 1.00000
  50
 228.046
  51
 318.044
   0
ARC
   8
LEVEL011
   6
DASHDOT
  62
1
  10
 448.653
  20
 471.268
  30
0.0
  40
 2.00000
  50
 318.045
  51
 46.0450
   0
ARC
   8
LEVEL011
   6
DASHDOT
  62
1
  10
 413.437
  20
 438.826
  30
0.0
  40
 48.0000
  50
 91.1880
  51
 138.045
   0
LINE
   8
LEVEL011
   6
DASHDOT
  62
1
  10
 426.901
  20
 493.440
  30
0.0
  11
 449.936
  21
 519.064
  31
0.0
   0
LINE
   8
LEVEL011
   6
DASHDOT
  62
1
  10
 455.619
  20
 525.385
  30
0.0
  11
 454.207
  21
 525.310
  31
0.0
   0
LINE
   8
LEVEL011
   6
DASHDOT
  62
1
  10
 449.861
  20
 520.476
  30
0.0
  11
 454.207
  21
 525.310
  31
0.0
   0
LINE
   8
LEVEL011
   6
DASHDOT
  62
1
  10
 412.707
  20
 452.971
  30
0.0
  11
 467.889
  21
 514.354
  31
0.0
   0
LINE
   8
LEVEL011
   6
DASHDOT
  62
1
  10
 455.619
  20
 525.385
  30
0.0
  11
 467.889
  21
 514.354
  31
0.0
   0
LINE
   8
LEVEL011
   6
DASHDOT
  62
1
  10
 467.889
  20
 514.354
  30
0.0
  11
 480.160
  21
 503.323
  31
0.0
   0
LINE
   8
LEVEL011
   6
DASHDOT
  62
1
  10
 443.793
  20
 478.732
  30
0.0
  11
 450.041
  21
 472.707
  31
0.0
   0
LINE
   8
LEVEL011
   6
DASHDOT
  62
1
  10
 428.371
  20
 492.189
  30
0.0
  11
 435.024
  21
 486.615
  31
0.0
   0
LINE
   8
LEVEL001
   6
DASHDOT
  62
1
  10
 449.936
  20
 519.064
  30
0.0
  11
 474.477
  21
 497.002
  31
0.0
   0
LINE
   8
LEVEL011
   6
DASHDOT
  62
1
  10
 480.160
  20
 503.323
  30
0.0
  11
 480.235
  21
 501.911
  31
0.0
   0
LINE
   8
LEVEL011
   6
DASHDOT
  62
1
  10
 475.889
  20
 497.077
  30
0.0
  11
 480.235
  21
 501.911
  31
0.0
   0
LINE
   8
LEVEL011
   6
DASHDOT
  62
1
  10
 431.436
  20
 449.124
  30
0.0
  11
 474.477
  21
 497.002
  31
0.0
   0
LINE
   8
LEVEL011
   6
DASHDOT
  62
1
  10
 350.713
  20
 440.851
  30
0.0
  11
 377.741
  21
 470.916
  31
0.0
   0
LINE
   8
LEVEL012
   6
DASHDOT
  62
1
  10
 459.892
  20
 521.538
  30
0.0
  11
 490.875
  21
 556.003
  31
0.0
   0
LINE
   8
LEVEL012
   6
DASHDOT
  62
1
  10
 467.889
  20
 514.354
  30
0.0
  11
 498.870
  21
 548.816
  31
0.0
   0
LINE
   8
LEVEL012
   6
DASHDOT
  62
1
  10
 475.887
  20
 507.171
  30
0.0
  11
 506.864
  21
 541.629
  31
0.0
   0
ARC
   8
LEVEL003
   6
CONTINUOUS
  62
3
  10
 371.799
  20
 407.467
  30
0.0
  40
 152.926
  50
 3.04494
  51
 48.0449
   0
LINE
   8
LEVEL003
   6
CONTINUOUS
  62
3
  10
 524.509
  20
 415.590
  30
0.0
  11
 525.668
  21
 427.720
  31
0.0
   0
LINE
   8
LEVEL003
   6
CONTINUOUS
  62
3
  10
 524.509
  20
 415.590
  30
0.0
  11
 521.449
  21
 427.385
  31
0.0
   0
LINE
   8
LEVEL003
   6
CONTINUOUS
  62
3
  10
 474.037
  20
 521.193
  30
0.0
  11
 481.293
  21
 511.404
  31
0.0
   0
LINE
   8
LEVEL003
   6
CONTINUOUS
  62
3
  10
 474.037
  20
 521.193
  30
0.0
  11
 484.204
  21
 514.476
  31
0.0
   0
TEXT
   8
LEVEL003
  62
3
  10
 466.263
  20
 452.390
  30
0.0
  40
 16.0000
   1
約45%%d
   7
STANDARD
  72
2
  11
 514.263
  21
 463.057
  31
0.0
  73
2
   0
LINE
   8
LEVEL003
   6
CONTINUOUS
  62
7
  10
 953.839
  20
 430.417
  30
0.0
  11
 955.033
  21
 377.823
  31
0.0
   0
LINE
   8
LEVEL001
   6
CONTINUOUS
  62
7
  10
 950.642
  20
 430.247
  30
0.0
  11
 951.834
  21
 377.750
  31
0.0
   0
TEXT
   8
LEVEL003
  62
3
  10
 877.229
  20
 499.821
  30
0.0
  40
 16.0000
   1
フック
   7
STANDARD
   0
LINE
   8
LEVEL003
   6
CONTINUOUS
  62
3
  10
 950.122
  20
 453.168
  30
0.0
  11
 929.576
  21
 497.195
  31
0.0
   0
LINE
   8
LEVEL003
   6
CONTINUOUS
  62
3
  10
 929.576
  20
 497.195
  30
0.0
  11
 869.918
  21
 497.195
  31
0.0
   0
LINE
   8
LEVEL003
   6
CONTINUOUS
  62
3
  10
 950.122
  20
 453.168
  30
0.0
  11
 946.965
  21
 464.937
  31
0.0
   0
LINE
   8
LEVEL003
   6
CONTINUOUS
  62
3
  10
 950.122
  20
 453.168
  30
0.0
  11
 943.130
  21
 463.148
  31
0.0
   0
LINE
   8
LEVEL003
   6
CONTINUOUS
  62
3
  10
 1049.54
  20
 456.825
  30
0.0
  11
 1114.43
  21
 456.825
  31
0.0
   0
LINE
   8
LEVEL003
   6
CONTINUOUS
  62
3
  10
 989.694
  20
 305.000
  30
0.0
  11
 1114.43
  21
 305.000
  31
0.0
   0
LINE
   8
LEVEL003
   6
CONTINUOUS
  62
3
  10
 1106.43
  20
 456.825
  30
0.0
  11
 1106.43
  21
 305.000
  31
0.0
   0
LINE
   8
LEVEL003
   6
CONTINUOUS
  62
3
  10
 1106.43
  20
 456.825
  30
0.0
  11
 1104.31
  21
 444.825
  31
0.0
   0
LINE
   8
LEVEL003
   6
CONTINUOUS
  62
3
  10
 1106.43
  20
 456.825
  30
0.0
  11
 1108.55
  21
 444.825
  31
0.0
   0
LINE
   8
LEVEL003
   6
CONTINUOUS
  62
3
  10
 1106.43
  20
 305.000
  30
0.0
  11
 1108.55
  21
 317.000
  31
0.0
   0
LINE
   8
LEVEL003
   6
CONTINUOUS
  62
3
  10
 1106.43
  20
 305.000
  30
0.0
  11
 1104.31
  21
 317.000
  31
0.0
   0
TEXT
   8
LEVEL003
  62
3
  10
 1103.23
  20
 360.913
  30
0.0
  40
 16.0000
   1
約150
  50
 90.0000
   7
STANDARD
  72
1
  11
 1103.23
  21
 380.913
  31
0.0
   0
LINE
   8
LEVEL001
   6
CONTINUOUS
  62
7
  10
 955.459
  20
 394.337
  30
0.0
  11
 957.702
  21
 394.192
  31
0.0
   0
ARC
   8
LEVEL001
   6
CONTINUOUS
  62
7
  10
 957.534
  20
 391.597
  30
0.0
  40
 2.60000
  50
 17.1785
  51
 86.2977
   0
LINE
   8
LEVEL001
   6
CONTINUOUS
  62
7
  10
 955.459
  20
 394.337
  30
0.0
  11
 955.776
  21
 380.340
  31
0.0
   0
LINE
   8
LEVEL001
   6
CONTINUOUS
  62
7
  10
 955.776
  20
 380.340
  30
0.0
  11
 958.010
  21
 380.587
  31
0.0
   0
ARC
   8
LEVEL001
   6
CONTINUOUS
  62
7
  10
 957.725
  20
 383.171
  30
0.0
  40
 2.60000
  50
 276.298
  51
 345.417
   0
ARC
   8
LEVEL001
   6
CONTINUOUS
  62
7
  10
 942.821
  20
 387.049
  30
0.0
  40
 18.0000
  50
 345.417
  51
 17.1785
   0
LINE
   8
LEVEL011
   6
DASHDOT
  62
1
  10
 424.247
  20
 397.479
  30
0.0
  11
 425.530
  21
 373.352
  31
0.0
   0
ARC
   8
LEVEL011
   6
CONTINUOUS
  62
7
  10
 428.391
  20
 376.052
  30
0.0
  40
 1.00000
  50
 273.046
  51
 3.04439
   0
ARC
   8
LEVEL011
   6
CONTINUOUS
  62
7
  10
 422.399
  20
 375.733
  30
0.0
  40
 1.00000
  50
 183.045
  51
 273.045
   0
LINE
   8
LEVEL011
   6
CONTINUOUS
  62
7
  10
 422.453
  20
 374.735
  30
0.0
  11
 428.444
  21
 375.054
  31
0.0
   0
LINE
   8
LEVEL011
   6
CONTINUOUS
  62
7
  10
 421.401
  20
 375.680
  30
0.0
  11
 421.163
  21
 380.152
  31
0.0
   0
LINE
   8
LEVEL011
   6
CONTINUOUS
  62
7
  10
 429.390
  20
 376.105
  30
0.0
  11
 429.153
  21
 380.546
  31
0.0
   0
ARC
   8
LEVEL001
   6
CONTINUOUS
  62
7
  10
 140.356
  20
 340.044
  30
0.0
  40
 2.00000
  50
 250.311
  51
 277.178
   0
LINE
   8
LEVEL001
   6
CONTINUOUS
  62
7
  10
 140.606
  20
 338.060
  30
0.0
  11
 149.007
  21
 339.118
  31
0.0
   0
ARC
   8
LEVEL001
   6
CONTINUOUS
  62
7
  10
 99.1324
  20
 309.167
  30
0.0
  40
 2.00000
  50
 95.0000
  51
 180.000
   0
LINE
   8
LEVEL001
   6
CONTINUOUS
  62
7
  10
 97.1324
  20
 305.000
  30
0.0
  11
 97.1324
  21
 309.167
  31
0.0
   0
LINE
   8
LEVEL001
   6
CONTINUOUS
  62
7
  10
 97.1324
  20
 305.000
  30
0.0
  11
 192.132
  21
 305.000
  31
0.0
   0
ARC
   8
LEVEL001
   6
CONTINUOUS
  62
7
  10
 190.132
  20
 309.167
  30
0.0
  40
 2.00000
  50
 0.162844E-11
  51
 85.0000
   0
LINE
   8
LEVEL001
   6
CONTINUOUS
  62
7
  10
 192.132
  20
 305.000
  30
0.0
  11
 192.132
  21
 309.167
  31
0.0
   0
LINE
   8
LEVEL001
   6
CONTINUOUS
  62
7
  10
 120.132
  20
 403.000
  30
0.0
  11
 121.132
  21
 404.000
  31
0.0
   0
LINE
   8
LEVEL001
   6
CONTINUOUS
  62
7
  10
 121.132
  20
 404.000
  30
0.0
  11
 125.132
  21
 404.000
  31
0.0
   0
LINE
   8
LEVEL001
   6
CONTINUOUS
  62
7
  10
 140.132
  20
 438.000
  30
0.0
  11
 131.132
  21
 437.213
  31
0.0
   0
ARC
   8
LEVEL003
   6
CONTINUOUS
  62
7
  10
 122.632
  20
 408.966
  30
0.0
  40
 1.00000
  50
 180.000
  51
 268.000
   0
ARC
   8
LEVEL003
   6
CONTINUOUS
  62
7
  10
 121.632
  20
 440.000
  30
0.0
  40
 2.00000
  50
 270.000
  51
 0.162844E-9
   0
ARC
   8
LEVEL003
   6
CONTINUOUS
  62
7
  10
 125.632
  20
 443.493
  30
0.0
  40
 2.00000
  50
 92.0000
  51
 180.000
   0
LINE
   8
LEVEL003
   6
CONTINUOUS
  62
7
  10
 125.563
  20
 445.491
  30
0.0
  11
 140.132
  21
 446.000
  31
0.0
   0
ARC
   8
LEVEL003
   6
CONTINUOUS
  62
7
  10
 158.632
  20
 440.000
  30
0.0
  40
 2.00000
  50
 180.000
  51
 270.000
   0
LINE
   8
LEVEL003
   6
CONTINUOUS
  62
7
  10
 140.132
  20
 446.000
  30
0.0
  11
 154.702
  21
 445.491
  31
0.0
   0
ARC
   8
LEVEL003
   6
CONTINUOUS
  62
7
  10
 154.632
  20
 443.493
  30
0.0
  40
 2.00000
  50
0.0
  51
 88.0000
   0
LINE
   8
LEVEL003
   6
CONTINUOUS
  62
7
  10
 125.132
  20
 407.878
  30
0.0
  11
 122.598
  21
 407.967
  31
0.0
   0
LINE
   8
LEVEL001
   6
CONTINUOUS
  62
7
  10
 121.382
  20
 413.000
  30
0.0
  11
 121.632
  21
 413.000
  31
0.0
   0
LINE
   8
LEVEL001
   6
CONTINUOUS
  62
7
  10
 121.382
  20
 413.000
  30
0.0
  11
 120.382
  21
 414.000
  31
0.0
   0
LINE
   8
LEVEL001
   6
CONTINUOUS
  62
7
  10
 163.632
  20
 433.000
  30
0.0
  11
 158.632
  21
 433.000
  31
0.0
   0
LINE
   8
LEVEL001
   6
CONTINUOUS
  62
7
  10
 163.632
  20
 433.000
  30
0.0
  11
 164.632
  21
 432.000
  31
0.0
   0
LINE
   8
LEVEL001
   6
CONTINUOUS
  62
7
  10
 164.632
  20
 432.000
  30
0.0
  11
 164.632
  21
 424.000
  31
0.0
   0
LINE
   8
LEVEL001
   6
CONTINUOUS
  62
7
  10
 164.632
  20
 424.000
  30
0.0
  11
 163.632
  21
 423.000
  31
0.0
   0
LINE
   8
LEVEL001
   6
CONTINUOUS
  62
7
  10
 163.632
  20
 433.000
  30
0.0
  11
 163.632
  21
 423.000
  31
0.0
   0
LINE
   8
LEVEL001
   6
CONTINUOUS
  62
7
  10
 116.632
  20
 433.000
  30
0.0
  11
 121.632
  21
 433.000
  31
0.0
   0
LINE
   8
LEVEL001
   6
CONTINUOUS
  62
7
  10
 116.632
  20
 433.000
  30
0.0
  11
 115.632
  21
 432.000
  31
0.0
   0
LINE
   8
LEVEL001
   6
DASHDOT
  62
1
  10
 161.132
  20
 435.952
  30
0.0
  11
 161.132
  21
 422.374
  31
0.0
   0
LINE
   8
LEVEL001
   6
CONTINUOUS
  62
7
  10
 160.332
  20
 425.375
  30
0.0
  11
 160.332
  21
 431.775
  31
0.0
   0
LINE
   8
LEVEL001
   6
CONTINUOUS
  62
7
  10
 161.932
  20
 431.775
  30
0.0
  11
 161.932
  21
 425.375
  31
0.0
   0
ARC
   8
LEVEL001
   6
CONTINUOUS
  62
7
  10
 161.132
  20
 431.775
  30
0.0
  40
 0.800000
  50
0.0
  51
 180.000
   0
ARC
   8
LEVEL001
   6
CONTINUOUS
  62
7
  10
 161.132
  20
 425.375
  30
0.0
  40
 0.800000
  50
 180.000
  51
0.0
   0
LINE
   8
LEVEL001
   6
CONTINUOUS
  62
7
  10
 160.332
  20
 434.250
  30
0.0
  11
 160.332
  21
 433.000
  31
0.0
   0
LINE
   8
LEVEL001
   6
CONTINUOUS
  62
7
  10
 161.932
  20
 434.250
  30
0.0
  11
 161.932
  21
 433.000
  31
0.0
   0
ARC
   8
LEVEL001
   6
CONTINUOUS
  62
7
  10
 161.132
  20
 434.250
  30
0.0
  40
 0.800000
  50
0.0
  51
 180.000
   0
LINE
   8
LEVEL001
   6
CONTINUOUS
  62
7
  10
 119.932
  20
 434.250
  30
0.0
  11
 119.932
  21
 433.000
  31
0.0
   0
LINE
   8
LEVEL001
   6
CONTINUOUS
  62
7
  10
 118.332
  20
 434.250
  30
0.0
  11
 118.332
  21
 433.000
  31
0.0
   0
ARC
   8
LEVEL001
   6
CONTINUOUS
  62
7
  10
 119.132
  20
 434.250
  30
0.0
  40
 0.800000
  50
0.0
  51
 180.000
   0
LINE
   8
LEVEL001
   6
CONTINUOUS
  62
7
  10
 119.932
  20
 425.375
  30
0.0
  11
 119.932
  21
 431.775
  31
0.0
   0
LINE
   8
LEVEL001
   6
CONTINUOUS
  62
7
  10
 118.332
  20
 431.775
  30
0.0
  11
 118.332
  21
 425.375
  31
0.0
   0
ARC
   8
LEVEL001
   6
CONTINUOUS
  62
7
  10
 119.132
  20
 431.775
  30
0.0
  40
 0.800000
  50
0.0
  51
 180.000
   0
ARC
   8
LEVEL001
   6
CONTINUOUS
  62
7
  10
 119.132
  20
 425.375
  30
0.0
  40
 0.800000
  50
 180.000
  51
0.0
   0
LINE
   8
LEVEL003
   6
CONTINUOUS
  62
7
  10
 149.632
  20
 431.000
  30
0.0
  11
 156.632
  21
 431.000
  31
0.0
   0
LINE
   8
LEVEL001
   6
CONTINUOUS
  62
7
  10
 140.132
  20
 438.000
  30
0.0
  11
 149.632
  21
 437.169
  31
0.0
   0
LINE
   8
LEVEL001
   6
CONTINUOUS
  62
7
  10
 149.632
  20
 440.676
  30
0.0
  11
 156.632
  21
 440.676
  31
0.0
   0
LINE
   8
LEVEL001
   6
CONTINUOUS
  62
7
  10
 123.632
  20
 440.676
  30
0.0
  11
 130.632
  21
 440.676
  31
0.0
   0
LINE
   8
LEVEL001
   6
CONTINUOUS
  62
7
  10
 130.632
  20
 441.000
  30
0.0
  11
 149.632
  21
 441.000
  31
0.0
   0
LINE
   8
LEVEL003
   6
CONTINUOUS
  62
7
  10
 123.632
  20
 431.000
  30
0.0
  11
 130.632
  21
 431.000
  31
0.0
   0
ARC
   8
LEVEL001
   6
CONTINUOUS
  62
7
  10
 127.132
  20
 409.667
  30
0.0
  40
 2.00000
  50
 170.420
  51
 180.000
   0
ARC
   8
LEVEL001
   6
CONTINUOUS
  62
7
  10
 127.132
  20
 409.479
  30
0.0
  40
 2.00000
  50
 170.420
  51
 180.000
   0
ARC
   8
LEVEL001
   6
CONTINUOUS
  62
7
  10
 174.132
  20
 338.167
  30
0.0
  40
 2.00000
  50
 0.156331E-9
  51
 42.0945
   0
LINE
   8
LEVEL001
   6
CONTINUOUS
  62
7
  10
 176.132
  20
 333.000
  30
0.0
  11
 176.132
  21
 338.167
  31
0.0
   0
LINE
   8
LEVEL003
   6
CONTINUOUS
  62
7
  10
 154.330
  20
 326.970
  30
0.0
  11
 139.307
  21
 328.284
  31
0.0
   0
ARC
   8
LEVEL001
   6
CONTINUOUS
  62
7
  10
 174.132
  20
 327.833
  30
0.0
  40
 2.00000
  50
 275.000
  51
 0.162844E-11
   0
ARC
   8
LEVEL001
   6
CONTINUOUS
  62
7
  10
 170.338
  20
 320.474
  30
0.0
  40
 5.00000
  50
 95.0000
  51
 204.492
   0
ARC
   8
LEVEL001
   6
CONTINUOUS
  62
7
  10
 174.888
  20
 322.547
  30
0.0
  40
 10.0000
  50
 161.000
  51
 265.000
   0
ARC
   8
LEVEL001
   6
CONTINUOUS
  62
7
  10
 140.132
  20
 341.000
  30
0.0
  40
 33.5000
  50
 319.210
  51
 332.428
   0
ARC
   8
LEVEL003
   6
CONTINUOUS
  62
7
  10
 153.632
  20
 319.000
  30
0.0
  40
 8.00000
  50
 12.4107
  51
 85.0000
   0
ARC
   8
LEVEL003
   6
CONTINUOUS
  62
7
  10
 171.212
  20
 322.869
  30
0.0
  40
 10.0000
  50
 192.411
  51
 265.000
   0
LINE
   8
LEVEL001
   6
CONTINUOUS
  62
7
  10
 176.132
  20
 327.833
  30
0.0
  11
 176.132
  21
 333.000
  31
0.0
   0
LINE
   8
LEVEL001
   6
CONTINUOUS
  62
7
  10
 174.307
  20
 325.840
  30
0.0
  11
 169.903
  21
 325.455
  31
0.0
   0
LINE
   8
LEVEL001
   6
CONTINUOUS
  62
7
  10
 190.307
  20
 311.160
  30
0.0
  11
 170.340
  21
 312.907
  31
0.0
   0
LINE
   8
LEVEL001
   6
CONTINUOUS
  62
7
  10
 148.132
  20
 320.387
  30
0.0
  11
 150.632
  21
 318.943
  31
0.0
   0
LINE
   8
LEVEL001
   6
CONTINUOUS
  62
7
  10
 150.632
  20
 318.943
  30
0.0
  11
 150.632
  21
 316.057
  31
0.0
   0
LINE
   8
LEVEL001
   6
CONTINUOUS
  62
7
  10
 150.632
  20
 316.057
  30
0.0
  11
 148.132
  21
 314.613
  31
0.0
   0
LINE
   8
LEVEL001
   6
CONTINUOUS
  62
7
  10
 148.132
  20
 314.613
  30
0.0
  11
 145.632
  21
 316.057
  31
0.0
   0
LINE
   8
LEVEL001
   6
CONTINUOUS
  62
7
  10
 145.632
  20
 316.057
  30
0.0
  11
 145.632
  21
 318.943
  31
0.0
   0
LINE
   8
LEVEL001
   6
CONTINUOUS
  62
7
  10
 145.632
  20
 318.943
  30
0.0
  11
 148.132
  21
 320.387
  31
0.0
   0
CIRCLE
   8
LEVEL001
   6
CONTINUOUS
  62
7
  10
 148.132
  20
 317.500
  30
0.0
  40
 4.86400
   0
CIRCLE
   8
LEVEL001
   6
CONTINUOUS
  62
3
  10
 148.132
  20
 317.500
  30
0.0
  40
 4.28300
   0
LINE
   8
LEVEL001
   6
DASHDOT
  62
1
  10
 155.996
  20
 317.500
  30
0.0
  11
 140.268
  21
 317.500
  31
0.0
   0
LINE
   8
LEVEL001
   6
DASHDOT
  62
1
  10
 148.132
  20
 325.364
  30
0.0
  11
 148.132
  21
 309.636
  31
0.0
   0
ARC
   8
LEVEL001
   6
CONTINUOUS
  62
7
  10
 132.132
  20
 319.081
  30
0.0
  40
 5.00000
  50
 275.000
  51
 0.716515E-11
   0
ARC
   8
LEVEL001
   6
CONTINUOUS
  62
7
  10
 112.155
  20
 322.353
  30
0.0
  40
 10.0000
  50
 275.000
  51
 20.0000
   0
ARC
   8
LEVEL001
   6
CONTINUOUS
  62
7
  10
 139.132
  20
 326.292
  30
0.0
  40
 2.00000
  50
 85.0000
  51
 180.000
   0
LINE
   8
LEVEL001
   6
CONTINUOUS
  62
7
  10
 98.9581
  20
 311.160
  30
0.0
  11
 132.568
  21
 314.100
  31
0.0
   0
LINE
   8
LEVEL001
   6
DASHDOT
  62
1
  10
 179.132
  20
 333.000
  30
0.0
  11
 121.145
  21
 333.000
  31
0.0
   0
ARC
   8
LEVEL001
   6
CONTINUOUS
  62
7
  10
 102.829
  20
 377.213
  30
0.0
  40
 2.00000
  50
 110.000
  51
 200.000
   0
ARC
   8
LEVEL001
   6
CONTINUOUS
  62
7
  10
 101.968
  20
 370.807
  30
0.0
  40
 3.00000
  50
 20.0000
  51
 73.1301
   0
ARC
   8
LEVEL001
   6
CONTINUOUS
  62
7
  10
 103.419
  20
 375.592
  30
0.0
  40
 2.00000
  50
 200.000
  51
 253.130
   0
LINE
   8
LEVEL001
   6
CONTINUOUS
  62
7
  10
 100.950
  20
 376.529
  30
0.0
  11
 101.540
  21
 374.908
  31
0.0
   0
ARC
   8
LEVEL001
   6
CONTINUOUS
  62
7
  10
 127.132
  20
 409.668
  30
0.0
  40
 2.00000
  50
 138.216
  51
 180.000
   0
LINE
   8
LEVEL001
   6
CONTINUOUS
  62
7
  10
 125.641
  20
 411.000
  30
0.0
  11
 130.632
  21
 411.000
  31
0.0
   0
LINE
   8
LEVEL001
   6
CONTINUOUS
  62
7
  10
 99.1324
  20
 367.087
  30
0.0
  11
 100.129
  21
 368.175
  31
0.0
   0
LINE
   8
LEVEL001
   6
CONTINUOUS
  62
7
  10
 99.1324
  20
 340.913
  30
0.0
  11
 100.129
  21
 339.825
  31
0.0
   0
LINE
   8
LEVEL001
   6
CONTINUOUS
  62
7
  10
 104.787
  20
 371.833
  30
0.0
  11
 105.934
  21
 368.683
  31
0.0
   0
ARC
   8
LEVEL001
   6
CONTINUOUS
  62
7
  10
 140.132
  20
 341.000
  30
0.0
  40
 33.5000
  50
 182.990
  51
 230.819
   0
ARC
   8
LEVEL001
   6
CONTINUOUS
  62
7
  10
 113.365
  20
 333.648
  30
0.0
  40
 5.00000
  50
 20.0000
  51
 85.0000
   0
POINT
   8
LEVEL001
  62
7
  10
 116.974
  20
 338.352
  30
0.0
   0
LINE
   8
LEVEL001
   6
CONTINUOUS
  62
7
  10
 118.063
  20
 335.358
  30
0.0
  11
 121.552
  21
 325.773
  31
0.0
   0
LINE
   8
LEVEL001
   6
CONTINUOUS
  62
7
  10
 100.129
  20
 339.825
  30
0.0
  11
 132.568
  21
 336.987
  31
0.0
   0
ARC
   8
LEVEL001
   6
CONTINUOUS
  62
7
  10
 132.132
  20
 332.006
  30
0.0
  40
 5.00000
  50
 0.651378E-12
  51
 85.0000
   0
POINT
   8
LEVEL001
  62
7
  10
 137.132
  20
 336.588
  30
0.0
   0
LINE
   8
LEVEL001
   6
CONTINUOUS
  62
7
  10
 137.132
  20
 332.006
  30
0.0
  11
 137.132
  21
 319.081
  31
0.0
   0
LINE
   8
LEVEL001
   6
CONTINUOUS
  62
7
  10
 100.129
  20
 368.175
  30
0.0
  11
 100.129
  21
 339.825
  31
0.0
   0
LINE
   8
LEVEL003
   6
CONTINUOUS
  62
7
  10
 217.632
  20
 360.000
  30
0.0
  11
 215.132
  21
 360.000
  31
0.0
   0
ARC
   8
LEVEL003
   6
CONTINUOUS
  62
7
  10
 213.132
  20
 396.500
  30
0.0
  40
 2.00000
  50
0.0
  51
 90.0000
   0
LINE
   8
LEVEL003
   6
CONTINUOUS
  62
7
  10
 215.132
  20
 360.000
  30
0.0
  11
 215.132
  21
 396.500
  31
0.0
   0
ARC
   8
LEVEL003
   6
CONTINUOUS
  62
7
  10
 67.1324
  20
 396.500
  30
0.0
  40
 2.00000
  50
 90.0000
  51
 180.000
   0
LINE
   8
LEVEL003
   6
CONTINUOUS
  62
7
  10
 217.632
  20
 305.000
  30
0.0
  11
 217.632
  21
 360.000
  31
0.0
   0
LINE
   8
LEVEL003
   6
CONTINUOUS
  62
7
  10
 97.1324
  20
 305.000
  30
0.0
  11
 62.6324
  21
 305.000
  31
0.0
   0
LINE
   8
LEVEL003
   6
CONTINUOUS
  62
7
  10
 217.632
  20
 305.000
  30
0.0
  11
 192.132
  21
 305.000
  31
0.0
   0
LINE
   8
LEVEL003
   6
CONTINUOUS
  62
7
  10
 65.1324
  20
 378.855
  30
0.0
  11
 65.1324
  21
 396.500
  31
0.0
   0
LINE
   8
LEVEL003
   6
CONTINUOUS
  62
7
  10
 83.6324
  20
 400.346
  30
0.0
  11
 106.632
  21
 400.346
  31
0.0
   0
LINE
   8
LEVEL003
   6
CONTINUOUS
  62
7
  10
 83.6324
  20
 400.346
  30
0.0
  11
 82.6324
  21
 399.346
  31
0.0
   0
LINE
   8
LEVEL003
   6
CONTINUOUS
  62
7
  10
 106.632
  20
 400.346
  30
0.0
  11
 107.632
  21
 399.346
  31
0.0
   0
LINE
   8
LEVEL003
   6
CONTINUOUS
  62
7
  10
 82.6324
  20
 399.346
  30
0.0
  11
 107.632
  21
 399.346
  31
0.0
   0
LINE
   8
LEVEL003
   6
CONTINUOUS
  62
7
  10
 82.6324
  20
 397.346
  30
0.0
  11
 82.6324
  21
 399.346
  31
0.0
   0
LINE
   8
LEVEL003
   6
DASHDOT
  62
1
  10
 95.1324
  20
 416.443
  30
0.0
  11
 95.1324
  21
 385.346
  31
0.0
   0
LINE
   8
LEVEL001
   6
CONTINUOUS
  62
7
  10
 86.8824
  20
 401.739
  30
0.0
  11
 103.382
  21
 401.739
  31
0.0
   0
ARC
   8
LEVEL001
   6
CONTINUOUS
  62
7
  10
 102.919
  20
 401.239
  30
0.0
  40
 0.500000
  50
 310.000
  51
 90.0000
   0
LINE
   8
LEVEL050
   6
CONTINUOUS
  62
7
  10
 85.1324
  20
 403.489
  30
0.0
  11
 105.132
  21
 403.489
  31
0.0
   0
LINE
   8
LEVEL050
   6
CONTINUOUS
  62
7
  10
 105.132
  20
 403.489
  30
0.0
  11
 103.382
  21
 401.739
  31
0.0
   0
LINE
   8
LEVEL001
   6
CONTINUOUS
  62
3
  10
 96.6324
  20
 411.239
  30
0.0
  11
 96.6324
  21
 403.489
  31
0.0
   0
LINE
   8
LEVEL001
   6
CONTINUOUS
  62
3
  10
 98.1324
  20
 411.239
  30
0.0
  11
 98.1324
  21
 403.489
  31
0.0
   0
LINE
   8
LEVEL001
   6
CONTINUOUS
  62
3
  10
 99.6324
  20
 411.239
  30
0.0
  11
 99.6324
  21
 403.489
  31
0.0
   0
LINE
   8
LEVEL001
   6
CONTINUOUS
  62
3
  10
 101.132
  20
 411.239
  30
0.0
  11
 101.132
  21
 403.489
  31
0.0
   0
LINE
   8
LEVEL001
   6
CONTINUOUS
  62
3
  10
 102.632
  20
 411.239
  30
0.0
  11
 102.632
  21
 403.489
  31
0.0
   0
LINE
   8
LEVEL001
   6
CONTINUOUS
  62
3
  10
 104.132
  20
 410.739
  30
0.0
  11
 104.132
  21
 403.489
  31
0.0
   0
LINE
   8
LEVEL050
   6
CONTINUOUS
  62
7
  10
 90.1324
  20
 413.739
  30
0.0
  11
 100.132
  21
 413.739
  31
0.0
   0
ARC
   8
LEVEL050
   6
CONTINUOUS
  62
7
  10
 100.132
  20
 408.739
  30
0.0
  40
 5.00000
  50
 0.260551E-11
  51
 90.0000
   0
LINE
   8
LEVEL050
   6
CONTINUOUS
  62
7
  10
 105.132
  20
 403.489
  30
0.0
  11
 105.132
  21
 408.739
  31
0.0
   0
LINE
   8
LEVEL001
   6
CONTINUOUS
  62
7
  10
 103.240
  20
 400.856
  30
0.0
  11
 102.632
  21
 400.346
  31
0.0
   0
ARC
   8
LEVEL001
   6
CONTINUOUS
  62
7
  10
 87.3460
  20
 401.239
  30
0.0
  40
 0.500000
  50
 90.0000
  51
 230.000
   0
LINE
   8
LEVEL050
   6
CONTINUOUS
  62
7
  10
 85.1324
  20
 403.489
  30
0.0
  11
 86.8824
  21
 401.739
  31
0.0
   0
LINE
   8
LEVEL001
   6
CONTINUOUS
  62
3
  10
 86.1324
  20
 410.739
  30
0.0
  11
 86.1324
  21
 403.489
  31
0.0
   0
LINE
   8
LEVEL001
   6
CONTINUOUS
  62
3
  10
 87.6324
  20
 411.239
  30
0.0
  11
 87.6324
  21
 403.489
  31
0.0
   0
LINE
   8
LEVEL001
   6
CONTINUOUS
  62
3
  10
 89.1324
  20
 411.239
  30
0.0
  11
 89.1324
  21
 403.489
  31
0.0
   0
ARC
   8
LEVEL050
   6
CONTINUOUS
  62
7
  10
 90.1324
  20
 408.739
  30
0.0
  40
 5.00000
  50
 90.0000
  51
 180.000
   0
LINE
   8
LEVEL050
   6
CONTINUOUS
  62
7
  10
 85.1324
  20
 403.489
  30
0.0
  11
 85.1324
  21
 408.739
  31
0.0
   0
LINE
   8
LEVEL001
   6
CONTINUOUS
  62
7
  10
 87.0246
  20
 400.856
  30
0.0
  11
 87.6324
  21
 400.346
  31
0.0
   0
LINE
   8
LEVEL001
   6
CONTINUOUS
  62
3
  10
 90.6324
  20
 411.239
  30
0.0
  11
 90.6324
  21
 403.489
  31
0.0
   0
LINE
   8
LEVEL001
   6
CONTINUOUS
  62
3
  10
 92.1324
  20
 411.239
  30
0.0
  11
 92.1324
  21
 403.489
  31
0.0
   0
LINE
   8
LEVEL001
   6
CONTINUOUS
  62
3
  10
 93.6324
  20
 411.239
  30
0.0
  11
 93.6324
  21
 403.489
  31
0.0
   0
ARC
   8
LEVEL003
   6
CONTINUOUS
  62
7
  10
 213.132
  20
 384.594
  30
0.0
  40
 2.00000
  50
0.0
  51
 90.0000
   0
ARC
   8
LEVEL003
   6
CONTINUOUS
  62
7
  10
 67.1324
  20
 384.594
  30
0.0
  40
 2.00000
  50
 90.0000
  51
 180.000
   0
LINE
   8
LEVEL003
   6
CONTINUOUS
  62
7
  10
 82.6324
  20
 398.500
  30
0.0
  11
 67.1324
  21
 398.500
  31
0.0
   0
LINE
   8
LEVEL003
   6
CONTINUOUS
  62
7
  10
 215.332
  20
 360.000
  30
0.0
  11
 215.332
  21
 308.614
  31
0.0
   0
LINE
   8
LEVEL003
   6
CONTINUOUS
  62
7
  10
 64.9324
  20
 329.143
  30
0.0
  11
 64.9324
  21
 308.614
  31
0.0
   0
LINE
   8
LEVEL003
   6
CONTINUOUS
  62
7
  10
 97.1324
  20
 308.614
  30
0.0
  11
 64.9324
  21
 308.614
  31
0.0
   0
LINE
   8
LEVEL003
   6
CONTINUOUS
  62
7
  10
 215.332
  20
 308.614
  30
0.0
  11
 192.132
  21
 308.614
  31
0.0
   0
LINE
   8
LEVEL001
   6
CONTINUOUS
  62
7
  10
 99.1324
  20
 367.087
  30
0.0
  11
 99.1324
  21
 340.913
  31
0.0
   0
ARC
   8
LEVEL003
   6
CONTINUOUS
  62
7
  10
 110.105
  20
 354.000
  30
0.0
  40
 21.9729
  50
 162.412
  51
 197.588
   0
ARC
   8
LEVEL003
   6
CONTINUOUS
  62
7
  10
 100.146
  20
 365.500
  30
0.0
  40
 12.0136
  50
 180.000
  51
 203.865
   0
LINE
   8
LEVEL003
   6
CONTINUOUS
  62
7
  10
 99.1324
  20
 367.279
  30
0.0
  11
 99.1324
  21
 340.721
  31
0.0
   0
LINE
   8
LEVEL003
   6
CONTINUOUS
  62
7
  10
 99.1324
  20
 340.721
  30
0.0
  11
 89.1595
  21
 340.721
  31
0.0
   0
LINE
   8
LEVEL003
   6
CONTINUOUS
  62
7
  10
 89.1595
  20
 340.721
  30
0.0
  11
 88.1324
  21
 342.500
  31
0.0
   0
LINE
   8
LEVEL003
   6
CONTINUOUS
  62
7
  10
 88.1324
  20
 342.500
  30
0.0
  11
 88.1324
  21
 365.500
  31
0.0
   0
LINE
   8
LEVEL003
   6
CONTINUOUS
  62
7
  10
 88.1324
  20
 365.500
  30
0.0
  11
 89.1595
  21
 367.279
  31
0.0
   0
LINE
   8
LEVEL003
   6
CONTINUOUS
  62
7
  10
 89.1595
  20
 367.279
  30
0.0
  11
 99.1324
  21
 367.279
  31
0.0
   0
LINE
   8
LEVEL003
   6
CONTINUOUS
  62
7
  10
 99.1324
  20
 360.640
  30
0.0
  11
 89.1595
  21
 360.640
  31
0.0
   0
ARC
   8
LEVEL003
   6
CONTINUOUS
  62
7
  10
 100.146
  20
 342.500
  30
0.0
  40
 12.0136
  50
 156.135
  51
 180.000
   0
LINE
   8
LEVEL003
   6
CONTINUOUS
  62
7
  10
 99.1324
  20
 347.360
  30
0.0
  11
 89.1595
  21
 347.360
  31
0.0
   0
LINE
   8
LEVEL001
   6
CONTINUOUS
  62
7
  10
 79.5399
  20
 341.792
  30
0.0
  11
 79.5399
  21
 349.000
  31
0.0
   0
LINE
   8
LEVEL001
   6
CONTINUOUS
  62
7
  10
 79.5399
  20
 359.000
  30
0.0
  11
 79.5399
  21
 366.208
  31
0.0
   0
ARC
   8
LEVEL001
   6
CONTINUOUS
  62
7
  10
 72.5399
  20
 336.415
  30
0.0
  40
 3.00000
  50
 98.5311
  51
 179.999
   0
ARC
   8
LEVEL001
   6
CONTINUOUS
  62
7
  10
 60.3154
  20
 331.143
  30
0.0
  40
 2.00000
  50
 188.884
  51
 270.000
   0
LINE
   8
LEVEL001
   6
CONTINUOUS
  62
7
  10
 57.5399
  20
 336.707
  30
0.0
  11
 57.5399
  21
 371.290
  31
0.0
   0
ARC
   8
LEVEL001
   6
CONTINUOUS
  62
7
  10
 206.540
  20
 353.999
  30
0.0
  40
 150.000
  50
 186.620
  51
 188.884
   0
LINE
   8
LEVEL001
   6
CONTINUOUS
  62
7
  10
 68.5399
  20
 329.143
  30
0.0
  11
 60.3154
  21
 329.143
  31
0.0
   0
ARC
   8
LEVEL001
   6
CONTINUOUS
  62
7
  10
 68.5399
  20
 330.143
  30
0.0
  40
 1.00000
  50
 270.000
  51
0.0
   0
LINE
   8
LEVEL001
   6
CONTINUOUS
  62
7
  10
 69.5399
  20
 330.143
  30
0.0
  11
 69.5399
  21
 354.000
  31
0.0
   0
ARC
   8
LEVEL010
   6
CONTINUOUS
  62
7
  10
 68.5399
  20
 341.526
  30
0.0
  40
 1.00000
  50
 270.000
  51
0.0
   0
ARC
   8
LEVEL010
   6
CONTINUOUS
  62
7
  10
 60.3394
  20
 342.526
  30
0.0
  40
 2.00000
  50
 180.000
  51
 270.000
   0
LINE
   8
LEVEL010
   6
CONTINUOUS
  62
7
  10
 57.5399
  20
 350.500
  30
0.0
  11
 58.3491
  21
 342.329
  31
0.0
   0
ARC
   8
LEVEL010
   6
CONTINUOUS
  62
7
  10
 68.5399
  20
 339.526
  30
0.0
  40
 1.00000
  50
0.0
  51
 90.0000
   0
ARC
   8
LEVEL010
   6
CONTINUOUS
  62
7
  10
 60.3394
  20
 338.526
  30
0.0
  40
 2.00000
  50
 90.0000
  51
 180.000
   0
LINE
   8
LEVEL010
   6
CONTINUOUS
  62
7
  10
 68.5399
  20
 340.526
  30
0.0
  11
 60.3394
  21
 340.526
  31
0.0
   0
LINE
   8
LEVEL010
   6
CONTINUOUS
  62
7
  10
 58.3394
  20
 338.526
  30
0.0
  11
 58.3394
  21
 333.025
  31
0.0
   0
LINE
   8
LEVEL010
   6
CONTINUOUS
  62
7
  10
 68.5399
  20
 350.500
  30
0.0
  11
 60.3394
  21
 350.500
  31
0.0
   0
ARC
   8
LEVEL001
   6
CONTINUOUS
  62
7
  10
 72.5399
  20
 371.582
  30
0.0
  40
 3.00000
  50
 179.999
  51
 261.469
   0
ARC
   8
LEVEL001
   6
CONTINUOUS
  62
7
  10
 68.5399
  20
 377.855
  30
0.0
  40
 1.00000
  50
0.0
  51
 90.0000
   0
ARC
   8
LEVEL001
   6
CONTINUOUS
  62
7
  10
 60.3154
  20
 376.855
  30
0.0
  40
 2.00000
  50
 89.9999
  51
 171.117
   0
LINE
   8
LEVEL001
   6
CONTINUOUS
  62
7
  10
 68.5399
  20
 378.855
  30
0.0
  11
 60.3154
  21
 378.855
  31
0.0
   0
ARC
   8
LEVEL001
   6
CONTINUOUS
  62
7
  10
 206.540
  20
 353.999
  30
0.0
  40
 150.000
  50
 171.116
  51
 173.380
   0
LINE
   8
LEVEL001
   6
CONTINUOUS
  62
7
  10
 69.5399
  20
 354.000
  30
0.0
  11
 69.5399
  21
 377.855
  31
0.0
   0
ARC
   8
LEVEL010
   6
CONTINUOUS
  62
7
  10
 68.5399
  20
 366.474
  30
0.0
  40
 1.00000
  50
0.0
  51
 90.0000
   0
ARC
   8
LEVEL010
   6
CONTINUOUS
  62
7
  10
 60.3394
  20
 365.474
  30
0.0
  40
 2.00000
  50
 90.0000
  51
 180.000
   0
LINE
   8
LEVEL010
   6
CONTINUOUS
  62
7
  10
 57.5399
  20
 357.500
  30
0.0
  11
 58.3491
  21
 365.671
  31
0.0
   0
ARC
   8
LEVEL010
   6
CONTINUOUS
  62
7
  10
 68.5399
  20
 368.474
  30
0.0
  40
 1.00000
  50
 270.000
  51
0.0
   0
ARC
   8
LEVEL010
   6
CONTINUOUS
  62
7
  10
 60.3394
  20
 369.474
  30
0.0
  40
 2.00000
  50
 180.000
  51
 270.000
   0
LINE
   8
LEVEL010
   6
CONTINUOUS
  62
7
  10
 68.5399
  20
 367.474
  30
0.0
  11
 60.3394
  21
 367.474
  31
0.0
   0
LINE
   8
LEVEL010
   6
CONTINUOUS
  62
7
  10
 58.3394
  20
 369.474
  30
0.0
  11
 58.3394
  21
 374.975
  31
0.0
   0
LINE
   8
LEVEL010
   6
CONTINUOUS
  62
7
  10
 68.5399
  20
 357.500
  30
0.0
  11
 60.3394
  21
 357.500
  31
0.0
   0
ARC
   8
LEVEL001
   6
CONTINUOUS
  62
7
  10
 77.5399
  20
 365.776
  30
0.0
  40
 2.00000
  50
 0.768312E-3
  51
 81.4689
   0
LINE
   8
LEVEL001
   6
CONTINUOUS
  62
7
  10
 77.8366
  20
 367.754
  30
0.0
  11
 72.0949
  21
 368.615
  31
0.0
   0
LINE
   8
LEVEL001
   6
CONTINUOUS
  62
7
  10
 79.5399
  20
 354.000
  30
0.0
  11
 79.5399
  21
 365.776
  31
0.0
   0
ARC
   8
LEVEL001
   6
CONTINUOUS
  62
7
  10
 77.5399
  20
 342.221
  30
0.0
  40
 2.00000
  50
 278.531
  51
 0.980216E-3
   0
LINE
   8
LEVEL001
   6
CONTINUOUS
  62
7
  10
 77.8366
  20
 340.243
  30
0.0
  11
 72.0949
  21
 339.382
  31
0.0
   0
LINE
   8
LEVEL001
   6
CONTINUOUS
  62
7
  10
 79.5399
  20
 342.221
  30
0.0
  11
 79.5399
  21
 354.000
  31
0.0
   0
ARC
   8
LEVEL001
   6
CONTINUOUS
  62
7
  10
 206.540
  20
 354.000
  30
0.0
  40
 150.000
  50
 170.951
  51
 189.049
   0
LINE
   8
LEVEL001
   6
CONTINUOUS
  62
7
  10
 79.5399
  20
 347.649
  30
0.0
  11
 88.1324
  21
 347.649
  31
0.0
   0
LINE
   8
LEVEL001
   6
CONTINUOUS
  62
7
  10
 79.5399
  20
 360.349
  30
0.0
  11
 88.1324
  21
 360.349
  31
0.0
   0
LINE
   8
LEVEL003
   6
CONTINUOUS
  62
3
  10
 47.9048
  20
 354.000
  30
0.0
  11
 22.1244
  21
 354.000
  31
0.0
   0
LINE
   8
LEVEL003
   6
CONTINUOUS
  62
3
  10
 58.6324
  20
 305.000
  30
0.0
  11
 22.1244
  21
 305.000
  31
0.0
   0
LINE
   8
LEVEL003
   6
CONTINUOUS
  62
3
  10
 30.1244
  20
 354.000
  30
0.0
  11
 30.1244
  21
 305.000
  31
0.0
   0
LINE
   8
LEVEL003
   6
CONTINUOUS
  62
3
  10
 30.1244
  20
 354.000
  30
0.0
  11
 28.0084
  21
 342.000
  31
0.0
   0
LINE
   8
LEVEL003
   6
CONTINUOUS
  62
3
  10
 30.1244
  20
 354.000
  30
0.0
  11
 32.2403
  21
 342.000
  31
0.0
   0
LINE
   8
LEVEL003
   6
CONTINUOUS
  62
3
  10
 30.1244
  20
 305.000
  30
0.0
  11
 32.2403
  21
 317.000
  31
0.0
   0
LINE
   8
LEVEL003
   6
CONTINUOUS
  62
3
  10
 30.1244
  20
 305.000
  30
0.0
  11
 28.0084
  21
 317.000
  31
0.0
   0
TEXT
   8
LEVEL003
  62
3
  10
 26.9244
  20
 321.500
  30
0.0
  40
 16.0000
   1
49
  50
 90.0000
  41
 0.500000
   7
STANDARD
  72
1
  11
 26.9244
  21
 329.500
  31
0.0
   0
LINE
   8
LEVEL003
   6
CONTINUOUS
  62
7
  10
 62.6324
  20
 329.143
  30
0.0
  11
 62.6324
  21
 305.000
  31
0.0
   0
POINT
   8
LEVEL001
  62
7
  10
 140.132
  20
 305.000
  30
0.0
   0
ARC
   8
LEVEL001
   6
CONTINUOUS
  62
7
  10
 137.636
  20
 437.938
  30
0.0
  40
 16.0000
  50
 59.7749
  51
 179.776
   0
ARC
   8
LEVEL001
   6
CONTINUOUS
  62
7
  10
 140.132
  20
 445.048
  30
0.0
  40
 13.5000
  50
 28.0020
  51
 151.998
   0
ARC
   8
LEVEL001
   6
CONTINUOUS
  62
7
  10
 140.132
  20
 442.280
  30
0.0
  40
 15.0000
  50
 12.4300
  51
 147.848
   0
ARC
   8
LEVEL001
   6
CONTINUOUS
  62
7
  10
 140.132
  20
 439.459
  30
0.0
  40
 13.5000
  50
 26.9603
  51
 153.040
   0
ARC
   8
LEVEL001
   6
CONTINUOUS
  62
7
  10
 140.132
  20
 437.426
  30
0.0
  40
 10.7500
  50
 50.8575
  51
 129.143
   0
ARC
   8
LEVEL001
   6
CONTINUOUS
  62
7
  10
 140.132
  20
 438.348
  30
0.0
  40
 11.0127
  50
 41.9835
  51
 138.017
   0
LINE
   8
LEVEL001
   6
CONTINUOUS
  62
7
  10
 105.261
  20
 381.035
  30
0.0
  11
 102.360
  21
 389.005
  31
0.0
   0
ARC
   8
LEVEL001
   6
CONTINUOUS
  62
7
  10
 112.267
  20
 376.136
  30
0.0
  40
 16.2408
  50
 92.4120
  51
 127.588
   0
ARC
   8
LEVEL001
   6
CONTINUOUS
  62
7
  10
 101.762
  20
 380.146
  30
0.0
  40
 8.87961
  50
 86.1351
  51
 110.000
   0
ARC
   8
LEVEL001
   6
CONTINUOUS
  62
7
  10
 99.1080
  20
 387.437
  30
0.0
  40
 8.87961
  50
 290.000
  51
 313.865
   0
LINE
   8
LEVEL003
   6
CONTINUOUS
  62
7
  10
 107.632
  20
 398.840
  30
0.0
  11
 107.632
  21
 399.346
  31
0.0
   0
LINE
   8
LEVEL003
   6
CONTINUOUS
  62
7
  10
 80.6324
  20
 395.346
  30
0.0
  11
 82.6324
  21
 397.346
  31
0.0
   0
LINE
   8
LEVEL003
   6
CONTINUOUS
  62
7
  10
 82.6324
  20
 397.346
  30
0.0
  11
 102.145
  21
 397.346
  31
0.0
   0
LINE
   8
LEVEL003
   6
CONTINUOUS
  62
7
  10
 80.6324
  20
 395.346
  30
0.0
  11
 100.336
  21
 395.346
  31
0.0
   0
LINE
   8
LEVEL003
   6
CONTINUOUS
  62
7
  10
 98.0156
  20
 386.594
  30
0.0
  11
 67.1324
  21
 386.594
  31
0.0
   0
LINE
   8
LEVEL001
   6
CONTINUOUS
  62
3
  10
 336.020
  20
 345.654
  30
0.0
  11
 335.675
  21
 360.874
  31
0.0
   0
LINE
   8
LEVEL001
   6
CONTINUOUS
  62
7
  10
 332.427
  20
 344.603
  30
0.0
  11
 340.419
  21
 345.034
  31
0.0
   0
LINE
   8
LEVEL001
   6
CONTINUOUS
  62
7
  10
 332.037
  20
 361.760
  30
0.0
  11
 340.041
  21
 361.692
  31
0.0
   0
POINT
   8
LEVEL001
  62
7
  10
 340.230
  20
 353.363
  30
0.0
   0
ARC
   8
LEVEL001
   6
CONTINUOUS
  62
7
  10
 331.618
  20
 362.602
  30
0.0
  40
 9.60000
  50
 180.891
  51
 205.575
   0
ARC
   8
LEVEL001
   6
CONTINUOUS
  62
7
  10
 332.046
  20
 343.744
  30
0.0
  40
 9.60000
  50
 157.026
  51
 181.710
   0
ARC
   8
LEVEL001
   6
CONTINUOUS
  62
7
  10
 340.381
  20
 353.367
  30
0.0
  40
 18.1514
  50
 163.712
  51
 198.889
   0
LINE
   8
LEVEL001
   6
CONTINUOUS
  62
7
  10
 322.834
  20
 363.941
  30
0.0
  11
 322.019
  21
 362.452
  31
0.0
   0
LINE
   8
LEVEL001
   6
CONTINUOUS
  62
7
  10
 322.019
  20
 362.452
  30
0.0
  11
 322.450
  21
 343.457
  31
0.0
   0
LINE
   8
LEVEL001
   6
CONTINUOUS
  62
7
  10
 322.450
  20
 343.457
  30
0.0
  11
 323.332
  21
 342.007
  31
0.0
   0
LINE
   8
LEVEL001
   6
CONTINUOUS
  62
7
  10
 323.332
  20
 342.007
  30
0.0
  11
 331.633
  21
 342.196
  31
0.0
   0
LINE
   8
LEVEL001
   6
CONTINUOUS
  62
7
  10
 331.633
  20
 342.196
  30
0.0
  11
 332.448
  21
 343.684
  31
0.0
   0
LINE
   8
LEVEL001
   6
CONTINUOUS
  62
7
  10
 332.448
  20
 343.684
  30
0.0
  11
 332.016
  21
 362.679
  31
0.0
   0
LINE
   8
LEVEL001
   6
CONTINUOUS
  62
7
  10
 332.016
  20
 362.679
  30
0.0
  11
 331.135
  21
 364.129
  31
0.0
   0
LINE
   8
LEVEL001
   6
CONTINUOUS
  62
7
  10
 331.135
  20
 364.129
  30
0.0
  11
 322.834
  21
 363.941
  31
0.0
   0
LINE
   8
LEVEL001
   6
CONTINUOUS
  62
7
  10
 322.958
  20
 358.457
  30
0.0
  11
 331.259
  21
 358.646
  31
0.0
   0
LINE
   8
LEVEL001
   6
CONTINUOUS
  62
7
  10
 323.207
  20
 347.491
  30
0.0
  11
 331.508
  21
 347.679
  31
0.0
   0
LINE
   8
LEVEL001
   6
CONTINUOUS
  62
3
  10
 318.792
  20
 345.263
  30
0.0
  11
 318.446
  21
 360.483
  31
0.0
   0
LINE
   8
LEVEL001
   6
CONTINUOUS
  62
7
  10
 322.429
  20
 344.376
  30
0.0
  11
 314.426
  21
 344.444
  31
0.0
   0
LINE
   8
LEVEL001
   6
CONTINUOUS
  62
7
  10
 322.040
  20
 361.534
  30
0.0
  11
 314.048
  21
 361.102
  31
0.0
   0
POINT
   8
LEVEL001
  62
7
  10
 314.237
  20
 352.773
  30
0.0
   0
LINE
   8
LEVEL001
   6
DASHDOT
  62
1
  10
 345.229
  20
 353.477
  30
0.0
  11
 308.238
  21
 352.637
  31
0.0
   0
ARC
   8
LEVEL001
   6
CONTINUOUS
  62
7
  10
 314.085
  20
 352.770
  30
0.0
  40
 18.1514
  50
 343.712
  51
 18.8886
   0
ARC
   8
LEVEL001
   6
CONTINUOUS
  62
7
  10
 322.849
  20
 343.535
  30
0.0
  40
 9.60000
  50
 0.891294
  51
 25.5747
   0
ARC
   8
LEVEL001
   6
CONTINUOUS
  62
7
  10
 322.421
  20
 362.393
  30
0.0
  40
 9.60000
  50
 337.026
  51
 1.70966
   0
LINE
   8
LEVEL001
   6
CONTINUOUS
  62
3
  10
 314.406
  20
 345.300
  30
0.0
  11
 318.792
  21
 345.263
  31
0.0
   0
LINE
   8
LEVEL001
   6
CONTINUOUS
  62
3
  10
 318.792
  20
 345.263
  30
0.0
  11
 322.429
  21
 344.376
  31
0.0
   0
LINE
   8
LEVEL001
   6
CONTINUOUS
  62
3
  10
 314.067
  20
 360.246
  30
0.0
  11
 318.446
  21
 360.483
  31
0.0
   0
LINE
   8
LEVEL001
   6
CONTINUOUS
  62
3
  10
 318.446
  20
 360.483
  30
0.0
  11
 322.040
  21
 361.534
  31
0.0
   0
LINE
   8
LEVEL001
   6
CONTINUOUS
  62
3
  10
 332.037
  20
 361.760
  30
0.0
  11
 335.675
  21
 360.874
  31
0.0
   0
LINE
   8
LEVEL001
   6
CONTINUOUS
  62
3
  10
 335.675
  20
 360.874
  30
0.0
  11
 340.060
  21
 360.836
  31
0.0
   0
LINE
   8
LEVEL001
   6
CONTINUOUS
  62
3
  10
 332.427
  20
 344.603
  30
0.0
  11
 336.020
  21
 345.654
  31
0.0
   0
LINE
   8
LEVEL001
   6
CONTINUOUS
  62
3
  10
 336.020
  20
 345.654
  30
0.0
  11
 340.400
  21
 345.890
  31
0.0
   0
ARC
   8
LEVEL001
   6
CONTINUOUS
  62
7
  10
 286.166
  20
 428.330
  30
0.0
  40
 4.00000
  50
 26.9898
  51
 91.3011
   0
ARC
   8
LEVEL001
   6
CONTINUOUS
  62
7
  10
 274.564
  20
 428.066
  30
0.0
  40
 4.00000
  50
 91.2999
  51
 155.611
   0
LINE
   8
LEVEL001
   6
CONTINUOUS
  62
7
  10
 286.075
  20
 432.329
  30
0.0
  11
 274.473
  21
 432.065
  31
0.0
   0
ARC
   8
LEVEL001
   6
CONTINUOUS
  62
7
  10
 276.385
  20
 427.241
  30
0.0
  40
 6.00000
  50
 155.612
  51
 181.301
   0
ARC
   8
LEVEL001
   6
CONTINUOUS
  62
7
  10
 284.383
  20
 427.422
  30
0.0
  40
 6.00000
  50
 1.29987
  51
 26.9890
   0
LINE
   8
LEVEL001
   6
CONTINUOUS
  62
7
  10
 290.461
  20
 424.086
  30
0.0
  11
 290.382
  21
 427.558
  31
0.0
   0
LINE
   8
LEVEL001
   6
CONTINUOUS
  62
7
  10
 270.466
  20
 423.632
  30
0.0
  11
 270.387
  21
 427.104
  31
0.0
   0
ARC
   8
LEVEL001
   6
CONTINUOUS
  62
7
  10
 267.258
  20
 385.215
  30
0.0
  40
 1.00000
  50
 271.300
  51
 1.30047
   0
ARC
   8
LEVEL001
   6
CONTINUOUS
  62
7
  10
 267.575
  20
 371.219
  30
0.0
  40
 1.00000
  50
 1.30047
  51
 91.3005
   0
ARC
   8
LEVEL001
   6
CONTINUOUS
  62
7
  10
 307.802
  20
 409.259
  30
0.0
  40
 1.00000
  50
 1.30049
  51
 84.1761
   0
ARC
   8
LEVEL001
   6
CONTINUOUS
  62
7
  10
 308.057
  20
 398.027
  30
0.0
  40
 1.00000
  50
 278.425
  51
 1.30046
   0
ARC
   8
LEVEL001
   6
CONTINUOUS
  62
7
  10
 302.720
  20
 412.793
  30
0.0
  40
 2.00000
  50
 181.300
  51
 264.176
   0
ARC
   8
LEVEL001
   6
CONTINUOUS
  62
7
  10
 303.141
  20
 394.266
  30
0.0
  40
 2.00000
  50
 98.4248
  51
 181.300
   0
LINE
   8
LEVEL001
   6
CONTINUOUS
  62
7
  10
 307.903
  20
 410.254
  30
0.0
  11
 302.517
  21
 410.803
  31
0.0
   0
LINE
   8
LEVEL001
   6
CONTINUOUS
  62
7
  10
 308.203
  20
 397.038
  30
0.0
  11
 302.848
  21
 396.245
  31
0.0
   0
ARC
   8
LEVEL001
   6
CONTINUOUS
  62
7
  10
 324.773
  20
 404.025
  30
0.0
  40
 25.0000
  50
 163.843
  51
 198.758
   0
ARC
   8
LEVEL001
   6
CONTINUOUS
  62
7
  10
 295.262
  20
 394.353
  30
0.0
  40
 1.00000
  50
 271.300
  51
 1.30047
   0
LINE
   8
LEVEL001
   6
CONTINUOUS
  62
7
  10
 296.262
  20
 394.376
  30
0.0
  11
 295.887
  21
 410.872
  31
0.0
   0
ARC
   8
LEVEL001
   6
CONTINUOUS
  62
7
  10
 267.018
  20
 393.712
  30
0.0
  40
 1.00000
  50
 181.300
  51
 271.300
   0
LINE
   8
LEVEL001
   6
CONTINUOUS
  62
7
  10
 295.285
  20
 393.353
  30
0.0
  11
 267.041
  21
 392.712
  31
0.0
   0
LINE
   8
LEVEL001
   6
CONTINUOUS
  62
7
  10
 266.019
  20
 393.689
  30
0.0
  11
 265.644
  21
 410.185
  31
0.0
   0
ARC
   8
LEVEL001
   6
CONTINUOUS
  62
7
  10
 280.075
  20
 440.940
  30
0.0
  40
 50.0000
  50
 254.715
  51
 287.886
   0
LINE
   8
LEVEL001
   6
CONTINUOUS
  62
7
  10
 265.668
  20
 414.687
  30
0.0
  11
 265.770
  21
 410.188
  31
0.0
   0
LINE
   8
LEVEL001
   6
CONTINUOUS
  62
7
  10
 295.660
  20
 415.368
  30
0.0
  11
 295.762
  21
 410.869
  31
0.0
   0
ARC
   8
LEVEL001
   6
CONTINUOUS
  62
7
  10
 293.967
  20
 407.327
  30
0.0
  40
 1.00000
  50
 1.30047
  51
 91.3005
   0
ARC
   8
LEVEL001
   6
CONTINUOUS
  62
7
  10
 294.104
  20
 401.329
  30
0.0
  40
 1.00000
  50
 271.300
  51
 1.30047
   0
LINE
   8
LEVEL001
   6
CONTINUOUS
  62
7
  10
 295.103
  20
 401.351
  30
0.0
  11
 294.967
  21
 407.350
  31
0.0
   0
ARC
   8
LEVEL001
   6
CONTINUOUS
  62
7
  10
 267.859
  20
 400.733
  30
0.0
  40
 1.00000
  50
 181.300
  51
 271.300
   0
ARC
   8
LEVEL001
   6
CONTINUOUS
  62
7
  10
 267.723
  20
 406.731
  30
0.0
  40
 1.00000
  50
 91.3005
  51
 181.300
   0
LINE
   8
LEVEL001
   6
CONTINUOUS
  62
7
  10
 293.945
  20
 408.327
  30
0.0
  11
 267.700
  21
 407.731
  31
0.0
   0
LINE
   8
LEVEL001
   6
CONTINUOUS
  62
7
  10
 266.860
  20
 400.710
  30
0.0
  11
 266.723
  21
 406.709
  31
0.0
   0
ARC
   8
LEVEL001
   6
CONTINUOUS
  62
7
  10
 264.439
  20
 411.158
  30
0.0
  40
 1.00000
  50
 181.300
  51
 271.300
   0
LINE
   8
LEVEL001
   6
CONTINUOUS
  62
7
  10
 263.439
  20
 411.135
  30
0.0
  11
 263.360
  21
 414.634
  31
0.0
   0
ARC
   8
LEVEL001
   6
CONTINUOUS
  62
7
  10
 297.047
  20
 411.898
  30
0.0
  40
 1.00000
  50
 271.300
  51
 1.30047
   0
LINE
   8
LEVEL001
   6
CONTINUOUS
  62
7
  10
 298.047
  20
 411.921
  30
0.0
  11
 297.968
  21
 415.420
  31
0.0
   0
LINE
   8
LEVEL001
   6
CONTINUOUS
  62
7
  10
 297.070
  20
 410.899
  30
0.0
  11
 264.462
  21
 410.158
  31
0.0
   0
TEXT
   8
LEVEL001
  62
7
  10
 288.480
  20
 401.201
  30
0.0
  40
 6.00000
   1
Ｂ
  50
 1.30047
  41
 0.833333
   7
STANDARD
  72
1
  11
 290.979
  21
 401.258
  31
0.0
   0
TEXT
   8
LEVEL001
  62
7
  10
 278.482
  20
 400.974
  30
0.0
  40
 6.00000
   1
Ｎ
  50
 1.30047
  41
 0.833333
   7
STANDARD
  72
1
  11
 280.981
  21
 401.031
  31
0.0
   0
TEXT
   8
LEVEL001
  62
7
  10
 268.485
  20
 400.747
  30
0.0
  40
 6.00000
   1
Ａ
  50
 1.30047
  41
 0.833333
   7
STANDARD
  72
1
  11
 270.984
  21
 400.804
  31
0.0
   0
ARC
   8
LEVEL001
   6
CONTINUOUS
  62
7
  10
 275.903
  20
 382.411
  30
0.0
  40
 2.00000
  50
 91.3005
  51
 181.300
   0
LINE
   8
LEVEL001
   6
CONTINUOUS
  62
7
  10
 275.857
  20
 384.410
  30
0.0
  11
 286.855
  21
 384.660
  31
0.0
   0
ARC
   8
LEVEL001
   6
CONTINUOUS
  62
7
  10
 286.900
  20
 382.660
  30
0.0
  40
 2.00000
  50
 1.30047
  51
 91.3005
   0
LINE
   8
LEVEL001
   6
CONTINUOUS
  62
7
  10
 288.899
  20
 382.706
  30
0.0
  11
 289.081
  21
 374.708
  31
0.0
   0
ARC
   8
LEVEL001
   6
CONTINUOUS
  62
7
  10
 287.081
  20
 374.662
  30
0.0
  40
 2.00000
  50
 271.300
  51
 1.30047
   0
LINE
   8
LEVEL001
   6
CONTINUOUS
  62
7
  10
 287.127
  20
 372.663
  30
0.0
  11
 276.130
  21
 372.413
  31
0.0
   0
ARC
   8
LEVEL001
   6
CONTINUOUS
  62
7
  10
 276.084
  20
 374.413
  30
0.0
  40
 2.00000
  50
 181.300
  51
 271.300
   0
LINE
   8
LEVEL001
   6
CONTINUOUS
  62
7
  10
 274.085
  20
 374.367
  30
0.0
  11
 273.903
  21
 382.365
  31
0.0
   0
CIRCLE
   8
LEVEL001
   6
CONTINUOUS
  62
7
  10
 279.786
  20
 379.146
  30
0.0
  40
 1.85185
   0
LINE
   8
LEVEL001
   6
CONTINUOUS
  62
7
  10
 283.379
  20
 381.080
  30
0.0
  11
 281.119
  21
 376.954
  31
0.0
   0
LINE
   8
LEVEL001
   6
CONTINUOUS
  62
7
  10
 281.119
  20
 376.954
  30
0.0
  11
 276.416
  21
 376.847
  31
0.0
   0
LINE
   8
LEVEL001
   6
CONTINUOUS
  62
7
  10
 276.416
  20
 376.847
  30
0.0
  11
 275.903
  21
 375.909
  31
0.0
   0
LINE
   8
LEVEL001
   6
CONTINUOUS
  62
7
  10
 275.903
  20
 375.909
  30
0.0
  11
 284.309
  21
 376.100
  31
0.0
   0
LINE
   8
LEVEL001
   6
CONTINUOUS
  62
7
  10
 284.309
  20
 376.100
  30
0.0
  11
 287.081
  21
 381.164
  31
0.0
   0
LINE
   8
LEVEL001
   6
CONTINUOUS
  62
7
  10
 287.081
  20
 381.164
  30
0.0
  11
 283.379
  21
 381.080
  31
0.0
   0
ARC
   8
LEVEL001
   6
CONTINUOUS
  62
7
  10
 280.696
  20
 413.598
  30
0.0
  40
 5.00000
  50
 46.3000
  51
 136.301
   0
ARC
   8
LEVEL001
   6
CONTINUOUS
  62
7
  10
 276.580
  20
 412.434
  30
0.0
  40
 1.00000
  50
 181.300
  51
 271.300
   0
ARC
   8
LEVEL001
   6
CONTINUOUS
  62
7
  10
 284.860
  20
 412.622
  30
0.0
  40
 1.00000
  50
 271.300
  51
 1.30047
   0
LINE
   8
LEVEL001
   6
CONTINUOUS
  62
7
  10
 276.603
  20
 411.434
  30
0.0
  11
 284.883
  21
 411.622
  31
0.0
   0
ARC
   8
LEVEL001
   6
CONTINUOUS
  62
7
  10
 277.531
  20
 414.628
  30
0.0
  40
 2.00000
  50
 136.299
  51
 181.301
   0
LINE
   8
LEVEL001
   6
CONTINUOUS
  62
7
  10
 275.531
  20
 414.582
  30
0.0
  11
 275.581
  21
 412.411
  31
0.0
   0
LINE
   8
LEVEL001
   6
CONTINUOUS
  62
7
  10
 276.085
  20
 416.009
  30
0.0
  11
 277.081
  21
 417.052
  31
0.0
   0
ARC
   8
LEVEL001
   6
CONTINUOUS
  62
7
  10
 283.811
  20
 414.770
  30
0.0
  40
 2.00000
  50
 1.29951
  51
 46.2992
   0
LINE
   8
LEVEL001
   6
CONTINUOUS
  62
7
  10
 285.193
  20
 416.216
  30
0.0
  11
 284.151
  21
 417.212
  31
0.0
   0
LINE
   8
LEVEL001
   6
CONTINUOUS
  62
7
  10
 285.811
  20
 414.816
  30
0.0
  11
 285.860
  21
 412.645
  31
0.0
   0
LINE
   8
LEVEL001
   6
CONTINUOUS
  62
7
  10
 272.995
  20
 400.349
  30
0.0
  11
 288.991
  21
 400.713
  31
0.0
   0
LINE
   8
LEVEL001
   6
CONTINUOUS
  62
7
  10
 289.161
  20
 393.214
  30
0.0
  11
 288.991
  21
 400.713
  31
0.0
   0
LINE
   8
LEVEL001
   6
CONTINUOUS
  62
7
  10
 288.991
  20
 400.713
  30
0.0
  11
 288.114
  21
 401.193
  31
0.0
   0
LINE
   8
LEVEL001
   6
CONTINUOUS
  62
7
  10
 288.114
  20
 401.193
  30
0.0
  11
 273.849
  21
 400.869
  31
0.0
   0
LINE
   8
LEVEL001
   6
CONTINUOUS
  62
7
  10
 273.849
  20
 400.869
  30
0.0
  11
 272.995
  21
 400.349
  31
0.0
   0
LINE
   8
LEVEL001
   6
CONTINUOUS
  62
7
  10
 272.995
  20
 400.349
  30
0.0
  11
 273.165
  21
 392.851
  31
0.0
   0
LINE
   8
LEVEL001
   6
CONTINUOUS
  62
7
  10
 294.126
  20
 400.329
  30
0.0
  11
 289.002
  21
 400.213
  31
0.0
   0
LINE
   8
LEVEL001
   6
CONTINUOUS
  62
7
  10
 273.006
  20
 399.850
  30
0.0
  11
 267.882
  21
 399.733
  31
0.0
   0
LINE
   8
LEVEL001
   6
CONTINUOUS
  62
7
  10
 301.759
  20
 366.994
  30
0.0
  11
 261.770
  21
 366.086
  31
0.0
   0
ARC
   8
LEVEL001
   6
CONTINUOUS
  62
7
  10
 257.372
  20
 339.479
  30
0.0
  40
 1.00000
  50
 181.300
  51
 271.300
   0
ARC
   8
LEVEL001
   6
CONTINUOUS
  62
7
  10
 256.828
  20
 363.473
  30
0.0
  40
 1.00000
  50
 91.3005
  51
 181.300
   0
LINE
   8
LEVEL001
   6
CONTINUOUS
  62
7
  10
 256.373
  20
 339.456
  30
0.0
  11
 255.828
  21
 363.450
  31
0.0
   0
POINT
   8
LEVEL001
  62
7
  10
 256.100
  20
 351.453
  30
0.0
   0
ARC
   8
LEVEL001
   6
CONTINUOUS
  62
7
  10
 302.770
  20
 366.516
  30
0.0
  40
 1.00000
  50
 181.300
  51
 271.300
   0
ARC
   8
LEVEL001
   6
CONTINUOUS
  62
7
  10
 303.406
  20
 338.524
  30
0.0
  40
 1.00000
  50
 91.3005
  51
 181.300
   0
ARC
   8
LEVEL001
   6
CONTINUOUS
  62
7
  10
 313.358
  20
 340.750
  30
0.0
  40
 1.00000
  50
 271.300
  51
 1.30047
   0
ARC
   8
LEVEL001
   6
CONTINUOUS
  62
7
  10
 312.813
  20
 364.744
  30
0.0
  40
 1.00000
  50
 1.30047
  51
 91.3005
   0
LINE
   8
LEVEL001
   6
CONTINUOUS
  62
7
  10
 314.358
  20
 340.773
  30
0.0
  11
 313.813
  21
 364.767
  31
0.0
   0
LINE
   8
LEVEL001
   6
CONTINUOUS
  62
7
  10
 303.383
  20
 339.523
  30
0.0
  11
 313.381
  21
 339.750
  31
0.0
   0
LINE
   8
LEVEL001
   6
CONTINUOUS
  62
7
  10
 302.793
  20
 365.517
  30
0.0
  11
 312.791
  21
 365.744
  31
0.0
   0
POINT
   8
LEVEL001
  62
7
  10
 314.085
  20
 352.770
  30
0.0
   0
LINE
   8
LEVEL001
   6
DASHDOT
  62
1
  10
 256.100
  20
 351.453
  30
0.0
  11
 271.096
  21
 351.794
  31
0.0
   0
LINE
   8
LEVEL001
   6
DASHDOT
  62
1
  10
 280.142
  20
 438.021
  30
0.0
  11
 282.525
  21
 333.048
  31
0.0
   0
POINT
   8
LEVEL001
  62
7
  10
 306.087
  20
 352.588
  30
0.0
   0
LINE
   8
LEVEL001
   6
DASHDOT
  62
1
  10
 314.085
  20
 352.770
  30
0.0
  11
 292.091
  21
 352.270
  31
0.0
   0
ARC
   8
LEVEL001
   6
CONTINUOUS
  62
7
  10
 270.495
  20
 365.784
  30
0.0
  40
 1.00000
  50
 271.300
  51
 1.30047
   0
ARC
   8
LEVEL001
   6
CONTINUOUS
  62
7
  10
 271.131
  20
 337.791
  30
0.0
  40
 1.00000
  50
 1.30047
  51
 91.3005
   0
LINE
   8
LEVEL001
   6
CONTINUOUS
  62
7
  10
 271.108
  20
 338.791
  30
0.0
  11
 257.395
  21
 338.479
  31
0.0
   0
LINE
   8
LEVEL001
   6
CONTINUOUS
  62
7
  10
 270.518
  20
 364.784
  30
0.0
  11
 256.805
  21
 364.473
  31
0.0
   0
ARC
   8
LEVEL001
   6
CONTINUOUS
  62
7
  10
 260.781
  20
 365.563
  30
0.0
  40
 1.00000
  50
 271.300
  51
 1.30047
   0
ARC
   8
LEVEL001
   6
CONTINUOUS
  62
7
  10
 261.417
  20
 337.570
  30
0.0
  40
 1.00000
  50
 1.30047
  51
 91.3005
   0
LINE
   8
LEVEL001
   6
CONTINUOUS
  62
7
  10
 261.781
  20
 365.586
  30
0.0
  11
 261.633
  21
 372.084
  31
0.0
   0
ARC
   8
LEVEL001
   6
CONTINUOUS
  62
7
  10
 271.949
  20
 419.821
  30
0.0
  40
 4.00000
  50
 123.830
  51
 173.170
   0
LINE
   8
LEVEL001
   6
CONTINUOUS
  62
7
  10
 266.769
  20
 410.211
  30
0.0
  11
 267.977
  21
 420.296
  31
0.0
   0
ARC
   8
LEVEL001
   6
CONTINUOUS
  62
7
  10
 289.152
  20
 420.211
  30
0.0
  40
 4.00000
  50
 9.43094
  51
 58.7722
   0
LINE
   8
LEVEL001
   6
CONTINUOUS
  62
7
  10
 294.762
  20
 410.846
  30
0.0
  11
 293.098
  21
 420.867
  31
0.0
   0
ARC
   8
LEVEL001
   6
CONTINUOUS
  62
7
  10
 280.857
  20
 406.529
  30
0.0
  40
 20.0000
  50
 58.7713
  51
 123.830
   0
LINE
   8
LEVEL001
   6
CONTINUOUS
  62
7
  10
 295.367
  20
 410.860
  30
0.0
  11
 295.265
  21
 415.359
  31
0.0
   0
LINE
   8
LEVEL001
   6
CONTINUOUS
  62
7
  10
 295.265
  20
 415.359
  30
0.0
  11
 300.659
  21
 415.481
  31
0.0
   0
LINE
   8
LEVEL001
   6
CONTINUOUS
  62
7
  10
 300.659
  20
 415.481
  30
0.0
  11
 300.721
  21
 412.747
  31
0.0
   0
LINE
   8
LEVEL001
   6
CONTINUOUS
  62
7
  10
 266.164
  20
 410.197
  30
0.0
  11
 266.062
  21
 414.696
  31
0.0
   0
LINE
   8
LEVEL001
   6
CONTINUOUS
  62
7
  10
 266.062
  20
 414.696
  30
0.0
  11
 260.669
  21
 414.573
  31
0.0
   0
LINE
   8
LEVEL001
   6
CONTINUOUS
  62
7
  10
 260.669
  20
 414.573
  30
0.0
  11
 261.361
  21
 384.081
  31
0.0
   0
LINE
   8
LEVEL001
   6
CONTINUOUS
  62
7
  10
 267.280
  20
 384.216
  30
0.0
  11
 260.861
  21
 384.070
  31
0.0
   0
LINE
   8
LEVEL001
   6
CONTINUOUS
  62
7
  10
 260.861
  20
 384.070
  30
0.0
  11
 261.134
  21
 372.073
  31
0.0
   0
LINE
   8
LEVEL001
   6
CONTINUOUS
  62
7
  10
 261.134
  20
 372.073
  30
0.0
  11
 267.553
  21
 372.219
  31
0.0
   0
LINE
   8
LEVEL001
   6
CONTINUOUS
  62
7
  10
 262.416
  20
 337.593
  30
0.0
  11
 302.406
  21
 338.501
  31
0.0
   0
LINE
   8
LEVEL001
   6
CONTINUOUS
  62
7
  10
 302.406
  20
 338.501
  30
0.0
  11
 301.141
  21
 394.221
  31
0.0
   0
LINE
   8
LEVEL001
   6
CONTINUOUS
  62
7
  10
 308.801
  20
 409.282
  30
0.0
  11
 309.056
  21
 398.050
  31
0.0
   0
LINE
   8
LEVEL001
   6
CONTINUOUS
  62
7
  10
 139.683
  20
 338.161
  30
0.0
  11
 134.543
  21
 340.000
  31
0.0
   0
LINE
   8
LEVEL001
   6
CONTINUOUS
  62
7
  10
 102.145
  20
 379.093
  30
0.0
  11
 113.132
  21
 383.092
  31
0.0
   0
ARC
   8
LEVEL001
   6
CONTINUOUS
  62
7
  10
 133.132
  20
 425.000
  30
0.0
  40
 3.00000
  50
 10.4971
  51
 90.0000
   0
LINE
   8
LEVEL003
   6
CONTINUOUS
  62
7
  10
 121.632
  20
 438.000
  30
0.0
  11
 121.632
  21
 424.500
  31
0.0
   0
LINE
   8
LEVEL003
   6
CONTINUOUS
  62
7
  10
 121.632
  20
 418.500
  30
0.0
  11
 121.632
  21
 408.966
  31
0.0
   0
LINE
   8
LEVEL003
   6
CONTINUOUS
  62
7
  10
 158.632
  20
 438.000
  30
0.0
  11
 158.632
  21
 424.749
  31
0.0
   0
LINE
   8
LEVEL003
   6
CONTINUOUS
  62
7
  10
 123.632
  20
 443.493
  30
0.0
  11
 123.632
  21
 424.500
  31
0.0
   0
LINE
   8
LEVEL003
   6
CONTINUOUS
  62
7
  10
 123.632
  20
 417.643
  30
0.0
  11
 123.632
  21
 404.000
  31
0.0
   0
LINE
   8
LEVEL003
   6
CONTINUOUS
  62
7
  10
 156.632
  20
 443.493
  30
0.0
  11
 156.632
  21
 426.100
  31
0.0
   0
LINE
   8
LEVEL001
   6
DASHDOT
  62
1
  10
 112.185
  20
 428.000
  30
0.0
  11
 142.689
  21
 428.000
  31
0.0
   0
LINE
   8
LEVEL001
   6
DASHDOT
  62
1
  10
 151.576
  20
 428.000
  30
0.0
  11
 167.185
  21
 428.000
  31
0.0
   0
LINE
   8
LEVEL001
   6
CONTINUOUS
  62
7
  10
 121.382
  20
 418.500
  30
0.0
  11
 121.382
  21
 413.000
  31
0.0
   0
LINE
   8
LEVEL001
   6
CONTINUOUS
  62
7
  10
 120.382
  20
 418.500
  30
0.0
  11
 120.382
  21
 414.000
  31
0.0
   0
LINE
   8
LEVEL003
   6
DASHDOT
  62
1
  10
 117.185
  20
 418.000
  30
0.0
  11
 123.275
  21
 418.000
  31
0.0
   0
LINE
   8
LEVEL001
   6
CONTINUOUS
  62
7
  10
 159.606
  20
 423.000
  30
0.0
  11
 163.632
  21
 423.000
  31
0.0
   0
LINE
   8
LEVEL001
   6
CONTINUOUS
  62
7
  10
 115.632
  20
 432.000
  30
0.0
  11
 115.632
  21
 424.500
  31
0.0
   0
LINE
   8
LEVEL001
   6
CONTINUOUS
  62
7
  10
 116.632
  20
 433.000
  30
0.0
  11
 116.632
  21
 424.500
  31
0.0
   0
LINE
   8
LEVEL001
   6
DASHDOT
  62
1
  10
 119.132
  20
 435.952
  30
0.0
  11
 119.132
  21
 424.500
  31
0.0
   0
LINE
   8
LEVEL003
   6
CONTINUOUS
  62
7
  10
 121.634
  20
 417.070
  30
0.0
  11
 124.275
  21
 416.978
  31
0.0
   0
LINE
   8
LEVEL001
   6
CONTINUOUS
  62
7
  10
 125.132
  20
 409.479
  30
0.0
  11
 125.132
  21
 403.000
  31
0.0
   0
LINE
   8
LEVEL001
   6
DASHDOT
  62
1
  10
 157.630
  20
 340.000
  30
0.0
  11
 148.340
  21
 313.020
  31
0.0
   0
ARC
   8
LEVEL001
   6
CONTINUOUS
  62
7
  10
 147.132
  20
 354.000
  30
0.0
  40
 15.0000
  50
 277.178
  51
 291.039
   0
ARC
   8
LEVEL001
   6
CONTINUOUS
  62
7
  10
 183.037
  20
 346.212
  30
0.0
  40
 10.0000
  50
 218.401
  51
 222.095
   0
LINE
   8
LEVEL001
   6
DASHDOT
  62
1
  10
 113.061
  20
 341.000
  30
0.0
  11
 105.132
  21
 341.000
  31
0.0
   0
LINE
   8
LEVEL001
   6
DASHDOT
  62
1
  10
 113.061
  20
 341.000
  30
0.0
  11
 105.132
  21
 341.000
  31
0.0
   0
LINE
   8
LEVEL001
   6
CONTINUOUS
  62
7
  10
 170.322
  20
 340.000
  30
0.0
  11
 165.433
  21
 325.803
  31
0.0
   0
LINE
   8
LEVEL001
   6
CONTINUOUS
  62
7
  10
 113.132
  20
 372.734
  30
0.0
  11
 103.245
  21
 373.599
  31
0.0
   0
LINE
   8
LEVEL001
   6
CONTINUOUS
  62
7
  10
 130.632
  20
 441.000
  30
0.0
  11
 130.632
  21
 424.500
  31
0.0
   0
LINE
   8
LEVEL001
   6
CONTINUOUS
  62
7
  10
 130.632
  20
 413.500
  30
0.0
  11
 130.632
  21
 411.000
  31
0.0
   0
LINE
   8
LEVEL001
   6
CONTINUOUS
  62
7
  10
 149.632
  20
 441.000
  30
0.0
  11
 149.632
  21
 428.343
  31
0.0
   0
LINE
   8
LEVEL001
   6
CONTINUOUS
  62
7
  10
 100.129
  20
 368.175
  30
0.0
  11
 113.132
  21
 369.312
  31
0.0
   0
LINE
   8
LEVEL003
   6
CONTINUOUS
  62
7
  10
 213.132
  20
 398.500
  30
0.0
  11
 179.132
  21
 398.500
  31
0.0
   0
LINE
   8
LEVEL003
   6
CONTINUOUS
  62
7
  10
 163.132
  20
 398.500
  30
0.0
  11
 162.132
  21
 398.500
  31
0.0
   0
LINE
   8
LEVEL003
   6
CONTINUOUS
  62
7
  10
 213.132
  20
 386.594
  30
0.0
  11
 181.132
  21
 386.594
  31
0.0
   0
LINE
   8
LEVEL001
   6
DASHDOT
  62
1
  10
 51.9048
  20
 354.000
  30
0.0
  11
 112.132
  21
 354.000
  31
0.0
   0
LINE
   8
LEVEL001
   6
DASHDOT
  62
1
  10
 140.132
  20
 463.092
  30
0.0
  11
 140.132
  21
 427.235
  31
0.0
   0
LINE
   8
LEVEL001
   6
DASHDOT
  62
1
  10
 140.132
  20
 340.000
  30
0.0
  11
 140.132
  21
 295.263
  31
0.0
   0
ARC
   8
LEVEL001
   6
CONTINUOUS
  62
7
  10
 106.712
  20
 391.397
  30
0.0
  40
 7.50000
  50
 28.8266
  51
 200.000
   0
LINE
   8
LEVEL001
   6
CONTINUOUS
  62
7
  10
 113.132
  20
 383.092
  30
0.0
  11
 102.145
  21
 379.093
  31
0.0
   0
LINE
   8
LEVEL001
   6
CONTINUOUS
  62
7
  10
 102.145
  20
 379.093
  30
0.0
  11
 100.650
  21
 379.356
  31
0.0
   0
LINE
   8
LEVEL001
   6
CONTINUOUS
  62
7
  10
 100.650
  20
 379.356
  30
0.0
  11
 97.7488
  21
 387.327
  31
0.0
   0
LINE
   8
LEVEL001
   6
CONTINUOUS
  62
7
  10
 97.7488
  20
 387.327
  30
0.0
  11
 98.7248
  21
 388.490
  31
0.0
   0
LINE
   8
LEVEL001
   6
CONTINUOUS
  62
7
  10
 98.7248
  20
 388.490
  30
0.0
  11
 113.132
  21
 393.734
  31
0.0
   0
LINE
   8
LEVEL001
   6
CONTINUOUS
  62
7
  10
 113.132
  20
 388.106
  30
0.0
  11
 111.583
  21
 392.362
  31
0.0
   0
ARC
   8
LEVEL001
   6
CONTINUOUS
  62
7
  10
 117.737
  20
 385.960
  30
0.0
  40
 8.87961
  50
 121.233
  51
 133.865
   0
LINE
   8
LEVEL001
   6
DASHDOT
  62
1
  10
 103.274
  20
 400.845
  30
0.0
  11
 113.132
  21
 373.758
  31
0.0
   0
LINE
   8
LEVEL001
   6
DASHDOT
  62
1
  10
 125.419
  20
 340.000
  30
0.0
  11
 127.967
  21
 333.000
  31
0.0
   0
ARC
   8
LEVEL001
   6
CONTINUOUS
  62
7
  10
 104.578
  20
 397.261
  30
0.0
  40
 16.2408
  50
 272.412
  51
 301.785
   0
LINE
   8
LEVEL003
   6
CONTINUOUS
  62
7
  10
 115.132
  20
 398.500
  30
0.0
  11
 109.120
  21
 398.500
  31
0.0
   0
ARC
   8
LEVEL001
   6
CONTINUOUS
  62
7
  10
 155.736
  20
 421.990
  30
0.0
  40
 4.00000
  50
 8.13064
  51
 57.4712
   0
LINE
   8
LEVEL001
   6
CONTINUOUS
  62
7
  10
 113.132
  20
 368.500
  30
0.0
  11
 181.132
  21
 368.500
  31
0.0
   0
CIRCLE
   8
LEVEL001
   6
CONTINUOUS
  62
7
  10
 129.632
  20
 354.000
  30
0.0
  40
 7.47500
   0
CIRCLE
   8
LEVEL001
   6
CONTINUOUS
  62
3
  10
 129.632
  20
 354.000
  30
0.0
  40
 8.33100
   0
LINE
   8
LEVEL001
   6
DASHDOT
  62
1
  10
 129.632
  20
 342.669
  30
0.0
  11
 129.632
  21
 365.331
  31
0.0
   0
LINE
   8
LEVEL001
   6
DASHDOT
  62
1
  10
 140.963
  20
 354.000
  30
0.0
  11
 118.301
  21
 354.000
  31
0.0
   0
CIRCLE
   8
LEVEL001
   6
CONTINUOUS
  62
7
  10
 164.632
  20
 354.000
  30
0.0
  40
 7.47500
   0
CIRCLE
   8
LEVEL001
   6
CONTINUOUS
  62
3
  10
 164.632
  20
 354.000
  30
0.0
  40
 8.33100
   0
LINE
   8
LEVEL001
   6
DASHDOT
  62
1
  10
 164.632
  20
 342.669
  30
0.0
  11
 164.632
  21
 365.331
  31
0.0
   0
LINE
   8
LEVEL001
   6
DASHDOT
  62
1
  10
 175.963
  20
 354.000
  30
0.0
  11
 153.301
  21
 354.000
  31
0.0
   0
LINE
   8
LEVEL001
   6
CONTINUOUS
  62
7
  10
 129.632
  20
 367.000
  30
0.0
  11
 164.632
  21
 367.000
  31
0.0
   0
ARC
   8
LEVEL001
   6
CONTINUOUS
  62
7
  10
 147.399
  20
 346.000
  30
0.0
  40
 6.00000
  50
 24.9010
  51
 90.0004
   0
ARC
   8
LEVEL001
   6
CONTINUOUS
  62
7
  10
 164.632
  20
 354.000
  30
0.0
  40
 13.0000
  50
 204.901
  51
 90.0001
   0
ARC
   8
LEVEL001
   6
CONTINUOUS
  62
7
  10
 146.866
  20
 346.000
  30
0.0
  40
 6.00000
  50
 90.0002
  51
 155.099
   0
LINE
   8
LEVEL001
   6
CONTINUOUS
  62
7
  10
 146.866
  20
 352.000
  30
0.0
  11
 147.399
  21
 352.000
  31
0.0
   0
ARC
   8
LEVEL001
   6
CONTINUOUS
  62
7
  10
 129.632
  20
 354.000
  30
0.0
  40
 13.0000
  50
 90.0002
  51
 335.099
   0
LINE
   8
LEVEL001
   6
CONTINUOUS
  62
7
  10
 127.668
  20
 386.500
  30
0.0
  11
 166.597
  21
 386.500
  31
0.0
   0
LINE
   8
LEVEL001
   6
CONTINUOUS
  62
7
  10
 166.597
  20
 386.500
  30
0.0
  11
 166.597
  21
 374.500
  31
0.0
   0
LINE
   8
LEVEL001
   6
CONTINUOUS
  62
7
  10
 166.597
  20
 374.500
  30
0.0
  11
 127.668
  21
 374.500
  31
0.0
   0
LINE
   8
LEVEL001
   6
CONTINUOUS
  62
7
  10
 127.668
  20
 374.500
  30
0.0
  11
 127.668
  21
 386.500
  31
0.0
   0
LINE
   8
LEVEL001
   6
CONTINUOUS
  62
7
  10
 163.132
  20
 402.500
  30
0.0
  11
 179.132
  21
 402.500
  31
0.0
   0
LINE
   8
LEVEL001
   6
DASHDOT
  62
1
  10
 171.132
  20
 406.000
  30
0.0
  11
 171.132
  21
 390.000
  31
0.0
   0
LINE
   8
LEVEL001
   6
CONTINUOUS
  62
7
  10
 115.132
  20
 402.500
  30
0.0
  11
 131.132
  21
 402.500
  31
0.0
   0
LINE
   8
LEVEL001
   6
DASHDOT
  62
1
  10
 123.132
  20
 406.000
  30
0.0
  11
 123.132
  21
 390.000
  31
0.0
   0
ARC
   8
LEVEL001
   6
CONTINUOUS
  62
7
  10
 180.132
  20
 394.084
  30
0.0
  40
 1.00000
  50
 359.999
  51
 84.9999
   0
ARC
   8
LEVEL001
   6
CONTINUOUS
  62
7
  10
 114.132
  20
 394.084
  30
0.0
  40
 1.00000
  50
 95.0001
  51
 179.998
   0
ARC
   8
LEVEL001
   6
CONTINUOUS
  62
7
  10
 147.132
  20
 418.000
  30
0.0
  40
 2.00000
  50
 330.000
  51
 210.000
   0
ARC
   8
LEVEL001
   6
CONTINUOUS
  62
7
  10
 147.132
  20
 418.000
  30
0.0
  40
 4.00000
  50
0.0
  51
 180.000
   0
LINE
   8
LEVEL001
   6
CONTINUOUS
  62
7
  10
 151.132
  20
 418.000
  30
0.0
  11
 151.132
  21
 417.000
  31
0.0
   0
LINE
   8
LEVEL001
   6
CONTINUOUS
  62
7
  10
 143.132
  20
 418.000
  30
0.0
  11
 143.132
  21
 417.000
  31
0.0
   0
LINE
   8
LEVEL001
   6
DASHDOT
  62
1
  10
 141.132
  20
 418.000
  30
0.0
  11
 153.132
  21
 418.000
  31
0.0
   0
ARC
   8
LEVEL001
   6
CONTINUOUS
  62
7
  10
 162.668
  20
 422.964
  30
0.0
  40
 3.00000
  50
 188.001
  51
 239.999
   0
ARC
   8
LEVEL001
   6
CONTINUOUS
  62
7
  10
 125.775
  20
 415.000
  30
0.0
  40
 1.50000
  50
 180.000
  51
 270.000
   0
LINE
   8
LEVEL001
   6
CONTINUOUS
  62
7
  10
 125.775
  20
 413.500
  30
0.0
  11
 133.275
  21
 413.500
  31
0.0
   0
LINE
   8
LEVEL001
   6
CONTINUOUS
  62
7
  10
 62.2351
  20
 434.174
  30
0.0
  11
 70.1135
  21
 432.785
  31
0.0
   0
LINE
   8
LEVEL001
   6
CONTINUOUS
  62
7
  10
 60.1513
  20
 422.356
  30
0.0
  11
 68.0298
  21
 420.967
  31
0.0
   0
ARC
   8
LEVEL001
   6
CONTINUOUS
  62
7
  10
 61.1850
  20
 428.267
  30
0.0
  40
 6.00000
  50
 79.9207
  51
 260.080
   0
ARC
   8
LEVEL001
   6
CONTINUOUS
  62
7
  10
 80.5148
  20
 438.059
  30
0.0
  40
 10.0000
  50
 224.341
  51
 260.000
   0
ARC
   8
LEVEL001
   6
CONTINUOUS
  62
7
  10
 69.0716
  20
 426.876
  30
0.0
  40
 6.00000
  50
 44.3407
  51
 79.9998
   0
ARC
   8
LEVEL001
   6
CONTINUOUS
  62
7
  10
 75.9999
  20
 412.454
  30
0.0
  40
 10.0000
  50
 80.0001
  51
 115.659
   0
ARC
   8
LEVEL001
   6
CONTINUOUS
  62
7
  10
 69.0717
  20
 426.876
  30
0.0
  40
 5.99999
  50
 260.000
  51
 295.658
   0
ARC
   8
LEVEL001
   6
CONTINUOUS
  62
7
  10
 104.198
  20
 474.500
  30
0.0
  40
 50.0000
  50
 260.000
  51
 270.000
   0
LINE
   8
LEVEL001
   6
CONTINUOUS
  62
7
  10
 95.5155
  20
 425.260
  30
0.0
  11
 78.7783
  21
 428.211
  31
0.0
   0
ARC
   8
LEVEL001
   6
CONTINUOUS
  62
7
  10
 104.198
  20
 474.500
  30
0.0
  40
 56.0000
  50
 260.000
  51
 270.000
   0
LINE
   8
LEVEL001
   6
CONTINUOUS
  62
7
  10
 94.4737
  20
 419.351
  30
0.0
  11
 77.7363
  21
 422.302
  31
0.0
   0
ARC
   8
LEVEL001
   6
CONTINUOUS
  62
7
  10
 122.775
  20
 417.000
  30
0.0
  40
 1.50000
  50
0.0
  51
 90.0000
   0
LINE
   8
LEVEL001
   6
CONTINUOUS
  62
7
  10
 124.275
  20
 417.000
  30
0.0
  11
 124.275
  21
 415.000
  31
0.0
   0
ARC
   8
LEVEL001
   6
DASHDOT
  62
1
  10
 104.198
  20
 474.500
  30
0.0
  40
 53.0000
  50
 260.000
  51
 270.000
   0
ARC
   8
LEVEL001
   6
CONTINUOUS
  62
7
  10
 132.166
  20
 434.500
  30
0.0
  40
 10.0000
  50
 270.000
  51
 299.927
   0
LINE
   8
LEVEL001
   6
CONTINUOUS
  62
7
  10
 104.198
  20
 424.500
  30
0.0
  11
 132.166
  21
 424.500
  31
0.0
   0
ARC
   8
LEVEL001
   6
CONTINUOUS
  62
7
  10
 132.837
  20
 417.500
  30
0.0
  40
 1.00000
  50
 351.870
  51
 89.9988
   0
LINE
   8
LEVEL001
   6
CONTINUOUS
  62
7
  10
 104.198
  20
 418.500
  30
0.0
  11
 132.837
  21
 418.500
  31
0.0
   0
LINE
   8
LEVEL001
   6
DASHDOT
  62
1
  10
 104.198
  20
 421.500
  30
0.0
  11
 137.132
  21
 421.500
  31
0.0
   0
ARC
   8
LEVEL001
   6
CONTINUOUS
  62
7
  10
 158.370
  20
 413.500
  30
0.0
  40
 1.00000
  50
 180.000
  51
 270.000
   0
ARC
   8
LEVEL001
   6
CONTINUOUS
  62
7
  10
 135.895
  20
 413.500
  30
0.0
  40
 1.00000
  50
 270.000
  51
0.0
   0
ARC
   8
LEVEL001
   6
CONTINUOUS
  62
7
  10
 137.895
  20
 416.000
  30
0.0
  40
 1.00000
  50
 90.0000
  51
 180.000
   0
LINE
   8
LEVEL001
   6
CONTINUOUS
  62
7
  10
 136.895
  20
 416.000
  30
0.0
  11
 136.895
  21
 413.500
  31
0.0
   0
ARC
   8
LEVEL001
   6
CONTINUOUS
  62
7
  10
 156.370
  20
 416.000
  30
0.0
  40
 1.00000
  50
0.0
  51
 90.0000
   0
LINE
   8
LEVEL001
   6
CONTINUOUS
  62
7
  10
 156.370
  20
 417.000
  30
0.0
  11
 137.895
  21
 417.000
  31
0.0
   0
LINE
   8
LEVEL001
   6
CONTINUOUS
  62
7
  10
 157.370
  20
 413.500
  30
0.0
  11
 157.370
  21
 416.000
  31
0.0
   0
LINE
   8
LEVEL001
   6
DASHDOT
  62
1
  10
 147.132
  20
 335.000
  30
0.0
  11
 147.132
  21
 435.000
  31
0.0
   0
LINE
   8
LEVEL001
   6
DASHDOT
  62
1
  10
 94.9946
  20
 422.305
  30
0.0
  11
 52.1090
  21
 429.867
  31
0.0
   0
LINE
   8
LEVEL001
   6
CONTINUOUS
  62
7
  10
 114.045
  20
 395.080
  30
0.0
  11
 132.132
  21
 396.662
  31
0.0
   0
LINE
   8
LEVEL001
   6
CONTINUOUS
  62
7
  10
 132.132
  20
 396.662
  30
0.0
  11
 132.132
  21
 412.500
  31
0.0
   0
LINE
   8
LEVEL001
   6
CONTINUOUS
  62
7
  10
 132.132
  20
 412.500
  30
0.0
  11
 135.895
  21
 412.500
  31
0.0
   0
LINE
   8
LEVEL001
   6
CONTINUOUS
  62
7
  10
 180.220
  20
 395.080
  30
0.0
  11
 162.132
  21
 396.662
  31
0.0
   0
LINE
   8
LEVEL001
   6
CONTINUOUS
  62
7
  10
 162.132
  20
 396.662
  30
0.0
  11
 162.132
  21
 412.500
  31
0.0
   0
LINE
   8
LEVEL001
   6
CONTINUOUS
  62
7
  10
 162.132
  20
 412.500
  30
0.0
  11
 158.370
  21
 412.500
  31
0.0
   0
LINE
   8
LEVEL001
   6
CONTINUOUS
  62
7
  10
 160.990
  20
 413.500
  30
0.0
  11
 166.132
  21
 413.500
  31
0.0
   0
LINE
   8
LEVEL001
   6
CONTINUOUS
  62
7
  10
 166.132
  20
 413.500
  30
0.0
  11
 166.132
  21
 417.500
  31
0.0
   0
LINE
   8
LEVEL001
   6
CONTINUOUS
  62
7
  10
 166.132
  20
 417.500
  30
0.0
  11
 161.168
  21
 420.366
  31
0.0
   0
LINE
   8
LEVEL001
   6
CONTINUOUS
  62
7
  10
 113.132
  20
 394.084
  30
0.0
  11
 113.132
  21
 368.500
  31
0.0
   0
LINE
   8
LEVEL001
   6
CONTINUOUS
  62
7
  10
 113.132
  20
 368.500
  30
0.0
  11
 112.132
  21
 354.000
  31
0.0
   0
LINE
   8
LEVEL001
   6
CONTINUOUS
  62
7
  10
 112.132
  20
 354.000
  30
0.0
  11
 113.132
  21
 340.000
  31
0.0
   0
LINE
   8
LEVEL001
   6
CONTINUOUS
  62
7
  10
 113.132
  20
 340.000
  30
0.0
  11
 181.132
  21
 340.000
  31
0.0
   0
LINE
   8
LEVEL001
   6
CONTINUOUS
  62
7
  10
 181.132
  20
 340.000
  30
0.0
  11
 182.132
  21
 354.000
  31
0.0
   0
LINE
   8
LEVEL001
   6
CONTINUOUS
  62
7
  10
 182.132
  20
 354.000
  30
0.0
  11
 181.132
  21
 368.500
  31
0.0
   0
LINE
   8
LEVEL001
   6
CONTINUOUS
  62
7
  10
 181.132
  20
 368.500
  30
0.0
  11
 181.132
  21
 394.084
  31
0.0
   0
LINE
   8
LEVEL001
   6
CONTINUOUS
  62
7
  10
 131.132
  20
 396.575
  30
0.0
  11
 131.132
  21
 402.500
  31
0.0
   0
LINE
   8
LEVEL001
   6
CONTINUOUS
  62
7
  10
 131.132
  20
 402.500
  30
0.0
  11
 130.266
  21
 403.000
  31
0.0
   0
LINE
   8
LEVEL001
   6
CONTINUOUS
  62
7
  10
 130.266
  20
 403.000
  30
0.0
  11
 115.998
  21
 403.000
  31
0.0
   0
LINE
   8
LEVEL001
   6
CONTINUOUS
  62
7
  10
 115.998
  20
 403.000
  30
0.0
  11
 115.132
  21
 402.500
  31
0.0
   0
LINE
   8
LEVEL001
   6
CONTINUOUS
  62
7
  10
 115.132
  20
 402.500
  30
0.0
  11
 115.132
  21
 395.175
  31
0.0
   0
LINE
   8
LEVEL001
   6
CONTINUOUS
  62
7
  10
 179.132
  20
 395.175
  30
0.0
  11
 179.132
  21
 402.500
  31
0.0
   0
LINE
   8
LEVEL001
   6
CONTINUOUS
  62
7
  10
 179.132
  20
 402.500
  30
0.0
  11
 178.266
  21
 403.000
  31
0.0
   0
LINE
   8
LEVEL001
   6
CONTINUOUS
  62
7
  10
 178.266
  20
 403.000
  30
0.0
  11
 163.998
  21
 403.000
  31
0.0
   0
LINE
   8
LEVEL001
   6
CONTINUOUS
  62
7
  10
 163.998
  20
 403.000
  30
0.0
  11
 163.132
  21
 402.500
  31
0.0
   0
LINE
   8
LEVEL001
   6
CONTINUOUS
  62
7
  10
 163.132
  20
 402.500
  30
0.0
  11
 163.132
  21
 396.575
  31
0.0
   0
ARC
   8
LEVEL001
   6
CONTINUOUS
  62
7
  10
 138.529
  20
 421.990
  30
0.0
  40
 4.00000
  50
 122.529
  51
 171.870
   0
LINE
   8
LEVEL001
   6
CONTINUOUS
  62
7
  10
 133.132
  20
 412.500
  30
0.0
  11
 134.569
  21
 422.556
  31
0.0
   0
ARC
   8
LEVEL001
   6
CONTINUOUS
  62
7
  10
 147.132
  20
 408.500
  30
0.0
  40
 20.0000
  50
 57.4706
  51
 122.529
   0
LINE
   8
LEVEL001
   6
CONTINUOUS
  62
7
  10
 161.132
  20
 412.500
  30
0.0
  11
 159.696
  21
 422.556
  31
0.0
   0
LINE
   8
LEVEL003
   6
CONTINUOUS
  62
3
  10
 55.1850
  20
 424.267
  30
0.0
  11
 55.1850
  21
 252.000
  31
0.0
   0
LINE
   8
LEVEL003
   6
CONTINUOUS
  62
3
  10
 217.632
  20
 301.000
  30
0.0
  11
 217.632
  21
 252.000
  31
0.0
   0
LINE
   8
LEVEL003
   6
CONTINUOUS
  62
3
  10
 55.1850
  20
 260.000
  30
0.0
  11
 217.632
  21
 260.000
  31
0.0
   0
LINE
   8
LEVEL003
   6
CONTINUOUS
  62
3
  10
 55.1850
  20
 260.000
  30
0.0
  11
 67.1850
  21
 257.884
  31
0.0
   0
LINE
   8
LEVEL003
   6
CONTINUOUS
  62
3
  10
 55.1850
  20
 260.000
  30
0.0
  11
 67.1850
  21
 262.116
  31
0.0
   0
LINE
   8
LEVEL003
   6
CONTINUOUS
  62
3
  10
 217.632
  20
 260.000
  30
0.0
  11
 205.632
  21
 262.116
  31
0.0
   0
LINE
   8
LEVEL003
   6
CONTINUOUS
  62
3
  10
 217.632
  20
 260.000
  30
0.0
  11
 205.632
  21
 257.884
  31
0.0
   0
TEXT
   8
LEVEL003
  62
3
  10
 116.409
  20
 263.200
  30
0.0
  40
 16.0000
   1
約165
   7
STANDARD
  72
1
  11
 136.409
  21
 263.200
  31
0.0
   0
LINE
   8
LEVEL003
   6
CONTINUOUS
  62
3
  10
 256.100
  20
 347.453
  30
0.0
  11
 256.100
  21
 172.000
  31
0.0
   0
LINE
   8
LEVEL003
   6
CONTINUOUS
  62
3
  10
 1049.26
  20
 439.504
  30
0.0
  11
 1049.26
  21
 172.000
  31
0.0
   0
LINE
   8
LEVEL003
   6
CONTINUOUS
  62
3
  10
 256.100
  20
 180.000
  30
0.0
  11
 1049.26
  21
 180.000
  31
0.0
   0
LINE
   8
LEVEL003
   6
CONTINUOUS
  62
3
  10
 256.100
  20
 180.000
  30
0.0
  11
 268.100
  21
 177.884
  31
0.0
   0
LINE
   8
LEVEL003
   6
CONTINUOUS
  62
3
  10
 256.100
  20
 180.000
  30
0.0
  11
 268.100
  21
 182.116
  31
0.0
   0
LINE
   8
LEVEL003
   6
CONTINUOUS
  62
3
  10
 1049.26
  20
 180.000
  30
0.0
  11
 1037.26
  21
 182.116
  31
0.0
   0
LINE
   8
LEVEL003
   6
CONTINUOUS
  62
3
  10
 1049.26
  20
 180.000
  30
0.0
  11
 1037.26
  21
 177.884
  31
0.0
   0
TEXT
   8
LEVEL003
  62
3
  10
 632.679
  20
 183.200
  30
0.0
  40
 16.0000
   1
約800
   7
STANDARD
  72
1
  11
 652.679
  21
 183.200
  31
0.0
   0
LINE
   8
LEVEL001
   6
DASHDOT
  62
1
  10
 253.340
  20
 805.263
  30
0.0
  11
 681.484
  21
 805.263
  31
0.0
   0
CIRCLE
   8
LEVEL003
   6
CONTINUOUS
  62
7
  10
 1253.01
  20
 68.5407
  30
0.0
  40
 9.00000
   0
LINE
   8
LEVEL003
   6
CONTINUOUS
  62
7
  10
 1270.67
  20
 77.5407
  30
0.0
  11
 1259.24
  21
 57.7407
  31
0.0
   0
LINE
   8
LEVEL003
   6
CONTINUOUS
  62
7
  10
 1259.24
  20
 57.7407
  30
0.0
  11
 1236.38
  21
 57.7407
  31
0.0
   0
LINE
   8
LEVEL003
   6
CONTINUOUS
  62
7
  10
 1233.78
  20
 53.2407
  30
0.0
  11
 1274.64
  21
 53.2407
  31
0.0
   0
LINE
   8
LEVEL003
   6
CONTINUOUS
  62
7
  10
 1274.64
  20
 53.2407
  30
0.0
  11
 1288.67
  21
 77.5407
  31
0.0
   0
LINE
   8
LEVEL003
   6
CONTINUOUS
  62
7
  10
 1288.67
  20
 77.5407
  30
0.0
  11
 1270.67
  21
 77.5407
  31
0.0
   0
LINE
   8
LEVEL003
   6
CONTINUOUS
  62
7
  10
 1236.38
  20
 57.7407
  30
0.0
  11
 1233.78
  21
 53.2407
  31
0.0
   0
TEXT
   8
LEVEL003
  62
7
  10
 1295.82
  20
 47.2207
  30
0.0
  40
 22.5000
   1
ＯＳＡＫＡ ＪＡＣＫ
   7
STANDARD
   0
TEXT
   8
LEVEL003
  62
7
  10
 1300.56
  20
 92.7697
  30
0.0
  40
 15.0000
   1
Model : ＴＷＡＤ－４
   7
STANDARD
   0
ENDSEC
   0
EOF
