   0
SECTION
   2
HEADER
   9
$LIMMIN
  10
-66.0000
  20
0.0
   9
$LIMMAX
  10
 1680.00
  20
 1188.00
   9
$EXTMIN
  10
-66.0000
  20
0.0
   9
$EXTMAX
  10
 1680.00
  20
 1188.00
   9
$LTSCALE
  40
 34.9200
   0
ENDSEC
   0
SECTION
   2
TABLES
  0
TABLE
  2
LTYPE
 70
    25
  0
LTYPE
  2
CONTINUOUS
 70
    64
  3
Solid line
 72
    65
 73
     0
 40
0.0
  0
LTYPE
  2
BORDER
 70
    64
  3
__ __ . __ __ . __ __ . __ __ . __ __ . __ __ .
 72
    65
 73
     6
 40
1.75
 49
0.5
 49
-0.25
 49
0.5
 49
-0.25
 49
0.0
 49
-0.25
  0
LTYPE
  2
BORDER2
 70
    64
  3
__.__.__.__.__.__.__.__.__.__.__.__.__.__.__.__
 72
    65
 73
     6
 40
0.875
 49
0.25
 49
-0.125
 49
0.25
 49
-0.125
 49
0.0
 49
-0.125
  0
LTYPE
  2
BORDERX2
 70
    64
  3
____  ____  .  ____  ____  .  ____  ____  .  __
 72
    65
 73
     6
 40
3.5
 49
1.0
 49
-0.5
 49
1.0
 49
-0.5
 49
0.0
 49
-0.5
  0
LTYPE
  2
CENTER
 70
    64
  3
____ _ ____ _ ____ _ ____ _ ____ _ ____ _ ____ 
 72
    65
 73
     4
 40
2.0
 49
1.25
 49
-0.25
 49
0.25
 49
-0.25
  0
LTYPE
  2
CENTER2
 70
    64
  3
___ _ ___ _ ___ _ ___ _ ___ _ ___ _ ___ _ ___ _
 72
    65
 73
     4
 40
1.125
 49
0.75
 49
-0.125
 49
0.125
 49
-0.125
  0
LTYPE
  2
CENTERX2
 70
    64
  3
________  __  ________  __  ________  __  _____
 72
    65
 73
     4
 40
4.0
 49
2.5
 49
-0.5
 49
0.5
 49
-0.5
  0
LTYPE
  2
DASHDOT
 70
    64
  3
__ . __ . __ . __ . __ . __ . __ . __ . __ . __
 72
    65
 73
     4
 40
1.0
 49
0.5
 49
-0.25
 49
0.0
 49
-0.25
  0
LTYPE
  2
DASHDOT2
 70
    64
  3
_._._._._._._._._._._._._._._._._._._._._._._._
 72
    65
 73
     4
 40
0.5
 49
0.25
 49
-0.125
 49
0.0
 49
-0.125
  0
LTYPE
  2
DASHDOTX2
 70
    64
  3
____  .  ____  .  ____  .  ____  .  ____  .  __
 72
    65
 73
     4
 40
2.0
 49
1.0
 49
-0.5
 49
0.0
 49
-0.5
  0
LTYPE
  2
DASHED
 70
    64
  3
__ __ __ __ __ __ __ __ __ __ __ __ __ __ __ __
 72
    65
 73
     2
 40
0.75
 49
0.5
 49
-0.25
  0
LTYPE
  2
DASHED2
 70
    64
  3
_ _ _ _ _ _ _ _ _ _ _ _ _ _ _ _ _ _ _ _ _ _ _ _
 72
    65
 73
     2
 40
0.375
 49
0.25
 49
-0.125
  0
LTYPE
  2
DASHEDX2
 70
    64
  3
____  ____  ____  ____  ____  ____  ____  ____ 
 72
    65
 73
     2
 40
1.5
 49
1.0
 49
-0.5
  0
LTYPE
  2
DIVIDE
 70
    64
  3
____ . . ____ . . ____ . . ____ . . ____ . . __
 72
    65
 73
     6
 40
1.25
 49
0.5
 49
-0.25
 49
0.0
 49
-0.25
 49
0.0
 49
-0.25
  0
LTYPE
  2
DIVIDE2
 70
    64
  3
__..__..__..__..__..__..__..__..__..__..__..__.
 72
    65
 73
     6
 40
0.625
 49
0.25
 49
-0.125
 49
0.0
 49
-0.125
 49
0.0
 49
-0.125
  0
LTYPE
  2
DIVIDEX2
 70
    64
  3
________  .  .  ________  .  .  ________  .  . 
 72
    65
 73
     6
 40
2.5
 49
1.0
 49
-0.5
 49
0.0
 49
-0.5
 49
0.0
 49
-0.5
  0
LTYPE
  2
DOT
 70
    64
  3
. . . . . . . . . . . . . . . . . . . . . . . .
 72
    65
 73
     2
 40
0.25
 49
0.0
 49
-0.25
  0
LTYPE
  2
DOT2
 70
    64
  3
...............................................
 72
    65
 73
     2
 40
0.125
 49
0.0
 49
-0.125
  0
LTYPE
  2
DOTX2
 70
    64
  3
.  .  .  .  .  .  .  .  .  .  .  .  .  .  .  . 
 72
    65
 73
     2
 40
0.5
 49
0.0
 49
-0.5
  0
LTYPE
  2
HIDDEN
 70
    64
  3
__ __ __ __ __ __ __ __ __ __ __ __ __ __ __ __
 72
    65
 73
     2
 40
0.375
 49
0.25
 49
-0.125
  0
LTYPE
  2
HIDDEN2
 70
    64
  3
_ _ _ _ _ _ _ _ _ _ _ _ _ _ _ _ _ _ _ _ _ _ _ _
 72
    65
 73
     2
 40
0.1875
 49
0.125
 49
-0.0625
  0
LTYPE
  2
HIDDENX2
 70
    64
  3
____ ____ ____ ____ ____ ____ ____ ____ ____ __
 72
    65
 73
     2
 40
0.75
 49
0.5
 49
-0.25
  0
LTYPE
  2
PHANTOM
 70
    64
  3
______  __  __  ______  __  __  ______  __  __ 
 72
    65
 73
     6
 40
2.5
 49
1.25
 49
-0.25
 49
0.25
 49
-0.25
 49
0.25
 49
-0.25
  0
LTYPE
  2
PHANTOM2
 70
    64
  3
___ _ _ ___ _ _ ___ _ _ ___ _ _ ___ _ _ ___ _ _
 72
    65
 73
     6
 40
1.25
 49
0.625
 49
-0.125
 49
0.125
 49
-0.125
 49
0.125
 49
-0.125
  0
LTYPE
  2
PHANTOMX2
 70
    64
  3
____________    ____    ____    ____________   
 72
    65
 73
     6
 40
5.0
 49
2.5
 49
-0.5
 49
0.5
 49
-0.5
 49
0.5
 49
-0.5
  0
ENDTAB
  0
TABLE
  2
STYLE
 70
     2
  0
STYLE
  2
STANDARD
 70
0
 40
0.0
 41
1.0
 50
0.0
 71
0
 42
0.2
  3
TXT
  4
BIGFONT
  0
STYLE
  2
STANDARD1
 70
     4
 40
0.0
 41
1.0
 50
0.0
 71
     0
 42
0.2
  3
TXT
  4
BIGFONT
  0
ENDTAB
   0
TABLE
   2
LAYER
  70
11
   0
LAYER
   2
0
  70
0
  62
7
   6
CONTINUOUS
   0
LAYER
   2
LEVEL001
  70
0
  62
7
   6
CONTINUOUS
   0
LAYER
   2
LEVEL003
  70
0
  62
7
   6
CONTINUOUS
   0
LAYER
   2
LEVEL010
  70
0
  62
7
   6
CONTINUOUS
   0
LAYER
   2
LEVEL011
  70
0
  62
7
   6
CONTINUOUS
   0
LAYER
   2
LEVEL012
  70
0
  62
7
   6
CONTINUOUS
   0
LAYER
   2
LEVEL014
  70
0
  62
7
   6
CONTINUOUS
   0
LAYER
   2
LEVEL020
  70
0
  62
7
   6
CONTINUOUS
   0
LAYER
   2
LEVEL030
  70
0
  62
7
   6
CONTINUOUS
   0
LAYER
   2
LEVEL050
  70
0
  62
7
   6
CONTINUOUS
   0
LAYER
   2
LEVEL100
  70
0
  62
-7
   6
CONTINUOUS
   0
ENDTAB
   0
ENDSEC
   0
SECTION
   2
ENTITIES
   0
LINE
   8
LEVEL100
   6
CONTINUOUS
  62
7
  10
 1145.00
  20
 216.000
  30
0.0
  11
 1145.00
  21
 188.000
  31
0.0
   0
LINE
   8
LEVEL100
   6
CONTINUOUS
  62
7
  10
 1265.00
  20
 216.000
  30
0.0
  11
 1265.00
  21
 124.000
  31
0.0
   0
LINE
   8
LEVEL100
   6
CONTINUOUS
  62
7
  10
 1345.00
  20
 216.000
  30
0.0
  11
 1345.00
  21
 188.000
  31
0.0
   0
LINE
   8
LEVEL100
   6
CONTINUOUS
  62
7
  10
 1377.00
  20
 216.000
  30
0.0
  11
 1377.00
  21
 188.000
  31
0.0
   0
LINE
   8
LEVEL100
   6
CONTINUOUS
  62
7
  10
 1423.00
  20
 216.000
  30
0.0
  11
 1423.00
  21
 188.000
  31
0.0
   0
LINE
   8
LEVEL100
   6
CONTINUOUS
  62
7
  10
 1227.00
  20
 188.000
  30
0.0
  11
 1227.00
  21
 124.000
  31
0.0
   0
LINE
   8
LEVEL100
   6
CONTINUOUS
  62
7
  10
 1161.00
  20
 66.0000
  30
0.0
  11
 1181.00
  21
 86.0000
  31
0.0
   0
CIRCLE
   8
LEVEL100
   6
CONTINUOUS
  62
7
  10
 1133.00
  20
 6.00000
  30
0.0
  40
 1.60000
   0
CIRCLE
   8
LEVEL100
   6
CONTINUOUS
  62
7
  10
 1161.00
  20
 6.00000
  30
0.0
  40
 1.60000
   0
CIRCLE
   8
LEVEL100
   6
CONTINUOUS
  62
7
  10
 1133.00
  20
 6.00000
  30
0.0
  40
 1.00000
   0
CIRCLE
   8
LEVEL100
   6
CONTINUOUS
  62
7
  10
 1161.00
  20
 6.00000
  30
0.0
  40
 1.00000
   0
LINE
   8
LEVEL100
   6
CONTINUOUS
  62
7
  10
 1284.00
  20
 22.0000
  30
0.0
  11
 1284.00
  21
 26.0000
  31
0.0
   0
LINE
   8
LEVEL100
   6
CONTINUOUS
  62
7
  10
 1284.00
  20
 26.0000
  30
0.0
  11
 1296.00
  21
 26.0000
  31
0.0
   0
LINE
   8
LEVEL100
   6
CONTINUOUS
  62
7
  10
 1296.00
  20
 26.0000
  30
0.0
  11
 1296.00
  21
 22.0000
  31
0.0
   0
LINE
   8
LEVEL100
   6
CONTINUOUS
  62
7
  10
 1296.00
  20
 22.0000
  30
0.0
  11
 1284.00
  21
 22.0000
  31
0.0
   0
LINE
   8
LEVEL100
   6
CONTINUOUS
  62
7
  10
 1105.00
  20
0.0
  30
0.0
  11
 1105.00
  21
 216.000
  31
0.0
   0
LINE
   8
LEVEL100
   6
CONTINUOUS
  62
7
  10
 1189.00
  20
 188.000
  30
0.0
  11
 1189.00
  21
0.0
  31
0.0
   0
LINE
   8
LEVEL100
   6
CONTINUOUS
  62
7
  10
 1105.00
  20
 92.0000
  30
0.0
  11
 1189.00
  21
 92.0000
  31
0.0
   0
TEXT
   8
LEVEL100
  62
7
  10
 1203.00
  20
 14.0000
  30
0.0
  40
 20.0000
   1
ＯＪ
  41
 0.700000
   7
STANDARD
   0
LINE
   8
LEVEL100
   6
CONTINUOUS
  62
7
  10
 1105.00
  20
 188.000
  30
0.0
  11
 1532.60
  21
 188.000
  31
0.0
   0
LINE
   8
LEVEL100
   6
CONTINUOUS
  62
7
  10
 1105.00
  20
 172.000
  30
0.0
  11
 1532.60
  21
 172.000
  31
0.0
   0
LINE
   8
LEVEL100
   6
CONTINUOUS
  62
7
  10
 1105.00
  20
 216.000
  30
0.0
  11
 1532.60
  21
 216.000
  31
0.0
   0
LINE
   8
LEVEL100
   6
CONTINUOUS
  62
7
  10
 1208.60
  20
 1012.00
  30
0.0
  11
 1208.60
  21
 1112.00
  31
0.0
   0
LINE
   8
LEVEL100
   6
CONTINUOUS
  62
7
  10
 1208.60
  20
 1092.00
  30
0.0
  11
 1532.60
  21
 1092.00
  31
0.0
   0
LINE
   8
LEVEL100
   6
CONTINUOUS
  62
7
  10
 1208.60
  20
 1072.00
  30
0.0
  11
 1532.60
  21
 1072.00
  31
0.0
   0
LINE
   8
LEVEL100
   6
CONTINUOUS
  62
7
  10
 1244.60
  20
 1092.00
  30
0.0
  11
 1244.60
  21
 1072.00
  31
0.0
   0
LINE
   8
LEVEL100
   6
CONTINUOUS
  62
7
  10
 1452.60
  20
 1092.00
  30
0.0
  11
 1452.60
  21
 1072.00
  31
0.0
   0
LINE
   8
LEVEL100
   6
CONTINUOUS
  62
7
  10
 1500.60
  20
 1092.00
  30
0.0
  11
 1500.60
  21
 1072.00
  31
0.0
   0
LINE
   8
LEVEL100
   6
CONTINUOUS
  62
7
  10
 1105.00
  20
 124.000
  30
0.0
  11
 1532.60
  21
 124.000
  31
0.0
   0
LINE
   8
LEVEL100
   6
CONTINUOUS
  62
7
  10
 1105.00
  20
 60.0000
  30
0.0
  11
 1532.60
  21
 60.0000
  31
0.0
   0
LINE
   8
LEVEL100
   6
CONTINUOUS
  62
7
  10
 1420.60
  20
 60.0000
  30
0.0
  11
 1420.60
  21
0.0
  31
0.0
   0
LINE
   8
LEVEL100
   6
CONTINUOUS
  62
7
  10
 1436.60
  20
0.0
  30
0.0
  11
 1504.60
  21
 40.0000
  31
0.0
   0
LINE
   8
LEVEL100
   6
CONTINUOUS
  62
7
  10
0.0
  20
 1112.00
  30
0.0
  11
 1532.60
  21
 1112.00
  31
0.0
   0
LINE
   8
LEVEL100
   6
CONTINUOUS
  62
7
  10
 1532.60
  20
 1112.00
  30
0.0
  11
 1532.60
  21
0.0
  31
0.0
   0
LINE
   8
LEVEL100
   6
CONTINUOUS
  62
7
  10
 1532.60
  20
0.0
  30
0.0
  11
0.0
  21
0.0
  31
0.0
   0
LINE
   8
LEVEL100
   6
CONTINUOUS
  62
7
  10
0.0
  20
 1076.80
  30
0.0
  11
 200.600
  21
 1076.80
  31
0.0
   0
LINE
   8
LEVEL100
   6
CONTINUOUS
  62
7
  10
 200.600
  20
 1076.80
  30
0.0
  11
 200.600
  21
 1112.00
  31
0.0
   0
TEXT
   8
LEVEL100
  62
7
  10
 196.600
  20
 1104.40
  30
0.0
  40
 20.0000
   1
ＯＪ．
  50
 180.000
  41
 0.900000
   7
STANDARD
   0
LINE
   8
LEVEL100
   6
CONTINUOUS
  62
7
  10
 128.600
  20
 1096.40
  30
0.0
  11
 116.600
  21
 1096.40
  31
0.0
   0
LINE
   8
LEVEL100
   6
CONTINUOUS
  62
7
  10
 116.600
  20
 1096.40
  30
0.0
  11
 116.600
  21
 1092.40
  31
0.0
   0
LINE
   8
LEVEL100
   6
CONTINUOUS
  62
7
  10
 116.600
  20
 1092.40
  30
0.0
  11
 128.600
  21
 1092.40
  31
0.0
   0
LINE
   8
LEVEL100
   6
CONTINUOUS
  62
7
  10
 128.600
  20
 1092.40
  30
0.0
  11
 128.600
  21
 1096.40
  31
0.0
   0
TEXT
   8
LEVEL100
  62
7
  10
 1149.00
  20
 192.000
  30
0.0
  40
 16.0000
   1
Ｓ．ＩＭＡＮＩＳＨＩ
  41
 0.625000
   7
STANDARD
   0
TEXT
   8
LEVEL100
  62
3
  10
 1265.00
  20
 124.000
  30
0.0
  40
 20.0000
   1
＊＊＊＊＊＊＊＊＊＊＊＊＊＊
  41
 0.700000
   7
STANDARD
   0
TEXT
   8
LEVEL100
  62
3
  10
 1437.79
  20
 21.2000
  30
0.0
  40
 20.0000
   1
＊＊
  41
 0.630000
   7
STANDARD
  72
1
  11
 1450.39
  21
 21.2000
  31
0.0
   0
LINE
   8
LEVEL001
   6
CONTINUOUS
  62
7
  10
 473.910
  20
 833.000
  30
0.0
  11
 473.410
  21
 833.500
  31
0.0
   0
LINE
   8
LEVEL001
   6
CONTINUOUS
  62
3
  10
 462.785
  20
 763.763
  30
0.0
  11
 462.785
  21
 764.000
  31
0.0
   0
LINE
   8
LEVEL001
   6
DASHDOT
  62
1
  10
 414.410
  20
 815.000
  30
0.0
  11
 398.410
  21
 815.000
  31
0.0
   0
LINE
   8
LEVEL001
   6
DASHDOT
  62
1
  10
 446.410
  20
 778.165
  30
0.0
  11
 446.410
  21
 822.517
  31
0.0
   0
ARC
   8
LEVEL001
   6
CONTINUOUS
  62
7
  10
 406.337
  20
 807.000
  30
0.0
  40
 3.00000
  50
 270.000
  51
 355.000
   0
ARC
   8
LEVEL001
   6
CONTINUOUS
  62
7
  10
 404.410
  20
 802.000
  30
0.0
  40
 2.00000
  50
 90.0000
  51
 180.000
   0
LINE
   8
LEVEL001
   6
CONTINUOUS
  62
7
  10
 402.410
  20
 802.000
  30
0.0
  11
 402.410
  21
 798.000
  31
0.0
   0
ARC
   8
LEVEL001
   6
CONTINUOUS
  62
7
  10
 404.410
  20
 798.000
  30
0.0
  40
 2.00000
  50
 180.000
  51
 270.000
   0
LINE
   8
LEVEL001
   6
CONTINUOUS
  62
7
  10
 399.910
  20
 826.062
  30
0.0
  11
 399.910
  21
 771.425
  31
0.0
   0
ARC
   8
LEVEL001
   6
CONTINUOUS
  62
7
  10
 401.605
  20
 825.000
  30
0.0
  40
 2.00000
  50
 90.0000
  51
 147.933
   0
LINE
   8
LEVEL001
   6
CONTINUOUS
  62
7
  10
 430.518
  20
 764.428
  30
0.0
  11
 431.556
  21
 752.564
  31
0.0
   0
ARC
   8
LEVEL001
   6
CONTINUOUS
  62
7
  10
 436.537
  20
 753.000
  30
0.0
  40
 5.00000
  50
 185.000
  51
 270.000
   0
ARC
   8
LEVEL001
   6
CONTINUOUS
  62
7
  10
 458.279
  20
 753.000
  30
0.0
  40
 5.00000
  50
 270.000
  51
 355.000
   0
LINE
   8
LEVEL001
   6
CONTINUOUS
  62
7
  10
 436.537
  20
 748.000
  30
0.0
  11
 458.279
  21
 748.000
  31
0.0
   0
ARC
   8
LEVEL001
   6
CONTINUOUS
  62
7
  10
 410.699
  20
 807.000
  30
0.0
  40
 3.00000
  50
 270.000
  51
 355.000
   0
LINE
   8
LEVEL001
   6
CONTINUOUS
  62
7
  10
 404.410
  20
 804.000
  30
0.0
  11
 410.699
  21
 804.000
  31
0.0
   0
ARC
   8
LEVEL001
   6
CONTINUOUS
  62
7
  10
 410.699
  20
 793.000
  30
0.0
  40
 3.00000
  50
 5.00000
  51
 90.0000
   0
LINE
   8
LEVEL001
   6
CONTINUOUS
  62
7
  10
 404.410
  20
 796.000
  30
0.0
  11
 410.699
  21
 796.000
  31
0.0
   0
LINE
   8
LEVEL001
   6
DASHDOT
  62
1
  10
 439.410
  20
 845.000
  30
0.0
  11
 439.410
  21
 758.916
  31
0.0
   0
ARC
   8
LEVEL001
   6
CONTINUOUS
  62
7
  10
 408.910
  20
 818.500
  30
0.0
  40
 2.00000
  50
 270.000
  51
 0.188900E-9
   0
ARC
   8
LEVEL001
   6
CONTINUOUS
  62
7
  10
 402.208
  20
 814.500
  30
0.0
  40
 2.00000
  50
 90.0001
  51
 178.000
   0
ARC
   8
LEVEL001
   6
CONTINUOUS
  62
7
  10
 514.080
  20
 814.500
  30
0.0
  40
 2.00000
  50
 2.00010
  51
 90.0001
   0
LINE
   8
LEVEL001
   6
CONTINUOUS
  62
7
  10
 516.078
  20
 814.570
  30
0.0
  11
 516.381
  21
 805.895
  31
0.0
   0
ARC
   8
LEVEL001
   6
CONTINUOUS
  62
7
  10
 459.410
  20
 818.500
  30
0.0
  40
 2.00000
  50
 180.000
  51
 270.000
   0
LINE
   8
LEVEL001
   6
CONTINUOUS
  62
7
  10
 410.910
  20
 818.500
  30
0.0
  11
 457.410
  21
 818.500
  31
0.0
   0
ARC
   8
LEVEL001
   6
CONTINUOUS
  62
7
  10
 551.482
  20
 816.500
  30
0.0
  40
 1.00000
  50
 90.0006
  51
 179.999
   0
LINE
   8
LEVEL001
   6
CONTINUOUS
  62
7
  10
 550.483
  20
 816.500
  30
0.0
  11
 550.483
  21
 783.500
  31
0.0
   0
LINE
   8
LEVEL001
   6
CONTINUOUS
  62
7
  10
 402.208
  20
 816.500
  30
0.0
  11
 550.483
  21
 816.500
  31
0.0
   0
LINE
   8
LEVEL001
   6
CONTINUOUS
  62
7
  10
 551.482
  20
 817.500
  30
0.0
  11
 557.983
  21
 817.500
  31
0.0
   0
LINE
   8
LEVEL001
   6
CONTINUOUS
  62
7
  10
 557.983
  20
 817.500
  30
0.0
  11
 558.983
  21
 816.500
  31
0.0
   0
LINE
   8
LEVEL001
   6
CONTINUOUS
  62
7
  10
 557.983
  20
 817.500
  30
0.0
  11
 557.983
  21
 782.500
  31
0.0
   0
ARC
   8
LEVEL001
   6
CONTINUOUS
  62
7
  10
 408.910
  20
 781.500
  30
0.0
  40
 2.00000
  50
 0.125266E-3
  51
 90.0000
   0
ARC
   8
LEVEL001
   6
CONTINUOUS
  62
7
  10
 402.208
  20
 785.500
  30
0.0
  40
 2.00000
  50
 182.000
  51
 270.000
   0
ARC
   8
LEVEL001
   6
CONTINUOUS
  62
7
  10
 514.080
  20
 785.500
  30
0.0
  40
 2.00000
  50
 270.000
  51
 358.000
   0
LINE
   8
LEVEL001
   6
CONTINUOUS
  62
7
  10
 516.381
  20
 794.105
  30
0.0
  11
 516.079
  21
 785.430
  31
0.0
   0
ARC
   8
LEVEL001
   6
CONTINUOUS
  62
7
  10
 459.410
  20
 781.500
  30
0.0
  40
 2.00000
  50
 90.0000
  51
 180.000
   0
LINE
   8
LEVEL001
   6
CONTINUOUS
  62
7
  10
 410.910
  20
 781.500
  30
0.0
  11
 457.410
  21
 781.500
  31
0.0
   0
ARC
   8
LEVEL001
   6
CONTINUOUS
  62
7
  10
 551.483
  20
 783.500
  30
0.0
  40
 1.00000
  50
 180.001
  51
 270.000
   0
LINE
   8
LEVEL001
   6
CONTINUOUS
  62
7
  10
 402.208
  20
 783.500
  30
0.0
  11
 550.483
  21
 783.500
  31
0.0
   0
LINE
   8
LEVEL001
   6
CONTINUOUS
  62
7
  10
 558.983
  20
 816.500
  30
0.0
  11
 558.983
  21
 783.500
  31
0.0
   0
LINE
   8
LEVEL001
   6
CONTINUOUS
  62
7
  10
 558.983
  20
 783.500
  30
0.0
  11
 557.983
  21
 782.500
  31
0.0
   0
LINE
   8
LEVEL001
   6
CONTINUOUS
  62
7
  10
 551.483
  20
 782.500
  30
0.0
  11
 557.983
  21
 782.500
  31
0.0
   0
ARC
   8
LEVEL001
   6
CONTINUOUS
  62
7
  10
 519.380
  20
 806.000
  30
0.0
  40
 3.00000
  50
 182.000
  51
 270.000
   0
ARC
   8
LEVEL001
   6
CONTINUOUS
  62
7
  10
 519.380
  20
 794.000
  30
0.0
  40
 3.00000
  50
 90.0001
  51
 178.000
   0
LINE
   8
LEVEL001
   6
CONTINUOUS
  62
7
  10
 471.365
  20
 770.954
  30
0.0
  11
 472.462
  21
 783.500
  31
0.0
   0
LINE
   8
LEVEL003
   6
CONTINUOUS
  62
7
  10
 448.410
  20
 768.101
  30
0.0
  11
 448.340
  21
 769.155
  31
0.0
   0
LINE
   8
LEVEL003
   6
CONTINUOUS
  62
7
  10
 448.340
  20
 769.155
  30
0.0
  11
 448.131
  21
 770.193
  31
0.0
   0
LINE
   8
LEVEL003
   6
CONTINUOUS
  62
7
  10
 448.131
  20
 770.193
  30
0.0
  11
 447.785
  21
 771.199
  31
0.0
   0
LINE
   8
LEVEL003
   6
CONTINUOUS
  62
7
  10
 447.785
  20
 771.199
  30
0.0
  11
 447.309
  21
 772.156
  31
0.0
   0
LINE
   8
LEVEL003
   6
CONTINUOUS
  62
7
  10
 447.309
  20
 772.156
  30
0.0
  11
 446.709
  21
 773.049
  31
0.0
   0
LINE
   8
LEVEL003
   6
CONTINUOUS
  62
7
  10
 446.709
  20
 773.049
  30
0.0
  11
 445.996
  21
 773.866
  31
0.0
   0
LINE
   8
LEVEL003
   6
CONTINUOUS
  62
7
  10
 445.996
  20
 773.866
  30
0.0
  11
 445.179
  21
 774.592
  31
0.0
   0
LINE
   8
LEVEL003
   6
CONTINUOUS
  62
7
  10
 445.179
  20
 774.592
  30
0.0
  11
 444.273
  21
 775.217
  31
0.0
   0
LINE
   8
LEVEL003
   6
CONTINUOUS
  62
7
  10
 444.273
  20
 775.217
  30
0.0
  11
 443.291
  21
 775.732
  31
0.0
   0
LINE
   8
LEVEL003
   6
CONTINUOUS
  62
7
  10
 443.291
  20
 775.732
  30
0.0
  11
 442.248
  21
 776.127
  31
0.0
   0
LINE
   8
LEVEL003
   6
CONTINUOUS
  62
7
  10
 442.248
  20
 776.127
  30
0.0
  11
 441.161
  21
 776.397
  31
0.0
   0
LINE
   8
LEVEL003
   6
CONTINUOUS
  62
7
  10
 441.161
  20
 776.397
  30
0.0
  11
 440.047
  21
 776.537
  31
0.0
   0
LINE
   8
LEVEL003
   6
CONTINUOUS
  62
7
  10
 440.047
  20
 776.537
  30
0.0
  11
 438.923
  21
 776.546
  31
0.0
   0
LINE
   8
LEVEL003
   6
CONTINUOUS
  62
7
  10
 438.923
  20
 776.546
  30
0.0
  11
 437.806
  21
 776.423
  31
0.0
   0
LINE
   8
LEVEL003
   6
CONTINUOUS
  62
7
  10
 437.806
  20
 776.423
  30
0.0
  11
 436.715
  21
 776.170
  31
0.0
   0
LINE
   8
LEVEL003
   6
CONTINUOUS
  62
7
  10
 436.715
  20
 776.170
  30
0.0
  11
 435.665
  21
 775.791
  31
0.0
   0
LINE
   8
LEVEL003
   6
CONTINUOUS
  62
7
  10
 435.665
  20
 775.791
  30
0.0
  11
 434.674
  21
 775.292
  31
0.0
   0
LINE
   8
LEVEL003
   6
CONTINUOUS
  62
7
  10
 434.674
  20
 775.292
  30
0.0
  11
 433.757
  21
 774.681
  31
0.0
   0
LINE
   8
LEVEL003
   6
CONTINUOUS
  62
7
  10
 433.757
  20
 774.681
  30
0.0
  11
 432.928
  21
 773.968
  31
0.0
   0
LINE
   8
LEVEL003
   6
CONTINUOUS
  62
7
  10
 432.928
  20
 773.968
  30
0.0
  11
 432.200
  21
 773.162
  31
0.0
   0
LINE
   8
LEVEL003
   6
CONTINUOUS
  62
7
  10
 432.200
  20
 773.162
  30
0.0
  11
 431.585
  21
 772.278
  31
0.0
   0
LINE
   8
LEVEL003
   6
CONTINUOUS
  62
7
  10
 431.585
  20
 772.278
  30
0.0
  11
 431.092
  21
 771.329
  31
0.0
   0
LINE
   8
LEVEL003
   6
CONTINUOUS
  62
7
  10
 431.092
  20
 771.329
  30
0.0
  11
 430.728
  21
 770.329
  31
0.0
   0
LINE
   8
LEVEL003
   6
CONTINUOUS
  62
7
  10
 430.728
  20
 770.329
  30
0.0
  11
 430.500
  21
 769.294
  31
0.0
   0
LINE
   8
LEVEL003
   6
CONTINUOUS
  62
7
  10
 430.500
  20
 769.294
  30
0.0
  11
 430.412
  21
 768.241
  31
0.0
   0
LINE
   8
LEVEL003
   6
CONTINUOUS
  62
7
  10
 430.412
  20
 768.241
  30
0.0
  11
 430.463
  21
 767.186
  31
0.0
   0
LINE
   8
LEVEL003
   6
CONTINUOUS
  62
7
  10
 430.463
  20
 767.186
  30
0.0
  11
 430.654
  21
 766.145
  31
0.0
   0
LINE
   8
LEVEL003
   6
CONTINUOUS
  62
7
  10
 430.654
  20
 766.145
  30
0.0
  11
 430.982
  21
 765.134
  31
0.0
   0
LINE
   8
LEVEL003
   6
CONTINUOUS
  62
7
  10
 430.982
  20
 765.134
  30
0.0
  11
 431.442
  21
 764.170
  31
0.0
   0
LINE
   8
LEVEL003
   6
CONTINUOUS
  62
7
  10
 431.442
  20
 764.170
  30
0.0
  11
 432.025
  21
 763.267
  31
0.0
   0
LINE
   8
LEVEL003
   6
CONTINUOUS
  62
7
  10
 432.025
  20
 763.267
  30
0.0
  11
 432.724
  21
 762.440
  31
0.0
   0
LINE
   8
LEVEL003
   6
CONTINUOUS
  62
7
  10
 432.724
  20
 762.440
  30
0.0
  11
 433.528
  21
 761.701
  31
0.0
   0
LINE
   8
LEVEL003
   6
CONTINUOUS
  62
7
  10
 433.528
  20
 761.701
  30
0.0
  11
 434.423
  21
 761.061
  31
0.0
   0
LINE
   8
LEVEL003
   6
CONTINUOUS
  62
7
  10
 434.423
  20
 761.061
  30
0.0
  11
 435.396
  21
 760.532
  31
0.0
   0
LINE
   8
LEVEL003
   6
CONTINUOUS
  62
7
  10
 435.396
  20
 760.532
  30
0.0
  11
 436.431
  21
 760.121
  31
0.0
   0
LINE
   8
LEVEL003
   6
CONTINUOUS
  62
7
  10
 436.431
  20
 760.121
  30
0.0
  11
 437.513
  21
 759.834
  31
0.0
   0
LINE
   8
LEVEL003
   6
CONTINUOUS
  62
7
  10
 437.513
  20
 759.834
  30
0.0
  11
 438.625
  21
 759.676
  31
0.0
   0
LINE
   8
LEVEL003
   6
CONTINUOUS
  62
7
  10
 438.625
  20
 759.676
  30
0.0
  11
 439.749
  21
 759.650
  31
0.0
   0
LINE
   8
LEVEL003
   6
CONTINUOUS
  62
7
  10
 439.749
  20
 759.650
  30
0.0
  11
 440.867
  21
 759.755
  31
0.0
   0
LINE
   8
LEVEL003
   6
CONTINUOUS
  62
7
  10
 440.867
  20
 759.755
  30
0.0
  11
 441.963
  21
 759.991
  31
0.0
   0
LINE
   8
LEVEL003
   6
CONTINUOUS
  62
7
  10
 441.963
  20
 759.991
  30
0.0
  11
 443.019
  21
 760.353
  31
0.0
   0
LINE
   8
LEVEL003
   6
CONTINUOUS
  62
7
  10
 443.019
  20
 760.353
  30
0.0
  11
 444.019
  21
 760.837
  31
0.0
   0
LINE
   8
LEVEL003
   6
CONTINUOUS
  62
7
  10
 444.019
  20
 760.837
  30
0.0
  11
 444.947
  21
 761.433
  31
0.0
   0
LINE
   8
LEVEL003
   6
CONTINUOUS
  62
7
  10
 444.947
  20
 761.433
  30
0.0
  11
 445.788
  21
 762.134
  31
0.0
   0
LINE
   8
LEVEL003
   6
CONTINUOUS
  62
7
  10
 445.788
  20
 762.134
  30
0.0
  11
 446.530
  21
 762.928
  31
0.0
   0
LINE
   8
LEVEL003
   6
CONTINUOUS
  62
7
  10
 446.530
  20
 762.928
  30
0.0
  11
 447.161
  21
 763.802
  31
0.0
   0
LINE
   8
LEVEL003
   6
CONTINUOUS
  62
7
  10
 447.161
  20
 763.802
  30
0.0
  11
 447.671
  21
 764.744
  31
0.0
   0
LINE
   8
LEVEL003
   6
CONTINUOUS
  62
7
  10
 447.671
  20
 764.744
  30
0.0
  11
 448.052
  21
 765.738
  31
0.0
   0
LINE
   8
LEVEL003
   6
CONTINUOUS
  62
7
  10
 448.052
  20
 765.738
  30
0.0
  11
 448.298
  21
 766.769
  31
0.0
   0
LINE
   8
LEVEL003
   6
CONTINUOUS
  62
7
  10
 448.298
  20
 766.769
  30
0.0
  11
 448.405
  21
 767.820
  31
0.0
   0
LINE
   8
LEVEL003
   6
CONTINUOUS
  62
7
  10
 448.405
  20
 767.820
  30
0.0
  11
 448.410
  21
 768.101
  31
0.0
   0
LINE
   8
LEVEL003
   6
CONTINUOUS
  62
7
  10
 430.410
  20
 768.101
  30
0.0
  11
 430.410
  21
 772.000
  31
0.0
   0
LINE
   8
LEVEL003
   6
CONTINUOUS
  62
7
  10
 448.410
  20
 768.101
  30
0.0
  11
 448.410
  21
 772.000
  31
0.0
   0
LINE
   8
LEVEL003
   6
CONTINUOUS
  62
7
  10
 447.410
  20
 767.896
  30
0.0
  11
 447.348
  21
 768.833
  31
0.0
   0
LINE
   8
LEVEL003
   6
CONTINUOUS
  62
7
  10
 447.348
  20
 768.833
  30
0.0
  11
 447.162
  21
 769.756
  31
0.0
   0
LINE
   8
LEVEL003
   6
CONTINUOUS
  62
7
  10
 447.162
  20
 769.756
  30
0.0
  11
 446.854
  21
 770.649
  31
0.0
   0
LINE
   8
LEVEL003
   6
CONTINUOUS
  62
7
  10
 446.854
  20
 770.649
  30
0.0
  11
 446.431
  21
 771.500
  31
0.0
   0
LINE
   8
LEVEL003
   6
CONTINUOUS
  62
7
  10
 446.431
  20
 771.500
  30
0.0
  11
 445.898
  21
 772.294
  31
0.0
   0
LINE
   8
LEVEL003
   6
CONTINUOUS
  62
7
  10
 445.898
  20
 772.294
  30
0.0
  11
 445.264
  21
 773.020
  31
0.0
   0
LINE
   8
LEVEL003
   6
CONTINUOUS
  62
7
  10
 445.264
  20
 773.020
  30
0.0
  11
 444.538
  21
 773.666
  31
0.0
   0
LINE
   8
LEVEL003
   6
CONTINUOUS
  62
7
  10
 444.538
  20
 773.666
  30
0.0
  11
 443.733
  21
 774.222
  31
0.0
   0
LINE
   8
LEVEL003
   6
CONTINUOUS
  62
7
  10
 443.733
  20
 774.222
  30
0.0
  11
 442.860
  21
 774.679
  31
0.0
   0
LINE
   8
LEVEL003
   6
CONTINUOUS
  62
7
  10
 442.860
  20
 774.679
  30
0.0
  11
 441.933
  21
 775.030
  31
0.0
   0
LINE
   8
LEVEL003
   6
CONTINUOUS
  62
7
  10
 441.933
  20
 775.030
  30
0.0
  11
 440.967
  21
 775.270
  31
0.0
   0
LINE
   8
LEVEL003
   6
CONTINUOUS
  62
7
  10
 440.967
  20
 775.270
  30
0.0
  11
 439.976
  21
 775.394
  31
0.0
   0
LINE
   8
LEVEL003
   6
CONTINUOUS
  62
7
  10
 439.976
  20
 775.394
  30
0.0
  11
 438.977
  21
 775.402
  31
0.0
   0
LINE
   8
LEVEL003
   6
CONTINUOUS
  62
7
  10
 438.977
  20
 775.402
  30
0.0
  11
 437.984
  21
 775.293
  31
0.0
   0
LINE
   8
LEVEL003
   6
CONTINUOUS
  62
7
  10
 437.984
  20
 775.293
  30
0.0
  11
 437.014
  21
 775.068
  31
0.0
   0
LINE
   8
LEVEL003
   6
CONTINUOUS
  62
7
  10
 437.014
  20
 775.068
  30
0.0
  11
 436.081
  21
 774.731
  31
0.0
   0
LINE
   8
LEVEL003
   6
CONTINUOUS
  62
7
  10
 436.081
  20
 774.731
  30
0.0
  11
 435.200
  21
 774.288
  31
0.0
   0
LINE
   8
LEVEL003
   6
CONTINUOUS
  62
7
  10
 435.200
  20
 774.288
  30
0.0
  11
 434.385
  21
 773.745
  31
0.0
   0
LINE
   8
LEVEL003
   6
CONTINUOUS
  62
7
  10
 434.385
  20
 773.745
  30
0.0
  11
 433.648
  21
 773.111
  31
0.0
   0
LINE
   8
LEVEL003
   6
CONTINUOUS
  62
7
  10
 433.648
  20
 773.111
  30
0.0
  11
 433.001
  21
 772.395
  31
0.0
   0
LINE
   8
LEVEL003
   6
CONTINUOUS
  62
7
  10
 433.001
  20
 772.395
  30
0.0
  11
 432.454
  21
 771.609
  31
0.0
   0
LINE
   8
LEVEL003
   6
CONTINUOUS
  62
7
  10
 432.454
  20
 771.609
  30
0.0
  11
 432.016
  21
 770.765
  31
0.0
   0
LINE
   8
LEVEL003
   6
CONTINUOUS
  62
7
  10
 432.016
  20
 770.765
  30
0.0
  11
 431.693
  21
 769.876
  31
0.0
   0
LINE
   8
LEVEL003
   6
CONTINUOUS
  62
7
  10
 431.693
  20
 769.876
  30
0.0
  11
 431.490
  21
 768.957
  31
0.0
   0
LINE
   8
LEVEL003
   6
CONTINUOUS
  62
7
  10
 431.490
  20
 768.957
  30
0.0
  11
 431.411
  21
 768.020
  31
0.0
   0
LINE
   8
LEVEL003
   6
CONTINUOUS
  62
7
  10
 431.411
  20
 768.020
  30
0.0
  11
 431.457
  21
 767.082
  31
0.0
   0
LINE
   8
LEVEL003
   6
CONTINUOUS
  62
7
  10
 431.457
  20
 767.082
  30
0.0
  11
 431.627
  21
 766.157
  31
0.0
   0
LINE
   8
LEVEL003
   6
CONTINUOUS
  62
7
  10
 431.627
  20
 766.157
  30
0.0
  11
 431.919
  21
 765.259
  31
0.0
   0
LINE
   8
LEVEL003
   6
CONTINUOUS
  62
7
  10
 431.919
  20
 765.259
  30
0.0
  11
 432.327
  21
 764.402
  31
0.0
   0
LINE
   8
LEVEL003
   6
CONTINUOUS
  62
7
  10
 432.327
  20
 764.402
  30
0.0
  11
 432.846
  21
 763.599
  31
0.0
   0
LINE
   8
LEVEL003
   6
CONTINUOUS
  62
7
  10
 432.846
  20
 763.599
  30
0.0
  11
 433.467
  21
 762.863
  31
0.0
   0
LINE
   8
LEVEL003
   6
CONTINUOUS
  62
7
  10
 433.467
  20
 762.863
  30
0.0
  11
 434.181
  21
 762.206
  31
0.0
   0
LINE
   8
LEVEL003
   6
CONTINUOUS
  62
7
  10
 434.181
  20
 762.206
  30
0.0
  11
 434.977
  21
 761.638
  31
0.0
   0
LINE
   8
LEVEL003
   6
CONTINUOUS
  62
7
  10
 434.977
  20
 761.638
  30
0.0
  11
 435.842
  21
 761.168
  31
0.0
   0
LINE
   8
LEVEL003
   6
CONTINUOUS
  62
7
  10
 435.842
  20
 761.168
  30
0.0
  11
 436.762
  21
 760.802
  31
0.0
   0
LINE
   8
LEVEL003
   6
CONTINUOUS
  62
7
  10
 436.762
  20
 760.802
  30
0.0
  11
 437.724
  21
 760.547
  31
0.0
   0
LINE
   8
LEVEL003
   6
CONTINUOUS
  62
7
  10
 437.724
  20
 760.547
  30
0.0
  11
 438.712
  21
 760.407
  31
0.0
   0
LINE
   8
LEVEL003
   6
CONTINUOUS
  62
7
  10
 438.712
  20
 760.407
  30
0.0
  11
 439.711
  21
 760.384
  31
0.0
   0
LINE
   8
LEVEL003
   6
CONTINUOUS
  62
7
  10
 439.711
  20
 760.384
  30
0.0
  11
 440.706
  21
 760.477
  31
0.0
   0
LINE
   8
LEVEL003
   6
CONTINUOUS
  62
7
  10
 440.706
  20
 760.477
  30
0.0
  11
 441.680
  21
 760.687
  31
0.0
   0
LINE
   8
LEVEL003
   6
CONTINUOUS
  62
7
  10
 441.680
  20
 760.687
  30
0.0
  11
 442.618
  21
 761.009
  31
0.0
   0
LINE
   8
LEVEL003
   6
CONTINUOUS
  62
7
  10
 442.618
  20
 761.009
  30
0.0
  11
 443.507
  21
 761.439
  31
0.0
   0
LINE
   8
LEVEL003
   6
CONTINUOUS
  62
7
  10
 443.507
  20
 761.439
  30
0.0
  11
 444.332
  21
 761.969
  31
0.0
   0
LINE
   8
LEVEL003
   6
CONTINUOUS
  62
7
  10
 444.332
  20
 761.969
  30
0.0
  11
 445.080
  21
 762.592
  31
0.0
   0
LINE
   8
LEVEL003
   6
CONTINUOUS
  62
7
  10
 445.080
  20
 762.592
  30
0.0
  11
 445.739
  21
 763.297
  31
0.0
   0
LINE
   8
LEVEL003
   6
CONTINUOUS
  62
7
  10
 445.739
  20
 763.297
  30
0.0
  11
 446.300
  21
 764.075
  31
0.0
   0
LINE
   8
LEVEL003
   6
CONTINUOUS
  62
7
  10
 446.300
  20
 764.075
  30
0.0
  11
 446.753
  21
 764.912
  31
0.0
   0
LINE
   8
LEVEL003
   6
CONTINUOUS
  62
7
  10
 446.753
  20
 764.912
  30
0.0
  11
 447.092
  21
 765.795
  31
0.0
   0
LINE
   8
LEVEL003
   6
CONTINUOUS
  62
7
  10
 447.092
  20
 765.795
  30
0.0
  11
 447.310
  21
 766.712
  31
0.0
   0
LINE
   8
LEVEL003
   6
CONTINUOUS
  62
7
  10
 447.310
  20
 766.712
  30
0.0
  11
 447.406
  21
 767.646
  31
0.0
   0
LINE
   8
LEVEL003
   6
CONTINUOUS
  62
7
  10
 447.406
  20
 767.646
  30
0.0
  11
 447.410
  21
 767.896
  31
0.0
   0
LINE
   8
LEVEL003
   6
CONTINUOUS
  62
7
  10
 439.410
  20
 773.126
  30
0.0
  11
 444.410
  21
 770.783
  31
0.0
   0
LINE
   8
LEVEL003
   6
CONTINUOUS
  62
7
  10
 444.410
  20
 770.783
  30
0.0
  11
 444.410
  21
 765.009
  31
0.0
   0
LINE
   8
LEVEL003
   6
CONTINUOUS
  62
7
  10
 444.410
  20
 765.009
  30
0.0
  11
 439.410
  21
 762.665
  31
0.0
   0
LINE
   8
LEVEL003
   6
CONTINUOUS
  62
7
  10
 439.410
  20
 762.665
  30
0.0
  11
 434.410
  21
 765.009
  31
0.0
   0
LINE
   8
LEVEL003
   6
CONTINUOUS
  62
7
  10
 434.410
  20
 765.009
  30
0.0
  11
 434.410
  21
 770.783
  31
0.0
   0
LINE
   8
LEVEL003
   6
CONTINUOUS
  62
7
  10
 434.410
  20
 770.783
  30
0.0
  11
 439.410
  21
 773.126
  31
0.0
   0
LINE
   8
LEVEL003
   6
CONTINUOUS
  62
7
  10
 468.410
  20
 768.101
  30
0.0
  11
 468.340
  21
 769.155
  31
0.0
   0
LINE
   8
LEVEL003
   6
CONTINUOUS
  62
7
  10
 468.340
  20
 769.155
  30
0.0
  11
 468.131
  21
 770.193
  31
0.0
   0
LINE
   8
LEVEL003
   6
CONTINUOUS
  62
7
  10
 468.131
  20
 770.193
  30
0.0
  11
 467.785
  21
 771.199
  31
0.0
   0
LINE
   8
LEVEL003
   6
CONTINUOUS
  62
7
  10
 467.785
  20
 771.199
  30
0.0
  11
 467.309
  21
 772.156
  31
0.0
   0
LINE
   8
LEVEL003
   6
CONTINUOUS
  62
7
  10
 467.309
  20
 772.156
  30
0.0
  11
 466.709
  21
 773.049
  31
0.0
   0
LINE
   8
LEVEL003
   6
CONTINUOUS
  62
7
  10
 466.709
  20
 773.049
  30
0.0
  11
 465.996
  21
 773.866
  31
0.0
   0
LINE
   8
LEVEL003
   6
CONTINUOUS
  62
7
  10
 465.996
  20
 773.866
  30
0.0
  11
 465.179
  21
 774.592
  31
0.0
   0
LINE
   8
LEVEL003
   6
CONTINUOUS
  62
7
  10
 465.179
  20
 774.592
  30
0.0
  11
 464.273
  21
 775.217
  31
0.0
   0
LINE
   8
LEVEL003
   6
CONTINUOUS
  62
7
  10
 464.273
  20
 775.217
  30
0.0
  11
 463.291
  21
 775.732
  31
0.0
   0
LINE
   8
LEVEL003
   6
CONTINUOUS
  62
7
  10
 463.291
  20
 775.732
  30
0.0
  11
 462.248
  21
 776.127
  31
0.0
   0
LINE
   8
LEVEL003
   6
CONTINUOUS
  62
7
  10
 462.248
  20
 776.127
  30
0.0
  11
 461.161
  21
 776.397
  31
0.0
   0
LINE
   8
LEVEL003
   6
CONTINUOUS
  62
7
  10
 461.161
  20
 776.397
  30
0.0
  11
 460.047
  21
 776.537
  31
0.0
   0
LINE
   8
LEVEL003
   6
CONTINUOUS
  62
7
  10
 460.047
  20
 776.537
  30
0.0
  11
 458.923
  21
 776.546
  31
0.0
   0
LINE
   8
LEVEL003
   6
CONTINUOUS
  62
7
  10
 458.923
  20
 776.546
  30
0.0
  11
 457.806
  21
 776.423
  31
0.0
   0
LINE
   8
LEVEL003
   6
CONTINUOUS
  62
7
  10
 457.806
  20
 776.423
  30
0.0
  11
 456.715
  21
 776.170
  31
0.0
   0
LINE
   8
LEVEL003
   6
CONTINUOUS
  62
7
  10
 456.715
  20
 776.170
  30
0.0
  11
 455.665
  21
 775.791
  31
0.0
   0
LINE
   8
LEVEL003
   6
CONTINUOUS
  62
7
  10
 455.665
  20
 775.791
  30
0.0
  11
 454.674
  21
 775.292
  31
0.0
   0
LINE
   8
LEVEL003
   6
CONTINUOUS
  62
7
  10
 454.674
  20
 775.292
  30
0.0
  11
 453.757
  21
 774.681
  31
0.0
   0
LINE
   8
LEVEL003
   6
CONTINUOUS
  62
7
  10
 453.757
  20
 774.681
  30
0.0
  11
 452.928
  21
 773.968
  31
0.0
   0
LINE
   8
LEVEL003
   6
CONTINUOUS
  62
7
  10
 452.928
  20
 773.968
  30
0.0
  11
 452.200
  21
 773.162
  31
0.0
   0
LINE
   8
LEVEL003
   6
CONTINUOUS
  62
7
  10
 452.200
  20
 773.162
  30
0.0
  11
 451.585
  21
 772.278
  31
0.0
   0
LINE
   8
LEVEL003
   6
CONTINUOUS
  62
7
  10
 451.585
  20
 772.278
  30
0.0
  11
 451.092
  21
 771.329
  31
0.0
   0
LINE
   8
LEVEL003
   6
CONTINUOUS
  62
7
  10
 451.092
  20
 771.329
  30
0.0
  11
 450.728
  21
 770.329
  31
0.0
   0
LINE
   8
LEVEL003
   6
CONTINUOUS
  62
7
  10
 450.728
  20
 770.329
  30
0.0
  11
 450.500
  21
 769.294
  31
0.0
   0
LINE
   8
LEVEL003
   6
CONTINUOUS
  62
7
  10
 450.500
  20
 769.294
  30
0.0
  11
 450.412
  21
 768.241
  31
0.0
   0
LINE
   8
LEVEL003
   6
CONTINUOUS
  62
7
  10
 450.412
  20
 768.241
  30
0.0
  11
 450.463
  21
 767.186
  31
0.0
   0
LINE
   8
LEVEL003
   6
CONTINUOUS
  62
7
  10
 450.463
  20
 767.186
  30
0.0
  11
 450.654
  21
 766.145
  31
0.0
   0
LINE
   8
LEVEL003
   6
CONTINUOUS
  62
7
  10
 450.654
  20
 766.145
  30
0.0
  11
 450.982
  21
 765.134
  31
0.0
   0
LINE
   8
LEVEL003
   6
CONTINUOUS
  62
7
  10
 450.982
  20
 765.134
  30
0.0
  11
 451.442
  21
 764.170
  31
0.0
   0
LINE
   8
LEVEL003
   6
CONTINUOUS
  62
7
  10
 451.442
  20
 764.170
  30
0.0
  11
 452.025
  21
 763.267
  31
0.0
   0
LINE
   8
LEVEL003
   6
CONTINUOUS
  62
7
  10
 452.025
  20
 763.267
  30
0.0
  11
 452.724
  21
 762.440
  31
0.0
   0
LINE
   8
LEVEL003
   6
CONTINUOUS
  62
7
  10
 452.724
  20
 762.440
  30
0.0
  11
 453.528
  21
 761.701
  31
0.0
   0
LINE
   8
LEVEL003
   6
CONTINUOUS
  62
7
  10
 453.528
  20
 761.701
  30
0.0
  11
 454.423
  21
 761.061
  31
0.0
   0
LINE
   8
LEVEL003
   6
CONTINUOUS
  62
7
  10
 454.423
  20
 761.061
  30
0.0
  11
 455.396
  21
 760.532
  31
0.0
   0
LINE
   8
LEVEL003
   6
CONTINUOUS
  62
7
  10
 455.396
  20
 760.532
  30
0.0
  11
 456.431
  21
 760.121
  31
0.0
   0
LINE
   8
LEVEL003
   6
CONTINUOUS
  62
7
  10
 456.431
  20
 760.121
  30
0.0
  11
 457.513
  21
 759.834
  31
0.0
   0
LINE
   8
LEVEL003
   6
CONTINUOUS
  62
7
  10
 457.513
  20
 759.834
  30
0.0
  11
 458.625
  21
 759.676
  31
0.0
   0
LINE
   8
LEVEL003
   6
CONTINUOUS
  62
7
  10
 458.625
  20
 759.676
  30
0.0
  11
 459.749
  21
 759.650
  31
0.0
   0
LINE
   8
LEVEL003
   6
CONTINUOUS
  62
7
  10
 459.749
  20
 759.650
  30
0.0
  11
 460.867
  21
 759.755
  31
0.0
   0
LINE
   8
LEVEL003
   6
CONTINUOUS
  62
7
  10
 460.867
  20
 759.755
  30
0.0
  11
 461.963
  21
 759.991
  31
0.0
   0
LINE
   8
LEVEL003
   6
CONTINUOUS
  62
7
  10
 461.963
  20
 759.991
  30
0.0
  11
 463.019
  21
 760.353
  31
0.0
   0
LINE
   8
LEVEL003
   6
CONTINUOUS
  62
7
  10
 463.019
  20
 760.353
  30
0.0
  11
 464.019
  21
 760.837
  31
0.0
   0
LINE
   8
LEVEL003
   6
CONTINUOUS
  62
7
  10
 464.019
  20
 760.837
  30
0.0
  11
 464.947
  21
 761.433
  31
0.0
   0
LINE
   8
LEVEL003
   6
CONTINUOUS
  62
7
  10
 464.947
  20
 761.433
  30
0.0
  11
 465.788
  21
 762.134
  31
0.0
   0
LINE
   8
LEVEL003
   6
CONTINUOUS
  62
7
  10
 465.788
  20
 762.134
  30
0.0
  11
 466.530
  21
 762.928
  31
0.0
   0
LINE
   8
LEVEL003
   6
CONTINUOUS
  62
7
  10
 466.530
  20
 762.928
  30
0.0
  11
 467.161
  21
 763.802
  31
0.0
   0
LINE
   8
LEVEL003
   6
CONTINUOUS
  62
7
  10
 467.161
  20
 763.802
  30
0.0
  11
 467.671
  21
 764.744
  31
0.0
   0
LINE
   8
LEVEL003
   6
CONTINUOUS
  62
7
  10
 467.671
  20
 764.744
  30
0.0
  11
 468.052
  21
 765.738
  31
0.0
   0
LINE
   8
LEVEL003
   6
CONTINUOUS
  62
7
  10
 468.052
  20
 765.738
  30
0.0
  11
 468.298
  21
 766.769
  31
0.0
   0
LINE
   8
LEVEL003
   6
CONTINUOUS
  62
7
  10
 468.298
  20
 766.769
  30
0.0
  11
 468.405
  21
 767.820
  31
0.0
   0
LINE
   8
LEVEL003
   6
CONTINUOUS
  62
7
  10
 468.405
  20
 767.820
  30
0.0
  11
 468.410
  21
 768.101
  31
0.0
   0
LINE
   8
LEVEL003
   6
CONTINUOUS
  62
7
  10
 450.410
  20
 768.101
  30
0.0
  11
 450.410
  21
 772.000
  31
0.0
   0
LINE
   8
LEVEL003
   6
CONTINUOUS
  62
7
  10
 468.410
  20
 768.101
  30
0.0
  11
 468.410
  21
 772.000
  31
0.0
   0
LINE
   8
LEVEL003
   6
CONTINUOUS
  62
7
  10
 467.410
  20
 767.896
  30
0.0
  11
 467.348
  21
 768.833
  31
0.0
   0
LINE
   8
LEVEL003
   6
CONTINUOUS
  62
7
  10
 467.348
  20
 768.833
  30
0.0
  11
 467.162
  21
 769.756
  31
0.0
   0
LINE
   8
LEVEL003
   6
CONTINUOUS
  62
7
  10
 467.162
  20
 769.756
  30
0.0
  11
 466.854
  21
 770.649
  31
0.0
   0
LINE
   8
LEVEL003
   6
CONTINUOUS
  62
7
  10
 466.854
  20
 770.649
  30
0.0
  11
 466.431
  21
 771.500
  31
0.0
   0
LINE
   8
LEVEL003
   6
CONTINUOUS
  62
7
  10
 466.431
  20
 771.500
  30
0.0
  11
 465.898
  21
 772.294
  31
0.0
   0
LINE
   8
LEVEL003
   6
CONTINUOUS
  62
7
  10
 465.898
  20
 772.294
  30
0.0
  11
 465.264
  21
 773.020
  31
0.0
   0
LINE
   8
LEVEL003
   6
CONTINUOUS
  62
7
  10
 465.264
  20
 773.020
  30
0.0
  11
 464.538
  21
 773.666
  31
0.0
   0
LINE
   8
LEVEL003
   6
CONTINUOUS
  62
7
  10
 464.538
  20
 773.666
  30
0.0
  11
 463.733
  21
 774.222
  31
0.0
   0
LINE
   8
LEVEL003
   6
CONTINUOUS
  62
7
  10
 463.733
  20
 774.222
  30
0.0
  11
 462.860
  21
 774.679
  31
0.0
   0
LINE
   8
LEVEL003
   6
CONTINUOUS
  62
7
  10
 462.860
  20
 774.679
  30
0.0
  11
 461.933
  21
 775.030
  31
0.0
   0
LINE
   8
LEVEL003
   6
CONTINUOUS
  62
7
  10
 461.933
  20
 775.030
  30
0.0
  11
 460.967
  21
 775.270
  31
0.0
   0
LINE
   8
LEVEL003
   6
CONTINUOUS
  62
7
  10
 460.967
  20
 775.270
  30
0.0
  11
 459.976
  21
 775.394
  31
0.0
   0
LINE
   8
LEVEL003
   6
CONTINUOUS
  62
7
  10
 459.976
  20
 775.394
  30
0.0
  11
 458.977
  21
 775.402
  31
0.0
   0
LINE
   8
LEVEL003
   6
CONTINUOUS
  62
7
  10
 458.977
  20
 775.402
  30
0.0
  11
 457.984
  21
 775.293
  31
0.0
   0
LINE
   8
LEVEL003
   6
CONTINUOUS
  62
7
  10
 457.984
  20
 775.293
  30
0.0
  11
 457.014
  21
 775.068
  31
0.0
   0
LINE
   8
LEVEL003
   6
CONTINUOUS
  62
7
  10
 457.014
  20
 775.068
  30
0.0
  11
 456.081
  21
 774.731
  31
0.0
   0
LINE
   8
LEVEL003
   6
CONTINUOUS
  62
7
  10
 456.081
  20
 774.731
  30
0.0
  11
 455.200
  21
 774.288
  31
0.0
   0
LINE
   8
LEVEL003
   6
CONTINUOUS
  62
7
  10
 455.200
  20
 774.288
  30
0.0
  11
 454.385
  21
 773.745
  31
0.0
   0
LINE
   8
LEVEL003
   6
CONTINUOUS
  62
7
  10
 454.385
  20
 773.745
  30
0.0
  11
 453.648
  21
 773.111
  31
0.0
   0
LINE
   8
LEVEL003
   6
CONTINUOUS
  62
7
  10
 453.648
  20
 773.111
  30
0.0
  11
 453.001
  21
 772.395
  31
0.0
   0
LINE
   8
LEVEL003
   6
CONTINUOUS
  62
7
  10
 453.001
  20
 772.395
  30
0.0
  11
 452.454
  21
 771.609
  31
0.0
   0
LINE
   8
LEVEL003
   6
CONTINUOUS
  62
7
  10
 452.454
  20
 771.609
  30
0.0
  11
 452.016
  21
 770.765
  31
0.0
   0
LINE
   8
LEVEL003
   6
CONTINUOUS
  62
7
  10
 452.016
  20
 770.765
  30
0.0
  11
 451.693
  21
 769.876
  31
0.0
   0
LINE
   8
LEVEL003
   6
CONTINUOUS
  62
7
  10
 451.693
  20
 769.876
  30
0.0
  11
 451.490
  21
 768.957
  31
0.0
   0
LINE
   8
LEVEL003
   6
CONTINUOUS
  62
7
  10
 451.490
  20
 768.957
  30
0.0
  11
 451.411
  21
 768.020
  31
0.0
   0
LINE
   8
LEVEL003
   6
CONTINUOUS
  62
7
  10
 451.411
  20
 768.020
  30
0.0
  11
 451.457
  21
 767.082
  31
0.0
   0
LINE
   8
LEVEL003
   6
CONTINUOUS
  62
7
  10
 451.457
  20
 767.082
  30
0.0
  11
 451.627
  21
 766.157
  31
0.0
   0
LINE
   8
LEVEL003
   6
CONTINUOUS
  62
7
  10
 451.627
  20
 766.157
  30
0.0
  11
 451.919
  21
 765.259
  31
0.0
   0
LINE
   8
LEVEL003
   6
CONTINUOUS
  62
7
  10
 451.919
  20
 765.259
  30
0.0
  11
 452.327
  21
 764.402
  31
0.0
   0
LINE
   8
LEVEL003
   6
CONTINUOUS
  62
7
  10
 452.327
  20
 764.402
  30
0.0
  11
 452.846
  21
 763.599
  31
0.0
   0
LINE
   8
LEVEL003
   6
CONTINUOUS
  62
7
  10
 452.846
  20
 763.599
  30
0.0
  11
 453.467
  21
 762.863
  31
0.0
   0
LINE
   8
LEVEL003
   6
CONTINUOUS
  62
7
  10
 453.467
  20
 762.863
  30
0.0
  11
 454.181
  21
 762.206
  31
0.0
   0
LINE
   8
LEVEL003
   6
CONTINUOUS
  62
7
  10
 454.181
  20
 762.206
  30
0.0
  11
 454.977
  21
 761.638
  31
0.0
   0
LINE
   8
LEVEL003
   6
CONTINUOUS
  62
7
  10
 454.977
  20
 761.638
  30
0.0
  11
 455.842
  21
 761.168
  31
0.0
   0
LINE
   8
LEVEL003
   6
CONTINUOUS
  62
7
  10
 455.842
  20
 761.168
  30
0.0
  11
 456.762
  21
 760.802
  31
0.0
   0
LINE
   8
LEVEL003
   6
CONTINUOUS
  62
7
  10
 456.762
  20
 760.802
  30
0.0
  11
 457.724
  21
 760.547
  31
0.0
   0
LINE
   8
LEVEL003
   6
CONTINUOUS
  62
7
  10
 457.724
  20
 760.547
  30
0.0
  11
 458.712
  21
 760.407
  31
0.0
   0
LINE
   8
LEVEL003
   6
CONTINUOUS
  62
7
  10
 458.712
  20
 760.407
  30
0.0
  11
 459.711
  21
 760.384
  31
0.0
   0
LINE
   8
LEVEL003
   6
CONTINUOUS
  62
7
  10
 459.711
  20
 760.384
  30
0.0
  11
 460.706
  21
 760.477
  31
0.0
   0
LINE
   8
LEVEL003
   6
CONTINUOUS
  62
7
  10
 460.706
  20
 760.477
  30
0.0
  11
 461.680
  21
 760.687
  31
0.0
   0
LINE
   8
LEVEL003
   6
CONTINUOUS
  62
7
  10
 461.680
  20
 760.687
  30
0.0
  11
 462.618
  21
 761.009
  31
0.0
   0
LINE
   8
LEVEL003
   6
CONTINUOUS
  62
7
  10
 462.618
  20
 761.009
  30
0.0
  11
 463.507
  21
 761.439
  31
0.0
   0
LINE
   8
LEVEL003
   6
CONTINUOUS
  62
7
  10
 463.507
  20
 761.439
  30
0.0
  11
 464.332
  21
 761.969
  31
0.0
   0
LINE
   8
LEVEL003
   6
CONTINUOUS
  62
7
  10
 464.332
  20
 761.969
  30
0.0
  11
 465.080
  21
 762.592
  31
0.0
   0
LINE
   8
LEVEL003
   6
CONTINUOUS
  62
7
  10
 465.080
  20
 762.592
  30
0.0
  11
 465.739
  21
 763.297
  31
0.0
   0
LINE
   8
LEVEL003
   6
CONTINUOUS
  62
7
  10
 465.739
  20
 763.297
  30
0.0
  11
 466.300
  21
 764.075
  31
0.0
   0
LINE
   8
LEVEL003
   6
CONTINUOUS
  62
7
  10
 466.300
  20
 764.075
  30
0.0
  11
 466.753
  21
 764.912
  31
0.0
   0
LINE
   8
LEVEL003
   6
CONTINUOUS
  62
7
  10
 466.753
  20
 764.912
  30
0.0
  11
 467.092
  21
 765.795
  31
0.0
   0
LINE
   8
LEVEL003
   6
CONTINUOUS
  62
7
  10
 467.092
  20
 765.795
  30
0.0
  11
 467.310
  21
 766.712
  31
0.0
   0
LINE
   8
LEVEL003
   6
CONTINUOUS
  62
7
  10
 467.310
  20
 766.712
  30
0.0
  11
 467.406
  21
 767.646
  31
0.0
   0
LINE
   8
LEVEL003
   6
CONTINUOUS
  62
7
  10
 467.406
  20
 767.646
  30
0.0
  11
 467.410
  21
 767.896
  31
0.0
   0
LINE
   8
LEVEL003
   6
CONTINUOUS
  62
7
  10
 468.410
  20
 772.000
  30
0.0
  11
 468.340
  21
 773.054
  31
0.0
   0
LINE
   8
LEVEL003
   6
CONTINUOUS
  62
7
  10
 468.340
  20
 773.054
  30
0.0
  11
 468.131
  21
 774.092
  31
0.0
   0
LINE
   8
LEVEL003
   6
CONTINUOUS
  62
7
  10
 468.131
  20
 774.092
  30
0.0
  11
 467.785
  21
 775.098
  31
0.0
   0
LINE
   8
LEVEL003
   6
CONTINUOUS
  62
7
  10
 467.785
  20
 775.098
  30
0.0
  11
 467.309
  21
 776.055
  31
0.0
   0
LINE
   8
LEVEL003
   6
CONTINUOUS
  62
7
  10
 467.309
  20
 776.055
  30
0.0
  11
 466.709
  21
 776.948
  31
0.0
   0
LINE
   8
LEVEL003
   6
CONTINUOUS
  62
7
  10
 466.709
  20
 776.948
  30
0.0
  11
 465.996
  21
 777.765
  31
0.0
   0
LINE
   8
LEVEL003
   6
CONTINUOUS
  62
7
  10
 465.996
  20
 777.765
  30
0.0
  11
 465.179
  21
 778.491
  31
0.0
   0
LINE
   8
LEVEL003
   6
CONTINUOUS
  62
7
  10
 465.179
  20
 778.491
  30
0.0
  11
 464.273
  21
 779.117
  31
0.0
   0
LINE
   8
LEVEL003
   6
CONTINUOUS
  62
7
  10
 464.273
  20
 779.117
  30
0.0
  11
 463.291
  21
 779.631
  31
0.0
   0
LINE
   8
LEVEL003
   6
CONTINUOUS
  62
7
  10
 463.291
  20
 779.631
  30
0.0
  11
 462.248
  21
 780.026
  31
0.0
   0
LINE
   8
LEVEL003
   6
CONTINUOUS
  62
7
  10
 462.248
  20
 780.026
  30
0.0
  11
 461.161
  21
 780.296
  31
0.0
   0
LINE
   8
LEVEL003
   6
CONTINUOUS
  62
7
  10
 461.161
  20
 780.296
  30
0.0
  11
 460.047
  21
 780.436
  31
0.0
   0
LINE
   8
LEVEL003
   6
CONTINUOUS
  62
7
  10
 460.047
  20
 780.436
  30
0.0
  11
 458.923
  21
 780.445
  31
0.0
   0
LINE
   8
LEVEL003
   6
CONTINUOUS
  62
7
  10
 458.923
  20
 780.445
  30
0.0
  11
 457.806
  21
 780.322
  31
0.0
   0
LINE
   8
LEVEL003
   6
CONTINUOUS
  62
7
  10
 457.806
  20
 780.322
  30
0.0
  11
 456.715
  21
 780.069
  31
0.0
   0
LINE
   8
LEVEL003
   6
CONTINUOUS
  62
7
  10
 456.715
  20
 780.069
  30
0.0
  11
 455.665
  21
 779.690
  31
0.0
   0
LINE
   8
LEVEL003
   6
CONTINUOUS
  62
7
  10
 455.665
  20
 779.690
  30
0.0
  11
 454.674
  21
 779.191
  31
0.0
   0
LINE
   8
LEVEL003
   6
CONTINUOUS
  62
7
  10
 454.674
  20
 779.191
  30
0.0
  11
 453.757
  21
 778.580
  31
0.0
   0
LINE
   8
LEVEL003
   6
CONTINUOUS
  62
7
  10
 453.757
  20
 778.580
  30
0.0
  11
 452.928
  21
 777.867
  31
0.0
   0
LINE
   8
LEVEL003
   6
CONTINUOUS
  62
7
  10
 452.928
  20
 777.867
  30
0.0
  11
 452.200
  21
 777.061
  31
0.0
   0
LINE
   8
LEVEL003
   6
CONTINUOUS
  62
7
  10
 452.200
  20
 777.061
  30
0.0
  11
 451.585
  21
 776.177
  31
0.0
   0
LINE
   8
LEVEL003
   6
CONTINUOUS
  62
7
  10
 451.585
  20
 776.177
  30
0.0
  11
 451.092
  21
 775.228
  31
0.0
   0
LINE
   8
LEVEL003
   6
CONTINUOUS
  62
7
  10
 451.092
  20
 775.228
  30
0.0
  11
 450.728
  21
 774.228
  31
0.0
   0
LINE
   8
LEVEL003
   6
CONTINUOUS
  62
7
  10
 450.728
  20
 774.228
  30
0.0
  11
 450.500
  21
 773.193
  31
0.0
   0
LINE
   8
LEVEL003
   6
CONTINUOUS
  62
7
  10
 450.500
  20
 773.193
  30
0.0
  11
 450.412
  21
 772.140
  31
0.0
   0
LINE
   8
LEVEL003
   6
CONTINUOUS
  62
7
  10
 450.412
  20
 772.140
  30
0.0
  11
 450.410
  21
 772.000
  31
0.0
   0
LINE
   8
LEVEL003
   6
CONTINUOUS
  62
7
  10
 459.410
  20
 773.126
  30
0.0
  11
 464.410
  21
 770.783
  31
0.0
   0
LINE
   8
LEVEL003
   6
CONTINUOUS
  62
7
  10
 464.410
  20
 770.783
  30
0.0
  11
 464.410
  21
 765.009
  31
0.0
   0
LINE
   8
LEVEL003
   6
CONTINUOUS
  62
7
  10
 464.410
  20
 765.009
  30
0.0
  11
 459.410
  21
 762.665
  31
0.0
   0
LINE
   8
LEVEL003
   6
CONTINUOUS
  62
7
  10
 459.410
  20
 762.665
  30
0.0
  11
 454.410
  21
 765.009
  31
0.0
   0
LINE
   8
LEVEL003
   6
CONTINUOUS
  62
7
  10
 454.410
  20
 765.009
  30
0.0
  11
 454.410
  21
 770.783
  31
0.0
   0
LINE
   8
LEVEL003
   6
CONTINUOUS
  62
7
  10
 454.410
  20
 770.783
  30
0.0
  11
 459.410
  21
 773.126
  31
0.0
   0
LINE
   8
LEVEL003
   6
DASHDOT
  62
1
  10
 471.410
  20
 767.896
  30
0.0
  11
 447.410
  21
 767.896
  31
0.0
   0
LINE
   8
LEVEL003
   6
DASHDOT
  62
1
  10
 451.410
  20
 767.896
  30
0.0
  11
 427.410
  21
 767.896
  31
0.0
   0
LINE
   8
LEVEL001
   6
CONTINUOUS
  62
7
  10
 473.910
  20
 767.000
  30
0.0
  11
 473.910
  21
 783.500
  31
0.0
   0
LINE
   8
LEVEL001
   6
CONTINUOUS
  62
7
  10
 473.910
  20
 816.500
  30
0.0
  11
 473.910
  21
 833.000
  31
0.0
   0
LINE
   8
LEVEL001
   6
CONTINUOUS
  62
7
  10
 441.410
  20
 818.750
  30
0.0
  11
 451.410
  21
 818.750
  31
0.0
   0
LINE
   8
LEVEL001
   6
CONTINUOUS
  62
7
  10
 451.410
  20
 818.750
  30
0.0
  11
 451.410
  21
 818.500
  31
0.0
   0
LINE
   8
LEVEL001
   6
CONTINUOUS
  62
7
  10
 451.410
  20
 818.750
  30
0.0
  11
 450.410
  21
 819.750
  31
0.0
   0
LINE
   8
LEVEL001
   6
CONTINUOUS
  62
7
  10
 441.410
  20
 818.750
  30
0.0
  11
 441.410
  21
 818.500
  31
0.0
   0
LINE
   8
LEVEL001
   6
CONTINUOUS
  62
7
  10
 441.410
  20
 818.750
  30
0.0
  11
 442.410
  21
 819.750
  31
0.0
   0
LINE
   8
LEVEL001
   6
CONTINUOUS
  62
7
  10
 442.410
  20
 819.750
  30
0.0
  11
 450.410
  21
 819.750
  31
0.0
   0
LINE
   8
LEVEL001
   6
CONTINUOUS
  62
7
  10
 441.410
  20
 781.250
  30
0.0
  11
 451.410
  21
 781.250
  31
0.0
   0
LINE
   8
LEVEL001
   6
CONTINUOUS
  62
7
  10
 441.410
  20
 781.250
  30
0.0
  11
 441.410
  21
 781.500
  31
0.0
   0
LINE
   8
LEVEL001
   6
CONTINUOUS
  62
7
  10
 441.410
  20
 781.250
  30
0.0
  11
 442.410
  21
 780.250
  31
0.0
   0
LINE
   8
LEVEL001
   6
CONTINUOUS
  62
7
  10
 451.410
  20
 781.250
  30
0.0
  11
 451.410
  21
 781.500
  31
0.0
   0
LINE
   8
LEVEL001
   6
CONTINUOUS
  62
7
  10
 451.410
  20
 781.250
  30
0.0
  11
 450.410
  21
 780.250
  31
0.0
   0
LINE
   8
LEVEL001
   6
CONTINUOUS
  62
7
  10
 442.410
  20
 780.250
  30
0.0
  11
 450.410
  21
 780.250
  31
0.0
   0
ARC
   8
LEVEL001
   6
CONTINUOUS
  62
7
  10
 446.410
  20
 800.000
  30
0.0
  40
 20.0000
  50
 102.108
  51
 112.332
   0
ARC
   8
LEVEL001
   6
CONTINUOUS
  62
7
  10
 446.410
  20
 800.000
  30
0.0
  40
 20.0000
  50
 67.6685
  51
 77.8932
   0
ARC
   8
LEVEL001
   6
CONTINUOUS
  62
7
  10
 446.410
  20
 800.000
  30
0.0
  40
 20.0000
  50
 80.9313
  51
 99.0687
   0
ARC
   8
LEVEL001
   6
CONTINUOUS
  62
7
  10
 446.410
  20
 800.000
  30
0.0
  40
 20.0000
  50
 247.668
  51
 257.892
   0
ARC
   8
LEVEL001
   6
CONTINUOUS
  62
7
  10
 446.410
  20
 800.000
  30
0.0
  40
 20.0000
  50
 260.931
  51
 279.069
   0
ARC
   8
LEVEL001
   6
CONTINUOUS
  62
7
  10
 446.410
  20
 800.000
  30
0.0
  40
 20.0000
  50
 282.107
  51
 292.332
   0
LINE
   8
LEVEL001
   6
CONTINUOUS
  62
7
  10
 427.462
  20
 770.955
  30
0.0
  11
 427.694
  21
 769.563
  31
0.0
   0
LINE
   8
LEVEL001
   6
CONTINUOUS
  62
7
  10
 427.694
  20
 769.563
  30
0.0
  11
 428.109
  21
 768.209
  31
0.0
   0
LINE
   8
LEVEL001
   6
CONTINUOUS
  62
7
  10
 428.109
  20
 768.209
  30
0.0
  11
 428.700
  21
 766.915
  31
0.0
   0
LINE
   8
LEVEL001
   6
CONTINUOUS
  62
7
  10
 428.700
  20
 766.915
  30
0.0
  11
 429.458
  21
 765.700
  31
0.0
   0
LINE
   8
LEVEL001
   6
CONTINUOUS
  62
7
  10
 429.458
  20
 765.700
  30
0.0
  11
 430.372
  21
 764.583
  31
0.0
   0
LINE
   8
LEVEL001
   6
CONTINUOUS
  62
7
  10
 430.372
  20
 764.583
  30
0.0
  11
 431.426
  21
 763.582
  31
0.0
   0
LINE
   8
LEVEL001
   6
CONTINUOUS
  62
7
  10
 431.426
  20
 763.582
  30
0.0
  11
 432.300
  21
 762.917
  31
0.0
   0
LINE
   8
LEVEL001
   6
CONTINUOUS
  62
7
  10
 443.811
  20
 760.724
  30
0.0
  11
 455.010
  21
 760.724
  31
0.0
   0
LINE
   8
LEVEL001
   6
CONTINUOUS
  62
7
  10
 466.521
  20
 762.917
  30
0.0
  11
 467.671
  21
 763.821
  31
0.0
   0
LINE
   8
LEVEL001
   6
CONTINUOUS
  62
7
  10
 467.671
  20
 763.821
  30
0.0
  11
 468.692
  21
 764.852
  31
0.0
   0
LINE
   8
LEVEL001
   6
CONTINUOUS
  62
7
  10
 468.692
  20
 764.852
  30
0.0
  11
 469.567
  21
 765.995
  31
0.0
   0
LINE
   8
LEVEL001
   6
CONTINUOUS
  62
7
  10
 469.567
  20
 765.995
  30
0.0
  11
 470.285
  21
 767.232
  31
0.0
   0
LINE
   8
LEVEL001
   6
CONTINUOUS
  62
7
  10
 470.285
  20
 767.232
  30
0.0
  11
 470.833
  21
 768.543
  31
0.0
   0
LINE
   8
LEVEL001
   6
CONTINUOUS
  62
7
  10
 470.833
  20
 768.543
  30
0.0
  11
 471.202
  21
 769.908
  31
0.0
   0
LINE
   8
LEVEL001
   6
CONTINUOUS
  62
7
  10
 471.202
  20
 769.908
  30
0.0
  11
 471.359
  21
 770.955
  31
0.0
   0
LINE
   8
LEVEL014
   6
CONTINUOUS
  62
3
  10
 911.349
  20
 789.004
  30
0.0
  11
 913.349
  21
 788.851
  31
0.0
   0
LINE
   8
LEVEL014
   6
CONTINUOUS
  62
3
  10
 913.349
  20
 787.346
  30
0.0
  11
 913.349
  21
 812.654
  31
0.0
   0
LINE
   8
LEVEL014
   6
CONTINUOUS
  62
3
  10
 913.349
  20
 812.654
  30
0.0
  11
 915.349
  21
 812.808
  31
0.0
   0
LINE
   8
LEVEL014
   6
CONTINUOUS
  62
3
  10
 915.349
  20
 812.808
  30
0.0
  11
 915.349
  21
 787.192
  31
0.0
   0
LINE
   8
LEVEL014
   6
CONTINUOUS
  62
3
  10
 915.349
  20
 787.192
  30
0.0
  11
 913.349
  21
 787.346
  31
0.0
   0
LINE
   8
LEVEL014
   6
CONTINUOUS
  62
3
  10
 911.349
  20
 810.996
  30
0.0
  11
 913.349
  21
 811.149
  31
0.0
   0
LINE
   8
LEVEL014
   6
CONTINUOUS
  62
3
  10
 915.349
  20
 788.697
  30
0.0
  11
 917.349
  21
 788.543
  31
0.0
   0
LINE
   8
LEVEL014
   6
CONTINUOUS
  62
3
  10
 919.349
  20
 788.389
  30
0.0
  11
 921.349
  21
 788.235
  31
0.0
   0
LINE
   8
LEVEL014
   6
CONTINUOUS
  62
3
  10
 923.349
  20
 788.081
  30
0.0
  11
 925.349
  21
 787.927
  31
0.0
   0
LINE
   8
LEVEL014
   6
CONTINUOUS
  62
3
  10
 927.349
  20
 787.774
  30
0.0
  11
 929.349
  21
 787.620
  31
0.0
   0
LINE
   8
LEVEL014
   6
CONTINUOUS
  62
3
  10
 931.349
  20
 787.466
  30
0.0
  11
 933.349
  21
 787.312
  31
0.0
   0
LINE
   8
LEVEL014
   6
CONTINUOUS
  62
3
  10
 935.349
  20
 787.158
  30
0.0
  11
 937.349
  21
 787.004
  31
0.0
   0
LINE
   8
LEVEL014
   6
CONTINUOUS
  62
3
  10
 917.349
  20
 787.038
  30
0.0
  11
 917.349
  21
 812.962
  31
0.0
   0
LINE
   8
LEVEL014
   6
CONTINUOUS
  62
3
  10
 917.349
  20
 812.962
  30
0.0
  11
 919.349
  21
 813.115
  31
0.0
   0
LINE
   8
LEVEL014
   6
CONTINUOUS
  62
3
  10
 919.349
  20
 813.115
  30
0.0
  11
 919.349
  21
 786.885
  31
0.0
   0
LINE
   8
LEVEL014
   6
CONTINUOUS
  62
3
  10
 919.349
  20
 786.885
  30
0.0
  11
 917.349
  21
 787.038
  31
0.0
   0
LINE
   8
LEVEL014
   6
CONTINUOUS
  62
3
  10
 921.349
  20
 786.731
  30
0.0
  11
 921.349
  21
 813.269
  31
0.0
   0
LINE
   8
LEVEL014
   6
CONTINUOUS
  62
3
  10
 921.349
  20
 813.269
  30
0.0
  11
 923.349
  21
 813.423
  31
0.0
   0
LINE
   8
LEVEL014
   6
CONTINUOUS
  62
3
  10
 923.349
  20
 813.423
  30
0.0
  11
 923.349
  21
 786.577
  31
0.0
   0
LINE
   8
LEVEL014
   6
CONTINUOUS
  62
3
  10
 923.349
  20
 786.577
  30
0.0
  11
 921.349
  21
 786.731
  31
0.0
   0
LINE
   8
LEVEL014
   6
CONTINUOUS
  62
3
  10
 925.349
  20
 786.423
  30
0.0
  11
 925.349
  21
 813.577
  31
0.0
   0
LINE
   8
LEVEL014
   6
CONTINUOUS
  62
3
  10
 925.349
  20
 813.577
  30
0.0
  11
 927.349
  21
 813.731
  31
0.0
   0
LINE
   8
LEVEL014
   6
CONTINUOUS
  62
3
  10
 927.349
  20
 813.731
  30
0.0
  11
 927.349
  21
 786.269
  31
0.0
   0
LINE
   8
LEVEL014
   6
CONTINUOUS
  62
3
  10
 927.349
  20
 786.269
  30
0.0
  11
 925.349
  21
 786.423
  31
0.0
   0
LINE
   8
LEVEL014
   6
CONTINUOUS
  62
3
  10
 929.349
  20
 786.115
  30
0.0
  11
 929.349
  21
 813.885
  31
0.0
   0
LINE
   8
LEVEL014
   6
CONTINUOUS
  62
3
  10
 929.349
  20
 813.885
  30
0.0
  11
 931.349
  21
 814.038
  31
0.0
   0
LINE
   8
LEVEL014
   6
CONTINUOUS
  62
3
  10
 931.349
  20
 814.038
  30
0.0
  11
 931.349
  21
 785.962
  31
0.0
   0
LINE
   8
LEVEL014
   6
CONTINUOUS
  62
3
  10
 931.349
  20
 785.962
  30
0.0
  11
 929.349
  21
 786.115
  31
0.0
   0
LINE
   8
LEVEL014
   6
CONTINUOUS
  62
3
  10
 933.349
  20
 785.808
  30
0.0
  11
 933.349
  21
 814.192
  31
0.0
   0
LINE
   8
LEVEL014
   6
CONTINUOUS
  62
3
  10
 933.349
  20
 814.192
  30
0.0
  11
 935.349
  21
 814.346
  31
0.0
   0
LINE
   8
LEVEL014
   6
CONTINUOUS
  62
3
  10
 935.349
  20
 814.346
  30
0.0
  11
 935.349
  21
 785.654
  31
0.0
   0
LINE
   8
LEVEL014
   6
CONTINUOUS
  62
3
  10
 935.349
  20
 785.654
  30
0.0
  11
 933.349
  21
 785.808
  31
0.0
   0
LINE
   8
LEVEL014
   6
CONTINUOUS
  62
3
  10
 937.349
  20
 785.500
  30
0.0
  11
 937.349
  21
 814.500
  31
0.0
   0
LINE
   8
LEVEL014
   6
CONTINUOUS
  62
3
  10
 937.349
  20
 814.500
  30
0.0
  11
 939.349
  21
 814.654
  31
0.0
   0
LINE
   8
LEVEL014
   6
CONTINUOUS
  62
3
  10
 939.349
  20
 814.654
  30
0.0
  11
 939.349
  21
 785.346
  31
0.0
   0
LINE
   8
LEVEL014
   6
CONTINUOUS
  62
3
  10
 939.349
  20
 785.346
  30
0.0
  11
 937.349
  21
 785.500
  31
0.0
   0
LINE
   8
LEVEL014
   6
CONTINUOUS
  62
3
  10
 915.349
  20
 811.303
  30
0.0
  11
 917.349
  21
 811.457
  31
0.0
   0
LINE
   8
LEVEL014
   6
CONTINUOUS
  62
3
  10
 919.349
  20
 811.611
  30
0.0
  11
 921.349
  21
 811.765
  31
0.0
   0
LINE
   8
LEVEL014
   6
CONTINUOUS
  62
3
  10
 923.349
  20
 811.919
  30
0.0
  11
 925.349
  21
 812.073
  31
0.0
   0
LINE
   8
LEVEL014
   6
CONTINUOUS
  62
3
  10
 927.349
  20
 812.226
  30
0.0
  11
 929.349
  21
 812.380
  31
0.0
   0
LINE
   8
LEVEL014
   6
CONTINUOUS
  62
3
  10
 931.349
  20
 812.534
  30
0.0
  11
 933.349
  21
 812.688
  31
0.0
   0
LINE
   8
LEVEL014
   6
CONTINUOUS
  62
3
  10
 935.349
  20
 812.842
  30
0.0
  11
 937.349
  21
 812.996
  31
0.0
   0
LINE
   8
LEVEL001
   6
DASHDOT
  62
1
  10
 398.410
  20
 800.000
  30
0.0
  11
 994.704
  21
 800.000
  31
0.0
   0
LINE
   8
LEVEL014
   6
CONTINUOUS
  62
3
  10
 959.349
  20
 787.819
  30
0.0
  11
 961.349
  21
 787.988
  31
0.0
   0
LINE
   8
LEVEL014
   6
CONTINUOUS
  62
3
  10
 963.349
  20
 788.158
  30
0.0
  11
 965.349
  21
 788.327
  31
0.0
   0
LINE
   8
LEVEL014
   6
CONTINUOUS
  62
3
  10
 967.349
  20
 788.497
  30
0.0
  11
 969.349
  21
 788.666
  31
0.0
   0
LINE
   8
LEVEL014
   6
CONTINUOUS
  62
3
  10
 971.349
  20
 788.836
  30
0.0
  11
 973.349
  21
 789.005
  31
0.0
   0
LINE
   8
LEVEL014
   6
CONTINUOUS
  62
3
  10
 939.349
  20
 786.851
  30
0.0
  11
 941.349
  21
 786.697
  31
0.0
   0
LINE
   8
LEVEL014
   6
CONTINUOUS
  62
3
  10
 943.349
  20
 786.463
  30
0.0
  11
 945.349
  21
 786.633
  31
0.0
   0
LINE
   8
LEVEL014
   6
CONTINUOUS
  62
3
  10
 947.349
  20
 786.802
  30
0.0
  11
 949.349
  21
 786.971
  31
0.0
   0
LINE
   8
LEVEL014
   6
CONTINUOUS
  62
3
  10
 951.349
  20
 787.141
  30
0.0
  11
 953.349
  21
 787.310
  31
0.0
   0
LINE
   8
LEVEL014
   6
CONTINUOUS
  62
3
  10
 955.349
  20
 787.480
  30
0.0
  11
 957.349
  21
 787.649
  31
0.0
   0
LINE
   8
LEVEL014
   6
CONTINUOUS
  62
3
  10
 949.349
  20
 785.466
  30
0.0
  11
 949.349
  21
 814.534
  31
0.0
   0
LINE
   8
LEVEL014
   6
CONTINUOUS
  62
3
  10
 949.349
  20
 814.534
  30
0.0
  11
 951.349
  21
 814.364
  31
0.0
   0
LINE
   8
LEVEL014
   6
CONTINUOUS
  62
3
  10
 951.349
  20
 814.364
  30
0.0
  11
 951.349
  21
 785.636
  31
0.0
   0
LINE
   8
LEVEL014
   6
CONTINUOUS
  62
3
  10
 951.349
  20
 785.636
  30
0.0
  11
 949.349
  21
 785.466
  31
0.0
   0
LINE
   8
LEVEL014
   6
CONTINUOUS
  62
3
  10
 953.349
  20
 785.805
  30
0.0
  11
 953.349
  21
 814.195
  31
0.0
   0
LINE
   8
LEVEL014
   6
CONTINUOUS
  62
3
  10
 953.349
  20
 814.195
  30
0.0
  11
 955.349
  21
 814.025
  31
0.0
   0
LINE
   8
LEVEL014
   6
CONTINUOUS
  62
3
  10
 955.349
  20
 814.025
  30
0.0
  11
 955.349
  21
 785.975
  31
0.0
   0
LINE
   8
LEVEL014
   6
CONTINUOUS
  62
3
  10
 955.349
  20
 785.975
  30
0.0
  11
 953.349
  21
 785.805
  31
0.0
   0
LINE
   8
LEVEL014
   6
CONTINUOUS
  62
3
  10
 957.349
  20
 786.144
  30
0.0
  11
 957.349
  21
 813.856
  31
0.0
   0
LINE
   8
LEVEL014
   6
CONTINUOUS
  62
3
  10
 957.349
  20
 813.856
  30
0.0
  11
 959.349
  21
 813.686
  31
0.0
   0
LINE
   8
LEVEL014
   6
CONTINUOUS
  62
3
  10
 959.349
  20
 813.686
  30
0.0
  11
 959.349
  21
 786.314
  31
0.0
   0
LINE
   8
LEVEL014
   6
CONTINUOUS
  62
3
  10
 959.349
  20
 786.314
  30
0.0
  11
 957.349
  21
 786.144
  31
0.0
   0
LINE
   8
LEVEL014
   6
CONTINUOUS
  62
3
  10
 961.349
  20
 786.483
  30
0.0
  11
 961.349
  21
 813.517
  31
0.0
   0
LINE
   8
LEVEL014
   6
CONTINUOUS
  62
3
  10
 961.349
  20
 813.517
  30
0.0
  11
 963.349
  21
 813.347
  31
0.0
   0
LINE
   8
LEVEL014
   6
CONTINUOUS
  62
3
  10
 963.349
  20
 813.347
  30
0.0
  11
 963.349
  21
 786.653
  31
0.0
   0
LINE
   8
LEVEL014
   6
CONTINUOUS
  62
3
  10
 963.349
  20
 786.653
  30
0.0
  11
 961.349
  21
 786.483
  31
0.0
   0
LINE
   8
LEVEL014
   6
CONTINUOUS
  62
3
  10
 965.349
  20
 786.822
  30
0.0
  11
 965.349
  21
 813.178
  31
0.0
   0
LINE
   8
LEVEL014
   6
CONTINUOUS
  62
3
  10
 965.349
  20
 813.178
  30
0.0
  11
 967.349
  21
 813.008
  31
0.0
   0
LINE
   8
LEVEL014
   6
CONTINUOUS
  62
3
  10
 967.349
  20
 813.008
  30
0.0
  11
 967.349
  21
 786.992
  31
0.0
   0
LINE
   8
LEVEL014
   6
CONTINUOUS
  62
3
  10
 967.349
  20
 786.992
  30
0.0
  11
 965.349
  21
 786.822
  31
0.0
   0
LINE
   8
LEVEL014
   6
CONTINUOUS
  62
3
  10
 969.349
  20
 787.161
  30
0.0
  11
 969.349
  21
 812.839
  31
0.0
   0
LINE
   8
LEVEL014
   6
CONTINUOUS
  62
3
  10
 969.349
  20
 812.839
  30
0.0
  11
 971.349
  21
 812.669
  31
0.0
   0
LINE
   8
LEVEL014
   6
CONTINUOUS
  62
3
  10
 971.349
  20
 812.669
  30
0.0
  11
 971.349
  21
 787.331
  31
0.0
   0
LINE
   8
LEVEL014
   6
CONTINUOUS
  62
3
  10
 971.349
  20
 787.331
  30
0.0
  11
 969.349
  21
 787.161
  31
0.0
   0
LINE
   8
LEVEL014
   6
CONTINUOUS
  62
3
  10
 939.349
  20
 813.149
  30
0.0
  11
 941.349
  21
 813.303
  31
0.0
   0
LINE
   8
LEVEL014
   6
CONTINUOUS
  62
3
  10
 943.349
  20
 813.537
  30
0.0
  11
 945.349
  21
 813.367
  31
0.0
   0
LINE
   8
LEVEL014
   6
CONTINUOUS
  62
3
  10
 947.349
  20
 813.198
  30
0.0
  11
 949.349
  21
 813.029
  31
0.0
   0
LINE
   8
LEVEL014
   6
CONTINUOUS
  62
3
  10
 951.349
  20
 812.859
  30
0.0
  11
 953.349
  21
 812.690
  31
0.0
   0
LINE
   8
LEVEL014
   6
CONTINUOUS
  62
3
  10
 955.349
  20
 812.520
  30
0.0
  11
 957.349
  21
 812.351
  31
0.0
   0
LINE
   8
LEVEL014
   6
CONTINUOUS
  62
3
  10
 959.349
  20
 812.181
  30
0.0
  11
 961.349
  21
 812.012
  31
0.0
   0
LINE
   8
LEVEL014
   6
CONTINUOUS
  62
3
  10
 963.349
  20
 811.842
  30
0.0
  11
 965.349
  21
 811.673
  31
0.0
   0
LINE
   8
LEVEL014
   6
CONTINUOUS
  62
3
  10
 967.349
  20
 811.503
  30
0.0
  11
 969.349
  21
 811.334
  31
0.0
   0
LINE
   8
LEVEL014
   6
CONTINUOUS
  62
3
  10
 971.349
  20
 811.164
  30
0.0
  11
 973.349
  21
 810.995
  31
0.0
   0
ARC
   8
LEVEL014
   6
CONTINUOUS
  62
7
  10
 954.474
  20
 800.000
  30
0.0
  40
 31.8750
  50
 334.942
  51
 25.0576
   0
LINE
   8
LEVEL014
   6
CONTINUOUS
  62
7
  10
 973.349
  20
 787.500
  30
0.0
  11
 973.349
  21
 812.500
  31
0.0
   0
LINE
   8
LEVEL014
   6
CONTINUOUS
  62
7
  10
 973.349
  20
 812.500
  30
0.0
  11
 983.349
  21
 813.500
  31
0.0
   0
LINE
   8
LEVEL014
   6
CONTINUOUS
  62
7
  10
 983.349
  20
 813.500
  30
0.0
  11
 983.349
  21
 786.500
  31
0.0
   0
LINE
   8
LEVEL014
   6
CONTINUOUS
  62
7
  10
 983.349
  20
 786.500
  30
0.0
  11
 973.349
  21
 787.500
  31
0.0
   0
LINE
   8
LEVEL001
   6
DASHDOT
  62
1
  10
 423.410
  20
 772.053
  30
0.0
  11
 423.410
  21
 827.053
  31
0.0
   0
LINE
   8
LEVEL001
   6
CONTINUOUS
  62
7
  10
 418.410
  20
 823.500
  30
0.0
  11
 419.410
  21
 824.500
  31
0.0
   0
LINE
   8
LEVEL001
   6
CONTINUOUS
  62
7
  10
 419.410
  20
 824.500
  30
0.0
  11
 427.410
  21
 824.500
  31
0.0
   0
LINE
   8
LEVEL001
   6
CONTINUOUS
  62
7
  10
 427.410
  20
 824.500
  30
0.0
  11
 428.410
  21
 823.500
  31
0.0
   0
LINE
   8
LEVEL001
   6
CONTINUOUS
  62
7
  10
 418.410
  20
 823.500
  30
0.0
  11
 428.410
  21
 823.500
  31
0.0
   0
LINE
   8
LEVEL001
   6
CONTINUOUS
  62
7
  10
 427.456
  20
 770.954
  30
0.0
  11
 427.058
  21
 775.500
  31
0.0
   0
ARC
   8
LEVEL001
   6
CONTINUOUS
  62
7
  10
 409.795
  20
 821.000
  30
0.0
  40
 0.800000
  50
 90.0000
  51
 270.000
   0
LINE
   8
LEVEL001
   6
CONTINUOUS
  62
7
  10
 409.795
  20
 821.800
  30
0.0
  11
 436.707
  21
 821.800
  31
0.0
   0
LINE
   8
LEVEL001
   6
CONTINUOUS
  62
7
  10
 409.795
  20
 820.200
  30
0.0
  11
 436.707
  21
 820.200
  31
0.0
   0
LINE
   8
LEVEL001
   6
DASHDOT
  62
1
  10
 408.252
  20
 821.000
  30
0.0
  11
 437.625
  21
 821.000
  31
0.0
   0
LINE
   8
LEVEL001
   6
CONTINUOUS
  62
7
  10
 436.707
  20
 821.800
  30
0.0
  11
 436.707
  21
 820.200
  31
0.0
   0
ARC
   8
LEVEL001
   6
CONTINUOUS
  62
7
  10
 434.525
  20
 821.000
  30
0.0
  40
 0.800000
  50
 270.000
  51
 90.0000
   0
LINE
   8
LEVEL001
   6
CONTINUOUS
  62
7
  10
 428.410
  20
 821.800
  30
0.0
  11
 428.410
  21
 823.500
  31
0.0
   0
LINE
   8
LEVEL001
   6
CONTINUOUS
  62
7
  10
 418.410
  20
 823.500
  30
0.0
  11
 418.410
  21
 821.800
  31
0.0
   0
LINE
   8
LEVEL001
   6
CONTINUOUS
  62
7
  10
 418.410
  20
 820.200
  30
0.0
  11
 418.410
  21
 818.500
  31
0.0
   0
LINE
   8
LEVEL001
   6
CONTINUOUS
  62
7
  10
 418.410
  20
 776.500
  30
0.0
  11
 419.410
  21
 775.500
  31
0.0
   0
LINE
   8
LEVEL001
   6
CONTINUOUS
  62
7
  10
 419.410
  20
 775.500
  30
0.0
  11
 427.410
  21
 775.500
  31
0.0
   0
LINE
   8
LEVEL001
   6
CONTINUOUS
  62
7
  10
 418.410
  20
 776.500
  30
0.0
  11
 428.410
  21
 776.500
  31
0.0
   0
LINE
   8
LEVEL001
   6
CONTINUOUS
  62
7
  10
 409.795
  20
 778.200
  30
0.0
  11
 436.707
  21
 778.200
  31
0.0
   0
LINE
   8
LEVEL001
   6
CONTINUOUS
  62
7
  10
 409.795
  20
 779.800
  30
0.0
  11
 436.707
  21
 779.800
  31
0.0
   0
LINE
   8
LEVEL001
   6
DASHDOT
  62
1
  10
 408.252
  20
 779.000
  30
0.0
  11
 437.625
  21
 779.000
  31
0.0
   0
LINE
   8
LEVEL001
   6
CONTINUOUS
  62
7
  10
 418.410
  20
 776.500
  30
0.0
  11
 418.410
  21
 778.200
  31
0.0
   0
LINE
   8
LEVEL001
   6
CONTINUOUS
  62
7
  10
 418.410
  20
 779.800
  30
0.0
  11
 418.410
  21
 781.500
  31
0.0
   0
LINE
   8
LEVEL001
   6
CONTINUOUS
  62
7
  10
 427.410
  20
 775.500
  30
0.0
  11
 428.410
  21
 776.500
  31
0.0
   0
LINE
   8
LEVEL001
   6
CONTINUOUS
  62
7
  10
 428.410
  20
 778.200
  30
0.0
  11
 428.410
  21
 776.500
  31
0.0
   0
LINE
   8
LEVEL001
   6
CONTINUOUS
  62
7
  10
 436.707
  20
 778.200
  30
0.0
  11
 436.707
  21
 779.800
  31
0.0
   0
ARC
   8
LEVEL001
   6
CONTINUOUS
  62
7
  10
 434.525
  20
 779.000
  30
0.0
  40
 0.800000
  50
 270.000
  51
 90.0000
   0
ARC
   8
LEVEL001
   6
CONTINUOUS
  62
7
  10
 409.795
  20
 779.000
  30
0.0
  40
 0.800000
  50
 90.0000
  51
 270.000
   0
LINE
   8
LEVEL001
   6
CONTINUOUS
  62
7
  10
 428.410
  20
 818.500
  30
0.0
  11
 428.410
  21
 820.200
  31
0.0
   0
LINE
   8
LEVEL001
   6
CONTINUOUS
  62
7
  10
 428.410
  20
 781.500
  30
0.0
  11
 428.410
  21
 779.800
  31
0.0
   0
LINE
   8
LEVEL003
   6
CONTINUOUS
  62
7
  10
 448.410
  20
 772.000
  30
0.0
  11
 448.340
  21
 773.054
  31
0.0
   0
LINE
   8
LEVEL003
   6
CONTINUOUS
  62
7
  10
 448.340
  20
 773.054
  30
0.0
  11
 448.131
  21
 774.092
  31
0.0
   0
LINE
   8
LEVEL003
   6
CONTINUOUS
  62
7
  10
 448.131
  20
 774.092
  30
0.0
  11
 447.785
  21
 775.098
  31
0.0
   0
LINE
   8
LEVEL003
   6
CONTINUOUS
  62
7
  10
 447.785
  20
 775.098
  30
0.0
  11
 447.309
  21
 776.055
  31
0.0
   0
LINE
   8
LEVEL003
   6
CONTINUOUS
  62
7
  10
 447.309
  20
 776.055
  30
0.0
  11
 446.709
  21
 776.948
  31
0.0
   0
LINE
   8
LEVEL003
   6
CONTINUOUS
  62
7
  10
 446.709
  20
 776.948
  30
0.0
  11
 445.996
  21
 777.765
  31
0.0
   0
LINE
   8
LEVEL003
   6
CONTINUOUS
  62
7
  10
 445.996
  20
 777.765
  30
0.0
  11
 445.179
  21
 778.491
  31
0.0
   0
LINE
   8
LEVEL003
   6
CONTINUOUS
  62
7
  10
 445.179
  20
 778.491
  30
0.0
  11
 444.273
  21
 779.117
  31
0.0
   0
LINE
   8
LEVEL003
   6
CONTINUOUS
  62
7
  10
 444.273
  20
 779.117
  30
0.0
  11
 443.291
  21
 779.631
  31
0.0
   0
LINE
   8
LEVEL003
   6
CONTINUOUS
  62
7
  10
 443.291
  20
 779.631
  30
0.0
  11
 442.248
  21
 780.026
  31
0.0
   0
LINE
   8
LEVEL003
   6
CONTINUOUS
  62
7
  10
 442.248
  20
 780.026
  30
0.0
  11
 441.161
  21
 780.296
  31
0.0
   0
LINE
   8
LEVEL003
   6
CONTINUOUS
  62
7
  10
 441.161
  20
 780.296
  30
0.0
  11
 440.047
  21
 780.436
  31
0.0
   0
LINE
   8
LEVEL003
   6
CONTINUOUS
  62
7
  10
 440.047
  20
 780.436
  30
0.0
  11
 438.923
  21
 780.445
  31
0.0
   0
LINE
   8
LEVEL003
   6
CONTINUOUS
  62
7
  10
 438.923
  20
 780.445
  30
0.0
  11
 437.806
  21
 780.322
  31
0.0
   0
LINE
   8
LEVEL003
   6
CONTINUOUS
  62
7
  10
 437.806
  20
 780.322
  30
0.0
  11
 436.715
  21
 780.069
  31
0.0
   0
LINE
   8
LEVEL003
   6
CONTINUOUS
  62
7
  10
 436.715
  20
 780.069
  30
0.0
  11
 435.932
  21
 779.800
  31
0.0
   0
LINE
   8
LEVEL003
   6
CONTINUOUS
  62
7
  10
 433.289
  20
 778.200
  30
0.0
  11
 432.514
  21
 777.435
  31
0.0
   0
LINE
   8
LEVEL003
   6
CONTINUOUS
  62
7
  10
 432.514
  20
 777.435
  30
0.0
  11
 431.847
  21
 776.584
  31
0.0
   0
LINE
   8
LEVEL003
   6
CONTINUOUS
  62
7
  10
 431.847
  20
 776.584
  30
0.0
  11
 431.298
  21
 775.662
  31
0.0
   0
LINE
   8
LEVEL003
   6
CONTINUOUS
  62
7
  10
 431.298
  20
 775.662
  30
0.0
  11
 430.875
  21
 774.683
  31
0.0
   0
LINE
   8
LEVEL003
   6
CONTINUOUS
  62
7
  10
 430.875
  20
 774.683
  30
0.0
  11
 430.586
  21
 773.663
  31
0.0
   0
LINE
   8
LEVEL003
   6
CONTINUOUS
  62
7
  10
 430.586
  20
 773.663
  30
0.0
  11
 430.434
  21
 772.616
  31
0.0
   0
LINE
   8
LEVEL003
   6
CONTINUOUS
  62
7
  10
 430.434
  20
 772.616
  30
0.0
  11
 430.410
  21
 772.000
  31
0.0
   0
LINE
   8
LEVEL001
   6
CONTINUOUS
  62
7
  10
 428.950
  20
 830.915
  30
0.0
  11
 428.310
  21
 823.600
  31
0.0
   0
ARC
   8
LEVEL001
   6
CONTINUOUS
  62
7
  10
 424.062
  20
 832.000
  30
0.0
  40
 5.00000
  50
 270.000
  51
 355.000
   0
LINE
   8
LEVEL001
   6
CONTINUOUS
  62
7
  10
 401.605
  20
 827.000
  30
0.0
  11
 424.062
  21
 827.000
  31
0.0
   0
LINE
   8
LEVEL001
   6
CONTINUOUS
  62
7
  10
 400.209
  20
 814.570
  30
0.0
  11
 400.032
  21
 809.499
  31
0.0
   0
LINE
   8
LEVEL001
   6
CONTINUOUS
  62
7
  10
 400.032
  20
 790.501
  30
0.0
  11
 400.209
  21
 785.430
  31
0.0
   0
LINE
   8
LEVEL001
   6
CONTINUOUS
  62
7
  10
 409.567
  20
 809.500
  30
0.0
  11
 409.325
  21
 806.739
  31
0.0
   0
LINE
   8
LEVEL001
   6
CONTINUOUS
  62
7
  10
 413.688
  20
 806.739
  30
0.0
  11
 413.929
  21
 809.500
  31
0.0
   0
LINE
   8
LEVEL001
   6
CONTINUOUS
  62
7
  10
 413.410
  20
 800.000
  30
0.0
  11
 414.242
  21
 809.500
  31
0.0
   0
LINE
   8
LEVEL001
   6
CONTINUOUS
  62
7
  10
 400.015
  20
 790.500
  30
0.0
  11
 423.983
  21
 790.500
  31
0.0
   0
LINE
   8
LEVEL001
   6
CONTINUOUS
  62
7
  10
 400.015
  20
 809.500
  30
0.0
  11
 423.983
  21
 809.500
  31
0.0
   0
LINE
   8
LEVEL001
   6
CONTINUOUS
  62
7
  10
 423.983
  20
 809.500
  30
0.0
  11
 423.983
  21
 790.500
  31
0.0
   0
LINE
   8
LEVEL001
   6
CONTINUOUS
  62
7
  10
 413.688
  20
 793.261
  30
0.0
  11
 413.929
  21
 790.500
  31
0.0
   0
LINE
   8
LEVEL001
   6
CONTINUOUS
  62
7
  10
 413.410
  20
 800.000
  30
0.0
  11
 414.242
  21
 790.500
  31
0.0
   0
LINE
   8
LEVEL001
   6
CONTINUOUS
  62
7
  10
 436.910
  20
 843.000
  30
0.0
  11
 459.067
  21
 843.000
  31
0.0
   0
LINE
   8
LEVEL001
   6
CONTINUOUS
  62
7
  10
 473.410
  20
 766.000
  30
0.0
  11
 473.910
  21
 766.500
  31
0.0
   0
LINE
   8
LEVEL001
   6
CONTINUOUS
  62
7
  10
 473.910
  20
 766.500
  30
0.0
  11
 473.910
  21
 767.500
  31
0.0
   0
ARC
   8
LEVEL001
   6
CONTINUOUS
  62
7
  10
 402.305
  20
 767.000
  30
0.0
  40
 2.00000
  50
 185.000
  51
 270.000
   0
LINE
   8
LEVEL001
   6
CONTINUOUS
  62
7
  10
 399.910
  20
 771.425
  30
0.0
  11
 400.313
  21
 766.826
  31
0.0
   0
LINE
   8
LEVEL001
   6
CONTINUOUS
  62
7
  10
 402.305
  20
 765.000
  30
0.0
  11
 430.002
  21
 765.000
  31
0.0
   0
LINE
   8
LEVEL001
   6
DASHDOT
  62
1
  10
 398.035
  20
 772.000
  30
0.0
  11
 467.287
  21
 772.000
  31
0.0
   0
LINE
   8
LEVEL001
   6
CONTINUOUS
  62
7
  10
 463.982
  20
 760.816
  30
0.0
  11
 463.260
  21
 752.564
  31
0.0
   0
LINE
   8
LEVEL003
   6
CONTINUOUS
  62
7
  10
 469.571
  20
 766.000
  30
0.0
  11
 473.410
  21
 766.000
  31
0.0
   0
LINE
   8
LEVEL001
   6
CONTINUOUS
  62
7
  10
 411.236
  20
 840.004
  30
0.0
  11
 410.497
  21
 831.564
  31
0.0
   0
ARC
   8
LEVEL001
   6
CONTINUOUS
  62
7
  10
 405.516
  20
 832.000
  30
0.0
  40
 5.00000
  50
 270.000
  51
 355.000
   0
LINE
   8
LEVEL001
   6
CONTINUOUS
  62
7
  10
 412.323
  20
 841.000
  30
0.0
  11
 411.236
  21
 840.004
  31
0.0
   0
LINE
   8
LEVEL001
   6
CONTINUOUS
  62
7
  10
 438.498
  20
 841.000
  30
0.0
  11
 439.585
  21
 840.004
  31
0.0
   0
LINE
   8
LEVEL001
   6
CONTINUOUS
  62
7
  10
 412.323
  20
 841.000
  30
0.0
  11
 425.410
  21
 841.000
  31
0.0
   0
LINE
   8
LEVEL001
   6
CONTINUOUS
  62
7
  10
 438.498
  20
 841.000
  30
0.0
  11
 425.410
  21
 841.000
  31
0.0
   0
LINE
   8
LEVEL001
   6
CONTINUOUS
  62
7
  10
 411.236
  20
 840.004
  30
0.0
  11
 439.585
  21
 840.004
  31
0.0
   0
TEXT
   8
LEVEL003
  62
3
  10
 500.000
  20
 874.737
  30
0.0
  40
 16.0000
   1
低圧安全弁
   7
STANDARD
   0
TEXT
   8
LEVEL003
  62
3
  10
 500.000
  20
 914.737
  30
0.0
  40
 16.0000
   1
高圧安全弁
   7
STANDARD
   0
LINE
   8
LEVEL003
   6
CONTINUOUS
  62
3
  10
 443.077
  20
 837.237
  30
0.0
  11
 500.000
  21
 914.737
  31
0.0
   0
LINE
   8
LEVEL003
   6
CONTINUOUS
  62
3
  10
 500.000
  20
 914.737
  30
0.0
  11
 580.000
  21
 914.737
  31
0.0
   0
LINE
   8
LEVEL003
   6
CONTINUOUS
  62
3
  10
 443.077
  20
 837.237
  30
0.0
  11
 451.886
  21
 845.656
  31
0.0
   0
LINE
   8
LEVEL003
   6
CONTINUOUS
  62
3
  10
 443.077
  20
 837.237
  30
0.0
  11
 448.475
  21
 848.161
  31
0.0
   0
TEXT
   8
LEVEL003
  62
3
  10
 260.000
  20
 914.737
  30
0.0
  40
 16.0000
   1
レリースバルブ
   7
STANDARD
   0
LINE
   8
LEVEL003
   6
CONTINUOUS
  62
3
  10
 464.615
  20
 835.891
  30
0.0
  11
 500.000
  21
 874.737
  31
0.0
   0
LINE
   8
LEVEL003
   6
CONTINUOUS
  62
3
  10
 500.000
  20
 874.737
  30
0.0
  11
 580.000
  21
 874.737
  31
0.0
   0
LINE
   8
LEVEL003
   6
CONTINUOUS
  62
3
  10
 464.615
  20
 835.891
  30
0.0
  11
 474.260
  21
 843.338
  31
0.0
   0
LINE
   8
LEVEL003
   6
CONTINUOUS
  62
3
  10
 464.615
  20
 835.891
  30
0.0
  11
 471.132
  21
 846.187
  31
0.0
   0
TEXT
   8
LEVEL003
  62
3
  10
 520.000
  20
 714.737
  30
0.0
  40
 16.0000
   1
サクション＆デリベリ（低圧）
   7
STANDARD
   0
TEXT
   8
LEVEL003
  62
3
  10
 520.000
  20
 674.737
  30
0.0
  40
 16.0000
   1
サクション＆デリベリ（高圧）
   7
STANDARD
   0
LINE
   8
LEVEL003
   6
CONTINUOUS
  62
3
  10
 465.288
  20
 761.853
  30
0.0
  11
 520.000
  21
 714.737
  31
0.0
   0
LINE
   8
LEVEL003
   6
CONTINUOUS
  62
3
  10
 520.000
  20
 714.737
  30
0.0
  11
 740.000
  21
 714.737
  31
0.0
   0
LINE
   8
LEVEL003
   6
CONTINUOUS
  62
3
  10
 465.288
  20
 761.853
  30
0.0
  11
 473.001
  21
 752.419
  31
0.0
   0
LINE
   8
LEVEL003
   6
CONTINUOUS
  62
3
  10
 465.288
  20
 761.853
  30
0.0
  11
 475.762
  21
 755.626
  31
0.0
   0
LINE
   8
LEVEL003
   6
CONTINUOUS
  62
3
  10
 442.404
  20
 761.853
  30
0.0
  11
 520.000
  21
 674.737
  31
0.0
   0
LINE
   8
LEVEL003
   6
CONTINUOUS
  62
3
  10
 520.000
  20
 674.737
  30
0.0
  11
 740.000
  21
 674.737
  31
0.0
   0
LINE
   8
LEVEL003
   6
CONTINUOUS
  62
3
  10
 442.404
  20
 761.853
  30
0.0
  11
 448.805
  21
 751.485
  31
0.0
   0
LINE
   8
LEVEL003
   6
CONTINUOUS
  62
3
  10
 442.404
  20
 761.853
  30
0.0
  11
 451.965
  21
 754.299
  31
0.0
   0
LINE
   8
LEVEL003
   6
CONTINUOUS
  62
3
  10
 432.910
  20
 843.000
  30
0.0
  11
 352.000
  21
 843.000
  31
0.0
   0
LINE
   8
LEVEL003
   6
CONTINUOUS
  62
3
  10
 394.410
  20
 800.000
  30
0.0
  11
 352.000
  21
 800.000
  31
0.0
   0
LINE
   8
LEVEL003
   6
CONTINUOUS
  62
3
  10
 360.000
  20
 843.000
  30
0.0
  11
 360.000
  21
 800.000
  31
0.0
   0
LINE
   8
LEVEL003
   6
CONTINUOUS
  62
3
  10
 360.000
  20
 843.000
  30
0.0
  11
 357.884
  21
 831.000
  31
0.0
   0
LINE
   8
LEVEL003
   6
CONTINUOUS
  62
3
  10
 360.000
  20
 843.000
  30
0.0
  11
 362.116
  21
 831.000
  31
0.0
   0
LINE
   8
LEVEL003
   6
CONTINUOUS
  62
3
  10
 360.000
  20
 800.000
  30
0.0
  11
 362.116
  21
 812.000
  31
0.0
   0
LINE
   8
LEVEL003
   6
CONTINUOUS
  62
3
  10
 360.000
  20
 800.000
  30
0.0
  11
 357.884
  21
 812.000
  31
0.0
   0
TEXT
   8
LEVEL003
  62
3
  10
 356.800
  20
 813.500
  30
0.0
  40
 16.0000
   1
43
  50
 90.0000
  41
 0.500000
   7
STANDARD
  72
1
  11
 356.800
  21
 821.500
  31
0.0
   0
LINE
   8
LEVEL003
   6
CONTINUOUS
  62
3
  10
 394.410
  20
 800.000
  30
0.0
  11
 352.000
  21
 800.000
  31
0.0
   0
LINE
   8
LEVEL003
   6
CONTINUOUS
  62
3
  10
 432.537
  20
 748.000
  30
0.0
  11
 352.000
  21
 748.000
  31
0.0
   0
LINE
   8
LEVEL003
   6
CONTINUOUS
  62
3
  10
 360.000
  20
 800.000
  30
0.0
  11
 360.000
  21
 748.000
  31
0.0
   0
LINE
   8
LEVEL003
   6
CONTINUOUS
  62
3
  10
 360.000
  20
 800.000
  30
0.0
  11
 357.884
  21
 788.000
  31
0.0
   0
LINE
   8
LEVEL003
   6
CONTINUOUS
  62
3
  10
 360.000
  20
 800.000
  30
0.0
  11
 362.116
  21
 788.000
  31
0.0
   0
LINE
   8
LEVEL003
   6
CONTINUOUS
  62
3
  10
 360.000
  20
 748.000
  30
0.0
  11
 362.116
  21
 760.000
  31
0.0
   0
LINE
   8
LEVEL003
   6
CONTINUOUS
  62
3
  10
 360.000
  20
 748.000
  30
0.0
  11
 357.884
  21
 760.000
  31
0.0
   0
TEXT
   8
LEVEL003
  62
3
  10
 356.800
  20
 766.000
  30
0.0
  40
 16.0000
   1
52
  50
 90.0000
  41
 0.500000
   7
STANDARD
  72
1
  11
 356.800
  21
 774.000
  31
0.0
   0
LINE
   8
LEVEL003
   6
CONTINUOUS
  62
3
  10
 432.910
  20
 843.000
  30
0.0
  11
 312.000
  21
 843.000
  31
0.0
   0
LINE
   8
LEVEL003
   6
CONTINUOUS
  62
3
  10
 432.537
  20
 748.000
  30
0.0
  11
 312.000
  21
 748.000
  31
0.0
   0
LINE
   8
LEVEL003
   6
CONTINUOUS
  62
3
  10
 320.000
  20
 843.000
  30
0.0
  11
 320.000
  21
 748.000
  31
0.0
   0
LINE
   8
LEVEL003
   6
CONTINUOUS
  62
3
  10
 320.000
  20
 843.000
  30
0.0
  11
 317.884
  21
 831.000
  31
0.0
   0
LINE
   8
LEVEL003
   6
CONTINUOUS
  62
3
  10
 320.000
  20
 843.000
  30
0.0
  11
 322.116
  21
 831.000
  31
0.0
   0
LINE
   8
LEVEL003
   6
CONTINUOUS
  62
3
  10
 320.000
  20
 748.000
  30
0.0
  11
 322.116
  21
 760.000
  31
0.0
   0
LINE
   8
LEVEL003
   6
CONTINUOUS
  62
3
  10
 320.000
  20
 748.000
  30
0.0
  11
 317.884
  21
 760.000
  31
0.0
   0
TEXT
   8
LEVEL003
  62
3
  10
 316.800
  20
 787.500
  30
0.0
  40
 16.0000
   1
95
  50
 90.0000
  41
 0.500000
   7
STANDARD
  72
1
  11
 316.800
  21
 795.500
  31
0.0
   0
LINE
   8
LEVEL003
   6
CONTINUOUS
  62
7
  10
 425.410
  20
 841.000
  30
0.0
  11
 425.410
  21
 850.973
  31
0.0
   0
ARC
   8
LEVEL003
   6
CONTINUOUS
  62
7
  10
 431.160
  20
 835.392
  30
0.0
  40
 16.6080
  50
 69.7438
  51
 110.256
   0
ARC
   8
LEVEL003
   6
CONTINUOUS
  62
7
  10
 419.660
  20
 835.392
  30
0.0
  40
 16.6080
  50
 69.7438
  51
 110.256
   0
LINE
   8
LEVEL003
   6
CONTINUOUS
  62
7
  10
 436.910
  20
 841.000
  30
0.0
  11
 436.910
  21
 852.000
  31
0.0
   0
LINE
   8
LEVEL003
   6
CONTINUOUS
  62
7
  10
 436.910
  20
 852.000
  30
0.0
  11
 413.910
  21
 852.000
  31
0.0
   0
LINE
   8
LEVEL003
   6
CONTINUOUS
  62
7
  10
 413.910
  20
 852.000
  30
0.0
  11
 413.910
  21
 841.000
  31
0.0
   0
LINE
   8
LEVEL001
   6
DASHDOT
  62
1
  10
 425.410
  20
 887.689
  30
0.0
  11
 425.410
  21
 829.737
  31
0.0
   0
LINE
   8
LEVEL001
   6
CONTINUOUS
  62
7
  10
 413.202
  20
 860.592
  30
0.0
  11
 420.410
  21
 860.592
  31
0.0
   0
LINE
   8
LEVEL001
   6
CONTINUOUS
  62
7
  10
 430.410
  20
 860.592
  30
0.0
  11
 437.619
  21
 860.592
  31
0.0
   0
ARC
   8
LEVEL001
   6
CONTINUOUS
  62
7
  10
 407.825
  20
 867.592
  30
0.0
  40
 3.00000
  50
 8.53108
  51
 89.9986
   0
ARC
   8
LEVEL001
   6
CONTINUOUS
  62
7
  10
 402.553
  20
 879.817
  30
0.0
  40
 2.00000
  50
 98.8840
  51
 180.000
   0
LINE
   8
LEVEL001
   6
CONTINUOUS
  62
7
  10
 408.117
  20
 882.592
  30
0.0
  11
 442.701
  21
 882.592
  31
0.0
   0
ARC
   8
LEVEL001
   6
CONTINUOUS
  62
7
  10
 425.409
  20
 733.593
  30
0.0
  40
 150.000
  50
 96.6196
  51
 98.8839
   0
LINE
   8
LEVEL001
   6
CONTINUOUS
  62
7
  10
 400.553
  20
 871.592
  30
0.0
  11
 400.553
  21
 879.817
  31
0.0
   0
ARC
   8
LEVEL001
   6
CONTINUOUS
  62
7
  10
 401.553
  20
 871.592
  30
0.0
  40
 1.00000
  50
 180.000
  51
 270.000
   0
LINE
   8
LEVEL001
   6
CONTINUOUS
  62
7
  10
 401.553
  20
 870.592
  30
0.0
  11
 425.410
  21
 870.592
  31
0.0
   0
ARC
   8
LEVEL010
   6
CONTINUOUS
  62
7
  10
 412.937
  20
 871.592
  30
0.0
  40
 1.00000
  50
 180.000
  51
 270.000
   0
ARC
   8
LEVEL010
   6
CONTINUOUS
  62
7
  10
 413.937
  20
 879.793
  30
0.0
  40
 2.00000
  50
 90.0000
  51
 180.000
   0
LINE
   8
LEVEL010
   6
CONTINUOUS
  62
7
  10
 421.910
  20
 882.592
  30
0.0
  11
 413.740
  21
 881.783
  31
0.0
   0
ARC
   8
LEVEL010
   6
CONTINUOUS
  62
7
  10
 410.937
  20
 871.592
  30
0.0
  40
 1.00000
  50
 270.000
  51
 0.134184E-8
   0
ARC
   8
LEVEL010
   6
CONTINUOUS
  62
7
  10
 409.937
  20
 879.793
  30
0.0
  40
 2.00000
  50
0.0
  51
 90.0000
   0
LINE
   8
LEVEL010
   6
CONTINUOUS
  62
7
  10
 411.937
  20
 871.592
  30
0.0
  11
 411.937
  21
 879.793
  31
0.0
   0
LINE
   8
LEVEL010
   6
CONTINUOUS
  62
7
  10
 409.937
  20
 881.793
  30
0.0
  11
 404.435
  21
 881.793
  31
0.0
   0
LINE
   8
LEVEL010
   6
CONTINUOUS
  62
7
  10
 421.910
  20
 871.592
  30
0.0
  11
 421.910
  21
 879.793
  31
0.0
   0
ARC
   8
LEVEL001
   6
CONTINUOUS
  62
7
  10
 442.993
  20
 867.592
  30
0.0
  40
 3.00000
  50
 89.9990
  51
 171.469
   0
ARC
   8
LEVEL001
   6
CONTINUOUS
  62
7
  10
 449.265
  20
 871.592
  30
0.0
  40
 1.00000
  50
 270.000
  51
 0.143303E-9
   0
ARC
   8
LEVEL001
   6
CONTINUOUS
  62
7
  10
 448.265
  20
 879.817
  30
0.0
  40
 2.00000
  50
 0.423395E-10
  51
 81.1169
   0
LINE
   8
LEVEL001
   6
CONTINUOUS
  62
7
  10
 450.265
  20
 871.592
  30
0.0
  11
 450.265
  21
 879.817
  31
0.0
   0
ARC
   8
LEVEL001
   6
CONTINUOUS
  62
7
  10
 425.409
  20
 733.592
  30
0.0
  40
 150.000
  50
 81.1161
  51
 83.3804
   0
LINE
   8
LEVEL001
   6
CONTINUOUS
  62
7
  10
 425.410
  20
 870.592
  30
0.0
  11
 449.265
  21
 870.592
  31
0.0
   0
ARC
   8
LEVEL010
   6
CONTINUOUS
  62
7
  10
 437.884
  20
 871.592
  30
0.0
  40
 1.00000
  50
 270.000
  51
 0.195413E-9
   0
ARC
   8
LEVEL010
   6
CONTINUOUS
  62
7
  10
 436.884
  20
 879.793
  30
0.0
  40
 2.00000
  50
0.0
  51
 90.0000
   0
LINE
   8
LEVEL010
   6
CONTINUOUS
  62
7
  10
 428.910
  20
 882.592
  30
0.0
  11
 437.081
  21
 881.783
  31
0.0
   0
ARC
   8
LEVEL010
   6
CONTINUOUS
  62
7
  10
 439.884
  20
 871.592
  30
0.0
  40
 1.00000
  50
 180.000
  51
 270.000
   0
ARC
   8
LEVEL010
   6
CONTINUOUS
  62
7
  10
 440.884
  20
 879.793
  30
0.0
  40
 2.00000
  50
 90.0000
  51
 180.000
   0
LINE
   8
LEVEL010
   6
CONTINUOUS
  62
7
  10
 438.884
  20
 871.592
  30
0.0
  11
 438.884
  21
 879.793
  31
0.0
   0
LINE
   8
LEVEL010
   6
CONTINUOUS
  62
7
  10
 440.884
  20
 881.793
  30
0.0
  11
 446.385
  21
 881.793
  31
0.0
   0
LINE
   8
LEVEL010
   6
CONTINUOUS
  62
7
  10
 428.910
  20
 871.592
  30
0.0
  11
 428.910
  21
 879.793
  31
0.0
   0
ARC
   8
LEVEL001
   6
CONTINUOUS
  62
7
  10
 437.187
  20
 862.592
  30
0.0
  40
 2.00000
  50
 270.001
  51
 351.469
   0
LINE
   8
LEVEL001
   6
CONTINUOUS
  62
7
  10
 439.164
  20
 862.296
  30
0.0
  11
 440.026
  21
 868.038
  31
0.0
   0
LINE
   8
LEVEL001
   6
CONTINUOUS
  62
7
  10
 425.410
  20
 860.592
  30
0.0
  11
 437.187
  21
 860.592
  31
0.0
   0
ARC
   8
LEVEL001
   6
CONTINUOUS
  62
7
  10
 413.631
  20
 862.592
  30
0.0
  40
 2.00000
  50
 188.531
  51
 270.001
   0
LINE
   8
LEVEL001
   6
CONTINUOUS
  62
7
  10
 411.653
  20
 862.296
  30
0.0
  11
 410.792
  21
 868.038
  31
0.0
   0
LINE
   8
LEVEL001
   6
CONTINUOUS
  62
7
  10
 413.631
  20
 860.592
  30
0.0
  11
 425.410
  21
 860.592
  31
0.0
   0
ARC
   8
LEVEL001
   6
CONTINUOUS
  62
7
  10
 425.410
  20
 733.592
  30
0.0
  40
 150.000
  50
 80.9510
  51
 99.0490
   0
LINE
   8
LEVEL001
   6
CONTINUOUS
  62
7
  10
 419.059
  20
 860.592
  30
0.0
  11
 419.059
  21
 852.000
  31
0.0
   0
LINE
   8
LEVEL001
   6
CONTINUOUS
  62
7
  10
 431.759
  20
 860.592
  30
0.0
  11
 431.759
  21
 852.000
  31
0.0
   0
LINE
   8
LEVEL003
   6
CONTINUOUS
  62
3
  10
 406.621
  20
 882.190
  30
0.0
  11
 379.625
  21
 914.618
  31
0.0
   0
LINE
   8
LEVEL003
   6
CONTINUOUS
  62
3
  10
 379.625
  20
 914.618
  30
0.0
  11
 256.937
  21
 914.618
  31
0.0
   0
LINE
   8
LEVEL003
   6
CONTINUOUS
  62
3
  10
 406.621
  20
 882.190
  30
0.0
  11
 400.569
  21
 892.767
  31
0.0
   0
LINE
   8
LEVEL003
   6
CONTINUOUS
  62
3
  10
 406.621
  20
 882.190
  30
0.0
  11
 397.317
  21
 890.059
  31
0.0
   0
POINT
   8
LEVEL001
  62
7
  10
 427.410
  20
 800.000
  30
0.0
   0
LINE
   8
LEVEL001
   6
CONTINUOUS
  62
7
  10
 494.410
  20
 828.000
  30
0.0
  11
 494.410
  21
 828.200
  31
0.0
   0
LINE
   8
LEVEL001
   6
CONTINUOUS
  62
7
  10
 490.410
  20
 832.500
  30
0.0
  11
 491.410
  21
 831.500
  31
0.0
   0
LINE
   8
LEVEL001
   6
CONTINUOUS
  62
7
  10
 491.410
  20
 831.500
  30
0.0
  11
 491.410
  21
 816.500
  31
0.0
   0
ARC
   8
LEVEL001
   6
CONTINUOUS
  62
7
  10
 490.410
  20
 824.425
  30
0.0
  40
 5.50000
  50
 43.3418
  51
 79.5243
   0
LINE
   8
LEVEL001
   6
CONTINUOUS
  62
7
  10
 491.410
  20
 828.000
  30
0.0
  11
 500.410
  21
 828.000
  31
0.0
   0
LINE
   8
LEVEL003
   6
CONTINUOUS
  62
7
  10
 500.410
  20
 816.500
  30
0.0
  11
 500.410
  21
 828.500
  31
0.0
   0
LINE
   8
LEVEL003
   6
CONTINUOUS
  62
7
  10
 500.410
  20
 828.500
  30
0.0
  11
 826.410
  21
 828.500
  31
0.0
   0
LINE
   8
LEVEL001
   6
CONTINUOUS
  62
7
  10
 490.410
  20
 832.500
  30
0.0
  11
 490.410
  21
 816.500
  31
0.0
   0
LINE
   8
LEVEL001
   6
CONTINUOUS
  62
7
  10
 491.410
  20
 772.000
  30
0.0
  11
 500.410
  21
 772.000
  31
0.0
   0
LINE
   8
LEVEL001
   6
CONTINUOUS
  62
7
  10
 491.410
  20
 783.500
  30
0.0
  11
 491.410
  21
 768.500
  31
0.0
   0
LINE
   8
LEVEL001
   6
CONTINUOUS
  62
7
  10
 491.410
  20
 768.500
  30
0.0
  11
 490.410
  21
 767.500
  31
0.0
   0
LINE
   8
LEVEL003
   6
CONTINUOUS
  62
7
  10
 500.410
  20
 771.500
  30
0.0
  11
 500.410
  21
 783.500
  31
0.0
   0
LINE
   8
LEVEL003
   6
CONTINUOUS
  62
7
  10
 500.410
  20
 771.500
  30
0.0
  11
 826.410
  21
 771.500
  31
0.0
   0
LINE
   8
LEVEL001
   6
CONTINUOUS
  62
7
  10
 490.410
  20
 783.500
  30
0.0
  11
 490.410
  21
 767.500
  31
0.0
   0
LINE
   8
LEVEL003
   6
CONTINUOUS
  62
7
  10
 826.410
  20
 810.750
  30
0.0
  11
 826.410
  21
 828.500
  31
0.0
   0
LINE
   8
LEVEL003
   6
CONTINUOUS
  62
3
  10
 904.410
  20
 852.500
  30
0.0
  11
 1049.00
  21
 852.500
  31
0.0
   0
LINE
   8
LEVEL003
   6
CONTINUOUS
  62
3
  10
 904.410
  20
 747.500
  30
0.0
  11
 1049.00
  21
 747.500
  31
0.0
   0
LINE
   8
LEVEL003
   6
CONTINUOUS
  62
3
  10
 1041.00
  20
 852.500
  30
0.0
  11
 1041.00
  21
 747.500
  31
0.0
   0
LINE
   8
LEVEL003
   6
CONTINUOUS
  62
3
  10
 1041.00
  20
 852.500
  30
0.0
  11
 1038.88
  21
 840.500
  31
0.0
   0
LINE
   8
LEVEL003
   6
CONTINUOUS
  62
3
  10
 1041.00
  20
 852.500
  30
0.0
  11
 1043.12
  21
 840.500
  31
0.0
   0
LINE
   8
LEVEL003
   6
CONTINUOUS
  62
3
  10
 1041.00
  20
 747.500
  30
0.0
  11
 1043.12
  21
 759.500
  31
0.0
   0
LINE
   8
LEVEL003
   6
CONTINUOUS
  62
3
  10
 1041.00
  20
 747.500
  30
0.0
  11
 1038.88
  21
 759.500
  31
0.0
   0
TEXT
   8
LEVEL003
  62
3
  10
 1037.80
  20
 788.000
  30
0.0
  40
 16.0000
   1
105
  50
 90.0000
  41
 0.500000
   7
STANDARD
  72
1
  11
 1037.80
  21
 800.000
  31
0.0
   0
LINE
   8
LEVEL003
   6
CONTINUOUS
  62
7
  10
 826.410
  20
 789.250
  30
0.0
  11
 826.410
  21
 771.500
  31
0.0
   0
LINE
   8
LEVEL050
   6
DASHDOT
  62
1
  10
 882.410
  20
 761.530
  30
0.0
  11
 852.410
  21
 761.530
  31
0.0
   0
LINE
   8
LEVEL003
   6
DASHDOT
  62
1
  10
 876.410
  20
 761.530
  30
0.0
  11
 876.340
  21
 762.614
  31
0.0
   0
LINE
   8
LEVEL003
   6
DASHDOT
  62
1
  10
 876.340
  20
 762.614
  30
0.0
  11
 876.131
  21
 763.681
  31
0.0
   0
LINE
   8
LEVEL003
   6
DASHDOT
  62
1
  10
 876.131
  20
 763.681
  30
0.0
  11
 875.785
  21
 764.714
  31
0.0
   0
LINE
   8
LEVEL003
   6
DASHDOT
  62
1
  10
 875.785
  20
 764.714
  30
0.0
  11
 875.309
  21
 765.698
  31
0.0
   0
LINE
   8
LEVEL003
   6
DASHDOT
  62
1
  10
 875.309
  20
 765.698
  30
0.0
  11
 874.709
  21
 766.616
  31
0.0
   0
LINE
   8
LEVEL003
   6
DASHDOT
  62
1
  10
 874.709
  20
 766.616
  30
0.0
  11
 873.996
  21
 767.456
  31
0.0
   0
LINE
   8
LEVEL003
   6
DASHDOT
  62
1
  10
 873.996
  20
 767.456
  30
0.0
  11
 873.179
  21
 768.203
  31
0.0
   0
LINE
   8
LEVEL003
   6
DASHDOT
  62
1
  10
 873.179
  20
 768.203
  30
0.0
  11
 872.273
  21
 768.845
  31
0.0
   0
LINE
   8
LEVEL003
   6
DASHDOT
  62
1
  10
 872.273
  20
 768.845
  30
0.0
  11
 871.291
  21
 769.374
  31
0.0
   0
LINE
   8
LEVEL003
   6
DASHDOT
  62
1
  10
 871.291
  20
 769.374
  30
0.0
  11
 870.248
  21
 769.780
  31
0.0
   0
LINE
   8
LEVEL003
   6
DASHDOT
  62
1
  10
 870.248
  20
 769.780
  30
0.0
  11
 869.161
  21
 770.057
  31
0.0
   0
LINE
   8
LEVEL003
   6
DASHDOT
  62
1
  10
 869.161
  20
 770.057
  30
0.0
  11
 868.047
  21
 770.202
  31
0.0
   0
LINE
   8
LEVEL003
   6
DASHDOT
  62
1
  10
 868.047
  20
 770.202
  30
0.0
  11
 866.923
  21
 770.211
  31
0.0
   0
LINE
   8
LEVEL003
   6
DASHDOT
  62
1
  10
 866.923
  20
 770.211
  30
0.0
  11
 865.806
  21
 770.084
  31
0.0
   0
LINE
   8
LEVEL003
   6
DASHDOT
  62
1
  10
 865.806
  20
 770.084
  30
0.0
  11
 864.715
  21
 769.824
  31
0.0
   0
LINE
   8
LEVEL003
   6
DASHDOT
  62
1
  10
 864.715
  20
 769.824
  30
0.0
  11
 863.665
  21
 769.435
  31
0.0
   0
LINE
   8
LEVEL003
   6
DASHDOT
  62
1
  10
 863.665
  20
 769.435
  30
0.0
  11
 862.674
  21
 768.922
  31
0.0
   0
LINE
   8
LEVEL003
   6
DASHDOT
  62
1
  10
 862.674
  20
 768.922
  30
0.0
  11
 861.757
  21
 768.294
  31
0.0
   0
LINE
   8
LEVEL003
   6
DASHDOT
  62
1
  10
 861.757
  20
 768.294
  30
0.0
  11
 860.928
  21
 767.560
  31
0.0
   0
LINE
   8
LEVEL003
   6
DASHDOT
  62
1
  10
 860.928
  20
 767.560
  30
0.0
  11
 860.200
  21
 766.733
  31
0.0
   0
LINE
   8
LEVEL003
   6
DASHDOT
  62
1
  10
 860.200
  20
 766.733
  30
0.0
  11
 859.585
  21
 765.824
  31
0.0
   0
LINE
   8
LEVEL003
   6
DASHDOT
  62
1
  10
 859.585
  20
 765.824
  30
0.0
  11
 859.092
  21
 764.848
  31
0.0
   0
LINE
   8
LEVEL003
   6
DASHDOT
  62
1
  10
 859.092
  20
 764.848
  30
0.0
  11
 858.728
  21
 763.820
  31
0.0
   0
LINE
   8
LEVEL003
   6
DASHDOT
  62
1
  10
 858.728
  20
 763.820
  30
0.0
  11
 858.500
  21
 762.757
  31
0.0
   0
LINE
   8
LEVEL003
   6
DASHDOT
  62
1
  10
 858.500
  20
 762.757
  30
0.0
  11
 858.412
  21
 761.674
  31
0.0
   0
LINE
   8
LEVEL003
   6
DASHDOT
  62
1
  10
 858.412
  20
 761.674
  30
0.0
  11
 858.463
  21
 760.589
  31
0.0
   0
LINE
   8
LEVEL003
   6
DASHDOT
  62
1
  10
 858.463
  20
 760.589
  30
0.0
  11
 858.654
  21
 759.519
  31
0.0
   0
LINE
   8
LEVEL003
   6
DASHDOT
  62
1
  10
 858.654
  20
 759.519
  30
0.0
  11
 858.982
  21
 758.481
  31
0.0
   0
LINE
   8
LEVEL003
   6
DASHDOT
  62
1
  10
 858.982
  20
 758.481
  30
0.0
  11
 859.442
  21
 757.489
  31
0.0
   0
LINE
   8
LEVEL003
   6
DASHDOT
  62
1
  10
 859.442
  20
 757.489
  30
0.0
  11
 860.025
  21
 756.561
  31
0.0
   0
LINE
   8
LEVEL003
   6
DASHDOT
  62
1
  10
 860.025
  20
 756.561
  30
0.0
  11
 860.724
  21
 755.711
  31
0.0
   0
LINE
   8
LEVEL003
   6
DASHDOT
  62
1
  10
 860.724
  20
 755.711
  30
0.0
  11
 861.528
  21
 754.951
  31
0.0
   0
LINE
   8
LEVEL003
   6
DASHDOT
  62
1
  10
 861.528
  20
 754.951
  30
0.0
  11
 862.423
  21
 754.294
  31
0.0
   0
LINE
   8
LEVEL003
   6
DASHDOT
  62
1
  10
 862.423
  20
 754.294
  30
0.0
  11
 863.396
  21
 753.750
  31
0.0
   0
LINE
   8
LEVEL003
   6
DASHDOT
  62
1
  10
 863.396
  20
 753.750
  30
0.0
  11
 864.431
  21
 753.327
  31
0.0
   0
LINE
   8
LEVEL003
   6
DASHDOT
  62
1
  10
 864.431
  20
 753.327
  30
0.0
  11
 865.513
  21
 753.032
  31
0.0
   0
LINE
   8
LEVEL003
   6
DASHDOT
  62
1
  10
 865.513
  20
 753.032
  30
0.0
  11
 866.625
  21
 752.870
  31
0.0
   0
LINE
   8
LEVEL003
   6
DASHDOT
  62
1
  10
 866.625
  20
 752.870
  30
0.0
  11
 867.749
  21
 752.843
  31
0.0
   0
LINE
   8
LEVEL003
   6
DASHDOT
  62
1
  10
 867.749
  20
 752.843
  30
0.0
  11
 868.867
  21
 752.951
  31
0.0
   0
LINE
   8
LEVEL003
   6
DASHDOT
  62
1
  10
 868.867
  20
 752.951
  30
0.0
  11
 869.963
  21
 753.194
  31
0.0
   0
LINE
   8
LEVEL003
   6
DASHDOT
  62
1
  10
 869.963
  20
 753.194
  30
0.0
  11
 871.019
  21
 753.566
  31
0.0
   0
LINE
   8
LEVEL003
   6
DASHDOT
  62
1
  10
 871.019
  20
 753.566
  30
0.0
  11
 872.019
  21
 754.063
  31
0.0
   0
LINE
   8
LEVEL003
   6
DASHDOT
  62
1
  10
 872.019
  20
 754.063
  30
0.0
  11
 872.947
  21
 754.676
  31
0.0
   0
LINE
   8
LEVEL003
   6
DASHDOT
  62
1
  10
 872.947
  20
 754.676
  30
0.0
  11
 873.788
  21
 755.397
  31
0.0
   0
LINE
   8
LEVEL003
   6
DASHDOT
  62
1
  10
 873.788
  20
 755.397
  30
0.0
  11
 874.530
  21
 756.212
  31
0.0
   0
LINE
   8
LEVEL003
   6
DASHDOT
  62
1
  10
 874.530
  20
 756.212
  30
0.0
  11
 875.161
  21
 757.111
  31
0.0
   0
LINE
   8
LEVEL003
   6
DASHDOT
  62
1
  10
 875.161
  20
 757.111
  30
0.0
  11
 875.671
  21
 758.079
  31
0.0
   0
LINE
   8
LEVEL003
   6
DASHDOT
  62
1
  10
 875.671
  20
 758.079
  30
0.0
  11
 876.052
  21
 759.101
  31
0.0
   0
LINE
   8
LEVEL003
   6
DASHDOT
  62
1
  10
 876.052
  20
 759.101
  30
0.0
  11
 876.298
  21
 760.161
  31
0.0
   0
LINE
   8
LEVEL003
   6
DASHDOT
  62
1
  10
 876.298
  20
 760.161
  30
0.0
  11
 876.405
  21
 761.242
  31
0.0
   0
LINE
   8
LEVEL003
   6
DASHDOT
  62
1
  10
 876.405
  20
 761.242
  30
0.0
  11
 876.410
  21
 761.530
  31
0.0
   0
LINE
   8
LEVEL050
   6
DASHDOT
  62
1
  10
 867.410
  20
 776.530
  30
0.0
  11
 867.410
  21
 746.530
  31
0.0
   0
LINE
   8
LEVEL003
   6
CONTINUOUS
  62
3
  10
 871.310
  20
 755.330
  30
0.0
  11
 887.033
  21
 695.635
  31
0.0
   0
LINE
   8
LEVEL003
   6
CONTINUOUS
  62
3
  10
 887.033
  20
 695.635
  30
0.0
  11
 1012.35
  21
 695.635
  31
0.0
   0
LINE
   8
LEVEL003
   6
CONTINUOUS
  62
3
  10
 871.310
  20
 755.330
  30
0.0
  11
 872.321
  21
 743.187
  31
0.0
   0
LINE
   8
LEVEL003
   6
CONTINUOUS
  62
3
  10
 871.310
  20
 755.330
  30
0.0
  11
 876.413
  21
 744.264
  31
0.0
   0
TEXT
   8
LEVEL003
  62
3
  10
 890.110
  20
 696.981
  30
0.0
  40
 16.0000
   1
エア抜きプラグ
   7
STANDARD
   0
TEXT
   8
LEVEL003
  62
3
  10
 890.110
  20
 675.648
  30
0.0
  40
 16.0000
   1
検油棒及び給油口兼用
   7
STANDARD
   0
LINE
   8
LEVEL001
   6
CONTINUOUS
  62
7
  10
 490.410
  20
 832.500
  30
0.0
  11
 473.910
  21
 832.500
  31
0.0
   0
LINE
   8
LEVEL001
   6
CONTINUOUS
  62
7
  10
 473.910
  20
 767.500
  30
0.0
  11
 490.410
  21
 767.500
  31
0.0
   0
LINE
   8
LEVEL014
   6
CONTINUOUS
  62
7
  10
 901.349
  20
 786.500
  30
0.0
  11
 901.349
  21
 813.500
  31
0.0
   0
LINE
   8
LEVEL014
   6
CONTINUOUS
  62
7
  10
 901.349
  20
 813.500
  30
0.0
  11
 911.349
  21
 812.500
  31
0.0
   0
LINE
   8
LEVEL014
   6
CONTINUOUS
  62
7
  10
 911.349
  20
 812.500
  30
0.0
  11
 911.349
  21
 787.500
  31
0.0
   0
LINE
   8
LEVEL014
   6
CONTINUOUS
  62
7
  10
 911.349
  20
 787.500
  30
0.0
  11
 901.349
  21
 786.500
  31
0.0
   0
LINE
   8
LEVEL014
   6
CONTINUOUS
  62
7
  10
 876.604
  20
 789.250
  30
0.0
  11
 876.604
  21
 810.750
  31
0.0
   0
LINE
   8
LEVEL014
   6
CONTINUOUS
  62
7
  10
 879.354
  20
 792.000
  30
0.0
  11
 879.354
  21
 808.000
  31
0.0
   0
LINE
   8
LEVEL003
   6
CONTINUOUS
  62
7
  10
 877.410
  20
 764.190
  30
0.0
  11
 877.410
  21
 761.530
  31
0.0
   0
LINE
   8
LEVEL003
   6
CONTINUOUS
  62
7
  10
 877.410
  20
 764.190
  30
0.0
  11
 877.332
  21
 765.394
  31
0.0
   0
LINE
   8
LEVEL003
   6
CONTINUOUS
  62
7
  10
 877.332
  20
 765.394
  30
0.0
  11
 877.099
  21
 766.580
  31
0.0
   0
LINE
   8
LEVEL003
   6
CONTINUOUS
  62
7
  10
 877.099
  20
 766.580
  30
0.0
  11
 876.715
  21
 767.728
  31
0.0
   0
LINE
   8
LEVEL003
   6
CONTINUOUS
  62
7
  10
 876.715
  20
 767.728
  30
0.0
  11
 876.186
  21
 768.821
  31
0.0
   0
LINE
   8
LEVEL003
   6
CONTINUOUS
  62
7
  10
 876.186
  20
 768.821
  30
0.0
  11
 875.520
  21
 769.842
  31
0.0
   0
LINE
   8
LEVEL003
   6
CONTINUOUS
  62
7
  10
 875.520
  20
 769.842
  30
0.0
  11
 874.727
  21
 770.774
  31
0.0
   0
LINE
   8
LEVEL003
   6
CONTINUOUS
  62
7
  10
 874.727
  20
 770.774
  30
0.0
  11
 873.820
  21
 771.604
  31
0.0
   0
LINE
   8
LEVEL003
   6
CONTINUOUS
  62
7
  10
 873.820
  20
 771.604
  30
0.0
  11
 872.813
  21
 772.318
  31
0.0
   0
LINE
   8
LEVEL003
   6
CONTINUOUS
  62
7
  10
 872.813
  20
 772.318
  30
0.0
  11
 871.722
  21
 772.905
  31
0.0
   0
LINE
   8
LEVEL003
   6
CONTINUOUS
  62
7
  10
 871.722
  20
 772.905
  30
0.0
  11
 870.564
  21
 773.356
  31
0.0
   0
LINE
   8
LEVEL003
   6
CONTINUOUS
  62
7
  10
 870.564
  20
 773.356
  30
0.0
  11
 869.356
  21
 773.665
  31
0.0
   0
LINE
   8
LEVEL003
   6
CONTINUOUS
  62
7
  10
 869.356
  20
 773.665
  30
0.0
  11
 868.118
  21
 773.825
  31
0.0
   0
LINE
   8
LEVEL003
   6
CONTINUOUS
  62
7
  10
 868.118
  20
 773.825
  30
0.0
  11
 866.869
  21
 773.835
  31
0.0
   0
LINE
   8
LEVEL003
   6
CONTINUOUS
  62
7
  10
 866.869
  20
 773.835
  30
0.0
  11
 865.628
  21
 773.695
  31
0.0
   0
LINE
   8
LEVEL003
   6
CONTINUOUS
  62
7
  10
 865.628
  20
 773.695
  30
0.0
  11
 864.415
  21
 773.406
  31
0.0
   0
LINE
   8
LEVEL003
   6
CONTINUOUS
  62
7
  10
 864.415
  20
 773.406
  30
0.0
  11
 863.249
  21
 772.973
  31
0.0
   0
LINE
   8
LEVEL003
   6
CONTINUOUS
  62
7
  10
 863.249
  20
 772.973
  30
0.0
  11
 862.148
  21
 772.403
  31
0.0
   0
LINE
   8
LEVEL003
   6
CONTINUOUS
  62
7
  10
 862.148
  20
 772.403
  30
0.0
  11
 861.129
  21
 771.706
  31
0.0
   0
LINE
   8
LEVEL003
   6
CONTINUOUS
  62
7
  10
 861.129
  20
 771.706
  30
0.0
  11
 860.208
  21
 770.890
  31
0.0
   0
LINE
   8
LEVEL003
   6
CONTINUOUS
  62
7
  10
 860.208
  20
 770.890
  30
0.0
  11
 859.399
  21
 769.971
  31
0.0
   0
LINE
   8
LEVEL003
   6
CONTINUOUS
  62
7
  10
 859.399
  20
 769.971
  30
0.0
  11
 858.715
  21
 768.961
  31
0.0
   0
LINE
   8
LEVEL003
   6
CONTINUOUS
  62
7
  10
 858.715
  20
 768.961
  30
0.0
  11
 858.167
  21
 767.877
  31
0.0
   0
LINE
   8
LEVEL003
   6
CONTINUOUS
  62
7
  10
 858.167
  20
 767.877
  30
0.0
  11
 857.764
  21
 766.735
  31
0.0
   0
LINE
   8
LEVEL003
   6
CONTINUOUS
  62
7
  10
 857.764
  20
 766.735
  30
0.0
  11
 857.510
  21
 765.553
  31
0.0
   0
LINE
   8
LEVEL003
   6
CONTINUOUS
  62
7
  10
 857.510
  20
 765.553
  30
0.0
  11
 857.412
  21
 764.350
  31
0.0
   0
LINE
   8
LEVEL003
   6
CONTINUOUS
  62
7
  10
 857.412
  20
 764.350
  30
0.0
  11
 857.410
  21
 764.190
  31
0.0
   0
LINE
   8
LEVEL003
   6
CONTINUOUS
  62
7
  10
 857.410
  20
 764.190
  30
0.0
  11
 857.410
  21
 761.530
  31
0.0
   0
ARC
   8
LEVEL001
   6
CONTINUOUS
  62
7
  10
 869.410
  20
 749.500
  30
0.0
  40
 2.00000
  50
 180.000
  51
 270.000
   0
LINE
   8
LEVEL001
   6
CONTINUOUS
  62
7
  10
 869.410
  20
 747.500
  30
0.0
  11
 900.410
  21
 747.500
  31
0.0
   0
ARC
   8
LEVEL003
   6
CONTINUOUS
  62
7
  10
 882.910
  20
 769.611
  30
0.0
  40
 3.00000
  50
 140.805
  51
 180.000
   0
ARC
   8
LEVEL001
   6
CONTINUOUS
  62
7
  10
 867.410
  20
 782.250
  30
0.0
  40
 17.0000
  50
 320.805
  51
0.0
   0
LINE
   8
LEVEL003
   6
CONTINUOUS
  62
7
  10
 856.174
  20
 780.000
  30
0.0
  11
 877.727
  21
 780.000
  31
0.0
   0
LINE
   8
LEVEL003
   6
CONTINUOUS
  62
7
  10
 854.910
  20
 765.000
  30
0.0
  11
 855.008
  21
 763.495
  31
0.0
   0
LINE
   8
LEVEL003
   6
CONTINUOUS
  62
7
  10
 855.008
  20
 763.495
  30
0.0
  11
 855.299
  21
 762.013
  31
0.0
   0
LINE
   8
LEVEL003
   6
CONTINUOUS
  62
7
  10
 855.299
  20
 762.013
  30
0.0
  11
 855.779
  21
 760.578
  31
0.0
   0
LINE
   8
LEVEL003
   6
CONTINUOUS
  62
7
  10
 855.779
  20
 760.578
  30
0.0
  11
 856.441
  21
 759.211
  31
0.0
   0
LINE
   8
LEVEL003
   6
CONTINUOUS
  62
7
  10
 856.441
  20
 759.211
  30
0.0
  11
 857.273
  21
 757.935
  31
0.0
   0
LINE
   8
LEVEL003
   6
CONTINUOUS
  62
7
  10
 857.273
  20
 757.935
  30
0.0
  11
 858.264
  21
 756.770
  31
0.0
   0
LINE
   8
LEVEL003
   6
CONTINUOUS
  62
7
  10
 858.264
  20
 756.770
  30
0.0
  11
 859.398
  21
 755.733
  31
0.0
   0
LINE
   8
LEVEL003
   6
CONTINUOUS
  62
7
  10
 859.398
  20
 755.733
  30
0.0
  11
 859.435
  21
 755.703
  31
0.0
   0
LINE
   8
LEVEL003
   6
CONTINUOUS
  62
7
  10
 875.386
  20
 755.703
  30
0.0
  11
 876.523
  21
 756.736
  31
0.0
   0
LINE
   8
LEVEL003
   6
CONTINUOUS
  62
7
  10
 876.523
  20
 756.736
  30
0.0
  11
 877.519
  21
 757.898
  31
0.0
   0
LINE
   8
LEVEL003
   6
CONTINUOUS
  62
7
  10
 877.519
  20
 757.898
  30
0.0
  11
 878.357
  21
 759.170
  31
0.0
   0
LINE
   8
LEVEL003
   6
CONTINUOUS
  62
7
  10
 878.357
  20
 759.170
  30
0.0
  11
 879.024
  21
 760.534
  31
0.0
   0
LINE
   8
LEVEL003
   6
CONTINUOUS
  62
7
  10
 879.024
  20
 760.534
  30
0.0
  11
 879.510
  21
 761.968
  31
0.0
   0
LINE
   8
LEVEL003
   6
CONTINUOUS
  62
7
  10
 879.510
  20
 761.968
  30
0.0
  11
 879.807
  21
 763.448
  31
0.0
   0
LINE
   8
LEVEL003
   6
CONTINUOUS
  62
7
  10
 879.807
  20
 763.448
  30
0.0
  11
 879.910
  21
 764.953
  31
0.0
   0
LINE
   8
LEVEL003
   6
CONTINUOUS
  62
7
  10
 879.910
  20
 764.953
  30
0.0
  11
 879.910
  21
 765.000
  31
0.0
   0
LINE
   8
LEVEL001
   6
CONTINUOUS
  62
7
  10
 867.410
  20
 751.871
  30
0.0
  11
 867.410
  21
 749.500
  31
0.0
   0
LINE
   8
LEVEL003
   6
CONTINUOUS
  62
7
  10
 854.910
  20
 765.000
  30
0.0
  11
 854.910
  21
 789.250
  31
0.0
   0
LINE
   8
LEVEL003
   6
CONTINUOUS
  62
7
  10
 857.410
  20
 761.530
  30
0.0
  11
 857.488
  21
 760.326
  31
0.0
   0
LINE
   8
LEVEL003
   6
CONTINUOUS
  62
7
  10
 857.488
  20
 760.326
  30
0.0
  11
 857.721
  21
 759.140
  31
0.0
   0
LINE
   8
LEVEL003
   6
CONTINUOUS
  62
7
  10
 857.721
  20
 759.140
  30
0.0
  11
 858.105
  21
 757.992
  31
0.0
   0
LINE
   8
LEVEL003
   6
CONTINUOUS
  62
7
  10
 858.105
  20
 757.992
  30
0.0
  11
 858.635
  21
 756.899
  31
0.0
   0
LINE
   8
LEVEL003
   6
CONTINUOUS
  62
7
  10
 858.635
  20
 756.899
  30
0.0
  11
 859.301
  21
 755.878
  31
0.0
   0
LINE
   8
LEVEL003
   6
CONTINUOUS
  62
7
  10
 859.301
  20
 755.878
  30
0.0
  11
 860.093
  21
 754.946
  31
0.0
   0
LINE
   8
LEVEL003
   6
CONTINUOUS
  62
7
  10
 860.093
  20
 754.946
  30
0.0
  11
 861.000
  21
 754.116
  31
0.0
   0
LINE
   8
LEVEL003
   6
CONTINUOUS
  62
7
  10
 861.000
  20
 754.116
  30
0.0
  11
 862.007
  21
 753.402
  31
0.0
   0
LINE
   8
LEVEL003
   6
CONTINUOUS
  62
7
  10
 862.007
  20
 753.402
  30
0.0
  11
 863.099
  21
 752.815
  31
0.0
   0
LINE
   8
LEVEL003
   6
CONTINUOUS
  62
7
  10
 863.099
  20
 752.815
  30
0.0
  11
 864.257
  21
 752.364
  31
0.0
   0
LINE
   8
LEVEL003
   6
CONTINUOUS
  62
7
  10
 864.257
  20
 752.364
  30
0.0
  11
 865.465
  21
 752.055
  31
0.0
   0
LINE
   8
LEVEL003
   6
CONTINUOUS
  62
7
  10
 865.465
  20
 752.055
  30
0.0
  11
 866.703
  21
 751.895
  31
0.0
   0
LINE
   8
LEVEL003
   6
CONTINUOUS
  62
7
  10
 866.703
  20
 751.895
  30
0.0
  11
 867.952
  21
 751.885
  31
0.0
   0
LINE
   8
LEVEL003
   6
CONTINUOUS
  62
7
  10
 867.952
  20
 751.885
  30
0.0
  11
 869.193
  21
 752.025
  31
0.0
   0
LINE
   8
LEVEL003
   6
CONTINUOUS
  62
7
  10
 869.193
  20
 752.025
  30
0.0
  11
 870.406
  21
 752.314
  31
0.0
   0
LINE
   8
LEVEL003
   6
CONTINUOUS
  62
7
  10
 870.406
  20
 752.314
  30
0.0
  11
 871.572
  21
 752.747
  31
0.0
   0
LINE
   8
LEVEL003
   6
CONTINUOUS
  62
7
  10
 871.572
  20
 752.747
  30
0.0
  11
 872.673
  21
 753.317
  31
0.0
   0
LINE
   8
LEVEL003
   6
CONTINUOUS
  62
7
  10
 872.673
  20
 753.317
  30
0.0
  11
 873.692
  21
 754.014
  31
0.0
   0
LINE
   8
LEVEL003
   6
CONTINUOUS
  62
7
  10
 873.692
  20
 754.014
  30
0.0
  11
 874.613
  21
 754.830
  31
0.0
   0
LINE
   8
LEVEL003
   6
CONTINUOUS
  62
7
  10
 874.613
  20
 754.830
  30
0.0
  11
 875.422
  21
 755.749
  31
0.0
   0
LINE
   8
LEVEL003
   6
CONTINUOUS
  62
7
  10
 875.422
  20
 755.749
  30
0.0
  11
 876.105
  21
 756.759
  31
0.0
   0
LINE
   8
LEVEL003
   6
CONTINUOUS
  62
7
  10
 876.105
  20
 756.759
  30
0.0
  11
 876.653
  21
 757.843
  31
0.0
   0
LINE
   8
LEVEL003
   6
CONTINUOUS
  62
7
  10
 876.653
  20
 757.843
  30
0.0
  11
 877.057
  21
 758.985
  31
0.0
   0
LINE
   8
LEVEL003
   6
CONTINUOUS
  62
7
  10
 877.057
  20
 758.985
  30
0.0
  11
 877.310
  21
 760.167
  31
0.0
   0
LINE
   8
LEVEL003
   6
CONTINUOUS
  62
7
  10
 877.310
  20
 760.167
  30
0.0
  11
 877.409
  21
 761.370
  31
0.0
   0
LINE
   8
LEVEL003
   6
CONTINUOUS
  62
7
  10
 877.409
  20
 761.370
  30
0.0
  11
 877.410
  21
 761.530
  31
0.0
   0
LINE
   8
LEVEL003
   6
CONTINUOUS
  62
7
  10
 876.077
  20
 766.349
  30
0.0
  11
 875.387
  21
 767.355
  31
0.0
   0
LINE
   8
LEVEL003
   6
CONTINUOUS
  62
7
  10
 875.387
  20
 767.355
  30
0.0
  11
 874.573
  21
 768.270
  31
0.0
   0
LINE
   8
LEVEL003
   6
CONTINUOUS
  62
7
  10
 874.573
  20
 768.270
  30
0.0
  11
 873.647
  21
 769.080
  31
0.0
   0
LINE
   8
LEVEL003
   6
CONTINUOUS
  62
7
  10
 873.647
  20
 769.080
  30
0.0
  11
 872.624
  21
 769.772
  31
0.0
   0
LINE
   8
LEVEL003
   6
CONTINUOUS
  62
7
  10
 872.624
  20
 769.772
  30
0.0
  11
 871.520
  21
 770.336
  31
0.0
   0
LINE
   8
LEVEL003
   6
CONTINUOUS
  62
7
  10
 871.520
  20
 770.336
  30
0.0
  11
 870.351
  21
 770.762
  31
0.0
   0
LINE
   8
LEVEL003
   6
CONTINUOUS
  62
7
  10
 870.351
  20
 770.762
  30
0.0
  11
 869.136
  21
 771.044
  31
0.0
   0
LINE
   8
LEVEL003
   6
CONTINUOUS
  62
7
  10
 869.136
  20
 771.044
  30
0.0
  11
 867.895
  21
 771.178
  31
0.0
   0
LINE
   8
LEVEL003
   6
CONTINUOUS
  62
7
  10
 867.895
  20
 771.178
  30
0.0
  11
 866.646
  21
 771.161
  31
0.0
   0
LINE
   8
LEVEL003
   6
CONTINUOUS
  62
7
  10
 866.646
  20
 771.161
  30
0.0
  11
 865.409
  21
 770.994
  31
0.0
   0
LINE
   8
LEVEL003
   6
CONTINUOUS
  62
7
  10
 865.409
  20
 770.994
  30
0.0
  11
 864.203
  21
 770.679
  31
0.0
   0
LINE
   8
LEVEL003
   6
CONTINUOUS
  62
7
  10
 864.203
  20
 770.679
  30
0.0
  11
 863.047
  21
 770.221
  31
0.0
   0
LINE
   8
LEVEL003
   6
CONTINUOUS
  62
7
  10
 863.047
  20
 770.221
  30
0.0
  11
 861.959
  21
 769.628
  31
0.0
   0
LINE
   8
LEVEL003
   6
CONTINUOUS
  62
7
  10
 861.959
  20
 769.628
  30
0.0
  11
 860.957
  21
 768.908
  31
0.0
   0
LINE
   8
LEVEL003
   6
CONTINUOUS
  62
7
  10
 860.957
  20
 768.908
  30
0.0
  11
 860.055
  21
 768.074
  31
0.0
   0
LINE
   8
LEVEL003
   6
CONTINUOUS
  62
7
  10
 860.055
  20
 768.074
  30
0.0
  11
 859.267
  21
 767.137
  31
0.0
   0
LINE
   8
LEVEL003
   6
CONTINUOUS
  62
7
  10
 859.267
  20
 767.137
  30
0.0
  11
 858.744
  21
 766.349
  31
0.0
   0
LINE
   8
LEVEL003
   6
CONTINUOUS
  62
7
  10
 886.342
  20
 784.746
  30
0.0
  11
 880.943
  21
 764.595
  31
0.0
   0
ARC
   8
LEVEL003
   6
CONTINUOUS
  62
7
  10
 879.011
  20
 765.112
  30
0.0
  40
 2.00000
  50
 292.642
  51
 345.000
   0
ARC
   8
LEVEL001
   6
CONTINUOUS
  62
7
  10
 836.410
  20
 824.425
  30
0.0
  40
 5.50000
  50
 100.476
  51
 136.658
   0
LINE
   8
LEVEL001
   6
CONTINUOUS
  62
7
  10
 832.410
  20
 828.000
  30
0.0
  11
 832.410
  21
 828.200
  31
0.0
   0
LINE
   8
LEVEL003
   6
CONTINUOUS
  62
7
  10
 835.410
  20
 828.000
  30
0.0
  11
 826.410
  21
 828.000
  31
0.0
   0
ARC
   8
LEVEL001
   6
CONTINUOUS
  62
7
  10
 869.410
  20
 850.500
  30
0.0
  40
 2.00000
  50
 90.0000
  51
 180.000
   0
LINE
   8
LEVEL001
   6
CONTINUOUS
  62
7
  10
 869.410
  20
 852.500
  30
0.0
  11
 900.410
  21
 852.500
  31
0.0
   0
ARC
   8
LEVEL001
   6
CONTINUOUS
  62
7
  10
 867.410
  20
 817.750
  30
0.0
  40
 17.0000
  50
0.0
  51
 90.0000
   0
LINE
   8
LEVEL001
   6
CONTINUOUS
  62
7
  10
 867.410
  20
 850.500
  30
0.0
  11
 867.410
  21
 834.750
  31
0.0
   0
ARC
   8
LEVEL001
   6
CONTINUOUS
  62
7
  10
 885.410
  20
 813.536
  30
0.0
  40
 1.00000
  50
0.0
  51
 60.0000
   0
ARC
   8
LEVEL001
   6
CONTINUOUS
  62
7
  10
 887.410
  20
 817.000
  30
0.0
  40
 3.00000
  50
 180.000
  51
 240.000
   0
LINE
   8
LEVEL003
   6
CONTINUOUS
  62
7
  10
 886.410
  20
 813.536
  30
0.0
  11
 886.410
  21
 808.000
  31
0.0
   0
ARC
   8
LEVEL001
   6
CONTINUOUS
  62
7
  10
 900.410
  20
 850.500
  30
0.0
  40
 2.00000
  50
0.0
  51
 90.0000
   0
LINE
   8
LEVEL001
   6
CONTINUOUS
  62
7
  10
 902.410
  20
 850.500
  30
0.0
  11
 902.410
  21
 813.500
  31
0.0
   0
LINE
   8
LEVEL001
   6
CONTINUOUS
  62
7
  10
 886.410
  20
 792.000
  30
0.0
  11
 886.410
  21
 784.746
  31
0.0
   0
ARC
   8
LEVEL001
   6
CONTINUOUS
  62
7
  10
 900.410
  20
 749.500
  30
0.0
  40
 2.00000
  50
 270.000
  51
0.0
   0
LINE
   8
LEVEL001
   6
CONTINUOUS
  62
7
  10
 902.410
  20
 786.500
  30
0.0
  11
 902.410
  21
 749.500
  31
0.0
   0
LINE
   8
LEVEL014
   6
CONTINUOUS
  62
7
  10
 889.910
  20
 808.000
  30
0.0
  11
 901.349
  21
 808.000
  31
0.0
   0
LINE
   8
LEVEL014
   6
CONTINUOUS
  62
7
  10
 889.910
  20
 792.000
  30
0.0
  11
 901.349
  21
 792.000
  31
0.0
   0
ARC
   8
LEVEL003
   6
CONTINUOUS
  62
7
  10
 852.066
  20
 762.588
  30
0.0
  40
 3.00000
  50
 8.11460
  51
 87.8945
   0
LINE
   8
LEVEL001
   6
CONTINUOUS
  62
7
  10
 835.410
  20
 767.956
  30
0.0
  11
 837.410
  21
 765.912
  31
0.0
   0
LINE
   8
LEVEL003
   6
CONTINUOUS
  62
7
  10
 852.171
  20
 765.586
  30
0.0
  11
 837.410
  21
 765.912
  31
0.0
   0
LINE
   8
LEVEL001
   6
CONTINUOUS
  62
7
  10
 835.410
  20
 831.574
  30
0.0
  11
 835.410
  21
 810.750
  31
0.0
   0
LINE
   8
LEVEL001
   6
CONTINUOUS
  62
7
  10
 835.410
  20
 832.044
  30
0.0
  11
 837.410
  21
 834.088
  31
0.0
   0
LINE
   8
LEVEL001
   6
CONTINUOUS
  62
7
  10
 867.410
  20
 834.750
  30
0.0
  11
 837.410
  21
 834.088
  31
0.0
   0
LINE
   8
LEVEL001
   6
CONTINUOUS
  62
7
  10
 835.410
  20
 832.044
  30
0.0
  11
 835.410
  21
 810.750
  31
0.0
   0
LINE
   8
LEVEL003
   6
CONTINUOUS
  62
7
  10
 837.410
  20
 834.088
  30
0.0
  11
 837.410
  21
 810.750
  31
0.0
   0
LINE
   8
LEVEL003
   6
CONTINUOUS
  62
7
  10
 837.410
  20
 789.250
  30
0.0
  11
 837.410
  21
 765.912
  31
0.0
   0
LINE
   8
LEVEL001
   6
CONTINUOUS
  62
7
  10
 835.410
  20
 789.250
  30
0.0
  11
 835.410
  21
 767.956
  31
0.0
   0
LINE
   8
LEVEL001
   6
CONTINUOUS
  62
7
  10
 884.410
  20
 817.750
  30
0.0
  11
 884.410
  21
 809.000
  31
0.0
   0
LINE
   8
LEVEL001
   6
CONTINUOUS
  62
7
  10
 884.410
  20
 791.000
  30
0.0
  11
 884.410
  21
 782.250
  31
0.0
   0
ARC
   8
LEVEL001
   6
CONTINUOUS
  62
7
  10
 881.910
  20
 789.000
  30
0.0
  40
 2.00000
  50
 90.0000
  51
 180.000
   0
LINE
   8
LEVEL001
   6
CONTINUOUS
  62
7
  10
 886.410
  20
 818.497
  30
0.0
  11
 889.610
  21
 818.497
  31
0.0
   0
LINE
   8
LEVEL003
   6
CONTINUOUS
  62
7
  10
 886.410
  20
 818.497
  30
0.0
  11
 886.410
  21
 785.263
  31
0.0
   0
LINE
   8
LEVEL003
   6
CONTINUOUS
  62
7
  10
 889.610
  20
 811.000
  30
0.0
  11
 889.910
  21
 811.000
  31
0.0
   0
LINE
   8
LEVEL001
   6
CONTINUOUS
  62
7
  10
 886.410
  20
 788.163
  30
0.0
  11
 889.610
  21
 788.163
  31
0.0
   0
LINE
   8
LEVEL003
   6
CONTINUOUS
  62
7
  10
 889.610
  20
 789.000
  30
0.0
  11
 889.910
  21
 789.000
  31
0.0
   0
LINE
   8
LEVEL003
   6
CONTINUOUS
  62
7
  10
 889.610
  20
 818.497
  30
0.0
  11
 889.610
  21
 788.163
  31
0.0
   0
LINE
   8
LEVEL003
   6
CONTINUOUS
  62
7
  10
 835.410
  20
 772.000
  30
0.0
  11
 826.410
  21
 772.000
  31
0.0
   0
ARC
   8
LEVEL003
   6
CONTINUOUS
  62
7
  10
 883.580
  20
 806.000
  30
0.0
  40
 17.3301
  50
 6.62704
  51
 20.2562
   0
LINE
   8
LEVEL003
   6
CONTINUOUS
  62
7
  10
 900.910
  20
 808.000
  30
0.0
  11
 900.910
  21
 812.000
  31
0.0
   0
LINE
   8
LEVEL003
   6
CONTINUOUS
  62
7
  10
 900.910
  20
 812.000
  30
0.0
  11
 889.910
  21
 812.000
  31
0.0
   0
LINE
   8
LEVEL003
   6
CONTINUOUS
  62
7
  10
 889.910
  20
 812.000
  30
0.0
  11
 889.910
  21
 788.000
  31
0.0
   0
LINE
   8
LEVEL003
   6
CONTINUOUS
  62
7
  10
 889.910
  20
 788.000
  30
0.0
  11
 900.910
  21
 788.000
  31
0.0
   0
LINE
   8
LEVEL003
   6
CONTINUOUS
  62
7
  10
 900.910
  20
 788.000
  30
0.0
  11
 900.910
  21
 792.000
  31
0.0
   0
ARC
   8
LEVEL003
   6
CONTINUOUS
  62
7
  10
 883.580
  20
 794.000
  30
0.0
  40
 17.3301
  50
 339.744
  51
 353.373
   0
LINE
   8
LEVEL014
   6
CONTINUOUS
  62
7
  10
 558.983
  20
 810.750
  30
0.0
  11
 876.604
  21
 810.750
  31
0.0
   0
LINE
   8
LEVEL014
   6
CONTINUOUS
  62
7
  10
 876.604
  20
 810.750
  30
0.0
  11
 879.354
  21
 808.000
  31
0.0
   0
LINE
   8
LEVEL014
   6
CONTINUOUS
  62
7
  10
 879.354
  20
 808.000
  30
0.0
  11
 886.410
  21
 808.000
  31
0.0
   0
LINE
   8
LEVEL014
   6
CONTINUOUS
  62
7
  10
 558.983
  20
 789.250
  30
0.0
  11
 876.604
  21
 789.250
  31
0.0
   0
LINE
   8
LEVEL014
   6
CONTINUOUS
  62
7
  10
 876.604
  20
 789.250
  30
0.0
  11
 879.354
  21
 792.000
  31
0.0
   0
LINE
   8
LEVEL014
   6
CONTINUOUS
  62
7
  10
 879.354
  20
 792.000
  30
0.0
  11
 886.410
  21
 792.000
  31
0.0
   0
ARC
   8
LEVEL001
   6
CONTINUOUS
  62
7
  10
 876.910
  20
 789.251
  30
0.0
  40
 3.00000
  50
 0.273579E-9
  51
 49.1274
   0
LINE
   8
LEVEL001
   6
CONTINUOUS
  62
7
  10
 878.354
  20
 809.000
  30
0.0
  11
 884.410
  21
 809.000
  31
0.0
   0
LINE
   8
LEVEL001
   6
CONTINUOUS
  62
7
  10
 881.910
  20
 791.000
  30
0.0
  11
 884.410
  21
 791.000
  31
0.0
   0
LINE
   8
LEVEL003
   6
CONTINUOUS
  62
7
  10
 879.910
  20
 765.000
  30
0.0
  11
 879.910
  21
 789.251
  31
0.0
   0
ARC
   8
LEVEL001
   6
CONTINUOUS
  62
7
  10
 884.410
  20
 793.000
  30
0.0
  40
 2.00000
  50
 270.000
  51
 330.000
   0
ARC
   8
LEVEL001
   6
CONTINUOUS
  62
7
  10
 884.410
  20
 807.000
  30
0.0
  40
 2.00000
  50
 30.0000
  51
 90.0000
   0
CIRCLE
   8
LEVEL001
   6
CONTINUOUS
  62
7
  10
 439.410
  20
 830.000
  30
0.0
  40
 7.50000
   0
LINE
   8
LEVEL001
   6
CONTINUOUS
  62
7
  10
 439.410
  20
 820.539
  30
0.0
  11
 430.910
  21
 825.093
  31
0.0
   0
LINE
   8
LEVEL001
   6
CONTINUOUS
  62
7
  10
 430.910
  20
 825.093
  30
0.0
  11
 430.910
  21
 834.373
  31
0.0
   0
LINE
   8
LEVEL001
   6
CONTINUOUS
  62
7
  10
 430.910
  20
 834.373
  30
0.0
  11
 439.410
  21
 838.985
  31
0.0
   0
LINE
   8
LEVEL001
   6
CONTINUOUS
  62
7
  10
 439.410
  20
 838.985
  30
0.0
  11
 447.910
  21
 834.373
  31
0.0
   0
LINE
   8
LEVEL001
   6
CONTINUOUS
  62
7
  10
 447.910
  20
 834.373
  30
0.0
  11
 447.910
  21
 825.093
  31
0.0
   0
LINE
   8
LEVEL001
   6
CONTINUOUS
  62
7
  10
 447.910
  20
 825.093
  30
0.0
  11
 439.410
  21
 820.539
  31
0.0
   0
LINE
   8
LEVEL001
   6
CONTINUOUS
  62
7
  10
 430.910
  20
 829.735
  30
0.0
  11
 430.977
  21
 828.740
  31
0.0
   0
LINE
   8
LEVEL001
   6
CONTINUOUS
  62
7
  10
 430.977
  20
 828.740
  30
0.0
  11
 431.175
  21
 827.759
  31
0.0
   0
LINE
   8
LEVEL001
   6
CONTINUOUS
  62
7
  10
 431.175
  20
 827.759
  30
0.0
  11
 431.501
  21
 826.810
  31
0.0
   0
LINE
   8
LEVEL001
   6
CONTINUOUS
  62
7
  10
 431.501
  20
 826.810
  30
0.0
  11
 431.951
  21
 825.906
  31
0.0
   0
LINE
   8
LEVEL001
   6
CONTINUOUS
  62
7
  10
 431.951
  20
 825.906
  30
0.0
  11
 432.517
  21
 825.062
  31
0.0
   0
LINE
   8
LEVEL001
   6
CONTINUOUS
  62
7
  10
 432.517
  20
 825.062
  30
0.0
  11
 433.191
  21
 824.291
  31
0.0
   0
LINE
   8
LEVEL001
   6
CONTINUOUS
  62
7
  10
 433.191
  20
 824.291
  30
0.0
  11
 433.962
  21
 823.605
  31
0.0
   0
LINE
   8
LEVEL001
   6
CONTINUOUS
  62
7
  10
 433.962
  20
 823.605
  30
0.0
  11
 434.818
  21
 823.014
  31
0.0
   0
LINE
   8
LEVEL001
   6
CONTINUOUS
  62
7
  10
 434.818
  20
 823.014
  30
0.0
  11
 435.745
  21
 822.529
  31
0.0
   0
LINE
   8
LEVEL001
   6
CONTINUOUS
  62
7
  10
 435.745
  20
 822.529
  30
0.0
  11
 436.730
  21
 822.155
  31
0.0
   0
LINE
   8
LEVEL001
   6
CONTINUOUS
  62
7
  10
 436.730
  20
 822.155
  30
0.0
  11
 437.757
  21
 821.901
  31
0.0
   0
LINE
   8
LEVEL001
   6
CONTINUOUS
  62
7
  10
 437.757
  20
 821.901
  30
0.0
  11
 438.809
  21
 821.768
  31
0.0
   0
LINE
   8
LEVEL001
   6
CONTINUOUS
  62
7
  10
 438.809
  20
 821.768
  30
0.0
  11
 439.871
  21
 821.760
  31
0.0
   0
LINE
   8
LEVEL001
   6
CONTINUOUS
  62
7
  10
 439.871
  20
 821.760
  30
0.0
  11
 440.925
  21
 821.876
  31
0.0
   0
LINE
   8
LEVEL001
   6
CONTINUOUS
  62
7
  10
 440.925
  20
 821.876
  30
0.0
  11
 441.956
  21
 822.115
  31
0.0
   0
LINE
   8
LEVEL001
   6
CONTINUOUS
  62
7
  10
 441.956
  20
 822.115
  30
0.0
  11
 442.948
  21
 822.472
  31
0.0
   0
LINE
   8
LEVEL001
   6
CONTINUOUS
  62
7
  10
 442.948
  20
 822.472
  30
0.0
  11
 443.884
  21
 822.944
  31
0.0
   0
LINE
   8
LEVEL001
   6
CONTINUOUS
  62
7
  10
 443.884
  20
 822.944
  30
0.0
  11
 444.750
  21
 823.521
  31
0.0
   0
LINE
   8
LEVEL001
   6
CONTINUOUS
  62
7
  10
 444.750
  20
 823.521
  30
0.0
  11
 445.533
  21
 824.195
  31
0.0
   0
LINE
   8
LEVEL001
   6
CONTINUOUS
  62
7
  10
 445.533
  20
 824.195
  30
0.0
  11
 446.220
  21
 824.955
  31
0.0
   0
LINE
   8
LEVEL001
   6
CONTINUOUS
  62
7
  10
 446.220
  20
 824.955
  30
0.0
  11
 446.801
  21
 825.790
  31
0.0
   0
LINE
   8
LEVEL001
   6
CONTINUOUS
  62
7
  10
 446.801
  20
 825.790
  30
0.0
  11
 447.267
  21
 826.687
  31
0.0
   0
LINE
   8
LEVEL001
   6
CONTINUOUS
  62
7
  10
 447.267
  20
 826.687
  30
0.0
  11
 447.610
  21
 827.631
  31
0.0
   0
LINE
   8
LEVEL001
   6
CONTINUOUS
  62
7
  10
 447.610
  20
 827.631
  30
0.0
  11
 447.825
  21
 828.608
  31
0.0
   0
LINE
   8
LEVEL001
   6
CONTINUOUS
  62
7
  10
 447.825
  20
 828.608
  30
0.0
  11
 447.909
  21
 829.603
  31
0.0
   0
LINE
   8
LEVEL001
   6
CONTINUOUS
  62
7
  10
 447.909
  20
 829.603
  30
0.0
  11
 447.860
  21
 830.600
  31
0.0
   0
LINE
   8
LEVEL001
   6
CONTINUOUS
  62
7
  10
 447.860
  20
 830.600
  30
0.0
  11
 447.680
  21
 831.583
  31
0.0
   0
LINE
   8
LEVEL001
   6
CONTINUOUS
  62
7
  10
 447.680
  20
 831.583
  30
0.0
  11
 447.370
  21
 832.537
  31
0.0
   0
LINE
   8
LEVEL001
   6
CONTINUOUS
  62
7
  10
 447.370
  20
 832.537
  30
0.0
  11
 446.936
  21
 833.448
  31
0.0
   0
LINE
   8
LEVEL001
   6
CONTINUOUS
  62
7
  10
 446.936
  20
 833.448
  30
0.0
  11
 446.385
  21
 834.301
  31
0.0
   0
LINE
   8
LEVEL001
   6
CONTINUOUS
  62
7
  10
 446.385
  20
 834.301
  30
0.0
  11
 445.725
  21
 835.082
  31
0.0
   0
LINE
   8
LEVEL001
   6
CONTINUOUS
  62
7
  10
 445.725
  20
 835.082
  30
0.0
  11
 444.966
  21
 835.780
  31
0.0
   0
LINE
   8
LEVEL001
   6
CONTINUOUS
  62
7
  10
 444.966
  20
 835.780
  30
0.0
  11
 444.121
  21
 836.384
  31
0.0
   0
LINE
   8
LEVEL001
   6
CONTINUOUS
  62
7
  10
 444.121
  20
 836.384
  30
0.0
  11
 443.202
  21
 836.884
  31
0.0
   0
LINE
   8
LEVEL001
   6
CONTINUOUS
  62
7
  10
 443.202
  20
 836.884
  30
0.0
  11
 442.224
  21
 837.272
  31
0.0
   0
LINE
   8
LEVEL001
   6
CONTINUOUS
  62
7
  10
 442.224
  20
 837.272
  30
0.0
  11
 441.202
  21
 837.543
  31
0.0
   0
LINE
   8
LEVEL001
   6
CONTINUOUS
  62
7
  10
 441.202
  20
 837.543
  30
0.0
  11
 440.152
  21
 837.692
  31
0.0
   0
LINE
   8
LEVEL001
   6
CONTINUOUS
  62
7
  10
 440.152
  20
 837.692
  30
0.0
  11
 439.091
  21
 837.717
  31
0.0
   0
LINE
   8
LEVEL001
   6
CONTINUOUS
  62
7
  10
 439.091
  20
 837.717
  30
0.0
  11
 438.034
  21
 837.617
  31
0.0
   0
LINE
   8
LEVEL001
   6
CONTINUOUS
  62
7
  10
 438.034
  20
 837.617
  30
0.0
  11
 436.999
  21
 837.395
  31
0.0
   0
LINE
   8
LEVEL001
   6
CONTINUOUS
  62
7
  10
 436.999
  20
 837.395
  30
0.0
  11
 436.002
  21
 837.052
  31
0.0
   0
LINE
   8
LEVEL001
   6
CONTINUOUS
  62
7
  10
 436.002
  20
 837.052
  30
0.0
  11
 435.058
  21
 836.596
  31
0.0
   0
LINE
   8
LEVEL001
   6
CONTINUOUS
  62
7
  10
 435.058
  20
 836.596
  30
0.0
  11
 434.181
  21
 836.033
  31
0.0
   0
LINE
   8
LEVEL001
   6
CONTINUOUS
  62
7
  10
 434.181
  20
 836.033
  30
0.0
  11
 433.387
  21
 835.371
  31
0.0
   0
LINE
   8
LEVEL001
   6
CONTINUOUS
  62
7
  10
 433.387
  20
 835.371
  30
0.0
  11
 432.686
  21
 834.621
  31
0.0
   0
LINE
   8
LEVEL001
   6
CONTINUOUS
  62
7
  10
 432.686
  20
 834.621
  30
0.0
  11
 432.090
  21
 833.795
  31
0.0
   0
LINE
   8
LEVEL001
   6
CONTINUOUS
  62
7
  10
 432.090
  20
 833.795
  30
0.0
  11
 431.609
  21
 832.906
  31
0.0
   0
LINE
   8
LEVEL001
   6
CONTINUOUS
  62
7
  10
 431.609
  20
 832.906
  30
0.0
  11
 431.249
  21
 831.967
  31
0.0
   0
LINE
   8
LEVEL001
   6
CONTINUOUS
  62
7
  10
 431.249
  20
 831.967
  30
0.0
  11
 431.016
  21
 830.994
  31
0.0
   0
LINE
   8
LEVEL001
   6
CONTINUOUS
  62
7
  10
 431.016
  20
 830.994
  30
0.0
  11
 430.915
  21
 830.000
  31
0.0
   0
LINE
   8
LEVEL001
   6
CONTINUOUS
  62
7
  10
 430.915
  20
 830.000
  30
0.0
  11
 430.910
  21
 829.735
  31
0.0
   0
LINE
   8
LEVEL001
   6
CONTINUOUS
  62
7
  10
 429.043
  20
 831.564
  30
0.0
  11
 428.917
  21
 830.337
  31
0.0
   0
LINE
   8
LEVEL001
   6
CONTINUOUS
  62
7
  10
 428.917
  20
 830.337
  30
0.0
  11
 428.954
  21
 829.105
  31
0.0
   0
LINE
   8
LEVEL001
   6
CONTINUOUS
  62
7
  10
 428.954
  20
 829.105
  30
0.0
  11
 429.154
  21
 827.887
  31
0.0
   0
LINE
   8
LEVEL001
   6
CONTINUOUS
  62
7
  10
 429.154
  20
 827.887
  30
0.0
  11
 429.514
  21
 826.702
  31
0.0
   0
LINE
   8
LEVEL001
   6
CONTINUOUS
  62
7
  10
 429.514
  20
 826.702
  30
0.0
  11
 430.029
  21
 825.569
  31
0.0
   0
LINE
   8
LEVEL001
   6
CONTINUOUS
  62
7
  10
 430.029
  20
 825.569
  30
0.0
  11
 430.690
  21
 824.504
  31
0.0
   0
LINE
   8
LEVEL001
   6
CONTINUOUS
  62
7
  10
 430.690
  20
 824.504
  30
0.0
  11
 430.910
  21
 824.207
  31
0.0
   0
LINE
   8
LEVEL001
   6
CONTINUOUS
  62
7
  10
 431.739
  20
 821.800
  30
0.0
  11
 430.910
  21
 822.249
  31
0.0
   0
LINE
   8
LEVEL001
   6
CONTINUOUS
  62
7
  10
 430.910
  20
 822.249
  30
0.0
  11
 430.910
  21
 825.093
  31
0.0
   0
LINE
   8
LEVEL001
   6
CONTINUOUS
  62
7
  10
 448.467
  20
 834.993
  30
0.0
  11
 447.734
  21
 836.015
  31
0.0
   0
LINE
   8
LEVEL001
   6
CONTINUOUS
  62
7
  10
 447.734
  20
 836.015
  30
0.0
  11
 446.871
  21
 836.943
  31
0.0
   0
LINE
   8
LEVEL001
   6
CONTINUOUS
  62
7
  10
 446.871
  20
 836.943
  30
0.0
  11
 445.891
  21
 837.763
  31
0.0
   0
LINE
   8
LEVEL001
   6
CONTINUOUS
  62
7
  10
 445.891
  20
 837.763
  30
0.0
  11
 444.811
  21
 838.462
  31
0.0
   0
LINE
   8
LEVEL001
   6
CONTINUOUS
  62
7
  10
 444.811
  20
 838.462
  30
0.0
  11
 443.646
  21
 839.028
  31
0.0
   0
LINE
   8
LEVEL001
   6
CONTINUOUS
  62
7
  10
 443.646
  20
 839.028
  30
0.0
  11
 442.415
  21
 839.454
  31
0.0
   0
LINE
   8
LEVEL001
   6
CONTINUOUS
  62
7
  10
 442.415
  20
 839.454
  30
0.0
  11
 441.137
  21
 839.732
  31
0.0
   0
LINE
   8
LEVEL001
   6
CONTINUOUS
  62
7
  10
 441.137
  20
 839.732
  30
0.0
  11
 439.832
  21
 839.859
  31
0.0
   0
LINE
   8
LEVEL001
   6
CONTINUOUS
  62
7
  10
 439.832
  20
 839.859
  30
0.0
  11
 438.521
  21
 839.831
  31
0.0
   0
LINE
   8
LEVEL001
   6
CONTINUOUS
  62
7
  10
 438.521
  20
 839.831
  30
0.0
  11
 437.224
  21
 839.650
  31
0.0
   0
LINE
   8
LEVEL001
   6
CONTINUOUS
  62
7
  10
 437.224
  20
 839.650
  30
0.0
  11
 435.960
  21
 839.319
  31
0.0
   0
LINE
   8
LEVEL001
   6
CONTINUOUS
  62
7
  10
 435.960
  20
 839.319
  30
0.0
  11
 434.751
  21
 838.842
  31
0.0
   0
LINE
   8
LEVEL001
   6
CONTINUOUS
  62
7
  10
 434.751
  20
 838.842
  30
0.0
  11
 433.614
  21
 838.227
  31
0.0
   0
LINE
   8
LEVEL001
   6
CONTINUOUS
  62
7
  10
 433.614
  20
 838.227
  30
0.0
  11
 432.568
  21
 837.484
  31
0.0
   0
LINE
   8
LEVEL001
   6
CONTINUOUS
  62
7
  10
 432.568
  20
 837.484
  30
0.0
  11
 431.628
  21
 836.624
  31
0.0
   0
LINE
   8
LEVEL001
   6
CONTINUOUS
  62
7
  10
 431.628
  20
 836.624
  30
0.0
  11
 430.810
  21
 835.660
  31
0.0
   0
LINE
   8
LEVEL001
   6
CONTINUOUS
  62
7
  10
 430.810
  20
 835.660
  30
0.0
  11
 430.126
  21
 834.609
  31
0.0
   0
LINE
   8
LEVEL001
   6
CONTINUOUS
  62
7
  10
 430.126
  20
 834.609
  30
0.0
  11
 429.587
  21
 833.485
  31
0.0
   0
LINE
   8
LEVEL001
   6
CONTINUOUS
  62
7
  10
 429.587
  20
 833.485
  30
0.0
  11
 429.201
  21
 832.307
  31
0.0
   0
LINE
   8
LEVEL001
   6
CONTINUOUS
  62
7
  10
 429.201
  20
 832.307
  30
0.0
  11
 428.975
  21
 831.093
  31
0.0
   0
LINE
   8
LEVEL001
   6
CONTINUOUS
  62
7
  10
 428.975
  20
 831.093
  30
0.0
  11
 428.956
  21
 830.915
  31
0.0
   0
ARC
   8
LEVEL001
   6
CONTINUOUS
  62
7
  10
 449.360
  20
 838.400
  30
0.0
  40
 3.00000
  50
 231.910
  51
 308.090
   0
LINE
   8
LEVEL001
   6
CONTINUOUS
  62
7
  10
 472.865
  20
 830.915
  30
0.0
  11
 472.662
  21
 832.132
  31
0.0
   0
LINE
   8
LEVEL001
   6
CONTINUOUS
  62
7
  10
 472.662
  20
 832.132
  30
0.0
  11
 472.299
  21
 833.317
  31
0.0
   0
LINE
   8
LEVEL001
   6
CONTINUOUS
  62
7
  10
 472.299
  20
 833.317
  30
0.0
  11
 471.782
  21
 834.449
  31
0.0
   0
LINE
   8
LEVEL001
   6
CONTINUOUS
  62
7
  10
 471.782
  20
 834.449
  30
0.0
  11
 471.119
  21
 835.513
  31
0.0
   0
LINE
   8
LEVEL001
   6
CONTINUOUS
  62
7
  10
 471.119
  20
 835.513
  30
0.0
  11
 470.319
  21
 836.490
  31
0.0
   0
LINE
   8
LEVEL001
   6
CONTINUOUS
  62
7
  10
 470.319
  20
 836.490
  30
0.0
  11
 469.397
  21
 837.366
  31
0.0
   0
LINE
   8
LEVEL001
   6
CONTINUOUS
  62
7
  10
 469.397
  20
 837.366
  30
0.0
  11
 468.365
  21
 838.127
  31
0.0
   0
LINE
   8
LEVEL001
   6
CONTINUOUS
  62
7
  10
 468.365
  20
 838.127
  30
0.0
  11
 467.240
  21
 838.761
  31
0.0
   0
LINE
   8
LEVEL001
   6
CONTINUOUS
  62
7
  10
 467.240
  20
 838.761
  30
0.0
  11
 466.040
  21
 839.259
  31
0.0
   0
LINE
   8
LEVEL001
   6
CONTINUOUS
  62
7
  10
 466.040
  20
 839.259
  30
0.0
  11
 464.783
  21
 839.612
  31
0.0
   0
LINE
   8
LEVEL001
   6
CONTINUOUS
  62
7
  10
 464.783
  20
 839.612
  30
0.0
  11
 463.490
  21
 839.815
  31
0.0
   0
LINE
   8
LEVEL001
   6
CONTINUOUS
  62
7
  10
 463.490
  20
 839.815
  30
0.0
  11
 462.179
  21
 839.864
  31
0.0
   0
LINE
   8
LEVEL001
   6
CONTINUOUS
  62
7
  10
 462.179
  20
 839.864
  30
0.0
  11
 460.872
  21
 839.760
  31
0.0
   0
LINE
   8
LEVEL001
   6
CONTINUOUS
  62
7
  10
 460.872
  20
 839.760
  30
0.0
  11
 459.589
  21
 839.504
  31
0.0
   0
LINE
   8
LEVEL001
   6
CONTINUOUS
  62
7
  10
 459.589
  20
 839.504
  30
0.0
  11
 458.350
  21
 839.099
  31
0.0
   0
LINE
   8
LEVEL001
   6
CONTINUOUS
  62
7
  10
 458.350
  20
 839.099
  30
0.0
  11
 457.175
  21
 838.553
  31
0.0
   0
LINE
   8
LEVEL001
   6
CONTINUOUS
  62
7
  10
 457.175
  20
 838.553
  30
0.0
  11
 456.081
  21
 837.872
  31
0.0
   0
LINE
   8
LEVEL001
   6
CONTINUOUS
  62
7
  10
 456.081
  20
 837.872
  30
0.0
  11
 455.086
  21
 837.069
  31
0.0
   0
LINE
   8
LEVEL001
   6
CONTINUOUS
  62
7
  10
 455.086
  20
 837.069
  30
0.0
  11
 454.205
  21
 836.156
  31
0.0
   0
LINE
   8
LEVEL001
   6
CONTINUOUS
  62
7
  10
 454.205
  20
 836.156
  30
0.0
  11
 453.452
  21
 835.147
  31
0.0
   0
LINE
   8
LEVEL001
   6
CONTINUOUS
  62
7
  10
 453.452
  20
 835.147
  30
0.0
  11
 453.387
  21
 835.046
  31
0.0
   0
LINE
   8
LEVEL001
   6
CONTINUOUS
  62
7
  10
 459.360
  20
 839.867
  30
0.0
  11
 458.051
  21
 839.790
  31
0.0
   0
LINE
   8
LEVEL001
   6
CONTINUOUS
  62
7
  10
 458.051
  20
 839.790
  30
0.0
  11
 456.763
  21
 839.560
  31
0.0
   0
LINE
   8
LEVEL001
   6
CONTINUOUS
  62
7
  10
 456.763
  20
 839.560
  30
0.0
  11
 455.515
  21
 839.181
  31
0.0
   0
LINE
   8
LEVEL001
   6
CONTINUOUS
  62
7
  10
 455.515
  20
 839.181
  30
0.0
  11
 454.327
  21
 838.659
  31
0.0
   0
LINE
   8
LEVEL001
   6
CONTINUOUS
  62
7
  10
 454.327
  20
 838.659
  30
0.0
  11
 453.217
  21
 838.002
  31
0.0
   0
LINE
   8
LEVEL001
   6
CONTINUOUS
  62
7
  10
 453.217
  20
 838.002
  30
0.0
  11
 452.203
  21
 837.219
  31
0.0
   0
LINE
   8
LEVEL001
   6
CONTINUOUS
  62
7
  10
 452.203
  20
 837.219
  30
0.0
  11
 451.301
  21
 836.325
  31
0.0
   0
LINE
   8
LEVEL001
   6
CONTINUOUS
  62
7
  10
 451.301
  20
 836.325
  30
0.0
  11
 451.116
  21
 836.110
  31
0.0
   0
CIRCLE
   8
LEVEL001
   6
CONTINUOUS
  62
7
  10
 462.460
  20
 830.000
  30
0.0
  40
 7.50000
   0
LINE
   8
LEVEL001
   6
CONTINUOUS
  62
7
  10
 462.460
  20
 820.539
  30
0.0
  11
 453.960
  21
 825.093
  31
0.0
   0
LINE
   8
LEVEL001
   6
CONTINUOUS
  62
7
  10
 453.960
  20
 825.093
  30
0.0
  11
 453.960
  21
 834.373
  31
0.0
   0
LINE
   8
LEVEL001
   6
CONTINUOUS
  62
7
  10
 453.960
  20
 834.373
  30
0.0
  11
 462.460
  21
 838.985
  31
0.0
   0
LINE
   8
LEVEL001
   6
CONTINUOUS
  62
7
  10
 462.460
  20
 838.985
  30
0.0
  11
 470.960
  21
 834.373
  31
0.0
   0
LINE
   8
LEVEL001
   6
CONTINUOUS
  62
7
  10
 470.960
  20
 834.373
  30
0.0
  11
 470.960
  21
 825.093
  31
0.0
   0
LINE
   8
LEVEL001
   6
CONTINUOUS
  62
7
  10
 470.960
  20
 825.093
  30
0.0
  11
 462.460
  21
 820.539
  31
0.0
   0
LINE
   8
LEVEL001
   6
CONTINUOUS
  62
7
  10
 453.960
  20
 829.735
  30
0.0
  11
 454.027
  21
 828.740
  31
0.0
   0
LINE
   8
LEVEL001
   6
CONTINUOUS
  62
7
  10
 454.027
  20
 828.740
  30
0.0
  11
 454.224
  21
 827.759
  31
0.0
   0
LINE
   8
LEVEL001
   6
CONTINUOUS
  62
7
  10
 454.224
  20
 827.759
  30
0.0
  11
 454.551
  21
 826.810
  31
0.0
   0
LINE
   8
LEVEL001
   6
CONTINUOUS
  62
7
  10
 454.551
  20
 826.810
  30
0.0
  11
 455.001
  21
 825.906
  31
0.0
   0
LINE
   8
LEVEL001
   6
CONTINUOUS
  62
7
  10
 455.001
  20
 825.906
  30
0.0
  11
 455.567
  21
 825.062
  31
0.0
   0
LINE
   8
LEVEL001
   6
CONTINUOUS
  62
7
  10
 455.567
  20
 825.062
  30
0.0
  11
 456.241
  21
 824.291
  31
0.0
   0
LINE
   8
LEVEL001
   6
CONTINUOUS
  62
7
  10
 456.241
  20
 824.291
  30
0.0
  11
 457.012
  21
 823.605
  31
0.0
   0
LINE
   8
LEVEL001
   6
CONTINUOUS
  62
7
  10
 457.012
  20
 823.605
  30
0.0
  11
 457.868
  21
 823.014
  31
0.0
   0
LINE
   8
LEVEL001
   6
CONTINUOUS
  62
7
  10
 457.868
  20
 823.014
  30
0.0
  11
 458.795
  21
 822.529
  31
0.0
   0
LINE
   8
LEVEL001
   6
CONTINUOUS
  62
7
  10
 458.795
  20
 822.529
  30
0.0
  11
 459.780
  21
 822.155
  31
0.0
   0
LINE
   8
LEVEL001
   6
CONTINUOUS
  62
7
  10
 459.780
  20
 822.155
  30
0.0
  11
 460.807
  21
 821.901
  31
0.0
   0
LINE
   8
LEVEL001
   6
CONTINUOUS
  62
7
  10
 460.807
  20
 821.901
  30
0.0
  11
 461.859
  21
 821.768
  31
0.0
   0
LINE
   8
LEVEL001
   6
CONTINUOUS
  62
7
  10
 461.859
  20
 821.768
  30
0.0
  11
 462.921
  21
 821.760
  31
0.0
   0
LINE
   8
LEVEL001
   6
CONTINUOUS
  62
7
  10
 462.921
  20
 821.760
  30
0.0
  11
 463.975
  21
 821.876
  31
0.0
   0
LINE
   8
LEVEL001
   6
CONTINUOUS
  62
7
  10
 463.975
  20
 821.876
  30
0.0
  11
 465.006
  21
 822.115
  31
0.0
   0
LINE
   8
LEVEL001
   6
CONTINUOUS
  62
7
  10
 465.006
  20
 822.115
  30
0.0
  11
 465.997
  21
 822.472
  31
0.0
   0
LINE
   8
LEVEL001
   6
CONTINUOUS
  62
7
  10
 465.997
  20
 822.472
  30
0.0
  11
 466.933
  21
 822.944
  31
0.0
   0
LINE
   8
LEVEL001
   6
CONTINUOUS
  62
7
  10
 466.933
  20
 822.944
  30
0.0
  11
 467.800
  21
 823.521
  31
0.0
   0
LINE
   8
LEVEL001
   6
CONTINUOUS
  62
7
  10
 467.800
  20
 823.521
  30
0.0
  11
 468.583
  21
 824.195
  31
0.0
   0
LINE
   8
LEVEL001
   6
CONTINUOUS
  62
7
  10
 468.583
  20
 824.195
  30
0.0
  11
 469.270
  21
 824.955
  31
0.0
   0
LINE
   8
LEVEL001
   6
CONTINUOUS
  62
7
  10
 469.270
  20
 824.955
  30
0.0
  11
 469.851
  21
 825.790
  31
0.0
   0
LINE
   8
LEVEL001
   6
CONTINUOUS
  62
7
  10
 469.851
  20
 825.790
  30
0.0
  11
 470.317
  21
 826.687
  31
0.0
   0
LINE
   8
LEVEL001
   6
CONTINUOUS
  62
7
  10
 470.317
  20
 826.687
  30
0.0
  11
 470.660
  21
 827.631
  31
0.0
   0
LINE
   8
LEVEL001
   6
CONTINUOUS
  62
7
  10
 470.660
  20
 827.631
  30
0.0
  11
 470.875
  21
 828.608
  31
0.0
   0
LINE
   8
LEVEL001
   6
CONTINUOUS
  62
7
  10
 470.875
  20
 828.608
  30
0.0
  11
 470.959
  21
 829.603
  31
0.0
   0
LINE
   8
LEVEL001
   6
CONTINUOUS
  62
7
  10
 470.959
  20
 829.603
  30
0.0
  11
 470.910
  21
 830.600
  31
0.0
   0
LINE
   8
LEVEL001
   6
CONTINUOUS
  62
7
  10
 470.910
  20
 830.600
  30
0.0
  11
 470.730
  21
 831.583
  31
0.0
   0
LINE
   8
LEVEL001
   6
CONTINUOUS
  62
7
  10
 470.730
  20
 831.583
  30
0.0
  11
 470.420
  21
 832.537
  31
0.0
   0
LINE
   8
LEVEL001
   6
CONTINUOUS
  62
7
  10
 470.420
  20
 832.537
  30
0.0
  11
 469.986
  21
 833.448
  31
0.0
   0
LINE
   8
LEVEL001
   6
CONTINUOUS
  62
7
  10
 469.986
  20
 833.448
  30
0.0
  11
 469.435
  21
 834.301
  31
0.0
   0
LINE
   8
LEVEL001
   6
CONTINUOUS
  62
7
  10
 469.435
  20
 834.301
  30
0.0
  11
 468.775
  21
 835.082
  31
0.0
   0
LINE
   8
LEVEL001
   6
CONTINUOUS
  62
7
  10
 468.775
  20
 835.082
  30
0.0
  11
 468.016
  21
 835.780
  31
0.0
   0
LINE
   8
LEVEL001
   6
CONTINUOUS
  62
7
  10
 468.016
  20
 835.780
  30
0.0
  11
 467.171
  21
 836.384
  31
0.0
   0
LINE
   8
LEVEL001
   6
CONTINUOUS
  62
7
  10
 467.171
  20
 836.384
  30
0.0
  11
 466.252
  21
 836.884
  31
0.0
   0
LINE
   8
LEVEL001
   6
CONTINUOUS
  62
7
  10
 466.252
  20
 836.884
  30
0.0
  11
 465.274
  21
 837.272
  31
0.0
   0
LINE
   8
LEVEL001
   6
CONTINUOUS
  62
7
  10
 465.274
  20
 837.272
  30
0.0
  11
 464.252
  21
 837.543
  31
0.0
   0
LINE
   8
LEVEL001
   6
CONTINUOUS
  62
7
  10
 464.252
  20
 837.543
  30
0.0
  11
 463.202
  21
 837.692
  31
0.0
   0
LINE
   8
LEVEL001
   6
CONTINUOUS
  62
7
  10
 463.202
  20
 837.692
  30
0.0
  11
 462.141
  21
 837.717
  31
0.0
   0
LINE
   8
LEVEL001
   6
CONTINUOUS
  62
7
  10
 462.141
  20
 837.717
  30
0.0
  11
 461.084
  21
 837.617
  31
0.0
   0
LINE
   8
LEVEL001
   6
CONTINUOUS
  62
7
  10
 461.084
  20
 837.617
  30
0.0
  11
 460.049
  21
 837.395
  31
0.0
   0
LINE
   8
LEVEL001
   6
CONTINUOUS
  62
7
  10
 460.049
  20
 837.395
  30
0.0
  11
 459.052
  21
 837.052
  31
0.0
   0
LINE
   8
LEVEL001
   6
CONTINUOUS
  62
7
  10
 459.052
  20
 837.052
  30
0.0
  11
 458.108
  21
 836.596
  31
0.0
   0
LINE
   8
LEVEL001
   6
CONTINUOUS
  62
7
  10
 458.108
  20
 836.596
  30
0.0
  11
 457.231
  21
 836.033
  31
0.0
   0
LINE
   8
LEVEL001
   6
CONTINUOUS
  62
7
  10
 457.231
  20
 836.033
  30
0.0
  11
 456.437
  21
 835.371
  31
0.0
   0
LINE
   8
LEVEL001
   6
CONTINUOUS
  62
7
  10
 456.437
  20
 835.371
  30
0.0
  11
 455.736
  21
 834.621
  31
0.0
   0
LINE
   8
LEVEL001
   6
CONTINUOUS
  62
7
  10
 455.736
  20
 834.621
  30
0.0
  11
 455.140
  21
 833.795
  31
0.0
   0
LINE
   8
LEVEL001
   6
CONTINUOUS
  62
7
  10
 455.140
  20
 833.795
  30
0.0
  11
 454.659
  21
 832.906
  31
0.0
   0
LINE
   8
LEVEL001
   6
CONTINUOUS
  62
7
  10
 454.659
  20
 832.906
  30
0.0
  11
 454.299
  21
 831.967
  31
0.0
   0
LINE
   8
LEVEL001
   6
CONTINUOUS
  62
7
  10
 454.299
  20
 831.967
  30
0.0
  11
 454.066
  21
 830.994
  31
0.0
   0
LINE
   8
LEVEL001
   6
CONTINUOUS
  62
7
  10
 454.066
  20
 830.994
  30
0.0
  11
 453.965
  21
 830.000
  31
0.0
   0
LINE
   8
LEVEL001
   6
CONTINUOUS
  62
7
  10
 453.965
  20
 830.000
  30
0.0
  11
 453.960
  21
 829.735
  31
0.0
   0
LINE
   8
LEVEL001
   6
CONTINUOUS
  62
7
  10
 447.910
  20
 824.207
  30
0.0
  11
 448.613
  21
 825.248
  31
0.0
   0
LINE
   8
LEVEL001
   6
CONTINUOUS
  62
7
  10
 448.613
  20
 825.248
  30
0.0
  11
 449.171
  21
 826.364
  31
0.0
   0
LINE
   8
LEVEL001
   6
CONTINUOUS
  62
7
  10
 449.171
  20
 826.364
  30
0.0
  11
 449.578
  21
 827.535
  31
0.0
   0
LINE
   8
LEVEL001
   6
CONTINUOUS
  62
7
  10
 449.578
  20
 827.535
  30
0.0
  11
 449.825
  21
 828.746
  31
0.0
   0
LINE
   8
LEVEL001
   6
CONTINUOUS
  62
7
  10
 449.825
  20
 828.746
  30
0.0
  11
 449.910
  21
 829.976
  31
0.0
   0
LINE
   8
LEVEL001
   6
CONTINUOUS
  62
7
  10
 449.910
  20
 829.976
  30
0.0
  11
 449.832
  21
 831.206
  31
0.0
   0
LINE
   8
LEVEL001
   6
CONTINUOUS
  62
7
  10
 449.832
  20
 831.206
  30
0.0
  11
 449.590
  21
 832.418
  31
0.0
   0
LINE
   8
LEVEL001
   6
CONTINUOUS
  62
7
  10
 449.590
  20
 832.418
  30
0.0
  11
 449.190
  21
 833.591
  31
0.0
   0
LINE
   8
LEVEL001
   6
CONTINUOUS
  62
7
  10
 449.190
  20
 833.591
  30
0.0
  11
 448.818
  21
 834.383
  31
0.0
   0
LINE
   8
LEVEL001
   6
CONTINUOUS
  62
7
  10
 453.387
  20
 835.046
  30
0.0
  11
 452.788
  21
 833.949
  31
0.0
   0
LINE
   8
LEVEL001
   6
CONTINUOUS
  62
7
  10
 452.788
  20
 833.949
  30
0.0
  11
 452.339
  21
 832.791
  31
0.0
   0
LINE
   8
LEVEL001
   6
CONTINUOUS
  62
7
  10
 452.339
  20
 832.791
  30
0.0
  11
 452.047
  21
 831.589
  31
0.0
   0
LINE
   8
LEVEL001
   6
CONTINUOUS
  62
7
  10
 452.047
  20
 831.589
  30
0.0
  11
 451.917
  21
 830.363
  31
0.0
   0
LINE
   8
LEVEL001
   6
CONTINUOUS
  62
7
  10
 451.917
  20
 830.363
  30
0.0
  11
 451.951
  21
 829.131
  31
0.0
   0
LINE
   8
LEVEL001
   6
CONTINUOUS
  62
7
  10
 451.951
  20
 829.131
  30
0.0
  11
 452.148
  21
 827.912
  31
0.0
   0
LINE
   8
LEVEL001
   6
CONTINUOUS
  62
7
  10
 452.148
  20
 827.912
  30
0.0
  11
 452.505
  21
 826.726
  31
0.0
   0
LINE
   8
LEVEL001
   6
CONTINUOUS
  62
7
  10
 452.505
  20
 826.726
  30
0.0
  11
 453.017
  21
 825.591
  31
0.0
   0
LINE
   8
LEVEL001
   6
CONTINUOUS
  62
7
  10
 453.017
  20
 825.591
  30
0.0
  11
 453.675
  21
 824.525
  31
0.0
   0
LINE
   8
LEVEL001
   6
CONTINUOUS
  62
7
  10
 453.675
  20
 824.525
  30
0.0
  11
 453.960
  21
 824.143
  31
0.0
   0
LINE
   8
LEVEL001
   6
DASHDOT
  62
1
  10
 427.910
  20
 830.000
  30
0.0
  11
 450.910
  21
 830.000
  31
0.0
   0
LINE
   8
LEVEL001
   6
DASHDOT
  62
1
  10
 472.193
  20
 830.000
  30
0.0
  11
 452.952
  21
 830.000
  31
0.0
   0
LINE
   8
LEVEL001
   6
DASHDOT
  62
1
  10
 462.410
  20
 845.000
  30
0.0
  11
 462.410
  21
 814.754
  31
0.0
   0
LINE
   8
LEVEL001
   6
CONTINUOUS
  62
7
  10
 462.410
  20
 839.867
  30
0.0
  11
 459.360
  21
 839.867
  31
0.0
   0
LINE
   8
LEVEL001
   6
CONTINUOUS
  62
7
  10
 472.870
  20
 830.915
  30
0.0
  11
 473.910
  21
 819.028
  31
0.0
   0
LINE
   8
LEVEL001
   6
CONTINUOUS
  62
7
  10
 470.960
  20
 825.093
  30
0.0
  11
 470.960
  21
 822.249
  31
0.0
   0
LINE
   8
LEVEL001
   6
CONTINUOUS
  62
7
  10
 470.960
  20
 822.249
  30
0.0
  11
 462.460
  21
 817.638
  31
0.0
   0
LINE
   8
LEVEL001
   6
CONTINUOUS
  62
7
  10
 462.460
  20
 817.638
  30
0.0
  11
 453.960
  21
 822.249
  31
0.0
   0
LINE
   8
LEVEL001
   6
CONTINUOUS
  62
7
  10
 453.960
  20
 822.249
  30
0.0
  11
 453.960
  21
 825.093
  31
0.0
   0
LINE
   8
LEVEL001
   6
CONTINUOUS
  62
7
  10
 470.960
  20
 824.273
  30
0.0
  11
 471.653
  21
 825.319
  31
0.0
   0
LINE
   8
LEVEL001
   6
CONTINUOUS
  62
7
  10
 471.653
  20
 825.319
  30
0.0
  11
 472.202
  21
 826.438
  31
0.0
   0
LINE
   8
LEVEL001
   6
CONTINUOUS
  62
7
  10
 472.202
  20
 826.438
  30
0.0
  11
 472.599
  21
 827.613
  31
0.0
   0
LINE
   8
LEVEL001
   6
CONTINUOUS
  62
7
  10
 472.599
  20
 827.613
  30
0.0
  11
 472.836
  21
 828.825
  31
0.0
   0
LINE
   8
LEVEL001
   6
CONTINUOUS
  62
7
  10
 472.836
  20
 828.825
  30
0.0
  11
 472.910
  21
 830.056
  31
0.0
   0
LINE
   8
LEVEL001
   6
CONTINUOUS
  62
7
  10
 472.910
  20
 830.056
  30
0.0
  11
 472.865
  21
 830.915
  31
0.0
   0
LINE
   8
LEVEL001
   6
CONTINUOUS
  62
7
  10
 447.910
  20
 825.093
  30
0.0
  11
 447.910
  21
 822.249
  31
0.0
   0
LINE
   8
LEVEL001
   6
CONTINUOUS
  62
7
  10
 447.910
  20
 822.249
  30
0.0
  11
 443.268
  21
 819.731
  31
0.0
   0
LINE
   8
LEVEL001
   6
CONTINUOUS
  62
7
  10
 437.821
  20
 818.500
  30
0.0
  11
 434.665
  21
 820.212
  31
0.0
   0
LINE
   8
LEVEL001
   6
CONTINUOUS
  62
7
  10
 473.410
  20
 833.500
  30
0.0
  11
 472.228
  21
 833.500
  31
0.0
   0
ARC
   8
LEVEL001
   6
CONTINUOUS
  62
7
  10
 459.067
  20
 838.000
  30
0.0
  40
 5.00000
  50
 20.9505
  51
 90.0000
   0
LINE
   8
LEVEL001
   6
DASHDOT
  62
1
  10
 459.410
  20
 782.232
  30
0.0
  11
 459.410
  21
 758.916
  31
0.0
   0
LINE
   8
LEVEL014
   6
CONTINUOUS
  62
3
  10
 945.349
  20
 800.000
  30
0.0
  11
 945.349
  21
 814.873
  31
0.0
   0
LINE
   8
LEVEL014
   6
CONTINUOUS
  62
3
  10
 945.349
  20
 814.873
  30
0.0
  11
 947.349
  21
 814.703
  31
0.0
   0
LINE
   8
LEVEL014
   6
CONTINUOUS
  62
3
  10
 947.349
  20
 814.703
  30
0.0
  11
 947.349
  21
 800.000
  31
0.0
   0
LINE
   8
LEVEL014
   6
CONTINUOUS
  62
3
  10
 945.349
  20
 800.000
  30
0.0
  11
 945.349
  21
 785.127
  31
0.0
   0
LINE
   8
LEVEL014
   6
CONTINUOUS
  62
3
  10
 945.349
  20
 785.127
  30
0.0
  11
 947.349
  21
 785.297
  31
0.0
   0
LINE
   8
LEVEL014
   6
CONTINUOUS
  62
3
  10
 947.349
  20
 785.297
  30
0.0
  11
 947.349
  21
 800.000
  31
0.0
   0
LINE
   8
LEVEL014
   6
CONTINUOUS
  62
3
  10
 941.349
  20
 800.000
  30
0.0
  11
 941.349
  21
 814.808
  31
0.0
   0
LINE
   8
LEVEL014
   6
CONTINUOUS
  62
3
  10
 941.349
  20
 814.808
  30
0.0
  11
 943.349
  21
 814.962
  31
0.0
   0
LINE
   8
LEVEL014
   6
CONTINUOUS
  62
3
  10
 943.349
  20
 814.962
  30
0.0
  11
 943.349
  21
 800.000
  31
0.0
   0
LINE
   8
LEVEL014
   6
CONTINUOUS
  62
3
  10
 941.349
  20
 800.000
  30
0.0
  11
 941.349
  21
 785.192
  31
0.0
   0
LINE
   8
LEVEL014
   6
CONTINUOUS
  62
3
  10
 941.349
  20
 785.192
  30
0.0
  11
 943.349
  21
 785.038
  31
0.0
   0
LINE
   8
LEVEL014
   6
CONTINUOUS
  62
3
  10
 943.349
  20
 785.038
  30
0.0
  11
 943.349
  21
 800.000
  31
0.0
   0
POINT
   8
LEVEL001
  62
7
  10
 399.910
  20
 800.000
  30
0.0
   0
LINE
   8
LEVEL001
   6
DOT
  62
3
  10
 400.660
  20
 789.750
  30
0.0
  11
 400.660
  21
 810.250
  31
0.0
   0
LINE
   8
LEVEL001
   6
DOT
  62
3
  10
 411.964
  20
 810.250
  30
0.0
  11
 400.660
  21
 810.250
  31
0.0
   0
LINE
   8
LEVEL001
   6
DOT
  62
3
  10
 400.660
  20
 810.250
  30
0.0
  11
 399.910
  21
 811.000
  31
0.0
   0
LINE
   8
LEVEL001
   6
DOT
  62
3
  10
 411.964
  20
 811.000
  30
0.0
  11
 399.910
  21
 811.000
  31
0.0
   0
LINE
   8
LEVEL001
   6
DOT
  62
3
  10
 399.910
  20
 789.000
  30
0.0
  11
 411.964
  21
 789.000
  31
0.0
   0
LINE
   8
LEVEL001
   6
DOT
  62
3
  10
 399.910
  20
 789.000
  30
0.0
  11
 400.660
  21
 789.750
  31
0.0
   0
LINE
   8
LEVEL001
   6
DOT
  62
3
  10
 400.660
  20
 789.750
  30
0.0
  11
 411.964
  21
 789.750
  31
0.0
   0
TEXT
   8
LEVEL003
  62
3
  10
 714.904
  20
 461.864
  30
0.0
  40
 16.0000
   1
オイルタンク
   7
STANDARD
   0
LINE
   8
LEVEL003
   6
CONTINUOUS
  62
3
  10
 683.667
  20
 372.171
  30
0.0
  11
 685.366
  21
 315.196
  31
0.0
   0
TEXT
   8
LEVEL003
  62
3
  10
 682.033
  20
 319.599
  30
0.0
  40
 16.0000
   1
%%c５７
  50
 91.7082
   7
STANDARD
  72
1
  11
 681.318
  21
 343.588
  31
0.0
   0
LINE
   8
LEVEL003
   6
CONTINUOUS
  62
3
  10
 681.909
  20
 360.113
  30
0.0
  11
 683.667
  21
 372.171
  31
0.0
   0
LINE
   8
LEVEL003
   6
CONTINUOUS
  62
3
  10
 683.667
  20
 372.171
  30
0.0
  11
 686.139
  21
 360.239
  31
0.0
   0
LINE
   8
LEVEL003
   6
CONTINUOUS
  62
3
  10
 687.123
  20
 327.254
  30
0.0
  11
 685.366
  21
 315.196
  31
0.0
   0
LINE
   8
LEVEL003
   6
CONTINUOUS
  62
3
  10
 685.366
  20
 315.196
  30
0.0
  11
 682.893
  21
 327.128
  31
0.0
   0
LINE
   8
LEVEL003
   6
CONTINUOUS
  62
3
  10
 665.426
  20
 371.873
  30
0.0
  11
 709.891
  21
 461.799
  31
0.0
   0
LINE
   8
LEVEL003
   6
CONTINUOUS
  62
3
  10
 709.891
  20
 461.799
  30
0.0
  11
 812.409
  21
 461.799
  31
0.0
   0
LINE
   8
LEVEL003
   6
CONTINUOUS
  62
3
  10
 665.426
  20
 371.873
  30
0.0
  11
 672.642
  21
 381.692
  31
0.0
   0
LINE
   8
LEVEL003
   6
CONTINUOUS
  62
3
  10
 665.426
  20
 371.873
  30
0.0
  11
 668.848
  21
 383.568
  31
0.0
   0
LINE
   8
LEVEL001
   6
DASHDOT
  62
1
  10
 442.177
  20
 328.448
  30
0.0
  11
 434.980
  21
 328.236
  31
0.0
   0
LINE
   8
LEVEL001
   6
DASHDOT
  62
1
  10
 438.472
  20
 331.941
  30
0.0
  11
 438.685
  21
 324.744
  31
0.0
   0
LINE
   8
LEVEL001
   6
DASHDOT
  62
1
  10
 462.168
  20
 329.039
  30
0.0
  11
 454.971
  21
 328.826
  31
0.0
   0
LINE
   8
LEVEL001
   6
DASHDOT
  62
1
  10
 458.463
  20
 332.531
  30
0.0
  11
 458.676
  21
 325.334
  31
0.0
   0
ARC
   8
LEVEL001
   6
CONTINUOUS
  62
7
  10
 466.881
  20
 386.246
  30
0.0
  40
 3.00000
  50
 181.692
  51
 271.692
   0
LINE
   8
LEVEL001
   6
CONTINUOUS
  62
7
  10
 466.970
  20
 383.247
  30
0.0
  11
 468.214
  21
 383.284
  31
0.0
   0
ARC
   8
LEVEL001
   6
CONTINUOUS
  62
7
  10
 468.273
  20
 381.285
  30
0.0
  40
 2.00000
  50
 1.69191
  51
 91.6919
   0
ARC
   8
LEVEL001
   6
CONTINUOUS
  62
7
  10
 421.430
  20
 400.867
  30
0.0
  40
 3.00000
  50
 181.692
  51
 271.692
   0
LINE
   8
LEVEL001
   6
CONTINUOUS
  62
7
  10
 418.431
  20
 400.779
  30
0.0
  11
 418.412
  21
 401.424
  31
0.0
   0
LINE
   8
LEVEL001
   6
CONTINUOUS
  62
7
  10
 421.518
  20
 397.869
  30
0.0
  11
 423.517
  21
 397.928
  31
0.0
   0
LINE
   8
LEVEL001
   6
CONTINUOUS
  62
7
  10
 463.500
  20
 399.109
  30
0.0
  11
 462.471
  21
 400.079
  31
0.0
   0
LINE
   8
LEVEL001
   6
CONTINUOUS
  62
7
  10
 424.487
  20
 398.957
  30
0.0
  11
 423.517
  21
 397.928
  31
0.0
   0
LINE
   8
LEVEL001
   6
CONTINUOUS
  62
7
  10
 463.882
  20
 386.157
  30
0.0
  11
 463.500
  21
 399.109
  31
0.0
   0
ARC
   8
LEVEL001
   6
CONTINUOUS
  62
7
  10
 433.405
  20
 401.867
  30
0.0
  40
 15.0000
  50
 142.305
  51
 181.692
   0
ARC
   8
LEVEL001
   6
CONTINUOUS
  62
7
  10
 429.441
  20
 400.604
  30
0.0
  40
 30.0000
  50
 150.249
  51
 214.079
   0
LINE
   8
LEVEL001
   6
DASHDOT
  62
1
  10
 423.876
  20
 351.918
  30
0.0
  11
 424.053
  21
 345.921
  31
0.0
   0
LINE
   8
LEVEL001
   6
DASHDOT
  62
1
  10
 393.978
  20
 348.034
  30
0.0
  11
 457.950
  21
 349.923
  31
0.0
   0
ARC
   8
LEVEL001
   6
CONTINUOUS
  62
7
  10
 392.169
  20
 375.388
  30
0.0
  40
 15.0000
  50
 1.69177
  51
 34.0793
   0
ARC
   8
LEVEL001
   6
CONTINUOUS
  62
7
  10
 392.169
  20
 375.388
  30
0.0
  40
 15.0000
  50
 1.69177
  51
 34.0793
   0
LINE
   8
LEVEL001
   6
CONTINUOUS
  62
7
  10
 397.915
  20
 367.158
  30
0.0
  11
 398.948
  21
 332.174
  31
0.0
   0
ARC
   8
LEVEL001
   6
CONTINUOUS
  62
7
  10
 420.093
  20
 329.797
  30
0.0
  40
 3.00000
  50
 75.7292
  51
 91.6919
   0
ARC
   8
LEVEL001
   6
CONTINUOUS
  62
7
  10
 424.964
  20
 348.949
  30
0.0
  40
 16.7620
  50
 255.729
  51
 261.100
   0
LINE
   8
LEVEL001
   6
CONTINUOUS
  62
7
  10
 398.948
  20
 332.174
  30
0.0
  11
 420.004
  21
 332.796
  31
0.0
   0
ARC
   8
LEVEL001
   6
CONTINUOUS
  62
7
  10
 421.597
  20
 327.449
  30
0.0
  40
 5.00000
  50
 1.69191
  51
 81.1003
   0
LINE
   8
LEVEL001
   6
CONTINUOUS
  62
7
  10
 427.410
  20
 300.000
  30
0.0
  11
 467.382
  21
 301.181
  31
0.0
   0
LINE
   8
LEVEL001
   6
CONTINUOUS
  62
7
  10
 427.410
  20
 300.000
  30
0.0
  11
 426.595
  21
 327.597
  31
0.0
   0
LINE
   8
LEVEL001
   6
DASHDOT
  62
1
  10
 454.931
  20
 313.318
  30
0.0
  11
 475.405
  21
 313.923
  31
0.0
   0
LINE
   8
LEVEL001
   6
DASHDOT
  62
1
  10
 424.592
  20
 312.422
  30
0.0
  11
 451.993
  21
 313.232
  31
0.0
   0
ARC
   8
LEVEL001
   6
CONTINUOUS
  62
7
  10
 475.433
  20
 375.951
  30
0.0
  40
 5.00000
  50
 181.692
  51
 223.195
   0
LINE
   8
LEVEL001
   6
CONTINUOUS
  62
7
  10
 470.272
  20
 381.344
  30
0.0
  11
 470.436
  21
 375.803
  31
0.0
   0
ARC
   8
LEVEL001
   6
CONTINUOUS
  62
7
  10
 470.354
  20
 300.768
  30
0.0
  40
 3.00000
  50
 91.6919
  51
 172.098
   0
LINE
   8
LEVEL001
   6
CONTINUOUS
  62
7
  10
 470.265
  20
 303.767
  30
0.0
  11
 473.316
  21
 303.857
  31
0.0
   0
LINE
   8
LEVEL001
   6
CONTINUOUS
  62
7
  10
 473.316
  20
 303.857
  30
0.0
  11
 473.802
  21
 304.372
  31
0.0
   0
LINE
   8
LEVEL001
   6
CONTINUOUS
  62
7
  10
 473.802
  20
 304.372
  30
0.0
  11
 473.787
  21
 304.871
  31
0.0
   0
LINE
   8
LEVEL001
   6
DASHDOT
  62
1
  10
 446.402
  20
 300.561
  30
0.0
  11
 442.589
  21
 429.669
  31
0.0
   0
LINE
   8
LEVEL001
   6
CONTINUOUS
  62
7
  10
 417.431
  20
 400.749
  30
0.0
  11
 417.166
  21
 409.745
  31
0.0
   0
LINE
   8
LEVEL001
   6
CONTINUOUS
  62
7
  10
 416.432
  20
 400.720
  30
0.0
  11
 416.141
  21
 410.553
  31
0.0
   0
ARC
   8
LEVEL001
   6
CONTINUOUS
  62
7
  10
 421.430
  20
 400.867
  30
0.0
  40
 4.00000
  50
 181.690
  51
 271.692
   0
ARC
   8
LEVEL001
   6
CONTINUOUS
  62
7
  10
 421.430
  20
 400.867
  30
0.0
  40
 5.00000
  50
 181.692
  51
 271.559
   0
ARC
   8
LEVEL001
   6
CONTINUOUS
  62
7
  10
 421.430
  20
 400.867
  30
0.0
  40
 11.0000
  50
 181.692
  51
 271.692
   0
ARC
   8
LEVEL001
   6
CONTINUOUS
  62
7
  10
 421.430
  20
 400.867
  30
0.0
  40
 10.0000
  50
 181.692
  51
 271.592
   0
LINE
   8
LEVEL001
   6
CONTINUOUS
  62
7
  10
 410.434
  20
 400.543
  30
0.0
  11
 410.155
  21
 410.002
  31
0.0
   0
LINE
   8
LEVEL001
   6
CONTINUOUS
  62
7
  10
 411.434
  20
 400.572
  30
0.0
  11
 411.153
  21
 410.093
  31
0.0
   0
ARC
   8
LEVEL001
   6
CONTINUOUS
  62
7
  10
 420.164
  20
 409.834
  30
0.0
  40
 3.00000
  50
 164.195
  51
 181.692
   0
ARC
   8
LEVEL001
   6
CONTINUOUS
  62
7
  10
 413.814
  20
 404.644
  30
0.0
  40
 2.50000
  50
 158.114
  51
 181.692
   0
LINE
   8
LEVEL001
   6
CONTINUOUS
  62
7
  10
 411.495
  20
 405.576
  30
0.0
  11
 416.075
  21
 405.712
  31
0.0
   0
LINE
   8
LEVEL001
   6
CONTINUOUS
  62
7
  10
 437.592
  20
 361.723
  30
0.0
  11
 457.584
  21
 362.314
  31
0.0
   0
ARC
   8
LEVEL003
   6
CONTINUOUS
  62
7
  10
 464.378
  20
 386.299
  30
0.0
  40
 3.00000
  50
 121.692
  51
 181.692
   0
LINE
   8
LEVEL003
   6
CONTINUOUS
  62
7
  10
 426.326
  20
 387.506
  30
0.0
  11
 461.311
  21
 388.540
  31
0.0
   0
ARC
   8
LEVEL003
   6
CONTINUOUS
  62
7
  10
 423.396
  20
 385.088
  30
0.0
  40
 3.00000
  50
 1.69191
  51
 61.6919
   0
ARC
   8
LEVEL003
   6
CONTINUOUS
  62
7
  10
 425.767
  20
 389.491
  30
0.0
  40
 2.00000
  50
 181.692
  51
 241.692
   0
LINE
   8
LEVEL003
   6
CONTINUOUS
  62
7
  10
 423.754
  20
 389.931
  30
0.0
  11
 423.768
  21
 389.431
  31
0.0
   0
ARC
   8
LEVEL003
   6
CONTINUOUS
  62
7
  10
 429.168
  20
 399.095
  30
0.0
  40
 2.00000
  50
 271.692
  51
 1.69191
   0
ARC
   8
LEVEL003
   6
CONTINUOUS
  62
7
  10
 429.197
  20
 398.096
  30
0.0
  40
 2.00000
  50
 271.692
  51
 1.69191
   0
ARC
   8
LEVEL003
   6
CONTINUOUS
  62
7
  10
 429.492
  20
 388.100
  30
0.0
  40
 2.00000
  50
 1.69191
  51
 91.6919
   0
ARC
   8
LEVEL003
   6
CONTINUOUS
  62
7
  10
 429.463
  20
 389.099
  30
0.0
  40
 2.00000
  50
 1.69191
  51
 91.6919
   0
LINE
   8
LEVEL001
   6
CONTINUOUS
  62
7
  10
 429.227
  20
 397.096
  30
0.0
  11
 421.548
  21
 396.869
  31
0.0
   0
LINE
   8
LEVEL001
   6
CONTINUOUS
  62
7
  10
 429.256
  20
 396.096
  30
0.0
  11
 421.566
  21
 395.869
  31
0.0
   0
LINE
   8
LEVEL001
   6
CONTINUOUS
  62
7
  10
 429.404
  20
 391.099
  30
0.0
  11
 421.707
  21
 390.871
  31
0.0
   0
LINE
   8
LEVEL001
   6
CONTINUOUS
  62
7
  10
 429.433
  20
 390.099
  30
0.0
  11
 421.754
  21
 389.872
  31
0.0
   0
LINE
   8
LEVEL003
   6
CONTINUOUS
  62
7
  10
 445.135
  20
 377.333
  30
0.0
  11
 445.062
  21
 377.672
  31
0.0
   0
LINE
   8
LEVEL003
   6
CONTINUOUS
  62
7
  10
 445.062
  20
 377.672
  30
0.0
  11
 444.866
  21
 378.003
  31
0.0
   0
LINE
   8
LEVEL003
   6
CONTINUOUS
  62
7
  10
 444.866
  20
 378.003
  30
0.0
  11
 444.550
  21
 378.319
  31
0.0
   0
LINE
   8
LEVEL003
   6
CONTINUOUS
  62
7
  10
 444.550
  20
 378.319
  30
0.0
  11
 444.117
  21
 378.616
  31
0.0
   0
LINE
   8
LEVEL003
   6
CONTINUOUS
  62
7
  10
 444.117
  20
 378.616
  30
0.0
  11
 443.576
  21
 378.889
  31
0.0
   0
LINE
   8
LEVEL003
   6
CONTINUOUS
  62
7
  10
 443.576
  20
 378.889
  30
0.0
  11
 442.934
  21
 379.134
  31
0.0
   0
LINE
   8
LEVEL003
   6
CONTINUOUS
  62
7
  10
 442.934
  20
 379.134
  30
0.0
  11
 442.202
  21
 379.348
  31
0.0
   0
LINE
   8
LEVEL003
   6
CONTINUOUS
  62
7
  10
 442.202
  20
 379.348
  30
0.0
  11
 441.391
  21
 379.526
  31
0.0
   0
LINE
   8
LEVEL003
   6
CONTINUOUS
  62
7
  10
 441.391
  20
 379.526
  30
0.0
  11
 440.513
  21
 379.667
  31
0.0
   0
LINE
   8
LEVEL003
   6
CONTINUOUS
  62
7
  10
 440.513
  20
 379.667
  30
0.0
  11
 439.583
  21
 379.767
  31
0.0
   0
LINE
   8
LEVEL003
   6
CONTINUOUS
  62
7
  10
 439.583
  20
 379.767
  30
0.0
  11
 438.615
  21
 379.826
  31
0.0
   0
LINE
   8
LEVEL003
   6
CONTINUOUS
  62
7
  10
 438.615
  20
 379.826
  30
0.0
  11
 437.623
  21
 379.842
  31
0.0
   0
LINE
   8
LEVEL003
   6
CONTINUOUS
  62
7
  10
 437.623
  20
 379.842
  30
0.0
  11
 436.624
  21
 379.815
  31
0.0
   0
LINE
   8
LEVEL003
   6
CONTINUOUS
  62
7
  10
 436.624
  20
 379.815
  30
0.0
  11
 435.633
  21
 379.746
  31
0.0
   0
LINE
   8
LEVEL003
   6
CONTINUOUS
  62
7
  10
 435.633
  20
 379.746
  30
0.0
  11
 434.666
  21
 379.636
  31
0.0
   0
LINE
   8
LEVEL003
   6
CONTINUOUS
  62
7
  10
 434.666
  20
 379.636
  30
0.0
  11
 433.737
  21
 379.486
  31
0.0
   0
LINE
   8
LEVEL003
   6
CONTINUOUS
  62
7
  10
 433.737
  20
 379.486
  30
0.0
  11
 432.861
  21
 379.298
  31
0.0
   0
LINE
   8
LEVEL003
   6
CONTINUOUS
  62
7
  10
 432.861
  20
 379.298
  30
0.0
  11
 432.052
  21
 379.077
  31
0.0
   0
LINE
   8
LEVEL003
   6
CONTINUOUS
  62
7
  10
 432.052
  20
 379.077
  30
0.0
  11
 431.323
  21
 378.824
  31
0.0
   0
LINE
   8
LEVEL003
   6
CONTINUOUS
  62
7
  10
 431.323
  20
 378.824
  30
0.0
  11
 430.684
  21
 378.545
  31
0.0
   0
LINE
   8
LEVEL003
   6
CONTINUOUS
  62
7
  10
 430.684
  20
 378.545
  30
0.0
  11
 430.145
  21
 378.243
  31
0.0
   0
LINE
   8
LEVEL003
   6
CONTINUOUS
  62
7
  10
 430.145
  20
 378.243
  30
0.0
  11
 429.716
  21
 377.923
  31
0.0
   0
LINE
   8
LEVEL003
   6
CONTINUOUS
  62
7
  10
 429.716
  20
 377.923
  30
0.0
  11
 429.403
  21
 377.590
  31
0.0
   0
LINE
   8
LEVEL003
   6
CONTINUOUS
  62
7
  10
 429.403
  20
 377.590
  30
0.0
  11
 429.210
  21
 377.249
  31
0.0
   0
LINE
   8
LEVEL003
   6
CONTINUOUS
  62
7
  10
 429.210
  20
 377.249
  30
0.0
  11
 429.142
  21
 376.906
  31
0.0
   0
LINE
   8
LEVEL003
   6
CONTINUOUS
  62
7
  10
 429.142
  20
 376.906
  30
0.0
  11
 429.197
  21
 376.566
  31
0.0
   0
LINE
   8
LEVEL003
   6
CONTINUOUS
  62
7
  10
 429.197
  20
 376.566
  30
0.0
  11
 429.377
  21
 376.235
  31
0.0
   0
LINE
   8
LEVEL003
   6
CONTINUOUS
  62
7
  10
 429.377
  20
 376.235
  30
0.0
  11
 429.678
  21
 375.917
  31
0.0
   0
LINE
   8
LEVEL003
   6
CONTINUOUS
  62
7
  10
 429.678
  20
 375.917
  30
0.0
  11
 430.096
  21
 375.617
  31
0.0
   0
LINE
   8
LEVEL003
   6
CONTINUOUS
  62
7
  10
 430.096
  20
 375.617
  30
0.0
  11
 430.623
  21
 375.340
  31
0.0
   0
LINE
   8
LEVEL003
   6
CONTINUOUS
  62
7
  10
 430.623
  20
 375.340
  30
0.0
  11
 431.252
  21
 375.091
  31
0.0
   0
LINE
   8
LEVEL003
   6
CONTINUOUS
  62
7
  10
 431.252
  20
 375.091
  30
0.0
  11
 431.973
  21
 374.873
  31
0.0
   0
LINE
   8
LEVEL003
   6
CONTINUOUS
  62
7
  10
 431.973
  20
 374.873
  30
0.0
  11
 432.774
  21
 374.690
  31
0.0
   0
LINE
   8
LEVEL003
   6
CONTINUOUS
  62
7
  10
 432.774
  20
 374.690
  30
0.0
  11
 433.643
  21
 374.544
  31
0.0
   0
LINE
   8
LEVEL003
   6
CONTINUOUS
  62
7
  10
 433.643
  20
 374.544
  30
0.0
  11
 434.567
  21
 374.438
  31
0.0
   0
LINE
   8
LEVEL003
   6
CONTINUOUS
  62
7
  10
 434.567
  20
 374.438
  30
0.0
  11
 435.532
  21
 374.374
  31
0.0
   0
LINE
   8
LEVEL003
   6
CONTINUOUS
  62
7
  10
 435.532
  20
 374.374
  30
0.0
  11
 436.521
  21
 374.352
  31
0.0
   0
LINE
   8
LEVEL003
   6
CONTINUOUS
  62
7
  10
 436.521
  20
 374.352
  30
0.0
  11
 437.520
  21
 374.373
  31
0.0
   0
LINE
   8
LEVEL003
   6
CONTINUOUS
  62
7
  10
 437.520
  20
 374.373
  30
0.0
  11
 438.513
  21
 374.436
  31
0.0
   0
LINE
   8
LEVEL003
   6
CONTINUOUS
  62
7
  10
 438.513
  20
 374.436
  30
0.0
  11
 439.484
  21
 374.542
  31
0.0
   0
LINE
   8
LEVEL003
   6
CONTINUOUS
  62
7
  10
 439.484
  20
 374.542
  30
0.0
  11
 440.419
  21
 374.686
  31
0.0
   0
LINE
   8
LEVEL003
   6
CONTINUOUS
  62
7
  10
 440.419
  20
 374.686
  30
0.0
  11
 441.303
  21
 374.869
  31
0.0
   0
LINE
   8
LEVEL003
   6
CONTINUOUS
  62
7
  10
 441.303
  20
 374.869
  30
0.0
  11
 442.121
  21
 375.086
  31
0.0
   0
LINE
   8
LEVEL003
   6
CONTINUOUS
  62
7
  10
 442.121
  20
 375.086
  30
0.0
  11
 442.862
  21
 375.335
  31
0.0
   0
LINE
   8
LEVEL003
   6
CONTINUOUS
  62
7
  10
 442.862
  20
 375.335
  30
0.0
  11
 443.514
  21
 375.611
  31
0.0
   0
LINE
   8
LEVEL003
   6
CONTINUOUS
  62
7
  10
 443.514
  20
 375.611
  30
0.0
  11
 444.066
  21
 375.910
  31
0.0
   0
LINE
   8
LEVEL003
   6
CONTINUOUS
  62
7
  10
 444.066
  20
 375.910
  30
0.0
  11
 444.510
  21
 376.228
  31
0.0
   0
LINE
   8
LEVEL003
   6
CONTINUOUS
  62
7
  10
 444.510
  20
 376.228
  30
0.0
  11
 444.839
  21
 376.560
  31
0.0
   0
LINE
   8
LEVEL003
   6
CONTINUOUS
  62
7
  10
 444.839
  20
 376.560
  30
0.0
  11
 445.048
  21
 376.900
  31
0.0
   0
LINE
   8
LEVEL003
   6
CONTINUOUS
  62
7
  10
 445.048
  20
 376.900
  30
0.0
  11
 445.133
  21
 377.242
  31
0.0
   0
LINE
   8
LEVEL003
   6
CONTINUOUS
  62
7
  10
 445.133
  20
 377.242
  30
0.0
  11
 445.135
  21
 377.333
  31
0.0
   0
LINE
   8
LEVEL003
   6
CONTINUOUS
  62
7
  10
 430.372
  20
 378.380
  30
0.0
  11
 429.688
  21
 378.057
  31
0.0
   0
LINE
   8
LEVEL003
   6
CONTINUOUS
  62
7
  10
 429.688
  20
 378.057
  30
0.0
  11
 429.121
  21
 377.710
  31
0.0
   0
LINE
   8
LEVEL003
   6
CONTINUOUS
  62
7
  10
 429.121
  20
 377.710
  30
0.0
  11
 428.679
  21
 377.345
  31
0.0
   0
LINE
   8
LEVEL003
   6
CONTINUOUS
  62
7
  10
 428.679
  20
 377.345
  30
0.0
  11
 428.369
  21
 376.967
  31
0.0
   0
LINE
   8
LEVEL003
   6
CONTINUOUS
  62
7
  10
 428.369
  20
 376.967
  30
0.0
  11
 428.196
  21
 376.582
  31
0.0
   0
LINE
   8
LEVEL003
   6
CONTINUOUS
  62
7
  10
 428.196
  20
 376.582
  30
0.0
  11
 428.163
  21
 376.197
  31
0.0
   0
LINE
   8
LEVEL003
   6
CONTINUOUS
  62
7
  10
 428.163
  20
 376.197
  30
0.0
  11
 428.271
  21
 375.817
  31
0.0
   0
LINE
   8
LEVEL003
   6
CONTINUOUS
  62
7
  10
 428.271
  20
 375.817
  30
0.0
  11
 428.517
  21
 375.448
  31
0.0
   0
LINE
   8
LEVEL003
   6
CONTINUOUS
  62
7
  10
 428.517
  20
 375.448
  30
0.0
  11
 428.898
  21
 375.096
  31
0.0
   0
LINE
   8
LEVEL003
   6
CONTINUOUS
  62
7
  10
 428.898
  20
 375.096
  30
0.0
  11
 429.408
  21
 374.766
  31
0.0
   0
LINE
   8
LEVEL003
   6
CONTINUOUS
  62
7
  10
 429.408
  20
 374.766
  30
0.0
  11
 430.038
  21
 374.464
  31
0.0
   0
LINE
   8
LEVEL003
   6
CONTINUOUS
  62
7
  10
 430.038
  20
 374.464
  30
0.0
  11
 430.780
  21
 374.195
  31
0.0
   0
LINE
   8
LEVEL003
   6
CONTINUOUS
  62
7
  10
 430.780
  20
 374.195
  30
0.0
  11
 431.621
  21
 373.961
  31
0.0
   0
LINE
   8
LEVEL003
   6
CONTINUOUS
  62
7
  10
 431.621
  20
 373.961
  30
0.0
  11
 432.548
  21
 373.768
  31
0.0
   0
LINE
   8
LEVEL003
   6
CONTINUOUS
  62
7
  10
 432.548
  20
 373.768
  30
0.0
  11
 433.548
  21
 373.618
  31
0.0
   0
LINE
   8
LEVEL003
   6
CONTINUOUS
  62
7
  10
 433.548
  20
 373.618
  30
0.0
  11
 434.604
  21
 373.514
  31
0.0
   0
LINE
   8
LEVEL003
   6
CONTINUOUS
  62
7
  10
 434.604
  20
 373.514
  30
0.0
  11
 435.699
  21
 373.457
  31
0.0
   0
LINE
   8
LEVEL003
   6
CONTINUOUS
  62
7
  10
 435.699
  20
 373.457
  30
0.0
  11
 436.817
  21
 373.448
  31
0.0
   0
LINE
   8
LEVEL003
   6
CONTINUOUS
  62
7
  10
 436.817
  20
 373.448
  30
0.0
  11
 437.941
  21
 373.486
  31
0.0
   0
LINE
   8
LEVEL003
   6
CONTINUOUS
  62
7
  10
 437.941
  20
 373.486
  30
0.0
  11
 439.052
  21
 373.573
  31
0.0
   0
LINE
   8
LEVEL003
   6
CONTINUOUS
  62
7
  10
 439.052
  20
 373.573
  30
0.0
  11
 440.134
  21
 373.706
  31
0.0
   0
LINE
   8
LEVEL003
   6
CONTINUOUS
  62
7
  10
 440.134
  20
 373.706
  30
0.0
  11
 441.169
  21
 373.882
  31
0.0
   0
LINE
   8
LEVEL003
   6
CONTINUOUS
  62
7
  10
 441.169
  20
 373.882
  30
0.0
  11
 442.141
  21
 374.101
  31
0.0
   0
LINE
   8
LEVEL003
   6
CONTINUOUS
  62
7
  10
 442.141
  20
 374.101
  30
0.0
  11
 443.036
  21
 374.357
  31
0.0
   0
LINE
   8
LEVEL003
   6
CONTINUOUS
  62
7
  10
 443.036
  20
 374.357
  30
0.0
  11
 443.839
  21
 374.647
  31
0.0
   0
LINE
   8
LEVEL003
   6
CONTINUOUS
  62
7
  10
 443.839
  20
 374.647
  30
0.0
  11
 444.537
  21
 374.966
  31
0.0
   0
LINE
   8
LEVEL003
   6
CONTINUOUS
  62
7
  10
 444.537
  20
 374.966
  30
0.0
  11
 445.121
  21
 375.310
  31
0.0
   0
LINE
   8
LEVEL003
   6
CONTINUOUS
  62
7
  10
 445.121
  20
 375.310
  30
0.0
  11
 445.580
  21
 375.673
  31
0.0
   0
LINE
   8
LEVEL003
   6
CONTINUOUS
  62
7
  10
 445.580
  20
 375.673
  30
0.0
  11
 445.908
  21
 376.050
  31
0.0
   0
LINE
   8
LEVEL003
   6
CONTINUOUS
  62
7
  10
 445.908
  20
 376.050
  30
0.0
  11
 446.099
  21
 376.434
  31
0.0
   0
LINE
   8
LEVEL003
   6
CONTINUOUS
  62
7
  10
 446.099
  20
 376.434
  30
0.0
  11
 446.150
  21
 376.819
  31
0.0
   0
LINE
   8
LEVEL003
   6
CONTINUOUS
  62
7
  10
 446.150
  20
 376.819
  30
0.0
  11
 446.061
  21
 377.201
  31
0.0
   0
LINE
   8
LEVEL003
   6
CONTINUOUS
  62
7
  10
 446.061
  20
 377.201
  30
0.0
  11
 445.834
  21
 377.571
  31
0.0
   0
LINE
   8
LEVEL003
   6
CONTINUOUS
  62
7
  10
 445.834
  20
 377.571
  30
0.0
  11
 445.470
  21
 377.926
  31
0.0
   0
LINE
   8
LEVEL003
   6
CONTINUOUS
  62
7
  10
 445.470
  20
 377.926
  30
0.0
  11
 444.977
  21
 378.259
  31
0.0
   0
LINE
   8
LEVEL003
   6
CONTINUOUS
  62
7
  10
 444.977
  20
 378.259
  30
0.0
  11
 444.362
  21
 378.565
  31
0.0
   0
LINE
   8
LEVEL003
   6
CONTINUOUS
  62
7
  10
 444.362
  20
 378.565
  30
0.0
  11
 443.817
  21
 378.777
  31
0.0
   0
LINE
   8
LEVEL003
   6
CONTINUOUS
  62
7
  10
 428.475
  20
 365.560
  30
0.0
  11
 428.557
  21
 365.178
  31
0.0
   0
LINE
   8
LEVEL003
   6
CONTINUOUS
  62
7
  10
 428.557
  20
 365.178
  30
0.0
  11
 428.777
  21
 364.807
  31
0.0
   0
LINE
   8
LEVEL003
   6
CONTINUOUS
  62
7
  10
 428.777
  20
 364.807
  30
0.0
  11
 429.134
  21
 364.452
  31
0.0
   0
LINE
   8
LEVEL003
   6
CONTINUOUS
  62
7
  10
 429.134
  20
 364.452
  30
0.0
  11
 429.620
  21
 364.117
  31
0.0
   0
LINE
   8
LEVEL003
   6
CONTINUOUS
  62
7
  10
 429.620
  20
 364.117
  30
0.0
  11
 430.229
  21
 363.810
  31
0.0
   0
LINE
   8
LEVEL003
   6
CONTINUOUS
  62
7
  10
 430.229
  20
 363.810
  30
0.0
  11
 430.951
  21
 363.534
  31
0.0
   0
LINE
   8
LEVEL003
   6
CONTINUOUS
  62
7
  10
 430.951
  20
 363.534
  30
0.0
  11
 431.775
  21
 363.294
  31
0.0
   0
LINE
   8
LEVEL003
   6
CONTINUOUS
  62
7
  10
 431.775
  20
 363.294
  30
0.0
  11
 432.687
  21
 363.093
  31
0.0
   0
LINE
   8
LEVEL003
   6
CONTINUOUS
  62
7
  10
 432.687
  20
 363.093
  30
0.0
  11
 433.674
  21
 362.935
  31
0.0
   0
LINE
   8
LEVEL003
   6
CONTINUOUS
  62
7
  10
 433.674
  20
 362.935
  30
0.0
  11
 434.721
  21
 362.822
  31
0.0
   0
LINE
   8
LEVEL003
   6
CONTINUOUS
  62
7
  10
 434.721
  20
 362.822
  30
0.0
  11
 435.810
  21
 362.756
  31
0.0
   0
LINE
   8
LEVEL003
   6
CONTINUOUS
  62
7
  10
 435.810
  20
 362.756
  30
0.0
  11
 436.926
  21
 362.738
  31
0.0
   0
LINE
   8
LEVEL003
   6
CONTINUOUS
  62
7
  10
 436.926
  20
 362.738
  30
0.0
  11
 438.049
  21
 362.768
  31
0.0
   0
LINE
   8
LEVEL003
   6
CONTINUOUS
  62
7
  10
 438.049
  20
 362.768
  30
0.0
  11
 439.164
  21
 362.846
  31
0.0
   0
LINE
   8
LEVEL003
   6
CONTINUOUS
  62
7
  10
 439.164
  20
 362.846
  30
0.0
  11
 440.253
  21
 362.970
  31
0.0
   0
LINE
   8
LEVEL003
   6
CONTINUOUS
  62
7
  10
 440.253
  20
 362.970
  30
0.0
  11
 441.298
  21
 363.139
  31
0.0
   0
LINE
   8
LEVEL003
   6
CONTINUOUS
  62
7
  10
 441.298
  20
 363.139
  30
0.0
  11
 442.283
  21
 363.349
  31
0.0
   0
LINE
   8
LEVEL003
   6
CONTINUOUS
  62
7
  10
 442.283
  20
 363.349
  30
0.0
  11
 443.193
  21
 363.599
  31
0.0
   0
LINE
   8
LEVEL003
   6
CONTINUOUS
  62
7
  10
 443.193
  20
 363.599
  30
0.0
  11
 444.014
  21
 363.883
  31
0.0
   0
LINE
   8
LEVEL003
   6
CONTINUOUS
  62
7
  10
 444.014
  20
 363.883
  30
0.0
  11
 444.733
  21
 364.197
  31
0.0
   0
LINE
   8
LEVEL003
   6
CONTINUOUS
  62
7
  10
 444.733
  20
 364.197
  30
0.0
  11
 445.338
  21
 364.537
  31
0.0
   0
LINE
   8
LEVEL003
   6
CONTINUOUS
  62
7
  10
 445.338
  20
 364.537
  30
0.0
  11
 445.821
  21
 364.897
  31
0.0
   0
LINE
   8
LEVEL003
   6
CONTINUOUS
  62
7
  10
 445.821
  20
 364.897
  30
0.0
  11
 446.173
  21
 365.272
  31
0.0
   0
LINE
   8
LEVEL003
   6
CONTINUOUS
  62
7
  10
 446.173
  20
 365.272
  30
0.0
  11
 446.390
  21
 365.655
  31
0.0
   0
LINE
   8
LEVEL003
   6
CONTINUOUS
  62
7
  10
 446.390
  20
 365.655
  30
0.0
  11
 446.468
  21
 366.040
  31
0.0
   0
LINE
   8
LEVEL003
   6
CONTINUOUS
  62
7
  10
 446.468
  20
 366.040
  30
0.0
  11
 446.467
  21
 366.091
  31
0.0
   0
LINE
   8
LEVEL003
   6
CONTINUOUS
  62
7
  10
 428.159
  20
 376.268
  30
0.0
  11
 428.475
  21
 365.560
  31
0.0
   0
LINE
   8
LEVEL003
   6
CONTINUOUS
  62
7
  10
 446.151
  20
 376.799
  30
0.0
  11
 446.467
  21
 366.091
  31
0.0
   0
LINE
   8
LEVEL003
   6
CONTINUOUS
  62
7
  10
 465.126
  20
 377.924
  30
0.0
  11
 465.054
  21
 378.263
  31
0.0
   0
LINE
   8
LEVEL003
   6
CONTINUOUS
  62
7
  10
 465.054
  20
 378.263
  30
0.0
  11
 464.858
  21
 378.593
  31
0.0
   0
LINE
   8
LEVEL003
   6
CONTINUOUS
  62
7
  10
 464.858
  20
 378.593
  30
0.0
  11
 464.541
  21
 378.909
  31
0.0
   0
LINE
   8
LEVEL003
   6
CONTINUOUS
  62
7
  10
 464.541
  20
 378.909
  30
0.0
  11
 464.108
  21
 379.206
  31
0.0
   0
LINE
   8
LEVEL003
   6
CONTINUOUS
  62
7
  10
 464.108
  20
 379.206
  30
0.0
  11
 463.567
  21
 379.479
  31
0.0
   0
LINE
   8
LEVEL003
   6
CONTINUOUS
  62
7
  10
 463.567
  20
 379.479
  30
0.0
  11
 462.925
  21
 379.725
  31
0.0
   0
LINE
   8
LEVEL003
   6
CONTINUOUS
  62
7
  10
 462.925
  20
 379.725
  30
0.0
  11
 462.193
  21
 379.938
  31
0.0
   0
LINE
   8
LEVEL003
   6
CONTINUOUS
  62
7
  10
 462.193
  20
 379.938
  30
0.0
  11
 461.382
  21
 380.117
  31
0.0
   0
LINE
   8
LEVEL003
   6
CONTINUOUS
  62
7
  10
 461.382
  20
 380.117
  30
0.0
  11
 460.505
  21
 380.257
  31
0.0
   0
LINE
   8
LEVEL003
   6
CONTINUOUS
  62
7
  10
 460.505
  20
 380.257
  30
0.0
  11
 459.574
  21
 380.358
  31
0.0
   0
LINE
   8
LEVEL003
   6
CONTINUOUS
  62
7
  10
 459.574
  20
 380.358
  30
0.0
  11
 458.606
  21
 380.416
  31
0.0
   0
LINE
   8
LEVEL003
   6
CONTINUOUS
  62
7
  10
 458.606
  20
 380.416
  30
0.0
  11
 457.615
  21
 380.432
  31
0.0
   0
LINE
   8
LEVEL003
   6
CONTINUOUS
  62
7
  10
 457.615
  20
 380.432
  30
0.0
  11
 456.616
  21
 380.406
  31
0.0
   0
LINE
   8
LEVEL003
   6
CONTINUOUS
  62
7
  10
 456.616
  20
 380.406
  30
0.0
  11
 455.625
  21
 380.337
  31
0.0
   0
LINE
   8
LEVEL003
   6
CONTINUOUS
  62
7
  10
 455.625
  20
 380.337
  30
0.0
  11
 454.657
  21
 380.226
  31
0.0
   0
LINE
   8
LEVEL003
   6
CONTINUOUS
  62
7
  10
 454.657
  20
 380.226
  30
0.0
  11
 453.728
  21
 380.076
  31
0.0
   0
LINE
   8
LEVEL003
   6
CONTINUOUS
  62
7
  10
 453.728
  20
 380.076
  30
0.0
  11
 452.853
  21
 379.889
  31
0.0
   0
LINE
   8
LEVEL003
   6
CONTINUOUS
  62
7
  10
 452.853
  20
 379.889
  30
0.0
  11
 452.044
  21
 379.667
  31
0.0
   0
LINE
   8
LEVEL003
   6
CONTINUOUS
  62
7
  10
 452.044
  20
 379.667
  30
0.0
  11
 451.314
  21
 379.415
  31
0.0
   0
LINE
   8
LEVEL003
   6
CONTINUOUS
  62
7
  10
 451.314
  20
 379.415
  30
0.0
  11
 450.675
  21
 379.135
  31
0.0
   0
LINE
   8
LEVEL003
   6
CONTINUOUS
  62
7
  10
 450.675
  20
 379.135
  30
0.0
  11
 450.137
  21
 378.833
  31
0.0
   0
LINE
   8
LEVEL003
   6
CONTINUOUS
  62
7
  10
 450.137
  20
 378.833
  30
0.0
  11
 449.708
  21
 378.513
  31
0.0
   0
LINE
   8
LEVEL003
   6
CONTINUOUS
  62
7
  10
 449.708
  20
 378.513
  30
0.0
  11
 449.394
  21
 378.180
  31
0.0
   0
LINE
   8
LEVEL003
   6
CONTINUOUS
  62
7
  10
 449.394
  20
 378.180
  30
0.0
  11
 449.202
  21
 377.840
  31
0.0
   0
LINE
   8
LEVEL003
   6
CONTINUOUS
  62
7
  10
 449.202
  20
 377.840
  30
0.0
  11
 449.133
  21
 377.497
  31
0.0
   0
LINE
   8
LEVEL003
   6
CONTINUOUS
  62
7
  10
 449.133
  20
 377.497
  30
0.0
  11
 449.189
  21
 377.157
  31
0.0
   0
LINE
   8
LEVEL003
   6
CONTINUOUS
  62
7
  10
 449.189
  20
 377.157
  30
0.0
  11
 449.369
  21
 376.825
  31
0.0
   0
LINE
   8
LEVEL003
   6
CONTINUOUS
  62
7
  10
 449.369
  20
 376.825
  30
0.0
  11
 449.670
  21
 376.507
  31
0.0
   0
LINE
   8
LEVEL003
   6
CONTINUOUS
  62
7
  10
 449.670
  20
 376.507
  30
0.0
  11
 450.087
  21
 376.207
  31
0.0
   0
LINE
   8
LEVEL003
   6
CONTINUOUS
  62
7
  10
 450.087
  20
 376.207
  30
0.0
  11
 450.614
  21
 375.931
  31
0.0
   0
LINE
   8
LEVEL003
   6
CONTINUOUS
  62
7
  10
 450.614
  20
 375.931
  30
0.0
  11
 451.243
  21
 375.681
  31
0.0
   0
LINE
   8
LEVEL003
   6
CONTINUOUS
  62
7
  10
 451.243
  20
 375.681
  30
0.0
  11
 451.964
  21
 375.463
  31
0.0
   0
LINE
   8
LEVEL003
   6
CONTINUOUS
  62
7
  10
 451.964
  20
 375.463
  30
0.0
  11
 452.765
  21
 375.280
  31
0.0
   0
LINE
   8
LEVEL003
   6
CONTINUOUS
  62
7
  10
 452.765
  20
 375.280
  30
0.0
  11
 453.635
  21
 375.135
  31
0.0
   0
LINE
   8
LEVEL003
   6
CONTINUOUS
  62
7
  10
 453.635
  20
 375.135
  30
0.0
  11
 454.559
  21
 375.029
  31
0.0
   0
LINE
   8
LEVEL003
   6
CONTINUOUS
  62
7
  10
 454.559
  20
 375.029
  30
0.0
  11
 455.523
  21
 374.964
  31
0.0
   0
LINE
   8
LEVEL003
   6
CONTINUOUS
  62
7
  10
 455.523
  20
 374.964
  30
0.0
  11
 456.512
  21
 374.942
  31
0.0
   0
LINE
   8
LEVEL003
   6
CONTINUOUS
  62
7
  10
 456.512
  20
 374.942
  30
0.0
  11
 457.511
  21
 374.963
  31
0.0
   0
LINE
   8
LEVEL003
   6
CONTINUOUS
  62
7
  10
 457.511
  20
 374.963
  30
0.0
  11
 458.504
  21
 375.027
  31
0.0
   0
LINE
   8
LEVEL003
   6
CONTINUOUS
  62
7
  10
 458.504
  20
 375.027
  30
0.0
  11
 459.475
  21
 375.132
  31
0.0
   0
LINE
   8
LEVEL003
   6
CONTINUOUS
  62
7
  10
 459.475
  20
 375.132
  30
0.0
  11
 460.410
  21
 375.277
  31
0.0
   0
LINE
   8
LEVEL003
   6
CONTINUOUS
  62
7
  10
 460.410
  20
 375.277
  30
0.0
  11
 461.294
  21
 375.459
  31
0.0
   0
LINE
   8
LEVEL003
   6
CONTINUOUS
  62
7
  10
 461.294
  20
 375.459
  30
0.0
  11
 462.113
  21
 375.677
  31
0.0
   0
LINE
   8
LEVEL003
   6
CONTINUOUS
  62
7
  10
 462.113
  20
 375.677
  30
0.0
  11
 462.853
  21
 375.925
  31
0.0
   0
LINE
   8
LEVEL003
   6
CONTINUOUS
  62
7
  10
 462.853
  20
 375.925
  30
0.0
  11
 463.505
  21
 376.202
  31
0.0
   0
LINE
   8
LEVEL003
   6
CONTINUOUS
  62
7
  10
 463.505
  20
 376.202
  30
0.0
  11
 464.057
  21
 376.501
  31
0.0
   0
LINE
   8
LEVEL003
   6
CONTINUOUS
  62
7
  10
 464.057
  20
 376.501
  30
0.0
  11
 464.501
  21
 376.819
  31
0.0
   0
LINE
   8
LEVEL003
   6
CONTINUOUS
  62
7
  10
 464.501
  20
 376.819
  30
0.0
  11
 464.830
  21
 377.150
  31
0.0
   0
LINE
   8
LEVEL003
   6
CONTINUOUS
  62
7
  10
 464.830
  20
 377.150
  30
0.0
  11
 465.039
  21
 377.490
  31
0.0
   0
LINE
   8
LEVEL003
   6
CONTINUOUS
  62
7
  10
 465.039
  20
 377.490
  30
0.0
  11
 465.124
  21
 377.833
  31
0.0
   0
LINE
   8
LEVEL003
   6
CONTINUOUS
  62
7
  10
 465.124
  20
 377.833
  30
0.0
  11
 465.126
  21
 377.924
  31
0.0
   0
LINE
   8
LEVEL003
   6
CONTINUOUS
  62
7
  10
 450.363
  20
 378.970
  30
0.0
  11
 449.679
  21
 378.647
  31
0.0
   0
LINE
   8
LEVEL003
   6
CONTINUOUS
  62
7
  10
 449.679
  20
 378.647
  30
0.0
  11
 449.112
  21
 378.300
  31
0.0
   0
LINE
   8
LEVEL003
   6
CONTINUOUS
  62
7
  10
 449.112
  20
 378.300
  30
0.0
  11
 448.670
  21
 377.935
  31
0.0
   0
LINE
   8
LEVEL003
   6
CONTINUOUS
  62
7
  10
 448.670
  20
 377.935
  30
0.0
  11
 448.360
  21
 377.557
  31
0.0
   0
LINE
   8
LEVEL003
   6
CONTINUOUS
  62
7
  10
 448.360
  20
 377.557
  30
0.0
  11
 448.188
  21
 377.173
  31
0.0
   0
LINE
   8
LEVEL003
   6
CONTINUOUS
  62
7
  10
 448.188
  20
 377.173
  30
0.0
  11
 448.155
  21
 376.787
  31
0.0
   0
LINE
   8
LEVEL003
   6
CONTINUOUS
  62
7
  10
 448.155
  20
 376.787
  30
0.0
  11
 448.262
  21
 376.407
  31
0.0
   0
LINE
   8
LEVEL003
   6
CONTINUOUS
  62
7
  10
 448.262
  20
 376.407
  30
0.0
  11
 448.508
  21
 376.038
  31
0.0
   0
LINE
   8
LEVEL003
   6
CONTINUOUS
  62
7
  10
 448.508
  20
 376.038
  30
0.0
  11
 448.889
  21
 375.686
  31
0.0
   0
LINE
   8
LEVEL003
   6
CONTINUOUS
  62
7
  10
 448.889
  20
 375.686
  30
0.0
  11
 449.399
  21
 375.357
  31
0.0
   0
LINE
   8
LEVEL003
   6
CONTINUOUS
  62
7
  10
 449.399
  20
 375.357
  30
0.0
  11
 450.029
  21
 375.055
  31
0.0
   0
LINE
   8
LEVEL003
   6
CONTINUOUS
  62
7
  10
 450.029
  20
 375.055
  30
0.0
  11
 450.771
  21
 374.785
  31
0.0
   0
LINE
   8
LEVEL003
   6
CONTINUOUS
  62
7
  10
 450.771
  20
 374.785
  30
0.0
  11
 451.612
  21
 374.552
  31
0.0
   0
LINE
   8
LEVEL003
   6
CONTINUOUS
  62
7
  10
 451.612
  20
 374.552
  30
0.0
  11
 452.540
  21
 374.359
  31
0.0
   0
LINE
   8
LEVEL003
   6
CONTINUOUS
  62
7
  10
 452.540
  20
 374.359
  30
0.0
  11
 453.539
  21
 374.209
  31
0.0
   0
LINE
   8
LEVEL003
   6
CONTINUOUS
  62
7
  10
 453.539
  20
 374.209
  30
0.0
  11
 454.595
  21
 374.105
  31
0.0
   0
LINE
   8
LEVEL003
   6
CONTINUOUS
  62
7
  10
 454.595
  20
 374.105
  30
0.0
  11
 455.690
  21
 374.047
  31
0.0
   0
LINE
   8
LEVEL003
   6
CONTINUOUS
  62
7
  10
 455.690
  20
 374.047
  30
0.0
  11
 456.809
  21
 374.038
  31
0.0
   0
LINE
   8
LEVEL003
   6
CONTINUOUS
  62
7
  10
 456.809
  20
 374.038
  30
0.0
  11
 457.932
  21
 374.077
  31
0.0
   0
LINE
   8
LEVEL003
   6
CONTINUOUS
  62
7
  10
 457.932
  20
 374.077
  30
0.0
  11
 459.043
  21
 374.163
  31
0.0
   0
LINE
   8
LEVEL003
   6
CONTINUOUS
  62
7
  10
 459.043
  20
 374.163
  30
0.0
  11
 460.125
  21
 374.296
  31
0.0
   0
LINE
   8
LEVEL003
   6
CONTINUOUS
  62
7
  10
 460.125
  20
 374.296
  30
0.0
  11
 461.160
  21
 374.473
  31
0.0
   0
LINE
   8
LEVEL003
   6
CONTINUOUS
  62
7
  10
 461.160
  20
 374.473
  30
0.0
  11
 462.133
  21
 374.691
  31
0.0
   0
LINE
   8
LEVEL003
   6
CONTINUOUS
  62
7
  10
 462.133
  20
 374.691
  30
0.0
  11
 463.027
  21
 374.947
  31
0.0
   0
LINE
   8
LEVEL003
   6
CONTINUOUS
  62
7
  10
 463.027
  20
 374.947
  30
0.0
  11
 463.830
  21
 375.237
  31
0.0
   0
LINE
   8
LEVEL003
   6
CONTINUOUS
  62
7
  10
 463.830
  20
 375.237
  30
0.0
  11
 464.529
  21
 375.557
  31
0.0
   0
LINE
   8
LEVEL003
   6
CONTINUOUS
  62
7
  10
 464.529
  20
 375.557
  30
0.0
  11
 465.112
  21
 375.901
  31
0.0
   0
LINE
   8
LEVEL003
   6
CONTINUOUS
  62
7
  10
 465.112
  20
 375.901
  30
0.0
  11
 465.571
  21
 376.264
  31
0.0
   0
LINE
   8
LEVEL003
   6
CONTINUOUS
  62
7
  10
 465.571
  20
 376.264
  30
0.0
  11
 465.899
  21
 376.640
  31
0.0
   0
LINE
   8
LEVEL003
   6
CONTINUOUS
  62
7
  10
 465.899
  20
 376.640
  30
0.0
  11
 466.090
  21
 377.024
  31
0.0
   0
LINE
   8
LEVEL003
   6
CONTINUOUS
  62
7
  10
 466.090
  20
 377.024
  30
0.0
  11
 466.142
  21
 377.410
  31
0.0
   0
LINE
   8
LEVEL003
   6
CONTINUOUS
  62
7
  10
 466.142
  20
 377.410
  30
0.0
  11
 466.053
  21
 377.791
  31
0.0
   0
LINE
   8
LEVEL003
   6
CONTINUOUS
  62
7
  10
 466.053
  20
 377.791
  30
0.0
  11
 465.825
  21
 378.162
  31
0.0
   0
LINE
   8
LEVEL003
   6
CONTINUOUS
  62
7
  10
 465.825
  20
 378.162
  30
0.0
  11
 465.462
  21
 378.516
  31
0.0
   0
LINE
   8
LEVEL003
   6
CONTINUOUS
  62
7
  10
 465.462
  20
 378.516
  30
0.0
  11
 464.968
  21
 378.849
  31
0.0
   0
LINE
   8
LEVEL003
   6
CONTINUOUS
  62
7
  10
 464.968
  20
 378.849
  30
0.0
  11
 464.353
  21
 379.155
  31
0.0
   0
LINE
   8
LEVEL003
   6
CONTINUOUS
  62
7
  10
 464.353
  20
 379.155
  30
0.0
  11
 463.808
  21
 379.367
  31
0.0
   0
LINE
   8
LEVEL003
   6
CONTINUOUS
  62
7
  10
 448.150
  20
 376.858
  30
0.0
  11
 448.466
  21
 366.151
  31
0.0
   0
LINE
   8
LEVEL003
   6
CONTINUOUS
  62
7
  10
 448.466
  20
 366.151
  30
0.0
  11
 448.548
  21
 365.769
  31
0.0
   0
LINE
   8
LEVEL003
   6
CONTINUOUS
  62
7
  10
 448.548
  20
 365.769
  30
0.0
  11
 448.769
  21
 365.398
  31
0.0
   0
LINE
   8
LEVEL003
   6
CONTINUOUS
  62
7
  10
 448.769
  20
 365.398
  30
0.0
  11
 449.125
  21
 365.042
  31
0.0
   0
LINE
   8
LEVEL003
   6
CONTINUOUS
  62
7
  10
 449.125
  20
 365.042
  30
0.0
  11
 449.611
  21
 364.708
  31
0.0
   0
LINE
   8
LEVEL003
   6
CONTINUOUS
  62
7
  10
 449.611
  20
 364.708
  30
0.0
  11
 450.220
  21
 364.401
  31
0.0
   0
LINE
   8
LEVEL003
   6
CONTINUOUS
  62
7
  10
 450.220
  20
 364.401
  30
0.0
  11
 450.942
  21
 364.125
  31
0.0
   0
LINE
   8
LEVEL003
   6
CONTINUOUS
  62
7
  10
 450.942
  20
 364.125
  30
0.0
  11
 451.766
  21
 363.884
  31
0.0
   0
LINE
   8
LEVEL003
   6
CONTINUOUS
  62
7
  10
 451.766
  20
 363.884
  30
0.0
  11
 452.678
  21
 363.684
  31
0.0
   0
LINE
   8
LEVEL003
   6
CONTINUOUS
  62
7
  10
 452.678
  20
 363.684
  30
0.0
  11
 453.666
  21
 363.526
  31
0.0
   0
LINE
   8
LEVEL003
   6
CONTINUOUS
  62
7
  10
 453.666
  20
 363.526
  30
0.0
  11
 454.712
  21
 363.413
  31
0.0
   0
LINE
   8
LEVEL003
   6
CONTINUOUS
  62
7
  10
 454.712
  20
 363.413
  30
0.0
  11
 455.802
  21
 363.347
  31
0.0
   0
LINE
   8
LEVEL003
   6
CONTINUOUS
  62
7
  10
 455.802
  20
 363.347
  30
0.0
  11
 456.917
  21
 363.328
  31
0.0
   0
LINE
   8
LEVEL003
   6
CONTINUOUS
  62
7
  10
 456.917
  20
 363.328
  30
0.0
  11
 458.041
  21
 363.358
  31
0.0
   0
LINE
   8
LEVEL003
   6
CONTINUOUS
  62
7
  10
 458.041
  20
 363.358
  30
0.0
  11
 459.155
  21
 363.436
  31
0.0
   0
LINE
   8
LEVEL003
   6
CONTINUOUS
  62
7
  10
 459.155
  20
 363.436
  30
0.0
  11
 460.244
  21
 363.560
  31
0.0
   0
LINE
   8
LEVEL003
   6
CONTINUOUS
  62
7
  10
 460.244
  20
 363.560
  30
0.0
  11
 461.289
  21
 363.729
  31
0.0
   0
LINE
   8
LEVEL003
   6
CONTINUOUS
  62
7
  10
 461.289
  20
 363.729
  30
0.0
  11
 462.274
  21
 363.940
  31
0.0
   0
LINE
   8
LEVEL003
   6
CONTINUOUS
  62
7
  10
 462.274
  20
 363.940
  30
0.0
  11
 463.184
  21
 364.189
  31
0.0
   0
LINE
   8
LEVEL003
   6
CONTINUOUS
  62
7
  10
 463.184
  20
 364.189
  30
0.0
  11
 464.005
  21
 364.473
  31
0.0
   0
LINE
   8
LEVEL003
   6
CONTINUOUS
  62
7
  10
 464.005
  20
 364.473
  30
0.0
  11
 464.724
  21
 364.788
  31
0.0
   0
LINE
   8
LEVEL003
   6
CONTINUOUS
  62
7
  10
 464.724
  20
 364.788
  30
0.0
  11
 465.330
  21
 365.128
  31
0.0
   0
LINE
   8
LEVEL003
   6
CONTINUOUS
  62
7
  10
 465.330
  20
 365.128
  30
0.0
  11
 465.812
  21
 365.488
  31
0.0
   0
LINE
   8
LEVEL003
   6
CONTINUOUS
  62
7
  10
 465.812
  20
 365.488
  30
0.0
  11
 466.165
  21
 365.862
  31
0.0
   0
LINE
   8
LEVEL003
   6
CONTINUOUS
  62
7
  10
 466.165
  20
 365.862
  30
0.0
  11
 466.381
  21
 366.245
  31
0.0
   0
LINE
   8
LEVEL003
   6
CONTINUOUS
  62
7
  10
 466.381
  20
 366.245
  30
0.0
  11
 466.459
  21
 366.631
  31
0.0
   0
LINE
   8
LEVEL003
   6
CONTINUOUS
  62
7
  10
 466.459
  20
 366.631
  30
0.0
  11
 466.459
  21
 366.682
  31
0.0
   0
ARC
   8
LEVEL001
   6
CONTINUOUS
  62
7
  10
 441.169
  20
 379.941
  30
0.0
  40
 3.00000
  50
 336.263
  51
 181.962
   0
LINE
   8
LEVEL001
   6
CONTINUOUS
  62
7
  10
 445.669
  20
 377.751
  30
0.0
  11
 448.583
  21
 383.161
  31
0.0
   0
LINE
   8
LEVEL001
   6
CONTINUOUS
  62
7
  10
 448.583
  20
 383.161
  30
0.0
  11
 454.354
  21
 383.332
  31
0.0
   0
LINE
   8
LEVEL001
   6
CONTINUOUS
  62
7
  10
 454.354
  20
 383.332
  30
0.0
  11
 452.443
  21
 379.783
  31
0.0
   0
LINE
   8
LEVEL001
   6
CONTINUOUS
  62
7
  10
 448.260
  20
 373.147
  30
0.0
  11
 446.261
  21
 373.088
  31
0.0
   0
LINE
   8
LEVEL003
   6
CONTINUOUS
  62
7
  10
 461.380
  20
 386.210
  30
0.0
  11
 461.561
  21
 380.082
  31
0.0
   0
ARC
   8
LEVEL003
   6
CONTINUOUS
  62
7
  10
 421.727
  20
 373.862
  30
0.0
  40
 5.00000
  50
 300.325
  51
 1.69191
   0
LINE
   8
LEVEL003
   6
CONTINUOUS
  62
7
  10
 424.759
  20
 367.667
  30
0.0
  11
 425.539
  21
 365.094
  31
0.0
   0
LINE
   8
LEVEL003
   6
CONTINUOUS
  62
7
  10
 457.584
  20
 362.314
  30
0.0
  11
 459.078
  21
 362.390
  31
0.0
   0
LINE
   8
LEVEL003
   6
CONTINUOUS
  62
7
  10
 459.078
  20
 362.390
  30
0.0
  11
 460.547
  21
 362.529
  31
0.0
   0
LINE
   8
LEVEL003
   6
CONTINUOUS
  62
7
  10
 460.547
  20
 362.529
  30
0.0
  11
 461.969
  21
 362.729
  31
0.0
   0
LINE
   8
LEVEL003
   6
CONTINUOUS
  62
7
  10
 461.969
  20
 362.729
  30
0.0
  11
 463.319
  21
 362.986
  31
0.0
   0
LINE
   8
LEVEL003
   6
CONTINUOUS
  62
7
  10
 463.319
  20
 362.986
  30
0.0
  11
 464.579
  21
 363.297
  31
0.0
   0
LINE
   8
LEVEL003
   6
CONTINUOUS
  62
7
  10
 464.579
  20
 363.297
  30
0.0
  11
 465.727
  21
 363.656
  31
0.0
   0
LINE
   8
LEVEL003
   6
CONTINUOUS
  62
7
  10
 465.727
  20
 363.656
  30
0.0
  11
 466.747
  21
 364.059
  31
0.0
   0
LINE
   8
LEVEL003
   6
CONTINUOUS
  62
7
  10
 466.747
  20
 364.059
  30
0.0
  11
 467.621
  21
 364.498
  31
0.0
   0
LINE
   8
LEVEL003
   6
CONTINUOUS
  62
7
  10
 467.621
  20
 364.498
  30
0.0
  11
 468.337
  21
 364.967
  31
0.0
   0
LINE
   8
LEVEL003
   6
CONTINUOUS
  62
7
  10
 468.337
  20
 364.967
  30
0.0
  11
 468.884
  21
 365.459
  31
0.0
   0
LINE
   8
LEVEL003
   6
CONTINUOUS
  62
7
  10
 468.884
  20
 365.459
  30
0.0
  11
 469.252
  21
 365.966
  31
0.0
   0
LINE
   8
LEVEL003
   6
CONTINUOUS
  62
7
  10
 469.252
  20
 365.966
  30
0.0
  11
 469.417
  21
 366.390
  31
0.0
   0
LINE
   8
LEVEL003
   6
CONTINUOUS
  62
7
  10
 446.354
  20
 369.911
  30
0.0
  11
 448.354
  21
 369.971
  31
0.0
   0
LINE
   8
LEVEL003
   6
CONTINUOUS
  62
7
  10
 425.282
  20
 369.774
  30
0.0
  11
 428.352
  21
 369.742
  31
0.0
   0
LINE
   8
LEVEL003
   6
CONTINUOUS
  62
7
  10
 426.395
  20
 385.177
  30
0.0
  11
 426.725
  21
 374.009
  31
0.0
   0
LINE
   8
LEVEL003
   6
CONTINUOUS
  62
7
  10
 425.539
  20
 365.094
  30
0.0
  11
 425.785
  21
 364.595
  31
0.0
   0
LINE
   8
LEVEL003
   6
CONTINUOUS
  62
7
  10
 425.785
  20
 364.595
  30
0.0
  11
 426.213
  21
 364.115
  31
0.0
   0
LINE
   8
LEVEL003
   6
CONTINUOUS
  62
7
  10
 426.213
  20
 364.115
  30
0.0
  11
 426.818
  21
 363.661
  31
0.0
   0
LINE
   8
LEVEL003
   6
CONTINUOUS
  62
7
  10
 426.818
  20
 363.661
  30
0.0
  11
 427.588
  21
 363.241
  31
0.0
   0
LINE
   8
LEVEL003
   6
CONTINUOUS
  62
7
  10
 427.588
  20
 363.241
  30
0.0
  11
 428.513
  21
 362.862
  31
0.0
   0
LINE
   8
LEVEL003
   6
CONTINUOUS
  62
7
  10
 428.513
  20
 362.862
  30
0.0
  11
 429.577
  21
 362.528
  31
0.0
   0
LINE
   8
LEVEL003
   6
CONTINUOUS
  62
7
  10
 429.577
  20
 362.528
  30
0.0
  11
 430.765
  21
 362.247
  31
0.0
   0
LINE
   8
LEVEL003
   6
CONTINUOUS
  62
7
  10
 430.765
  20
 362.247
  30
0.0
  11
 432.057
  21
 362.021
  31
0.0
   0
LINE
   8
LEVEL003
   6
CONTINUOUS
  62
7
  10
 432.057
  20
 362.021
  30
0.0
  11
 433.434
  21
 361.854
  31
0.0
   0
LINE
   8
LEVEL003
   6
CONTINUOUS
  62
7
  10
 433.434
  20
 361.854
  30
0.0
  11
 434.874
  21
 361.750
  31
0.0
   0
LINE
   8
LEVEL003
   6
CONTINUOUS
  62
7
  10
 434.874
  20
 361.750
  30
0.0
  11
 436.354
  21
 361.709
  31
0.0
   0
LINE
   8
LEVEL003
   6
CONTINUOUS
  62
7
  10
 436.354
  20
 361.709
  30
0.0
  11
 437.592
  21
 361.723
  31
0.0
   0
ARC
   8
LEVEL003
   6
CONTINUOUS
  62
7
  10
 461.752
  20
 390.553
  30
0.0
  40
 2.00000
  50
 301.692
  51
 1.69191
   0
LINE
   8
LEVEL003
   6
CONTINUOUS
  62
7
  10
 466.142
  20
 377.390
  30
0.0
  11
 466.459
  21
 366.682
  31
0.0
   0
LINE
   8
LEVEL003
   6
CONTINUOUS
  62
7
  10
 470.025
  20
 368.926
  30
0.0
  11
 469.417
  21
 366.390
  31
0.0
   0
LINE
   8
LEVEL003
   6
CONTINUOUS
  62
7
  10
 470.559
  20
 371.158
  30
0.0
  11
 466.335
  21
 370.864
  31
0.0
   0
ARC
   8
LEVEL003
   6
CONTINUOUS
  62
7
  10
 472.942
  20
 368.228
  30
0.0
  40
 3.00000
  50
 111.697
  51
 166.532
   0
LINE
   8
LEVEL003
   6
CONTINUOUS
  62
7
  10
 458.502
  20
 331.241
  30
0.0
  11
 460.535
  21
 330.146
  31
0.0
   0
LINE
   8
LEVEL003
   6
CONTINUOUS
  62
7
  10
 460.535
  20
 330.146
  30
0.0
  11
 460.603
  21
 327.837
  31
0.0
   0
LINE
   8
LEVEL003
   6
CONTINUOUS
  62
7
  10
 460.603
  20
 327.837
  30
0.0
  11
 458.638
  21
 326.624
  31
0.0
   0
LINE
   8
LEVEL003
   6
CONTINUOUS
  62
7
  10
 458.638
  20
 326.624
  30
0.0
  11
 456.605
  21
 327.719
  31
0.0
   0
LINE
   8
LEVEL003
   6
CONTINUOUS
  62
7
  10
 456.605
  20
 327.719
  30
0.0
  11
 456.536
  21
 330.028
  31
0.0
   0
LINE
   8
LEVEL003
   6
CONTINUOUS
  62
7
  10
 456.536
  20
 330.028
  30
0.0
  11
 458.502
  21
 331.241
  31
0.0
   0
CIRCLE
   8
LEVEL003
   6
CONTINUOUS
  62
7
  10
 458.570
  20
 328.933
  30
0.0
  40
 4.00000
   0
LINE
   8
LEVEL003
   6
CONTINUOUS
  62
7
  10
 438.510
  20
 330.650
  30
0.0
  11
 440.543
  21
 329.555
  31
0.0
   0
LINE
   8
LEVEL003
   6
CONTINUOUS
  62
7
  10
 440.543
  20
 329.555
  30
0.0
  11
 440.612
  21
 327.247
  31
0.0
   0
LINE
   8
LEVEL003
   6
CONTINUOUS
  62
7
  10
 440.612
  20
 327.247
  30
0.0
  11
 438.647
  21
 326.034
  31
0.0
   0
LINE
   8
LEVEL003
   6
CONTINUOUS
  62
7
  10
 438.647
  20
 326.034
  30
0.0
  11
 436.613
  21
 327.129
  31
0.0
   0
LINE
   8
LEVEL003
   6
CONTINUOUS
  62
7
  10
 436.613
  20
 327.129
  30
0.0
  11
 436.545
  21
 329.437
  31
0.0
   0
LINE
   8
LEVEL003
   6
CONTINUOUS
  62
7
  10
 436.545
  20
 329.437
  30
0.0
  11
 438.510
  21
 330.650
  31
0.0
   0
CIRCLE
   8
LEVEL003
   6
CONTINUOUS
  62
7
  10
 438.578
  20
 328.342
  30
0.0
  40
 4.00000
   0
CIRCLE
   8
LEVEL003
   6
CONTINUOUS
  62
3
  10
 438.578
  20
 328.342
  30
0.0
  40
 3.37500
   0
CIRCLE
   8
LEVEL003
   6
CONTINUOUS
  62
3
  10
 458.570
  20
 328.933
  30
0.0
  40
 3.37500
   0
ARC
   8
LEVEL003
   6
CONTINUOUS
  62
7
  10
 420.367
  20
 372.824
  30
0.0
  40
 5.00000
  50
 271.692
  51
 314.366
   0
LINE
   8
LEVEL003
   6
CONTINUOUS
  62
7
  10
 425.602
  20
 332.120
  30
0.0
  11
 436.276
  21
 344.570
  31
0.0
   0
ARC
   8
LEVEL003
   6
CONTINUOUS
  62
7
  10
 430.961
  20
 349.126
  30
0.0
  40
 7.00000
  50
 319.393
  51
 42.4744
   0
LINE
   8
LEVEL003
   6
CONTINUOUS
  62
7
  10
 438.785
  20
 321.345
  30
0.0
  11
 458.776
  21
 321.936
  31
0.0
   0
LINE
   8
LEVEL003
   6
CONTINUOUS
  62
7
  10
 438.372
  20
 335.339
  30
0.0
  11
 458.363
  21
 335.930
  31
0.0
   0
ARC
   8
LEVEL003
   6
CONTINUOUS
  62
7
  10
 438.578
  20
 328.342
  30
0.0
  40
 7.00000
  50
 91.6919
  51
 271.692
   0
LINE
   8
LEVEL003
   6
CONTINUOUS
  62
7
  10
 430.776
  20
 359.696
  30
0.0
  11
 436.125
  21
 353.853
  31
0.0
   0
LINE
   8
LEVEL001
   6
CONTINUOUS
  62
7
  10
 407.263
  20
 372.437
  30
0.0
  11
 407.163
  21
 375.831
  31
0.0
   0
ARC
   8
LEVEL001
   6
CONTINUOUS
  62
7
  10
 402.265
  20
 372.289
  30
0.0
  40
 5.00000
  50
 271.692
  51
 1.69191
   0
POINT
   8
LEVEL001
  62
7
  10
 407.411
  20
 367.439
  30
0.0
   0
LINE
   8
LEVEL001
   6
CONTINUOUS
  62
7
  10
 397.915
  20
 367.158
  30
0.0
  11
 420.514
  21
 367.826
  31
0.0
   0
LINE
   8
LEVEL001
   6
CONTINUOUS
  62
7
  10
 423.400
  20
 368.849
  30
0.0
  11
 424.760
  21
 369.887
  31
0.0
   0
ARC
   8
LEVEL001
   6
CONTINUOUS
  62
7
  10
 433.834
  20
 304.191
  30
0.0
  40
 2.00000
  50
 91.6919
  51
 181.692
   0
LINE
   8
LEVEL001
   6
CONTINUOUS
  62
7
  10
 431.835
  20
 304.132
  30
0.0
  11
 431.938
  21
 300.634
  31
0.0
   0
LINE
   8
LEVEL003
   6
CONTINUOUS
  62
7
  10
 433.775
  20
 306.191
  30
0.0
  11
 460.669
  21
 306.985
  31
0.0
   0
LINE
   8
LEVEL001
   6
CONTINUOUS
  62
7
  10
 433.697
  20
 308.839
  30
0.0
  11
 460.591
  21
 309.633
  31
0.0
   0
LINE
   8
LEVEL001
   6
CONTINUOUS
  62
7
  10
 428.335
  20
 304.084
  30
0.0
  11
 429.857
  21
 306.599
  31
0.0
   0
ARC
   8
LEVEL001
   6
CONTINUOUS
  62
7
  10
 433.834
  20
 304.191
  30
0.0
  40
 4.64950
  50
 91.6919
  51
 148.815
   0
ARC
   8
LEVEL003
   6
CONTINUOUS
  62
7
  10
 460.728
  20
 304.986
  30
0.0
  40
 2.00000
  50
 1.69191
  51
 91.6919
   0
LINE
   8
LEVEL001
   6
CONTINUOUS
  62
7
  10
 462.727
  20
 305.045
  30
0.0
  11
 462.831
  21
 301.546
  31
0.0
   0
LINE
   8
LEVEL001
   6
CONTINUOUS
  62
7
  10
 466.225
  20
 305.203
  30
0.0
  11
 464.557
  21
 307.624
  31
0.0
   0
ARC
   8
LEVEL001
   6
CONTINUOUS
  62
7
  10
 460.728
  20
 304.986
  30
0.0
  40
 4.64950
  50
 34.5686
  51
 91.6919
   0
ARC
   8
LEVEL001
   6
CONTINUOUS
  62
7
  10
 433.938
  20
 300.693
  30
0.0
  40
 2.00000
  50
 181.692
  51
 196.169
   0
ARC
   8
LEVEL001
   6
CONTINUOUS
  62
7
  10
 460.832
  20
 301.487
  30
0.0
  40
 2.00000
  50
 347.214
  51
 1.69191
   0
ARC
   8
LEVEL001
   6
CONTINUOUS
  62
7
  10
 410.801
  20
 327.666
  30
0.0
  40
 4.00000
  50
 238.229
  51
 316.692
   0
LINE
   8
LEVEL001
   6
CONTINUOUS
  62
7
  10
 417.339
  20
 328.770
  30
0.0
  11
 413.712
  21
 324.922
  31
0.0
   0
ARC
   8
LEVEL001
   6
CONTINUOUS
  62
7
  10
 423.161
  20
 323.283
  30
0.0
  40
 8.00000
  50
 99.1626
  51
 136.692
   0
ARC
   8
LEVEL001
   6
CONTINUOUS
  62
7
  10
 423.964
  20
 348.920
  30
0.0
  40
 29.0000
  50
 215.155
  51
 238.229
   0
ARC
   8
LEVEL001
   6
CONTINUOUS
  62
7
  10
 425.072
  20
 311.436
  30
0.0
  40
 20.0000
  50
 91.2897
  51
 99.1626
   0
ARC
   8
LEVEL001
   6
CONTINUOUS
  62
7
  10
 423.964
  20
 348.920
  30
0.0
  40
 29.0000
  50
 125.155
  51
 140.759
   0
LINE
   8
LEVEL001
   6
DASHDOT
  62
1
  10
 456.571
  20
 328.903
  30
0.0
  11
 455.537
  21
 363.888
  31
0.0
   0
LINE
   8
LEVEL003
   6
CONTINUOUS
  62
7
  10
 498.474
  20
 366.598
  30
0.0
  11
 824.332
  21
 376.223
  31
0.0
   0
LINE
   8
LEVEL001
   6
CONTINUOUS
  62
7
  10
 490.280
  20
 305.329
  30
0.0
  11
 491.250
  21
 306.358
  31
0.0
   0
LINE
   8
LEVEL001
   6
CONTINUOUS
  62
7
  10
 491.250
  20
 306.358
  30
0.0
  11
 491.146
  21
 309.857
  31
0.0
   0
LINE
   8
LEVEL003
   6
CONTINUOUS
  62
7
  10
 500.157
  20
 309.623
  30
0.0
  11
 826.015
  21
 319.248
  31
0.0
   0
ARC
   8
LEVEL001
   6
CONTINUOUS
  62
7
  10
 903.680
  20
 331.736
  30
0.0
  40
 20.0000
  50
 181.692
  51
 261.216
   0
ARC
   8
LEVEL001
   6
CONTINUOUS
  62
7
  10
 900.321
  20
 309.994
  30
0.0
  40
 2.00000
  50
 1.69191
  51
 81.2162
   0
ARC
   8
LEVEL001
   6
CONTINUOUS
  62
7
  10
 868.573
  20
 300.968
  30
0.0
  40
 1.00000
  50
 181.692
  51
 270.055
   0
LINE
   8
LEVEL001
   6
CONTINUOUS
  62
7
  10
 868.574
  20
 299.968
  30
0.0
  11
 901.588
  21
 300.000
  31
0.0
   0
ARC
   8
LEVEL001
   6
CONTINUOUS
  62
7
  10
 901.587
  20
 301.000
  30
0.0
  40
 1.00000
  50
 270.055
  51
 1.69191
   0
LINE
   8
LEVEL001
   6
CONTINUOUS
  62
7
  10
 902.586
  20
 301.030
  30
0.0
  11
 902.320
  21
 310.053
  31
0.0
   0
ARC
   8
LEVEL001
   6
CONTINUOUS
  62
7
  10
 884.568
  20
 335.260
  30
0.0
  40
 1.00000
  50
 291.163
  51
 1.69191
   0
ARC
   8
LEVEL001
   6
CONTINUOUS
  62
7
  10
 885.651
  20
 332.462
  30
0.0
  40
 2.00000
  50
 111.163
  51
 181.692
   0
LINE
   8
LEVEL001
   6
CONTINUOUS
  62
7
  10
 883.652
  20
 332.403
  30
0.0
  11
 883.689
  21
 331.145
  31
0.0
   0
ARC
   8
LEVEL001
   6
CONTINUOUS
  62
7
  10
 869.308
  20
 309.964
  30
0.0
  40
 2.00000
  50
 90.0553
  51
 181.692
   0
LINE
   8
LEVEL001
   6
CONTINUOUS
  62
7
  10
 869.306
  20
 311.964
  30
0.0
  11
 900.319
  21
 311.994
  31
0.0
   0
LINE
   8
LEVEL001
   6
CONTINUOUS
  62
7
  10
 867.309
  20
 309.905
  30
0.0
  11
 867.574
  21
 300.939
  31
0.0
   0
LINE
   8
LEVEL050
   6
DASHDOT
  62
1
  10
 864.765
  20
 396.024
  30
0.0
  11
 866.454
  21
 338.853
  31
0.0
   0
ARC
   8
LEVEL001
   6
CONTINUOUS
  62
7
  10
 883.748
  20
 363.007
  30
0.0
  40
 1.00000
  50
 1.69191
  51
 61.6919
   0
ARC
   8
LEVEL001
   6
CONTINUOUS
  62
7
  10
 885.645
  20
 366.529
  30
0.0
  40
 3.00000
  50
 181.692
  51
 241.692
   0
LINE
   8
LEVEL001
   6
CONTINUOUS
  62
7
  10
 882.624
  20
 367.190
  30
0.0
  11
 882.646
  21
 366.440
  31
0.0
   0
ARC
   8
LEVEL001
   6
CONTINUOUS
  62
7
  10
 865.632
  20
 366.688
  30
0.0
  40
 17.0000
  50
 1.69191
  51
 44.3598
   0
ARC
   8
LEVEL003
   6
CONTINUOUS
  62
7
  10
 875.727
  20
 380.554
  30
0.0
  40
 2.00000
  50
 1.69191
  51
 89.5864
   0
LINE
   8
LEVEL001
   6
CONTINUOUS
  62
7
  10
 853.287
  20
 378.011
  30
0.0
  11
 853.826
  21
 377.646
  31
0.0
   0
LINE
   8
LEVEL001
   6
CONTINUOUS
  62
7
  10
 853.826
  20
 377.646
  30
0.0
  11
 854.543
  21
 377.307
  31
0.0
   0
LINE
   8
LEVEL001
   6
CONTINUOUS
  62
7
  10
 854.543
  20
 377.307
  30
0.0
  11
 855.428
  21
 376.998
  31
0.0
   0
LINE
   8
LEVEL001
   6
CONTINUOUS
  62
7
  10
 855.428
  20
 376.998
  30
0.0
  11
 856.465
  21
 376.725
  31
0.0
   0
LINE
   8
LEVEL001
   6
CONTINUOUS
  62
7
  10
 856.465
  20
 376.725
  30
0.0
  11
 857.641
  21
 376.491
  31
0.0
   0
LINE
   8
LEVEL001
   6
CONTINUOUS
  62
7
  10
 857.641
  20
 376.491
  30
0.0
  11
 858.935
  21
 376.301
  31
0.0
   0
LINE
   8
LEVEL001
   6
CONTINUOUS
  62
7
  10
 858.935
  20
 376.301
  30
0.0
  11
 860.328
  21
 376.157
  31
0.0
   0
LINE
   8
LEVEL001
   6
CONTINUOUS
  62
7
  10
 860.328
  20
 376.157
  30
0.0
  11
 861.797
  21
 376.061
  31
0.0
   0
LINE
   8
LEVEL001
   6
CONTINUOUS
  62
7
  10
 861.797
  20
 376.061
  30
0.0
  11
 863.321
  21
 376.016
  31
0.0
   0
LINE
   8
LEVEL001
   6
CONTINUOUS
  62
7
  10
 863.321
  20
 376.016
  30
0.0
  11
 864.875
  21
 376.021
  31
0.0
   0
LINE
   8
LEVEL001
   6
CONTINUOUS
  62
7
  10
 864.875
  20
 376.021
  30
0.0
  11
 866.435
  21
 376.076
  31
0.0
   0
LINE
   8
LEVEL001
   6
CONTINUOUS
  62
7
  10
 866.435
  20
 376.076
  30
0.0
  11
 867.977
  21
 376.182
  31
0.0
   0
LINE
   8
LEVEL001
   6
CONTINUOUS
  62
7
  10
 867.977
  20
 376.182
  30
0.0
  11
 869.476
  21
 376.336
  31
0.0
   0
LINE
   8
LEVEL001
   6
CONTINUOUS
  62
7
  10
 869.476
  20
 376.336
  30
0.0
  11
 870.910
  21
 376.535
  31
0.0
   0
LINE
   8
LEVEL001
   6
CONTINUOUS
  62
7
  10
 870.910
  20
 376.535
  30
0.0
  11
 872.255
  21
 376.777
  31
0.0
   0
LINE
   8
LEVEL001
   6
CONTINUOUS
  62
7
  10
 872.255
  20
 376.777
  30
0.0
  11
 873.491
  21
 377.058
  31
0.0
   0
LINE
   8
LEVEL001
   6
CONTINUOUS
  62
7
  10
 873.491
  20
 377.058
  30
0.0
  11
 874.599
  21
 377.374
  31
0.0
   0
LINE
   8
LEVEL001
   6
CONTINUOUS
  62
7
  10
 874.599
  20
 377.374
  30
0.0
  11
 875.561
  21
 377.718
  31
0.0
   0
LINE
   8
LEVEL001
   6
CONTINUOUS
  62
7
  10
 875.561
  20
 377.718
  30
0.0
  11
 876.363
  21
 378.087
  31
0.0
   0
LINE
   8
LEVEL001
   6
CONTINUOUS
  62
7
  10
 876.363
  20
 378.087
  30
0.0
  11
 876.991
  21
 378.475
  31
0.0
   0
LINE
   8
LEVEL001
   6
CONTINUOUS
  62
7
  10
 876.991
  20
 378.475
  30
0.0
  11
 877.332
  21
 378.764
  31
0.0
   0
LINE
   8
LEVEL001
   6
CONTINUOUS
  62
7
  10
 855.547
  20
 381.725
  30
0.0
  11
 857.279
  21
 380.202
  31
0.0
   0
LINE
   8
LEVEL001
   6
CONTINUOUS
  62
7
  10
 857.279
  20
 380.202
  30
0.0
  11
 857.623
  21
 379.960
  31
0.0
   0
LINE
   8
LEVEL001
   6
CONTINUOUS
  62
7
  10
 857.623
  20
 379.960
  30
0.0
  11
 858.086
  21
 379.734
  31
0.0
   0
LINE
   8
LEVEL001
   6
CONTINUOUS
  62
7
  10
 858.086
  20
 379.734
  30
0.0
  11
 858.659
  21
 379.528
  31
0.0
   0
LINE
   8
LEVEL001
   6
CONTINUOUS
  62
7
  10
 858.659
  20
 379.528
  30
0.0
  11
 859.335
  21
 379.346
  31
0.0
   0
LINE
   8
LEVEL001
   6
CONTINUOUS
  62
7
  10
 859.335
  20
 379.346
  30
0.0
  11
 860.103
  21
 379.189
  31
0.0
   0
LINE
   8
LEVEL001
   6
CONTINUOUS
  62
7
  10
 860.103
  20
 379.189
  30
0.0
  11
 860.950
  21
 379.060
  31
0.0
   0
LINE
   8
LEVEL001
   6
CONTINUOUS
  62
7
  10
 860.950
  20
 379.060
  30
0.0
  11
 861.864
  21
 378.962
  31
0.0
   0
LINE
   8
LEVEL001
   6
CONTINUOUS
  62
7
  10
 861.864
  20
 378.962
  30
0.0
  11
 862.830
  21
 378.896
  31
0.0
   0
LINE
   8
LEVEL001
   6
CONTINUOUS
  62
7
  10
 862.830
  20
 378.896
  30
0.0
  11
 863.833
  21
 378.863
  31
0.0
   0
LINE
   8
LEVEL001
   6
CONTINUOUS
  62
7
  10
 863.833
  20
 378.863
  30
0.0
  11
 864.857
  21
 378.863
  31
0.0
   0
LINE
   8
LEVEL001
   6
CONTINUOUS
  62
7
  10
 864.857
  20
 378.863
  30
0.0
  11
 865.887
  21
 378.897
  31
0.0
   0
LINE
   8
LEVEL001
   6
CONTINUOUS
  62
7
  10
 865.887
  20
 378.897
  30
0.0
  11
 866.906
  21
 378.963
  31
0.0
   0
LINE
   8
LEVEL001
   6
CONTINUOUS
  62
7
  10
 866.906
  20
 378.963
  30
0.0
  11
 867.899
  21
 379.062
  31
0.0
   0
LINE
   8
LEVEL001
   6
CONTINUOUS
  62
7
  10
 867.899
  20
 379.062
  30
0.0
  11
 868.850
  21
 379.191
  31
0.0
   0
LINE
   8
LEVEL001
   6
CONTINUOUS
  62
7
  10
 868.850
  20
 379.191
  30
0.0
  11
 869.744
  21
 379.348
  31
0.0
   0
LINE
   8
LEVEL001
   6
CONTINUOUS
  62
7
  10
 869.744
  20
 379.348
  30
0.0
  11
 870.568
  21
 379.531
  31
0.0
   0
LINE
   8
LEVEL001
   6
CONTINUOUS
  62
7
  10
 870.568
  20
 379.531
  30
0.0
  11
 871.307
  21
 379.737
  31
0.0
   0
LINE
   8
LEVEL001
   6
CONTINUOUS
  62
7
  10
 871.307
  20
 379.737
  30
0.0
  11
 871.952
  21
 379.963
  31
0.0
   0
LINE
   8
LEVEL001
   6
CONTINUOUS
  62
7
  10
 871.952
  20
 379.963
  30
0.0
  11
 872.491
  21
 380.205
  31
0.0
   0
LINE
   8
LEVEL001
   6
CONTINUOUS
  62
7
  10
 872.491
  20
 380.205
  30
0.0
  11
 872.917
  21
 380.460
  31
0.0
   0
LINE
   8
LEVEL001
   6
CONTINUOUS
  62
7
  10
 872.917
  20
 380.460
  30
0.0
  11
 873.172
  21
 380.671
  31
0.0
   0
LINE
   8
LEVEL001
   6
CONTINUOUS
  62
7
  10
 855.163
  20
 382.406
  30
0.0
  11
 855.250
  21
 382.086
  31
0.0
   0
LINE
   8
LEVEL001
   6
CONTINUOUS
  62
7
  10
 855.250
  20
 382.086
  30
0.0
  11
 855.493
  21
 381.775
  31
0.0
   0
LINE
   8
LEVEL001
   6
CONTINUOUS
  62
7
  10
 855.493
  20
 381.775
  30
0.0
  11
 855.886
  21
 381.479
  31
0.0
   0
LINE
   8
LEVEL001
   6
CONTINUOUS
  62
7
  10
 855.886
  20
 381.479
  30
0.0
  11
 856.423
  21
 381.202
  31
0.0
   0
LINE
   8
LEVEL001
   6
CONTINUOUS
  62
7
  10
 856.423
  20
 381.202
  30
0.0
  11
 857.097
  21
 380.948
  31
0.0
   0
LINE
   8
LEVEL001
   6
CONTINUOUS
  62
7
  10
 857.097
  20
 380.948
  30
0.0
  11
 857.897
  21
 380.722
  31
0.0
   0
LINE
   8
LEVEL001
   6
CONTINUOUS
  62
7
  10
 857.897
  20
 380.722
  30
0.0
  11
 858.810
  21
 380.526
  31
0.0
   0
LINE
   8
LEVEL001
   6
CONTINUOUS
  62
7
  10
 858.810
  20
 380.526
  30
0.0
  11
 859.822
  21
 380.365
  31
0.0
   0
LINE
   8
LEVEL001
   6
CONTINUOUS
  62
7
  10
 859.822
  20
 380.365
  30
0.0
  11
 860.918
  21
 380.240
  31
0.0
   0
LINE
   8
LEVEL001
   6
CONTINUOUS
  62
7
  10
 860.918
  20
 380.240
  30
0.0
  11
 862.079
  21
 380.153
  31
0.0
   0
LINE
   8
LEVEL001
   6
CONTINUOUS
  62
7
  10
 862.079
  20
 380.153
  30
0.0
  11
 863.289
  21
 380.106
  31
0.0
   0
LINE
   8
LEVEL001
   6
CONTINUOUS
  62
7
  10
 863.289
  20
 380.106
  30
0.0
  11
 864.528
  21
 380.100
  31
0.0
   0
LINE
   8
LEVEL001
   6
CONTINUOUS
  62
7
  10
 864.528
  20
 380.100
  30
0.0
  11
 865.776
  21
 380.134
  31
0.0
   0
LINE
   8
LEVEL001
   6
CONTINUOUS
  62
7
  10
 865.776
  20
 380.134
  30
0.0
  11
 867.015
  21
 380.208
  31
0.0
   0
LINE
   8
LEVEL001
   6
CONTINUOUS
  62
7
  10
 867.015
  20
 380.208
  30
0.0
  11
 868.226
  21
 380.321
  31
0.0
   0
LINE
   8
LEVEL001
   6
CONTINUOUS
  62
7
  10
 868.226
  20
 380.321
  30
0.0
  11
 869.388
  21
 380.472
  31
0.0
   0
LINE
   8
LEVEL001
   6
CONTINUOUS
  62
7
  10
 869.388
  20
 380.472
  30
0.0
  11
 870.484
  21
 380.657
  31
0.0
   0
LINE
   8
LEVEL001
   6
CONTINUOUS
  62
7
  10
 870.484
  20
 380.657
  30
0.0
  11
 871.497
  21
 380.874
  31
0.0
   0
LINE
   8
LEVEL001
   6
CONTINUOUS
  62
7
  10
 871.497
  20
 380.874
  30
0.0
  11
 872.411
  21
 381.119
  31
0.0
   0
LINE
   8
LEVEL001
   6
CONTINUOUS
  62
7
  10
 872.411
  20
 381.119
  30
0.0
  11
 873.212
  21
 381.389
  31
0.0
   0
LINE
   8
LEVEL001
   6
CONTINUOUS
  62
7
  10
 873.212
  20
 381.389
  30
0.0
  11
 873.888
  21
 381.680
  31
0.0
   0
LINE
   8
LEVEL001
   6
CONTINUOUS
  62
7
  10
 873.888
  20
 381.680
  30
0.0
  11
 874.427
  21
 381.987
  31
0.0
   0
LINE
   8
LEVEL001
   6
CONTINUOUS
  62
7
  10
 874.427
  20
 381.987
  30
0.0
  11
 874.821
  21
 382.304
  31
0.0
   0
LINE
   8
LEVEL001
   6
CONTINUOUS
  62
7
  10
 874.821
  20
 382.304
  30
0.0
  11
 875.065
  21
 382.628
  31
0.0
   0
LINE
   8
LEVEL001
   6
CONTINUOUS
  62
7
  10
 875.065
  20
 382.628
  30
0.0
  11
 875.154
  21
 382.953
  31
0.0
   0
LINE
   8
LEVEL001
   6
CONTINUOUS
  62
7
  10
 875.154
  20
 382.953
  30
0.0
  11
 875.154
  21
 382.996
  31
0.0
   0
LINE
   8
LEVEL001
   6
CONTINUOUS
  62
7
  10
 874.811
  20
 382.294
  30
0.0
  11
 873.172
  21
 380.671
  31
0.0
   0
LINE
   8
LEVEL001
   6
CONTINUOUS
  62
7
  10
 873.172
  20
 380.671
  30
0.0
  11
 872.689
  21
 379.640
  31
0.0
   0
LINE
   8
LEVEL001
   6
CONTINUOUS
  62
7
  10
 857.279
  20
 380.202
  30
0.0
  11
 857.822
  21
 379.201
  31
0.0
   0
LINE
   8
LEVEL001
   6
CONTINUOUS
  62
7
  10
 857.822
  20
 379.201
  30
0.0
  11
 858.008
  21
 378.969
  31
0.0
   0
LINE
   8
LEVEL001
   6
CONTINUOUS
  62
7
  10
 858.008
  20
 378.969
  30
0.0
  11
 858.307
  21
 378.747
  31
0.0
   0
LINE
   8
LEVEL001
   6
CONTINUOUS
  62
7
  10
 858.307
  20
 378.747
  30
0.0
  11
 858.715
  21
 378.540
  31
0.0
   0
LINE
   8
LEVEL001
   6
CONTINUOUS
  62
7
  10
 858.715
  20
 378.540
  30
0.0
  11
 859.224
  21
 378.350
  31
0.0
   0
LINE
   8
LEVEL001
   6
CONTINUOUS
  62
7
  10
 859.224
  20
 378.350
  30
0.0
  11
 859.828
  21
 378.181
  31
0.0
   0
LINE
   8
LEVEL001
   6
CONTINUOUS
  62
7
  10
 859.828
  20
 378.181
  30
0.0
  11
 860.516
  21
 378.036
  31
0.0
   0
LINE
   8
LEVEL001
   6
CONTINUOUS
  62
7
  10
 860.516
  20
 378.036
  30
0.0
  11
 861.278
  21
 377.916
  31
0.0
   0
LINE
   8
LEVEL001
   6
CONTINUOUS
  62
7
  10
 861.278
  20
 377.916
  30
0.0
  11
 862.101
  21
 377.823
  31
0.0
   0
LINE
   8
LEVEL001
   6
CONTINUOUS
  62
7
  10
 862.101
  20
 377.823
  30
0.0
  11
 862.974
  21
 377.759
  31
0.0
   0
LINE
   8
LEVEL001
   6
CONTINUOUS
  62
7
  10
 862.974
  20
 377.759
  30
0.0
  11
 863.883
  21
 377.725
  31
0.0
   0
LINE
   8
LEVEL001
   6
CONTINUOUS
  62
7
  10
 863.883
  20
 377.725
  30
0.0
  11
 864.812
  21
 377.722
  31
0.0
   0
LINE
   8
LEVEL001
   6
CONTINUOUS
  62
7
  10
 864.812
  20
 377.722
  30
0.0
  11
 865.749
  21
 377.749
  31
0.0
   0
LINE
   8
LEVEL001
   6
CONTINUOUS
  62
7
  10
 865.749
  20
 377.749
  30
0.0
  11
 866.678
  21
 377.806
  31
0.0
   0
LINE
   8
LEVEL001
   6
CONTINUOUS
  62
7
  10
 866.678
  20
 377.806
  30
0.0
  11
 867.584
  21
 377.892
  31
0.0
   0
LINE
   8
LEVEL001
   6
CONTINUOUS
  62
7
  10
 867.584
  20
 377.892
  30
0.0
  11
 868.454
  21
 378.005
  31
0.0
   0
LINE
   8
LEVEL001
   6
CONTINUOUS
  62
7
  10
 868.454
  20
 378.005
  30
0.0
  11
 869.274
  21
 378.145
  31
0.0
   0
LINE
   8
LEVEL001
   6
CONTINUOUS
  62
7
  10
 869.274
  20
 378.145
  30
0.0
  11
 870.031
  21
 378.309
  31
0.0
   0
LINE
   8
LEVEL001
   6
CONTINUOUS
  62
7
  10
 870.031
  20
 378.309
  30
0.0
  11
 870.713
  21
 378.494
  31
0.0
   0
LINE
   8
LEVEL001
   6
CONTINUOUS
  62
7
  10
 870.713
  20
 378.494
  30
0.0
  11
 871.310
  21
 378.697
  31
0.0
   0
LINE
   8
LEVEL001
   6
CONTINUOUS
  62
7
  10
 871.310
  20
 378.697
  30
0.0
  11
 871.813
  21
 378.916
  31
0.0
   0
LINE
   8
LEVEL001
   6
CONTINUOUS
  62
7
  10
 871.813
  20
 378.916
  30
0.0
  11
 872.213
  21
 379.146
  31
0.0
   0
LINE
   8
LEVEL001
   6
CONTINUOUS
  62
7
  10
 872.213
  20
 379.146
  30
0.0
  11
 872.505
  21
 379.385
  31
0.0
   0
LINE
   8
LEVEL001
   6
CONTINUOUS
  62
7
  10
 872.505
  20
 379.385
  30
0.0
  11
 872.683
  21
 379.628
  31
0.0
   0
LINE
   8
LEVEL001
   6
CONTINUOUS
  62
7
  10
 872.683
  20
 379.628
  30
0.0
  11
 872.689
  21
 379.640
  31
0.0
   0
LINE
   8
LEVEL001
   6
CONTINUOUS
  62
7
  10
 855.977
  20
 388.704
  30
0.0
  11
 856.196
  21
 381.308
  31
0.0
   0
LINE
   8
LEVEL001
   6
CONTINUOUS
  62
7
  10
 857.494
  20
 388.165
  30
0.0
  11
 857.712
  21
 380.768
  31
0.0
   0
LINE
   8
LEVEL001
   6
CONTINUOUS
  62
7
  10
 859.004
  20
 387.851
  30
0.0
  11
 859.222
  21
 380.454
  31
0.0
   0
LINE
   8
LEVEL001
   6
CONTINUOUS
  62
7
  10
 860.510
  20
 387.655
  30
0.0
  11
 860.729
  21
 380.258
  31
0.0
   0
LINE
   8
LEVEL001
   6
CONTINUOUS
  62
7
  10
 862.014
  20
 387.541
  30
0.0
  11
 862.233
  21
 380.145
  31
0.0
   0
LINE
   8
LEVEL001
   6
CONTINUOUS
  62
7
  10
 863.516
  20
 387.496
  30
0.0
  11
 863.735
  21
 380.099
  31
0.0
   0
LINE
   8
LEVEL001
   6
CONTINUOUS
  62
7
  10
 866.515
  20
 387.584
  30
0.0
  11
 866.733
  21
 380.188
  31
0.0
   0
LINE
   8
LEVEL001
   6
CONTINUOUS
  62
7
  10
 868.012
  20
 387.719
  30
0.0
  11
 868.230
  21
 380.322
  31
0.0
   0
LINE
   8
LEVEL001
   6
CONTINUOUS
  62
7
  10
 869.506
  20
 387.920
  30
0.0
  11
 869.725
  21
 380.524
  31
0.0
   0
LINE
   8
LEVEL001
   6
CONTINUOUS
  62
7
  10
 870.999
  20
 388.205
  30
0.0
  11
 871.217
  21
 380.809
  31
0.0
   0
LINE
   8
LEVEL001
   6
CONTINUOUS
  62
7
  10
 872.487
  20
 388.608
  30
0.0
  11
 872.706
  21
 381.211
  31
0.0
   0
LINE
   8
LEVEL003
   6
CONTINUOUS
  62
7
  10
 875.167
  20
 382.558
  30
0.0
  11
 875.741
  21
 382.554
  31
0.0
   0
ARC
   8
LEVEL003
   6
CONTINUOUS
  62
7
  10
 859.969
  20
 389.591
  30
0.0
  40
 5.00000
  50
 101.569
  51
 182.194
   0
LINE
   8
LEVEL050
   6
CONTINUOUS
  62
7
  10
 855.163
  20
 382.406
  30
0.0
  11
 854.956
  21
 389.399
  31
0.0
   0
ARC
   8
LEVEL003
   6
CONTINUOUS
  62
7
  10
 869.933
  20
 389.886
  30
0.0
  40
 5.00000
  50
 1.18933
  51
 81.8153
   0
LINE
   8
LEVEL001
   6
CONTINUOUS
  62
7
  10
 873.969
  20
 389.236
  30
0.0
  11
 874.188
  21
 381.839
  31
0.0
   0
LINE
   8
LEVEL001
   6
CONTINUOUS
  62
7
  10
 857.251
  20
 390.710
  30
0.0
  11
 858.117
  21
 390.501
  31
0.0
   0
LINE
   8
LEVEL001
   6
CONTINUOUS
  62
7
  10
 858.117
  20
 390.501
  30
0.0
  11
 859.089
  21
 390.325
  31
0.0
   0
LINE
   8
LEVEL001
   6
CONTINUOUS
  62
7
  10
 859.089
  20
 390.325
  30
0.0
  11
 860.151
  21
 390.184
  31
0.0
   0
LINE
   8
LEVEL001
   6
CONTINUOUS
  62
7
  10
 860.151
  20
 390.184
  30
0.0
  11
 861.287
  21
 390.081
  31
0.0
   0
LINE
   8
LEVEL001
   6
CONTINUOUS
  62
7
  10
 861.287
  20
 390.081
  30
0.0
  11
 862.479
  21
 390.017
  31
0.0
   0
LINE
   8
LEVEL001
   6
CONTINUOUS
  62
7
  10
 862.479
  20
 390.017
  30
0.0
  11
 863.708
  21
 389.993
  31
0.0
   0
LINE
   8
LEVEL001
   6
CONTINUOUS
  62
7
  10
 863.708
  20
 389.993
  30
0.0
  11
 864.954
  21
 390.010
  31
0.0
   0
LINE
   8
LEVEL001
   6
CONTINUOUS
  62
7
  10
 864.954
  20
 390.010
  30
0.0
  11
 866.200
  21
 390.067
  31
0.0
   0
LINE
   8
LEVEL001
   6
CONTINUOUS
  62
7
  10
 866.200
  20
 390.067
  30
0.0
  11
 867.425
  21
 390.164
  31
0.0
   0
LINE
   8
LEVEL001
   6
CONTINUOUS
  62
7
  10
 867.425
  20
 390.164
  30
0.0
  11
 868.609
  21
 390.299
  31
0.0
   0
LINE
   8
LEVEL001
   6
CONTINUOUS
  62
7
  10
 868.609
  20
 390.299
  30
0.0
  11
 869.736
  21
 390.470
  31
0.0
   0
LINE
   8
LEVEL001
   6
CONTINUOUS
  62
7
  10
 869.736
  20
 390.470
  30
0.0
  11
 870.786
  21
 390.674
  31
0.0
   0
LINE
   8
LEVEL001
   6
CONTINUOUS
  62
7
  10
 870.786
  20
 390.674
  30
0.0
  11
 871.744
  21
 390.907
  31
0.0
   0
LINE
   8
LEVEL001
   6
CONTINUOUS
  62
7
  10
 871.744
  20
 390.907
  30
0.0
  11
 871.861
  21
 390.940
  31
0.0
   0
LINE
   8
LEVEL001
   6
CONTINUOUS
  62
7
  10
 870.707
  20
 394.859
  30
0.0
  11
 869.651
  21
 395.002
  31
0.0
   0
LINE
   8
LEVEL001
   6
CONTINUOUS
  62
7
  10
 869.651
  20
 395.002
  30
0.0
  11
 868.519
  21
 395.108
  31
0.0
   0
LINE
   8
LEVEL001
   6
CONTINUOUS
  62
7
  10
 868.519
  20
 395.108
  30
0.0
  11
 867.330
  21
 395.174
  31
0.0
   0
LINE
   8
LEVEL001
   6
CONTINUOUS
  62
7
  10
 867.330
  20
 395.174
  30
0.0
  11
 866.103
  21
 395.200
  31
0.0
   0
LINE
   8
LEVEL001
   6
CONTINUOUS
  62
7
  10
 866.103
  20
 395.200
  30
0.0
  11
 864.857
  21
 395.186
  31
0.0
   0
LINE
   8
LEVEL001
   6
CONTINUOUS
  62
7
  10
 864.857
  20
 395.186
  30
0.0
  11
 863.611
  21
 395.131
  31
0.0
   0
LINE
   8
LEVEL001
   6
CONTINUOUS
  62
7
  10
 863.611
  20
 395.131
  30
0.0
  11
 862.384
  21
 395.037
  31
0.0
   0
LINE
   8
LEVEL001
   6
CONTINUOUS
  62
7
  10
 862.384
  20
 395.037
  30
0.0
  11
 861.196
  21
 394.904
  31
0.0
   0
LINE
   8
LEVEL001
   6
CONTINUOUS
  62
7
  10
 861.196
  20
 394.904
  30
0.0
  11
 860.066
  21
 394.736
  31
0.0
   0
LINE
   8
LEVEL001
   6
CONTINUOUS
  62
7
  10
 860.066
  20
 394.736
  30
0.0
  11
 859.010
  21
 394.534
  31
0.0
   0
LINE
   8
LEVEL001
   6
CONTINUOUS
  62
7
  10
 859.010
  20
 394.534
  30
0.0
  11
 858.902
  21
 394.510
  31
0.0
   0
LINE
   8
LEVEL050
   6
CONTINUOUS
  62
7
  10
 875.154
  20
 382.996
  30
0.0
  11
 874.948
  21
 389.990
  31
0.0
   0
LINE
   8
LEVEL001
   6
CONTINUOUS
  62
7
  10
 473.788
  20
 304.842
  30
0.0
  11
 490.280
  21
 305.329
  31
0.0
   0
LINE
   8
LEVEL001
   6
CONTINUOUS
  62
7
  10
 488.360
  20
 370.330
  30
0.0
  11
 471.868
  21
 369.843
  31
0.0
   0
ARC
   8
LEVEL001
   6
CONTINUOUS
  62
7
  10
 881.963
  20
 389.584
  30
0.0
  40
 2.00000
  50
 1.69191
  51
 90.4282
   0
LINE
   8
LEVEL001
   6
CONTINUOUS
  62
7
  10
 833.223
  20
 380.061
  30
0.0
  11
 835.161
  21
 382.163
  31
0.0
   0
LINE
   8
LEVEL001
   6
CONTINUOUS
  62
7
  10
 853.544
  20
 383.112
  30
0.0
  11
 835.161
  21
 382.163
  31
0.0
   0
LINE
   8
LEVEL003
   6
CONTINUOUS
  62
7
  10
 884.453
  20
 373.026
  30
0.0
  11
 887.651
  21
 373.121
  31
0.0
   0
ARC
   8
LEVEL001
   6
CONTINUOUS
  62
7
  10
 882.383
  20
 375.341
  30
0.0
  40
 2.00000
  50
 308.562
  51
 1.69191
   0
ARC
   8
LEVEL001
   6
CONTINUOUS
  62
7
  10
 885.500
  20
 371.432
  30
0.0
  40
 3.00000
  50
 128.562
  51
 181.692
   0
LINE
   8
LEVEL001
   6
CONTINUOUS
  62
7
  10
 884.747
  20
 363.066
  30
0.0
  11
 884.826
  21
 360.379
  31
0.0
   0
LINE
   8
LEVEL003
   6
DASHDOT
  62
1
  10
 897.294
  20
 382.910
  30
0.0
  11
 865.899
  21
 381.982
  31
0.0
   0
LINE
   8
LEVEL001
   6
CONTINUOUS
  62
7
  10
 835.115
  20
 316.000
  30
0.0
  11
 837.174
  21
 314.016
  31
0.0
   0
LINE
   8
LEVEL003
   6
CONTINUOUS
  62
7
  10
 859.356
  20
 314.182
  30
0.0
  11
 837.174
  21
 314.016
  31
0.0
   0
ARC
   8
LEVEL001
   6
CONTINUOUS
  62
7
  10
 859.415
  20
 306.182
  30
0.0
  40
 8.00000
  50
 1.69191
  51
 90.4282
   0
ARC
   8
LEVEL003
   6
CONTINUOUS
  62
7
  10
 886.755
  20
 361.589
  30
0.0
  40
 12.5359
  50
 337.827
  51
 1.69189
   0
LINE
   8
LEVEL003
   6
CONTINUOUS
  62
7
  10
 888.320
  20
 360.635
  30
0.0
  11
 888.261
  21
 362.634
  31
0.0
   0
LINE
   8
LEVEL003
   6
CONTINUOUS
  62
7
  10
 882.225
  20
 448.431
  30
0.0
  11
 882.530
  21
 438.130
  31
0.0
   0
LINE
   8
LEVEL003
   6
CONTINUOUS
  62
7
  10
 882.530
  20
 438.130
  30
0.0
  11
 885.728
  21
 438.225
  31
0.0
   0
LINE
   8
LEVEL003
   6
CONTINUOUS
  62
7
  10
 885.728
  20
 438.225
  30
0.0
  11
 885.424
  21
 448.525
  31
0.0
   0
LINE
   8
LEVEL003
   6
CONTINUOUS
  62
7
  10
 885.424
  20
 448.525
  30
0.0
  11
 882.225
  21
 448.431
  31
0.0
   0
LINE
   8
LEVEL001
   6
CONTINUOUS
  62
7
  10
 874.655
  20
 391.530
  30
0.0
  11
 881.948
  21
 391.584
  31
0.0
   0
ARC
   8
LEVEL001
   6
CONTINUOUS
  62
7
  10
 853.390
  20
 386.108
  30
0.0
  40
 3.00000
  50
 272.956
  51
 305.359
   0
ARC
   8
LEVEL011
   6
CONTINUOUS
  62
7
  10
 398.755
  20
 423.543
  30
0.0
  40
 2.00000
  50
 122.585
  51
 223.250
   0
LINE
   8
LEVEL011
   6
CONTINUOUS
  62
7
  10
 408.619
  20
 410.138
  30
0.0
  11
 397.298
  21
 422.173
  31
0.0
   0
ARC
   8
LEVEL011
   6
CONTINUOUS
  62
7
  10
 438.069
  20
 362.033
  30
0.0
  40
 75.0000
  50
 106.519
  51
 122.585
   0
LINE
   8
LEVEL011
   6
CONTINUOUS
  62
7
  10
 407.757
  20
 411.055
  30
0.0
  11
 408.843
  21
 418.950
  31
0.0
   0
LINE
   8
LEVEL011
   6
CONTINUOUS
  62
7
  10
 408.619
  20
 410.138
  30
0.0
  11
 426.375
  21
 411.351
  31
0.0
   0
ARC
   8
LEVEL011
   6
CONTINUOUS
  62
7
  10
 419.318
  20
 421.895
  30
0.0
  40
 10.0000
  50
 70.4092
  51
 150.644
   0
CIRCLE
   8
LEVEL011
   6
CONTINUOUS
  62
7
  10
 419.780
  20
 422.828
  30
0.0
  40
 4.00000
   0
ARC
   8
LEVEL011
   6
CONTINUOUS
  62
7
  10
 419.780
  20
 422.828
  30
0.0
  40
 5.00000
  50
 192.005
  51
 139.609
   0
CIRCLE
   8
LEVEL011
   6
CONTINUOUS
  62
7
  10
 419.780
  20
 422.828
  30
0.0
  40
 5.00000
   0
LINE
   8
LEVEL011
   6
DASHDOT
  62
1
  10
 420.464
  20
 412.822
  30
0.0
  11
 419.114
  21
 432.578
  31
0.0
   0
ARC
   8
LEVEL011
   6
CONTINUOUS
  62
7
  10
 414.384
  20
 419.653
  30
0.0
  40
 2.00000
  50
 93.9079
  51
 147.038
   0
ARC
   8
LEVEL011
   6
CONTINUOUS
  62
7
  10
 412.788
  20
 427.835
  30
0.0
  40
 2.00000
  50
 235.039
  51
 324.396
   0
ARC
   8
LEVEL011
   6
CONTINUOUS
  62
7
  10
 414.384
  20
 419.653
  30
0.0
  40
 3.60000
  50
 93.9079
  51
 147.038
   0
ARC
   8
LEVEL011
   6
CONTINUOUS
  62
7
  10
 412.788
  20
 427.835
  30
0.0
  40
 3.60000
  50
 235.039
  51
 324.396
   0
ARC
   8
LEVEL011
   6
CONTINUOUS
  62
7
  10
 419.780
  20
 422.828
  30
0.0
  40
 6.59982
  50
 43.4194
  51
 144.396
   0
LINE
   8
LEVEL011
   6
CONTINUOUS
  62
7
  10
 414.139
  20
 423.245
  30
0.0
  11
 414.802
  21
 423.290
  31
0.0
   0
LINE
   8
LEVEL011
   6
CONTINUOUS
  62
7
  10
 414.248
  20
 421.649
  30
0.0
  11
 414.911
  21
 421.694
  31
0.0
   0
LINE
   8
LEVEL011
   6
DASHDOT
  62
1
  10
 409.803
  20
 422.147
  30
0.0
  11
 436.289
  21
 423.956
  31
0.0
   0
ARC
   8
LEVEL011
   6
CONTINUOUS
  62
7
  10
 409.350
  20
 422.918
  30
0.0
  40
 4.00000
  50
 55.0388
  51
 327.038
   0
ARC
   8
LEVEL011
   6
CONTINUOUS
  62
7
  10
 409.350
  20
 422.918
  30
0.0
  40
 2.40000
  50
 55.0394
  51
 327.038
   0
ARC
   8
LEVEL011
   6
CONTINUOUS
  62
7
  10
 419.318
  20
 421.895
  30
0.0
  40
 10.0000
  50
 160.370
  51
 172.167
   0
LINE
   8
LEVEL011
   6
CONTINUOUS
  62
7
  10
 409.062
  20
 420.535
  30
0.0
  11
 409.436
  21
 423.259
  31
0.0
   0
ARC
   8
LEVEL011
   6
CONTINUOUS
  62
7
  10
 415.891
  20
 436.814
  30
0.0
  40
 3.00000
  50
 286.519
  51
 3.90777
   0
LINE
   8
LEVEL011
   6
CONTINUOUS
  62
7
  10
 420.683
  20
 440.030
  30
0.0
  11
 461.016
  21
 442.785
  31
0.0
   0
LINE
   8
LEVEL011
   6
CONTINUOUS
  62
7
  10
 418.796
  20
 438.297
  30
0.0
  11
 418.884
  21
 437.018
  31
0.0
   0
ARC
   8
LEVEL011
   6
CONTINUOUS
  62
7
  10
 420.819
  20
 438.035
  30
0.0
  40
 2.00000
  50
 93.9079
  51
 183.908
   0
LINE
   8
LEVEL011
   6
DASHDOT
  62
1
  10
 434.871
  20
 412.934
  30
0.0
  11
 452.948
  21
 414.169
  31
0.0
   0
LINE
   8
LEVEL011
   6
DASHDOT
  62
1
  10
 443.826
  20
 400.968
  30
0.0
  11
 442.289
  21
 423.464
  31
0.0
   0
ARC
   8
LEVEL011
   6
CONTINUOUS
  62
7
  10
 464.288
  20
 394.897
  30
0.0
  40
 48.0000
  50
 47.0510
  51
 93.9079
   0
ARC
   8
LEVEL011
   6
CONTINUOUS
  62
7
  10
 510.619
  20
 444.670
  30
0.0
  40
 20.0000
  50
 227.051
  51
 273.908
   0
LINE
   8
LEVEL011
   6
CONTINUOUS
  62
7
  10
 511.982
  20
 424.717
  30
0.0
  11
 546.358
  21
 427.065
  31
0.0
   0
ARC
   8
LEVEL011
   6
CONTINUOUS
  62
7
  10
 495.999
  20
 385.536
  30
0.0
  40
 5.00000
  50
 93.9079
  51
 183.908
   0
ARC
   8
LEVEL011
   6
CONTINUOUS
  62
7
  10
 547.356
  20
 427.133
  30
0.0
  40
 1.00000
  50
 93.9085
  51
 183.907
   0
LINE
   8
LEVEL011
   6
CONTINUOUS
  62
7
  10
 554.839
  20
 427.644
  30
0.0
  11
 553.773
  21
 428.574
  31
0.0
   0
LINE
   8
LEVEL011
   6
CONTINUOUS
  62
7
  10
 547.288
  20
 428.131
  30
0.0
  11
 553.773
  21
 428.574
  31
0.0
   0
ARC
   8
LEVEL011
   6
CONTINUOUS
  62
7
  10
 549.605
  20
 394.210
  30
0.0
  40
 1.00000
  50
 183.909
  51
 273.907
   0
LINE
   8
LEVEL011
   6
CONTINUOUS
  62
7
  10
 557.088
  20
 394.721
  30
0.0
  11
 556.158
  21
 393.655
  31
0.0
   0
LINE
   8
LEVEL011
   6
CONTINUOUS
  62
7
  10
 549.673
  20
 393.212
  30
0.0
  11
 556.158
  21
 393.655
  31
0.0
   0
LINE
   8
LEVEL011
   6
DASHDOT
  62
1
  10
 473.614
  20
 405.557
  30
0.0
  11
 555.963
  21
 411.183
  31
0.0
   0
LINE
   8
LEVEL012
   6
DASHDOT
  62
1
  10
 555.963
  20
 411.183
  30
0.0
  11
 986.689
  21
 440.606
  31
0.0
   0
LINE
   8
LEVEL012
   6
CONTINUOUS
  62
7
  10
 898.088
  20
 421.022
  30
0.0
  11
 896.248
  21
 447.959
  31
0.0
   0
LINE
   8
LEVEL012
   6
CONTINUOUS
  62
7
  10
 896.248
  20
 447.959
  30
0.0
  11
 906.293
  21
 447.643
  31
0.0
   0
LINE
   8
LEVEL012
   6
CONTINUOUS
  62
7
  10
 906.293
  20
 447.643
  30
0.0
  11
 907.997
  21
 422.701
  31
0.0
   0
LINE
   8
LEVEL012
   6
CONTINUOUS
  62
7
  10
 907.997
  20
 422.701
  30
0.0
  11
 898.088
  21
 421.022
  31
0.0
   0
LINE
   8
LEVEL012
   6
CONTINUOUS
  62
7
  10
 969.852
  20
 426.927
  30
0.0
  11
 968.149
  21
 451.869
  31
0.0
   0
LINE
   8
LEVEL012
   6
CONTINUOUS
  62
7
  10
 968.149
  20
 451.869
  30
0.0
  11
 978.057
  21
 453.548
  31
0.0
   0
LINE
   8
LEVEL012
   6
CONTINUOUS
  62
7
  10
 978.057
  20
 453.548
  30
0.0
  11
 979.897
  21
 426.611
  31
0.0
   0
LINE
   8
LEVEL012
   6
CONTINUOUS
  62
7
  10
 979.897
  20
 426.611
  30
0.0
  11
 969.852
  21
 426.927
  31
0.0
   0
ARC
   8
LEVEL012
   6
CONTINUOUS
  62
7
  10
 950.169
  20
 438.111
  30
0.0
  40
 31.8750
  50
 338.850
  51
 28.9655
   0
LINE
   8
LEVEL012
   6
CONTINUOUS
  62
3
  10
 910.002
  20
 422.684
  30
0.0
  11
 908.278
  21
 447.933
  31
0.0
   0
LINE
   8
LEVEL012
   6
CONTINUOUS
  62
3
  10
 908.278
  20
 447.933
  30
0.0
  11
 910.263
  21
 448.223
  31
0.0
   0
LINE
   8
LEVEL012
   6
CONTINUOUS
  62
3
  10
 910.263
  20
 448.223
  30
0.0
  11
 912.008
  21
 422.667
  31
0.0
   0
LINE
   8
LEVEL012
   6
CONTINUOUS
  62
3
  10
 912.008
  20
 422.667
  30
0.0
  11
 910.002
  21
 422.684
  31
0.0
   0
LINE
   8
LEVEL012
   6
CONTINUOUS
  62
3
  10
 906.395
  20
 446.142
  30
0.0
  11
 908.380
  21
 446.432
  31
0.0
   0
LINE
   8
LEVEL012
   6
CONTINUOUS
  62
3
  10
 914.014
  20
 422.650
  30
0.0
  11
 912.247
  21
 448.513
  31
0.0
   0
LINE
   8
LEVEL012
   6
CONTINUOUS
  62
3
  10
 912.247
  20
 448.513
  30
0.0
  11
 914.232
  21
 448.803
  31
0.0
   0
LINE
   8
LEVEL012
   6
CONTINUOUS
  62
3
  10
 914.232
  20
 448.803
  30
0.0
  11
 916.020
  21
 422.633
  31
0.0
   0
LINE
   8
LEVEL012
   6
CONTINUOUS
  62
3
  10
 916.020
  20
 422.633
  30
0.0
  11
 914.014
  21
 422.650
  31
0.0
   0
LINE
   8
LEVEL012
   6
CONTINUOUS
  62
3
  10
 918.026
  20
 422.616
  30
0.0
  11
 916.217
  21
 449.092
  31
0.0
   0
LINE
   8
LEVEL012
   6
CONTINUOUS
  62
3
  10
 916.217
  20
 449.092
  30
0.0
  11
 918.202
  21
 449.382
  31
0.0
   0
LINE
   8
LEVEL012
   6
CONTINUOUS
  62
3
  10
 918.202
  20
 449.382
  30
0.0
  11
 920.032
  21
 422.598
  31
0.0
   0
LINE
   8
LEVEL012
   6
CONTINUOUS
  62
3
  10
 920.032
  20
 422.598
  30
0.0
  11
 918.026
  21
 422.616
  31
0.0
   0
LINE
   8
LEVEL012
   6
CONTINUOUS
  62
3
  10
 922.037
  20
 422.581
  30
0.0
  11
 920.187
  21
 449.672
  31
0.0
   0
LINE
   8
LEVEL012
   6
CONTINUOUS
  62
3
  10
 920.187
  20
 449.672
  30
0.0
  11
 922.172
  21
 449.962
  31
0.0
   0
LINE
   8
LEVEL012
   6
CONTINUOUS
  62
3
  10
 922.172
  20
 449.962
  30
0.0
  11
 924.043
  21
 422.564
  31
0.0
   0
LINE
   8
LEVEL012
   6
CONTINUOUS
  62
3
  10
 924.043
  20
 422.564
  30
0.0
  11
 922.037
  21
 422.581
  31
0.0
   0
LINE
   8
LEVEL012
   6
CONTINUOUS
  62
3
  10
 926.049
  20
 422.547
  30
0.0
  11
 924.157
  21
 450.252
  31
0.0
   0
LINE
   8
LEVEL012
   6
CONTINUOUS
  62
3
  10
 924.157
  20
 450.252
  30
0.0
  11
 926.141
  21
 450.541
  31
0.0
   0
LINE
   8
LEVEL012
   6
CONTINUOUS
  62
3
  10
 926.141
  20
 450.541
  30
0.0
  11
 928.055
  21
 422.530
  31
0.0
   0
LINE
   8
LEVEL012
   6
CONTINUOUS
  62
3
  10
 928.055
  20
 422.530
  30
0.0
  11
 926.049
  21
 422.547
  31
0.0
   0
LINE
   8
LEVEL012
   6
CONTINUOUS
  62
3
  10
 930.061
  20
 422.512
  30
0.0
  11
 928.126
  21
 450.831
  31
0.0
   0
LINE
   8
LEVEL012
   6
CONTINUOUS
  62
3
  10
 928.126
  20
 450.831
  30
0.0
  11
 930.111
  21
 451.121
  31
0.0
   0
LINE
   8
LEVEL012
   6
CONTINUOUS
  62
3
  10
 930.111
  20
 451.121
  30
0.0
  11
 932.067
  21
 422.495
  31
0.0
   0
LINE
   8
LEVEL012
   6
CONTINUOUS
  62
3
  10
 932.067
  20
 422.495
  30
0.0
  11
 930.061
  21
 422.512
  31
0.0
   0
LINE
   8
LEVEL012
   6
CONTINUOUS
  62
3
  10
 934.072
  20
 422.478
  30
0.0
  11
 932.096
  21
 451.411
  31
0.0
   0
LINE
   8
LEVEL012
   6
CONTINUOUS
  62
3
  10
 932.096
  20
 451.411
  30
0.0
  11
 934.081
  21
 451.700
  31
0.0
   0
LINE
   8
LEVEL012
   6
CONTINUOUS
  62
3
  10
 934.081
  20
 451.700
  30
0.0
  11
 936.078
  21
 422.461
  31
0.0
   0
LINE
   8
LEVEL012
   6
CONTINUOUS
  62
3
  10
 936.078
  20
 422.461
  30
0.0
  11
 934.072
  21
 422.478
  31
0.0
   0
LINE
   8
LEVEL012
   6
CONTINUOUS
  62
3
  10
 910.365
  20
 446.722
  30
0.0
  11
 912.350
  21
 447.012
  31
0.0
   0
LINE
   8
LEVEL012
   6
CONTINUOUS
  62
3
  10
 914.335
  20
 447.302
  30
0.0
  11
 916.320
  21
 447.591
  31
0.0
   0
LINE
   8
LEVEL012
   6
CONTINUOUS
  62
3
  10
 918.305
  20
 447.881
  30
0.0
  11
 920.289
  21
 448.171
  31
0.0
   0
LINE
   8
LEVEL012
   6
CONTINUOUS
  62
3
  10
 907.894
  20
 424.202
  30
0.0
  11
 909.900
  21
 424.185
  31
0.0
   0
LINE
   8
LEVEL012
   6
CONTINUOUS
  62
3
  10
 911.906
  20
 424.168
  30
0.0
  11
 913.912
  21
 424.151
  31
0.0
   0
LINE
   8
LEVEL012
   6
CONTINUOUS
  62
3
  10
 915.917
  20
 424.134
  30
0.0
  11
 917.923
  21
 424.117
  31
0.0
   0
LINE
   8
LEVEL012
   6
CONTINUOUS
  62
3
  10
 919.929
  20
 424.099
  30
0.0
  11
 921.935
  21
 424.082
  31
0.0
   0
LINE
   8
LEVEL012
   6
CONTINUOUS
  62
3
  10
 923.941
  20
 424.065
  30
0.0
  11
 925.947
  21
 424.048
  31
0.0
   0
LINE
   8
LEVEL012
   6
CONTINUOUS
  62
3
  10
 927.952
  20
 424.031
  30
0.0
  11
 929.958
  21
 424.013
  31
0.0
   0
LINE
   8
LEVEL012
   6
CONTINUOUS
  62
3
  10
 931.964
  20
 423.996
  30
0.0
  11
 933.970
  21
 423.979
  31
0.0
   0
LINE
   8
LEVEL012
   6
CONTINUOUS
  62
3
  10
 946.047
  20
 423.262
  30
0.0
  11
 944.066
  21
 452.262
  31
0.0
   0
LINE
   8
LEVEL012
   6
CONTINUOUS
  62
3
  10
 944.066
  20
 452.262
  30
0.0
  11
 946.073
  21
 452.229
  31
0.0
   0
LINE
   8
LEVEL012
   6
CONTINUOUS
  62
3
  10
 946.073
  20
 452.229
  30
0.0
  11
 948.031
  21
 423.568
  31
0.0
   0
LINE
   8
LEVEL012
   6
CONTINUOUS
  62
3
  10
 948.031
  20
 423.568
  30
0.0
  11
 946.047
  21
 423.262
  31
0.0
   0
LINE
   8
LEVEL012
   6
CONTINUOUS
  62
3
  10
 950.014
  20
 423.873
  30
0.0
  11
 948.080
  21
 452.197
  31
0.0
   0
LINE
   8
LEVEL012
   6
CONTINUOUS
  62
3
  10
 948.080
  20
 452.197
  30
0.0
  11
 950.087
  21
 452.164
  31
0.0
   0
LINE
   8
LEVEL012
   6
CONTINUOUS
  62
3
  10
 950.087
  20
 452.164
  30
0.0
  11
 951.998
  21
 424.178
  31
0.0
   0
LINE
   8
LEVEL012
   6
CONTINUOUS
  62
3
  10
 951.998
  20
 424.178
  30
0.0
  11
 950.014
  21
 423.873
  31
0.0
   0
LINE
   8
LEVEL012
   6
CONTINUOUS
  62
3
  10
 953.982
  20
 424.484
  30
0.0
  11
 952.093
  21
 452.131
  31
0.0
   0
LINE
   8
LEVEL012
   6
CONTINUOUS
  62
3
  10
 952.093
  20
 452.131
  30
0.0
  11
 954.100
  21
 452.098
  31
0.0
   0
LINE
   8
LEVEL012
   6
CONTINUOUS
  62
3
  10
 954.100
  20
 452.098
  30
0.0
  11
 955.966
  21
 424.789
  31
0.0
   0
LINE
   8
LEVEL012
   6
CONTINUOUS
  62
3
  10
 955.966
  20
 424.789
  30
0.0
  11
 953.982
  21
 424.484
  31
0.0
   0
LINE
   8
LEVEL012
   6
CONTINUOUS
  62
3
  10
 957.950
  20
 425.095
  30
0.0
  11
 956.107
  21
 452.066
  31
0.0
   0
LINE
   8
LEVEL012
   6
CONTINUOUS
  62
3
  10
 956.107
  20
 452.066
  30
0.0
  11
 958.114
  21
 452.033
  31
0.0
   0
LINE
   8
LEVEL012
   6
CONTINUOUS
  62
3
  10
 958.114
  20
 452.033
  30
0.0
  11
 959.933
  21
 425.400
  31
0.0
   0
LINE
   8
LEVEL012
   6
CONTINUOUS
  62
3
  10
 959.933
  20
 425.400
  30
0.0
  11
 957.950
  21
 425.095
  31
0.0
   0
LINE
   8
LEVEL012
   6
CONTINUOUS
  62
3
  10
 961.917
  20
 425.705
  30
0.0
  11
 960.121
  21
 452.000
  31
0.0
   0
LINE
   8
LEVEL012
   6
CONTINUOUS
  62
3
  10
 960.121
  20
 452.000
  30
0.0
  11
 962.128
  21
 451.967
  31
0.0
   0
LINE
   8
LEVEL012
   6
CONTINUOUS
  62
3
  10
 962.128
  20
 451.967
  30
0.0
  11
 963.901
  21
 426.011
  31
0.0
   0
LINE
   8
LEVEL012
   6
CONTINUOUS
  62
3
  10
 963.901
  20
 426.011
  30
0.0
  11
 961.917
  21
 425.705
  31
0.0
   0
LINE
   8
LEVEL012
   6
CONTINUOUS
  62
3
  10
 965.885
  20
 426.316
  30
0.0
  11
 964.135
  21
 451.934
  31
0.0
   0
LINE
   8
LEVEL012
   6
CONTINUOUS
  62
3
  10
 964.135
  20
 451.934
  30
0.0
  11
 966.142
  21
 451.902
  31
0.0
   0
LINE
   8
LEVEL012
   6
CONTINUOUS
  62
3
  10
 966.142
  20
 451.902
  30
0.0
  11
 967.869
  21
 426.622
  31
0.0
   0
LINE
   8
LEVEL012
   6
CONTINUOUS
  62
3
  10
 967.869
  20
 426.622
  30
0.0
  11
 965.885
  21
 426.316
  31
0.0
   0
LINE
   8
LEVEL012
   6
CONTINUOUS
  62
3
  10
 955.863
  20
 426.291
  30
0.0
  11
 957.847
  21
 426.596
  31
0.0
   0
LINE
   8
LEVEL012
   6
CONTINUOUS
  62
3
  10
 959.831
  20
 426.902
  30
0.0
  11
 961.815
  21
 427.207
  31
0.0
   0
LINE
   8
LEVEL012
   6
CONTINUOUS
  62
3
  10
 963.798
  20
 427.513
  30
0.0
  11
 965.782
  21
 427.818
  31
0.0
   0
LINE
   8
LEVEL012
   6
CONTINUOUS
  62
3
  10
 967.766
  20
 428.123
  30
0.0
  11
 969.750
  21
 428.429
  31
0.0
   0
LINE
   8
LEVEL012
   6
CONTINUOUS
  62
3
  10
 935.976
  20
 423.962
  30
0.0
  11
 937.982
  21
 423.945
  31
0.0
   0
LINE
   8
LEVEL012
   6
CONTINUOUS
  62
3
  10
 939.993
  20
 423.848
  30
0.0
  11
 941.977
  21
 424.153
  31
0.0
   0
LINE
   8
LEVEL012
   6
CONTINUOUS
  62
3
  10
 943.960
  20
 424.459
  30
0.0
  11
 945.944
  21
 424.764
  31
0.0
   0
LINE
   8
LEVEL012
   6
CONTINUOUS
  62
3
  10
 947.928
  20
 425.069
  30
0.0
  11
 949.912
  21
 425.375
  31
0.0
   0
LINE
   8
LEVEL012
   6
CONTINUOUS
  62
3
  10
 951.896
  20
 425.680
  30
0.0
  11
 953.879
  21
 425.986
  31
0.0
   0
LINE
   8
LEVEL012
   6
CONTINUOUS
  62
3
  10
 937.075
  20
 437.217
  30
0.0
  11
 936.066
  21
 451.990
  31
0.0
   0
LINE
   8
LEVEL012
   6
CONTINUOUS
  62
3
  10
 936.066
  20
 451.990
  30
0.0
  11
 938.051
  21
 452.280
  31
0.0
   0
LINE
   8
LEVEL012
   6
CONTINUOUS
  62
3
  10
 938.051
  20
 452.280
  30
0.0
  11
 939.070
  21
 437.353
  31
0.0
   0
LINE
   8
LEVEL012
   6
CONTINUOUS
  62
3
  10
 941.066
  20
 437.490
  30
0.0
  11
 940.052
  21
 452.328
  31
0.0
   0
LINE
   8
LEVEL012
   6
CONTINUOUS
  62
3
  10
 940.052
  20
 452.328
  30
0.0
  11
 942.059
  21
 452.295
  31
0.0
   0
LINE
   8
LEVEL012
   6
CONTINUOUS
  62
3
  10
 942.059
  20
 452.295
  30
0.0
  11
 943.061
  21
 437.626
  31
0.0
   0
LINE
   8
LEVEL012
   6
CONTINUOUS
  62
3
  10
 937.075
  20
 437.217
  30
0.0
  11
 938.084
  21
 422.444
  31
0.0
   0
LINE
   8
LEVEL012
   6
CONTINUOUS
  62
3
  10
 938.084
  20
 422.444
  30
0.0
  11
 940.090
  21
 422.427
  31
0.0
   0
LINE
   8
LEVEL012
   6
CONTINUOUS
  62
3
  10
 940.090
  20
 422.427
  30
0.0
  11
 939.070
  21
 437.353
  31
0.0
   0
LINE
   8
LEVEL012
   6
CONTINUOUS
  62
3
  10
 941.066
  20
 437.490
  30
0.0
  11
 942.079
  21
 422.651
  31
0.0
   0
LINE
   8
LEVEL012
   6
CONTINUOUS
  62
3
  10
 942.079
  20
 422.651
  30
0.0
  11
 944.063
  21
 422.957
  31
0.0
   0
LINE
   8
LEVEL012
   6
CONTINUOUS
  62
3
  10
 944.063
  20
 422.957
  30
0.0
  11
 943.061
  21
 437.626
  31
0.0
   0
LINE
   8
LEVEL012
   6
CONTINUOUS
  62
3
  10
 922.274
  20
 448.461
  30
0.0
  11
 924.259
  21
 448.751
  31
0.0
   0
LINE
   8
LEVEL012
   6
CONTINUOUS
  62
3
  10
 926.244
  20
 449.040
  30
0.0
  11
 928.229
  21
 449.330
  31
0.0
   0
LINE
   8
LEVEL012
   6
CONTINUOUS
  62
3
  10
 930.214
  20
 449.620
  30
0.0
  11
 932.199
  21
 449.910
  31
0.0
   0
LINE
   8
LEVEL012
   6
CONTINUOUS
  62
3
  10
 934.183
  20
 450.200
  30
0.0
  11
 936.168
  21
 450.489
  31
0.0
   0
LINE
   8
LEVEL012
   6
CONTINUOUS
  62
3
  10
 938.148
  20
 450.859
  30
0.0
  11
 940.155
  21
 450.826
  31
0.0
   0
LINE
   8
LEVEL012
   6
CONTINUOUS
  62
3
  10
 942.162
  20
 450.793
  30
0.0
  11
 944.168
  21
 450.760
  31
0.0
   0
LINE
   8
LEVEL012
   6
CONTINUOUS
  62
3
  10
 946.175
  20
 450.728
  30
0.0
  11
 948.182
  21
 450.695
  31
0.0
   0
LINE
   8
LEVEL012
   6
CONTINUOUS
  62
3
  10
 950.189
  20
 450.662
  30
0.0
  11
 952.196
  21
 450.629
  31
0.0
   0
LINE
   8
LEVEL012
   6
CONTINUOUS
  62
3
  10
 954.203
  20
 450.596
  30
0.0
  11
 956.210
  21
 450.564
  31
0.0
   0
LINE
   8
LEVEL012
   6
CONTINUOUS
  62
3
  10
 958.217
  20
 450.531
  30
0.0
  11
 960.224
  21
 450.498
  31
0.0
   0
LINE
   8
LEVEL012
   6
CONTINUOUS
  62
3
  10
 962.231
  20
 450.465
  30
0.0
  11
 964.237
  21
 450.433
  31
0.0
   0
LINE
   8
LEVEL012
   6
CONTINUOUS
  62
3
  10
 966.244
  20
 450.400
  30
0.0
  11
 968.251
  21
 450.367
  31
0.0
   0
LINE
   8
LEVEL012
   6
CONTINUOUS
  62
7
  10
 873.208
  20
 422.079
  30
0.0
  11
 871.743
  21
 443.529
  31
0.0
   0
LINE
   8
LEVEL012
   6
CONTINUOUS
  62
7
  10
 875.764
  20
 425.010
  30
0.0
  11
 874.674
  21
 440.973
  31
0.0
   0
LINE
   8
LEVEL012
   6
CONTINUOUS
  62
7
  10
 555.226
  20
 421.907
  30
0.0
  11
 871.743
  21
 443.529
  31
0.0
   0
LINE
   8
LEVEL012
   6
CONTINUOUS
  62
7
  10
 556.700
  20
 400.458
  30
0.0
  11
 873.208
  21
 422.079
  31
0.0
   0
ARC
   8
LEVEL011
   6
CONTINUOUS
  62
7
  10
 427.056
  20
 401.374
  30
0.0
  40
 10.0000
  50
 37.2749
  51
 93.9079
   0
LINE
   8
LEVEL011
   6
CONTINUOUS
  62
7
  10
 431.402
  20
 429.295
  30
0.0
  11
 428.688
  21
 426.315
  31
0.0
   0
LINE
   8
LEVEL011
   6
CONTINUOUS
  62
7
  10
 430.219
  20
 430.372
  30
0.0
  11
 431.402
  21
 429.295
  31
0.0
   0
LINE
   8
LEVEL011
   6
CONTINUOUS
  62
7
  10
 430.219
  20
 430.372
  30
0.0
  11
 427.505
  21
 427.393
  31
0.0
   0
LINE
   8
LEVEL011
   6
CONTINUOUS
  62
7
  10
 432.995
  20
 424.533
  30
0.0
  11
 433.104
  21
 422.937
  31
0.0
   0
ARC
   8
LEVEL011
   6
CONTINUOUS
  62
7
  10
 426.027
  20
 428.739
  30
0.0
  40
 2.00000
  50
 223.419
  51
 317.670
   0
ARC
   8
LEVEL011
   6
CONTINUOUS
  62
7
  10
 426.027
  20
 428.739
  30
0.0
  40
 3.60000
  50
 223.420
  51
 317.668
   0
LINE
   8
LEVEL011
   6
CONTINUOUS
  62
7
  10
 424.650
  20
 423.963
  30
0.0
  11
 432.995
  21
 424.533
  31
0.0
   0
LINE
   8
LEVEL011
   6
CONTINUOUS
  62
7
  10
 424.759
  20
 422.367
  30
0.0
  11
 433.104
  21
 422.937
  31
0.0
   0
LINE
   8
LEVEL011
   6
CONTINUOUS
  62
7
  10
 422.696
  20
 431.318
  30
0.0
  11
 429.028
  21
 429.064
  31
0.0
   0
LINE
   8
LEVEL011
   6
CONTINUOUS
  62
7
  10
 430.662
  20
 428.482
  30
0.0
  11
 446.324
  21
 422.908
  31
0.0
   0
LINE
   8
LEVEL011
   6
CONTINUOUS
  62
7
  10
 443.653
  20
 403.510
  30
0.0
  11
 463.606
  21
 404.874
  31
0.0
   0
ARC
   8
LEVEL011
   6
CONTINUOUS
  62
7
  10
 442.971
  20
 413.487
  30
0.0
  40
 10.0000
  50
 217.275
  51
 273.908
   0
CIRCLE
   8
LEVEL001
   6
CONTINUOUS
  62
7
  10
 442.971
  20
 413.487
  30
0.0
  40
 5.00000
   0
ARC
   8
LEVEL011
   6
CONTINUOUS
  62
7
  10
 442.971
  20
 413.487
  30
0.0
  40
 10.0000
  50
 9.36053
  51
 70.4093
   0
LINE
   8
LEVEL011
   6
CONTINUOUS
  62
7
  10
 454.627
  20
 404.260
  30
0.0
  11
 452.838
  21
 415.114
  31
0.0
   0
LINE
   8
LEVEL011
   6
DASHDOT
  62
1
  10
 482.434
  20
 393.370
  30
0.0
  11
 484.171
  21
 367.934
  31
0.0
   0
ARC
   8
LEVEL011
   6
CONTINUOUS
  62
7
  10
 476.618
  20
 375.794
  30
0.0
  40
 3.00000
  50
 3.90799
  51
 82.3707
   0
ARC
   8
LEVEL011
   6
CONTINUOUS
  62
7
  10
 490.588
  20
 376.718
  30
0.0
  40
 3.00000
  50
 103.549
  51
 183.908
   0
ARC
   8
LEVEL011
   6
CONTINUOUS
  62
7
  10
 489.416
  20
 381.578
  30
0.0
  40
 2.00000
  50
 283.549
  51
 351.534
   0
LINE
   8
LEVEL011
   6
CONTINUOUS
  62
7
  10
 491.279
  20
 381.276
  30
0.0
  11
 491.011
  21
 385.195
  31
0.0
   0
ARC
   8
LEVEL011
   6
CONTINUOUS
  62
7
  10
 477.282
  20
 380.749
  30
0.0
  40
 2.00000
  50
 183.908
  51
 262.371
   0
LINE
   8
LEVEL011
   6
CONTINUOUS
  62
7
  10
 475.287
  20
 380.613
  30
0.0
  11
 474.264
  21
 395.578
  31
0.0
   0
LINE
   8
LEVEL012
   6
CONTINUOUS
  62
7
  10
 873.208
  20
 422.079
  30
0.0
  11
 875.764
  21
 425.010
  31
0.0
   0
LINE
   8
LEVEL012
   6
CONTINUOUS
  62
7
  10
 875.764
  20
 425.010
  30
0.0
  11
 897.713
  21
 426.509
  31
0.0
   0
LINE
   8
LEVEL001
   6
CONTINUOUS
  62
7
  10
 462.471
  20
 400.079
  30
0.0
  11
 424.487
  21
 398.957
  31
0.0
   0
LINE
   8
LEVEL012
   6
CONTINUOUS
  62
7
  10
 885.625
  20
 441.721
  30
0.0
  11
 896.623
  21
 442.472
  31
0.0
   0
LINE
   8
LEVEL012
   6
CONTINUOUS
  62
7
  10
 871.743
  20
 443.529
  30
0.0
  11
 874.674
  21
 440.973
  31
0.0
   0
LINE
   8
LEVEL012
   6
CONTINUOUS
  62
7
  10
 874.674
  20
 440.973
  30
0.0
  11
 882.430
  21
 441.503
  31
0.0
   0
LINE
   8
LEVEL003
   6
CONTINUOUS
  62
7
  10
 886.098
  20
 425.716
  30
0.0
  11
 887.651
  21
 373.121
  31
0.0
   0
LINE
   8
LEVEL001
   6
CONTINUOUS
  62
7
  10
 882.903
  20
 425.498
  30
0.0
  11
 884.453
  21
 373.026
  31
0.0
   0
ARC
   8
LEVEL011
   6
CONTINUOUS
  62
7
  10
 486.933
  20
 371.520
  30
0.0
  40
 1.00000
  50
 273.909
  51
 3.90736
   0
ARC
   8
LEVEL011
   6
CONTINUOUS
  62
7
  10
 480.947
  20
 371.111
  30
0.0
  40
 1.00000
  50
 183.908
  51
 273.908
   0
LINE
   8
LEVEL011
   6
CONTINUOUS
  62
7
  10
 481.016
  20
 370.113
  30
0.0
  11
 487.002
  21
 370.522
  31
0.0
   0
LINE
   8
LEVEL011
   6
CONTINUOUS
  62
7
  10
 479.950
  20
 371.043
  30
0.0
  11
 479.611
  21
 375.998
  31
0.0
   0
LINE
   8
LEVEL011
   6
CONTINUOUS
  62
7
  10
 487.931
  20
 371.588
  30
0.0
  11
 487.595
  21
 376.513
  31
0.0
   0
LINE
   8
LEVEL003
   6
CONTINUOUS
  62
7
  10
 826.015
  20
 319.248
  30
0.0
  11
 824.332
  21
 376.223
  31
0.0
   0
LINE
   8
LEVEL001
   6
CONTINUOUS
  62
7
  10
 826.000
  20
 319.747
  30
0.0
  11
 834.996
  21
 320.013
  31
0.0
   0
LINE
   8
LEVEL001
   6
CONTINUOUS
  62
7
  10
 824.347
  20
 375.723
  30
0.0
  11
 833.343
  21
 375.989
  31
0.0
   0
LINE
   8
LEVEL001
   6
CONTINUOUS
  62
7
  10
 833.223
  20
 380.061
  30
0.0
  11
 834.169
  21
 348.031
  31
0.0
   0
ARC
   8
LEVEL003
   6
CONTINUOUS
  62
7
  10
 849.770
  20
 378.715
  30
0.0
  40
 3.00000
  50
 1.69191
  51
 91.6919
   0
LINE
   8
LEVEL001
   6
CONTINUOUS
  62
7
  10
 852.765
  20
 378.897
  30
0.0
  11
 853.912
  21
 340.080
  31
0.0
   0
LINE
   8
LEVEL001
   6
CONTINUOUS
  62
7
  10
 835.115
  20
 316.000
  30
0.0
  11
 834.169
  21
 348.031
  31
0.0
   0
LINE
   8
LEVEL001
   6
CONTINUOUS
  62
7
  10
 835.161
  20
 382.163
  30
0.0
  11
 837.174
  21
 314.016
  31
0.0
   0
ARC
   8
LEVEL001
   6
CONTINUOUS
  62
7
  10
 866.407
  20
 340.450
  30
0.0
  40
 12.5000
  50
 181.692
  51
 1.52294
   0
LINE
   8
LEVEL001
   6
CONTINUOUS
  62
7
  10
 877.726
  20
 380.613
  30
0.0
  11
 878.901
  21
 340.819
  31
0.0
   0
LINE
   8
LEVEL001
   6
CONTINUOUS
  62
7
  10
 882.501
  20
 371.343
  30
0.0
  11
 883.652
  21
 332.403
  31
0.0
   0
LINE
   8
LEVEL003
   6
CONTINUOUS
  62
7
  10
 885.146
  20
 349.536
  30
0.0
  11
 885.567
  21
 335.289
  31
0.0
   0
LINE
   8
LEVEL003
   6
CONTINUOUS
  62
7
  10
 884.748
  20
 363.037
  30
0.0
  11
 885.146
  21
 349.536
  31
0.0
   0
LINE
   8
LEVEL003
   6
CONTINUOUS
  62
7
  10
 884.822
  20
 360.532
  30
0.0
  11
 888.320
  21
 360.635
  31
0.0
   0
LINE
   8
LEVEL003
   6
CONTINUOUS
  62
7
  10
 885.471
  20
 338.541
  30
0.0
  11
 888.970
  21
 338.644
  31
0.0
   0
LINE
   8
LEVEL003
   6
CONTINUOUS
  62
7
  10
 888.236
  20
 363.490
  30
0.0
  11
 898.160
  21
 363.783
  31
0.0
   0
LINE
   8
LEVEL003
   6
CONTINUOUS
  62
7
  10
 898.160
  20
 363.783
  30
0.0
  11
 899.286
  21
 361.959
  31
0.0
   0
LINE
   8
LEVEL003
   6
CONTINUOUS
  62
7
  10
 899.286
  20
 361.959
  30
0.0
  11
 899.994
  21
 337.970
  31
0.0
   0
LINE
   8
LEVEL003
   6
CONTINUOUS
  62
7
  10
 899.994
  20
 337.970
  30
0.0
  11
 898.978
  21
 336.082
  31
0.0
   0
LINE
   8
LEVEL003
   6
CONTINUOUS
  62
7
  10
 898.978
  20
 336.082
  30
0.0
  11
 889.054
  21
 335.789
  31
0.0
   0
LINE
   8
LEVEL003
   6
CONTINUOUS
  62
7
  10
 889.054
  20
 335.789
  30
0.0
  11
 888.645
  21
 349.640
  31
0.0
   0
LINE
   8
LEVEL003
   6
CONTINUOUS
  62
7
  10
 888.645
  20
 349.640
  30
0.0
  11
 888.236
  21
 363.490
  31
0.0
   0
LINE
   8
LEVEL003
   6
CONTINUOUS
  62
7
  10
 888.440
  20
 356.565
  30
0.0
  11
 898.364
  21
 356.858
  31
0.0
   0
LINE
   8
LEVEL003
   6
CONTINUOUS
  62
7
  10
 888.850
  20
 342.714
  30
0.0
  11
 898.773
  21
 343.008
  31
0.0
   0
ARC
   8
LEVEL003
   6
CONTINUOUS
  62
7
  10
 887.464
  20
 337.600
  30
0.0
  40
 12.5359
  50
 1.69193
  51
 25.5568
   0
ARC
   8
LEVEL003
   6
CONTINUOUS
  62
7
  10
 876.722
  20
 349.287
  30
0.0
  40
 22.9282
  50
 344.104
  51
 19.2799
   0
ARC
   8
LEVEL011
   6
CONTINUOUS
  62
7
  10
 510.177
  20
 422.589
  30
0.0
  40
 2.00000
  50
 5.90794
  51
 93.9079
   0
ARC
   8
LEVEL011
   6
CONTINUOUS
  62
7
  10
 516.043
  20
 414.470
  30
0.0
  40
 3.00000
  50
 185.908
  51
 273.908
   0
LINE
   8
LEVEL011
   6
CONTINUOUS
  62
7
  10
 512.166
  20
 422.794
  30
0.0
  11
 513.059
  21
 414.161
  31
0.0
   0
ARC
   8
LEVEL011
   6
CONTINUOUS
  62
7
  10
 516.861
  20
 402.497
  30
0.0
  40
 3.00000
  50
 93.9079
  51
 181.908
   0
ARC
   8
LEVEL011
   6
CONTINUOUS
  62
7
  10
 512.153
  20
 393.656
  30
0.0
  40
 2.00000
  50
 273.908
  51
 1.90794
   0
LINE
   8
LEVEL011
   6
CONTINUOUS
  62
7
  10
 513.863
  20
 402.398
  30
0.0
  11
 514.152
  21
 393.723
  31
0.0
   0
LINE
   8
LEVEL011
   6
CONTINUOUS
  62
7
  10
 554.839
  20
 427.644
  30
0.0
  11
 557.088
  21
 394.721
  31
0.0
   0
LINE
   8
LEVEL011
   6
CONTINUOUS
  62
7
  10
 553.773
  20
 428.574
  30
0.0
  11
 556.158
  21
 393.655
  31
0.0
   0
LINE
   8
LEVEL011
   6
CONTINUOUS
  62
7
  10
 546.358
  20
 427.065
  30
0.0
  11
 548.607
  21
 394.142
  31
0.0
   0
LINE
   8
LEVEL011
   6
CONTINUOUS
  62
7
  10
 477.418
  20
 378.754
  30
0.0
  11
 489.553
  21
 379.583
  31
0.0
   0
LINE
   8
LEVEL001
   6
CONTINUOUS
  62
7
  10
 488.360
  20
 370.301
  30
0.0
  11
 489.390
  21
 369.331
  31
0.0
   0
LINE
   8
LEVEL001
   6
CONTINUOUS
  62
7
  10
 489.390
  20
 369.331
  30
0.0
  11
 491.250
  21
 306.358
  31
0.0
   0
LINE
   8
LEVEL001
   6
CONTINUOUS
  62
7
  10
 489.493
  20
 365.832
  30
0.0
  11
 498.489
  21
 366.098
  31
0.0
   0
ARC
   8
LEVEL003
   6
CONTINUOUS
  62
7
  10
 458.570
  20
 328.933
  30
0.0
  40
 7.00000
  50
 271.692
  51
 91.6920
   0
LINE
   8
LEVEL001
   6
CONTINUOUS
  62
7
  10
 491.145
  20
 309.916
  30
0.0
  11
 500.141
  21
 310.181
  31
0.0
   0
LINE
   8
LEVEL003
   6
CONTINUOUS
  62
7
  10
 500.157
  20
 309.623
  30
0.0
  11
 498.474
  21
 366.598
  31
0.0
   0
LINE
   8
LEVEL003
   6
CONTINUOUS
  62
7
  10
 469.519
  20
 364.706
  30
0.0
  11
 469.709
  21
 358.269
  31
0.0
   0
LINE
   8
LEVEL003
   6
CONTINUOUS
  62
7
  10
 470.122
  20
 344.256
  30
0.0
  11
 471.255
  21
 305.798
  31
0.0
   0
ARC
   8
LEVEL003
   6
CONTINUOUS
  62
7
  10
 472.708
  20
 358.357
  30
0.0
  40
 3.00000
  50
 181.688
  51
 262.094
   0
ARC
   8
LEVEL003
   6
CONTINUOUS
  62
7
  10
 473.121
  20
 344.344
  30
0.0
  40
 3.00000
  50
 101.282
  51
 181.688
   0
LINE
   8
LEVEL001
   6
CONTINUOUS
  62
7
  10
 488.362
  20
 370.330
  30
0.0
  11
 490.277
  21
 305.359
  31
0.0
   0
LINE
   8
LEVEL001
   6
CONTINUOUS
  62
7
  10
 473.785
  20
 304.842
  30
0.0
  11
 471.790
  21
 372.530
  31
0.0
   0
POINT
   8
LEVEL001
  62
7
  10
 427.410
  20
 300.000
  30
0.0
   0
LINE
   8
LEVEL011
   6
CONTINUOUS
  62
7
  10
 484.376
  20
 389.754
  30
0.0
  11
 548.607
  21
 394.142
  31
0.0
   0
ARC
   8
LEVEL011
   6
CONTINUOUS
  62
7
  10
 464.288
  20
 394.897
  30
0.0
  40
 10.0000
  50
 3.90769
  51
 93.9079
   0
ARC
   8
LEVEL011
   6
CONTINUOUS
  62
7
  10
 483.695
  20
 399.731
  30
0.0
  40
 10.0000
  50
 217.097
  51
 273.908
   0
LINE
   8
LEVEL001
   6
DASHDOT
  62
1
  10
 460.333
  20
 336.988
  30
0.0
  11
 662.860
  21
 342.970
  31
0.0
   0
LINE
   8
LEVEL001
   6
DASHDOT
  62
1
  10
 688.256
  20
 343.721
  30
0.0
  11
 906.632
  21
 350.171
  31
0.0
   0
LINE
   8
LEVEL011
   6
CONTINUOUS
  62
7
  10
 535.951
  20
 500.098
  30
0.0
  11
 536.047
  21
 498.687
  31
0.0
   0
ARC
   8
LEVEL011
   6
DASHDOT
  62
1
  10
 492.963
  20
 485.040
  30
0.0
  40
 3.00000
  50
 230.908
  51
 318.908
   0
ARC
   8
LEVEL011
   6
DASHDOT
  62
1
  10
 506.150
  20
 516.136
  30
0.0
  40
 1.00000
  50
 138.908
  51
 228.907
   0
ARC
   8
LEVEL011
   6
DASHDOT
  62
1
  10
 531.021
  20
 494.446
  30
0.0
  40
 1.00000
  50
 228.909
  51
 318.907
   0
ARC
   8
LEVEL011
   6
DASHDOT
  62
1
  10
 467.773
  20
 502.559
  30
0.0
  40
 20.0000
  50
 272.051
  51
 318.908
   0
ARC
   8
LEVEL011
   6
DASHDOT
  62
1
  10
 483.074
  20
 486.632
  30
0.0
  40
 2.00000
  50
 50.9079
  51
 138.908
   0
LINE
   8
LEVEL011
   6
DASHDOT
  62
1
  10
 511.080
  20
 521.788
  30
0.0
  11
 509.669
  21
 521.692
  31
0.0
   0
LINE
   8
LEVEL011
   6
DASHDOT
  62
1
  10
 505.397
  20
 516.793
  30
0.0
  11
 509.669
  21
 521.692
  31
0.0
   0
LINE
   8
LEVEL011
   6
DASHDOT
  62
1
  10
 511.080
  20
 521.788
  30
0.0
  11
 535.951
  21
 500.098
  31
0.0
   0
LINE
   8
LEVEL011
   6
DASHDOT
  62
1
  10
 509.669
  20
 521.692
  30
0.0
  11
 536.047
  21
 498.687
  31
0.0
   0
LINE
   8
LEVEL011
   6
DASHDOT
  62
1
  10
 505.493
  20
 515.382
  30
0.0
  11
 530.364
  21
 493.692
  31
0.0
   0
LINE
   8
LEVEL011
   6
DASHDOT
  62
1
  10
 531.775
  20
 493.788
  30
0.0
  11
 536.047
  21
 498.687
  31
0.0
   0
LINE
   8
LEVEL011
   6
DASHDOT
  62
1
  10
 482.846
  20
 489.414
  30
0.0
  11
 505.493
  21
 515.382
  31
0.0
   0
LINE
   8
LEVEL011
   6
DASHDOT
  62
1
  10
 484.335
  20
 488.185
  30
0.0
  11
 491.072
  21
 482.711
  31
0.0
   0
ARC
   8
LEVEL011
   6
DASHDOT
  62
1
  10
 504.930
  20
 467.571
  30
0.0
  40
 2.00000
  50
 318.908
  51
 46.9079
   0
ARC
   8
LEVEL011
   6
DASHDOT
  62
1
  10
 502.007
  20
 477.152
  30
0.0
  40
 3.00000
  50
 138.908
  51
 226.908
   0
LINE
   8
LEVEL011
   6
DASHDOT
  62
1
  10
 499.958
  20
 474.962
  30
0.0
  11
 506.296
  21
 469.032
  31
0.0
   0
LINE
   8
LEVEL011
   6
DASHDOT
  62
1
  10
 488.048
  20
 445.171
  30
0.0
  11
 530.364
  21
 493.692
  31
0.0
   0
LINE
   8
LEVEL011
   6
DASHDOT
  62
1
  10
 469.263
  20
 448.736
  30
0.0
  11
 523.515
  21
 510.943
  31
0.0
   0
ARC
   8
LEVEL011
   6
DASHDOT
  62
1
  10
 470.207
  20
 434.603
  30
0.0
  40
 48.0000
  50
 92.0510
  51
 138.908
   0
LINE
   8
LEVEL011
   6
DASHDOT
  62
1
  10
 407.459
  20
 435.683
  30
0.0
  11
 434.031
  21
 466.152
  31
0.0
   0
ARC
   8
LEVEL003
   6
CONTINUOUS
  62
3
  10
 428.946
  20
 402.506
  30
0.0
  40
 171.922
  50
 3.90791
  51
 48.9079
   0
LINE
   8
LEVEL003
   6
CONTINUOUS
  62
3
  10
 600.468
  20
 414.223
  30
0.0
  11
 601.479
  21
 426.366
  31
0.0
   0
LINE
   8
LEVEL003
   6
CONTINUOUS
  62
3
  10
 600.468
  20
 414.223
  30
0.0
  11
 597.264
  21
 425.979
  31
0.0
   0
LINE
   8
LEVEL003
   6
CONTINUOUS
  62
3
  10
 541.945
  20
 532.075
  30
0.0
  11
 549.375
  21
 522.418
  31
0.0
   0
LINE
   8
LEVEL003
   6
CONTINUOUS
  62
3
  10
 541.945
  20
 532.075
  30
0.0
  11
 552.230
  21
 525.542
  31
0.0
   0
TEXT
   8
LEVEL003
  62
3
  10
 535.364
  20
 453.046
  30
0.0
  40
 16.0000
   1
約45%%d
   7
STANDARD
  72
2
  11
 583.364
  21
 463.713
  31
0.0
  73
2
   0
LINE
   8
LEVEL012
   6
DASHDOT
  62
1
  10
 515.411
  20
 518.006
  30
0.0
  11
 548.347
  21
 555.771
  31
0.0
   0
LINE
   8
LEVEL012
   6
DASHDOT
  62
1
  10
 523.515
  20
 510.943
  30
0.0
  11
 556.449
  21
 548.706
  31
0.0
   0
LINE
   8
LEVEL012
   6
DASHDOT
  62
1
  10
 531.620
  20
 503.881
  30
0.0
  11
 564.550
  21
 541.640
  31
0.0
   0
LINE
   8
LEVEL003
   6
CONTINUOUS
  62
3
  10
 885.424
  20
 448.525
  30
0.0
  11
 909.150
  21
 499.116
  31
0.0
   0
LINE
   8
LEVEL003
   6
CONTINUOUS
  62
3
  10
 909.150
  20
 499.116
  30
0.0
  11
 965.945
  21
 499.116
  31
0.0
   0
LINE
   8
LEVEL003
   6
CONTINUOUS
  62
3
  10
 885.424
  20
 448.525
  30
0.0
  11
 892.435
  21
 458.491
  31
0.0
   0
LINE
   8
LEVEL003
   6
CONTINUOUS
  62
3
  10
 885.424
  20
 448.525
  30
0.0
  11
 888.604
  21
 460.288
  31
0.0
   0
TEXT
   8
LEVEL003
  62
3
  10
 914.809
  20
 501.685
  30
0.0
  40
 16.0000
   1
フック
   7
STANDARD
   0
TEXT
   8
LEVEL003
  62
3
  10
 672.911
  20
 497.381
  30
0.0
  40
 16.0000
   1
ハンドル棒
   7
STANDARD
   0
LINE
   8
LEVEL003
   6
CONTINUOUS
  62
3
  10
 640.189
  20
 427.880
  30
0.0
  11
 669.010
  21
 496.442
  31
0.0
   0
LINE
   8
LEVEL003
   6
CONTINUOUS
  62
3
  10
 669.010
  20
 496.442
  30
0.0
  11
 759.825
  21
 496.442
  31
0.0
   0
LINE
   8
LEVEL003
   6
CONTINUOUS
  62
3
  10
 640.189
  20
 427.880
  30
0.0
  11
 646.790
  21
 438.122
  31
0.0
   0
LINE
   8
LEVEL003
   6
CONTINUOUS
  62
3
  10
 640.189
  20
 427.880
  30
0.0
  11
 642.889
  21
 439.762
  31
0.0
   0
LINE
   8
LEVEL003
   6
CONTINUOUS
  62
3
  10
 982.057
  20
 453.548
  30
0.0
  11
 1048.00
  21
 453.548
  31
0.0
   0
LINE
   8
LEVEL003
   6
CONTINUOUS
  62
3
  10
 905.588
  20
 300.000
  30
0.0
  11
 1048.00
  21
 300.000
  31
0.0
   0
LINE
   8
LEVEL003
   6
CONTINUOUS
  62
3
  10
 1040.00
  20
 453.548
  30
0.0
  11
 1040.00
  21
 300.000
  31
0.0
   0
LINE
   8
LEVEL003
   6
CONTINUOUS
  62
3
  10
 1040.00
  20
 453.548
  30
0.0
  11
 1037.88
  21
 441.548
  31
0.0
   0
LINE
   8
LEVEL003
   6
CONTINUOUS
  62
3
  10
 1040.00
  20
 453.548
  30
0.0
  11
 1042.12
  21
 441.548
  31
0.0
   0
LINE
   8
LEVEL003
   6
CONTINUOUS
  62
3
  10
 1040.00
  20
 300.000
  30
0.0
  11
 1042.12
  21
 312.000
  31
0.0
   0
LINE
   8
LEVEL003
   6
CONTINUOUS
  62
3
  10
 1040.00
  20
 300.000
  30
0.0
  11
 1037.88
  21
 312.000
  31
0.0
   0
TEXT
   8
LEVEL003
  62
3
  10
 1036.80
  20
 356.774
  30
0.0
  40
 16.0000
   1
約150
  50
 90.0000
   7
STANDARD
  72
1
  11
 1036.80
  21
 376.774
  31
0.0
   0
LINE
   8
LEVEL001
   6
DOT
  62
3
  10
 399.528
  20
 337.943
  30
0.0
  11
 398.923
  21
 358.434
  31
0.0
   0
LINE
   8
LEVEL001
   6
DOT
  62
3
  10
 410.222
  20
 358.768
  30
0.0
  11
 398.923
  21
 358.434
  31
0.0
   0
LINE
   8
LEVEL001
   6
DOT
  62
3
  10
 398.923
  20
 358.434
  30
0.0
  11
 398.151
  21
 359.162
  31
0.0
   0
LINE
   8
LEVEL001
   6
DOT
  62
3
  10
 410.199
  20
 359.518
  30
0.0
  11
 398.151
  21
 359.162
  31
0.0
   0
LINE
   8
LEVEL001
   6
DOT
  62
3
  10
 398.800
  20
 337.171
  30
0.0
  11
 410.849
  21
 337.527
  31
0.0
   0
LINE
   8
LEVEL001
   6
DOT
  62
3
  10
 398.800
  20
 337.171
  30
0.0
  11
 399.528
  21
 337.943
  31
0.0
   0
LINE
   8
LEVEL001
   6
DOT
  62
3
  10
 399.528
  20
 337.943
  30
0.0
  11
 410.827
  21
 338.277
  31
0.0
   0
POINT
   8
LEVEL001
  62
7
  10
 398.476
  20
 348.167
  30
0.0
   0
LINE
   8
LEVEL001
   6
CONTINUOUS
  62
7
  10
 429.507
  20
 399.105
  30
0.0
  11
 429.971
  21
 399.597
  31
0.0
   0
LINE
   8
LEVEL001
   6
CONTINUOUS
  62
7
  10
 456.959
  20
 400.394
  30
0.0
  11
 457.451
  21
 399.931
  31
0.0
   0
LINE
   8
LEVEL001
   6
CONTINUOUS
  62
7
  10
 429.971
  20
 399.597
  30
0.0
  11
 456.959
  21
 400.394
  31
0.0
   0
LINE
   8
LEVEL001
   6
CONTINUOUS
  62
7
  10
 429.633
  20
 411.037
  30
0.0
  11
 429.971
  21
 399.597
  31
0.0
   0
LINE
   8
LEVEL001
   6
CONTINUOUS
  62
7
  10
 456.840
  20
 404.411
  30
0.0
  11
 456.959
  21
 400.394
  31
0.0
   0
LINE
   8
LEVEL001
   6
CONTINUOUS
  62
7
  10
 429.286
  20
 390.323
  30
0.0
  11
 466.452
  21
 391.421
  31
0.0
   0
LINE
   8
LEVEL001
   6
CONTINUOUS
  62
7
  10
 453.294
  20
 400.286
  30
0.0
  11
 453.179
  21
 404.161
  31
0.0
   0
LINE
   8
LEVEL001
   6
CONTINUOUS
  62
7
  10
 433.358
  20
 409.139
  30
0.0
  11
 433.636
  21
 399.706
  31
0.0
   0
LINE
   8
LEVEL003
   6
CONTINUOUS
  62
3
  10
 427.410
  20
 296.000
  30
0.0
  11
 427.410
  21
 252.000
  31
0.0
   0
LINE
   8
LEVEL003
   6
CONTINUOUS
  62
3
  10
 467.382
  20
 297.178
  30
0.0
  11
 467.382
  21
 252.000
  31
0.0
   0
LINE
   8
LEVEL003
   6
CONTINUOUS
  62
3
  10
 427.410
  20
 260.000
  30
0.0
  11
 467.382
  21
 260.000
  31
0.0
   0
LINE
   8
LEVEL003
   6
CONTINUOUS
  62
3
  10
 427.410
  20
 260.000
  30
0.0
  11
 439.410
  21
 257.884
  31
0.0
   0
LINE
   8
LEVEL003
   6
CONTINUOUS
  62
3
  10
 427.410
  20
 260.000
  30
0.0
  11
 439.410
  21
 262.116
  31
0.0
   0
LINE
   8
LEVEL003
   6
CONTINUOUS
  62
3
  10
 467.382
  20
 260.000
  30
0.0
  11
 455.382
  21
 262.116
  31
0.0
   0
LINE
   8
LEVEL003
   6
CONTINUOUS
  62
3
  10
 467.382
  20
 260.000
  30
0.0
  11
 455.382
  21
 257.884
  31
0.0
   0
TEXT
   8
LEVEL003
  62
3
  10
 439.396
  20
 263.200
  30
0.0
  40
 16.0000
   1
40
  41
 0.500000
   7
STANDARD
  72
1
  11
 447.396
  21
 263.200
  31
0.0
   0
LINE
   8
LEVEL003
   6
CONTINUOUS
  62
3
  10
 902.586
  20
 297.029
  30
0.0
  11
 902.586
  21
 212.000
  31
0.0
   0
LINE
   8
LEVEL003
   6
CONTINUOUS
  62
3
  10
 427.410
  20
 296.000
  30
0.0
  11
 427.410
  21
 212.000
  31
0.0
   0
LINE
   8
LEVEL003
   6
CONTINUOUS
  62
3
  10
 902.586
  20
 220.000
  30
0.0
  11
 427.410
  21
 220.000
  31
0.0
   0
LINE
   8
LEVEL003
   6
CONTINUOUS
  62
3
  10
 902.586
  20
 220.000
  30
0.0
  11
 890.586
  21
 222.116
  31
0.0
   0
LINE
   8
LEVEL003
   6
CONTINUOUS
  62
3
  10
 902.586
  20
 220.000
  30
0.0
  11
 890.586
  21
 217.884
  31
0.0
   0
LINE
   8
LEVEL003
   6
CONTINUOUS
  62
3
  10
 427.410
  20
 220.000
  30
0.0
  11
 439.410
  21
 217.884
  31
0.0
   0
LINE
   8
LEVEL003
   6
CONTINUOUS
  62
3
  10
 427.410
  20
 220.000
  30
0.0
  11
 439.410
  21
 222.116
  31
0.0
   0
TEXT
   8
LEVEL003
  62
3
  10
 644.998
  20
 223.200
  30
0.0
  40
 16.0000
   1
約475
   7
STANDARD
  72
1
  11
 664.998
  21
 223.200
  31
0.0
   0
LINE
   8
LEVEL003
   6
CONTINUOUS
  62
3
  10
 397.318
  20
 417.859
  30
0.0
  11
 397.318
  21
 172.000
  31
0.0
   0
LINE
   8
LEVEL003
   6
CONTINUOUS
  62
3
  10
 981.679
  20
 444.150
  30
0.0
  11
 981.679
  21
 172.000
  31
0.0
   0
LINE
   8
LEVEL003
   6
CONTINUOUS
  62
3
  10
 397.318
  20
 180.000
  30
0.0
  11
 981.679
  21
 180.000
  31
0.0
   0
LINE
   8
LEVEL003
   6
CONTINUOUS
  62
3
  10
 397.318
  20
 180.000
  30
0.0
  11
 409.318
  21
 177.884
  31
0.0
   0
LINE
   8
LEVEL003
   6
CONTINUOUS
  62
3
  10
 397.318
  20
 180.000
  30
0.0
  11
 409.318
  21
 182.116
  31
0.0
   0
LINE
   8
LEVEL003
   6
CONTINUOUS
  62
3
  10
 981.679
  20
 180.000
  30
0.0
  11
 969.679
  21
 182.116
  31
0.0
   0
LINE
   8
LEVEL003
   6
CONTINUOUS
  62
3
  10
 981.679
  20
 180.000
  30
0.0
  11
 969.679
  21
 177.884
  31
0.0
   0
TEXT
   8
LEVEL003
  62
3
  10
 669.498
  20
 183.200
  30
0.0
  40
 16.0000
   1
約590
   7
STANDARD
  72
1
  11
 689.498
  21
 183.200
  31
0.0
   0
LINE
   8
LEVEL003
   6
CONTINUOUS
  62
3
  10
 902.586
  20
 297.029
  30
0.0
  11
 902.586
  21
 252.000
  31
0.0
   0
LINE
   8
LEVEL003
   6
CONTINUOUS
  62
3
  10
 867.574
  20
 296.941
  30
0.0
  11
 867.574
  21
 252.000
  31
0.0
   0
LINE
   8
LEVEL003
   6
CONTINUOUS
  62
3
  10
 902.586
  20
 260.000
  30
0.0
  11
 867.574
  21
 260.000
  31
0.0
   0
LINE
   8
LEVEL003
   6
CONTINUOUS
  62
3
  10
 902.586
  20
 260.000
  30
0.0
  11
 890.586
  21
 262.116
  31
0.0
   0
LINE
   8
LEVEL003
   6
CONTINUOUS
  62
3
  10
 902.586
  20
 260.000
  30
0.0
  11
 890.586
  21
 257.884
  31
0.0
   0
LINE
   8
LEVEL003
   6
CONTINUOUS
  62
3
  10
 867.574
  20
 260.000
  30
0.0
  11
 879.574
  21
 257.884
  31
0.0
   0
LINE
   8
LEVEL003
   6
CONTINUOUS
  62
3
  10
 867.574
  20
 260.000
  30
0.0
  11
 879.574
  21
 262.116
  31
0.0
   0
TEXT
   8
LEVEL003
  62
3
  10
 877.080
  20
 263.200
  30
0.0
  40
 16.0000
   1
35
  41
 0.500000
   7
STANDARD
  72
1
  11
 885.080
  21
 263.200
  31
0.0
   0
LINE
   8
LEVEL001
   6
CONTINUOUS
  62
7
  10
 159.000
  20
 336.913
  30
0.0
  11
 159.000
  21
 349.000
  31
0.0
   0
LINE
   8
LEVEL001
   6
CONTINUOUS
  62
7
  10
 159.000
  20
 361.087
  30
0.0
  11
 159.000
  21
 349.000
  31
0.0
   0
LINE
   8
LEVEL001
   6
CONTINUOUS
  62
7
  10
 199.550
  20
 333.161
  30
0.0
  11
 178.968
  21
 340.526
  31
0.0
   0
ARC
   8
LEVEL001
   6
CONTINUOUS
  62
7
  10
 200.224
  20
 335.044
  30
0.0
  40
 2.00000
  50
 250.311
  51
 277.178
   0
LINE
   8
LEVEL001
   6
CONTINUOUS
  62
7
  10
 200.474
  20
 333.060
  30
0.0
  11
 208.874
  21
 334.118
  31
0.0
   0
LINE
   8
LEVEL001
   6
CONTINUOUS
  62
7
  10
 173.000
  20
 349.000
  30
0.0
  11
 173.000
  21
 357.391
  31
0.0
   0
ARC
   8
LEVEL001
   6
CONTINUOUS
  62
7
  10
 182.000
  20
 357.391
  30
0.0
  40
 9.00000
  50
 95.0000
  51
 180.000
   0
ARC
   8
LEVEL001
   6
CONTINUOUS
  62
7
  10
 199.696
  20
 365.966
  30
0.0
  40
 2.00000
  50
 68.0242
  51
 95.0000
   0
ARC
   8
LEVEL001
   6
CONTINUOUS
  62
7
  10
 182.000
  20
 349.000
  30
0.0
  40
 9.00003
  50
 180.000
  51
 250.311
   0
LINE
   8
LEVEL001
   6
CONTINUOUS
  62
7
  10
 199.522
  20
 367.958
  30
0.0
  11
 181.216
  21
 366.357
  31
0.0
   0
ARC
   8
LEVEL001
   6
CONTINUOUS
  62
7
  10
 159.000
  20
 304.167
  30
0.0
  40
 2.00000
  50
 95.0000
  51
 180.000
   0
LINE
   8
LEVEL001
   6
CONTINUOUS
  62
7
  10
 157.000
  20
 300.000
  30
0.0
  11
 157.000
  21
 304.167
  31
0.0
   0
LINE
   8
LEVEL001
   6
CONTINUOUS
  62
7
  10
 157.000
  20
 300.000
  30
0.0
  11
 252.000
  21
 300.000
  31
0.0
   0
ARC
   8
LEVEL001
   6
CONTINUOUS
  62
7
  10
 250.000
  20
 304.167
  30
0.0
  40
 2.00000
  50
 0.749084E-10
  51
 85.0000
   0
LINE
   8
LEVEL001
   6
CONTINUOUS
  62
7
  10
 252.000
  20
 300.000
  30
0.0
  11
 252.000
  21
 304.167
  31
0.0
   0
ARC
   8
LEVEL001
   6
CONTINUOUS
  62
7
  10
 182.937
  20
 379.580
  30
0.0
  40
 2.00000
  50
 95.0000
  51
 110.000
   0
ARC
   8
LEVEL001
   6
CONTINUOUS
  62
7
  10
 179.500
  20
 383.650
  30
0.0
  40
 3.00000
  50
 290.000
  51
0.0
   0
LINE
   8
LEVEL001
   6
CONTINUOUS
  62
7
  10
 162.013
  20
 374.093
  30
0.0
  11
 182.739
  21
 381.637
  31
0.0
   0
LINE
   8
LEVEL001
   6
CONTINUOUS
  62
7
  10
 182.762
  20
 381.573
  30
0.0
  11
 193.261
  21
 382.491
  31
0.0
   0
ARC
   8
LEVEL001
   6
CONTINUOUS
  62
7
  10
 193.000
  20
 385.480
  30
0.0
  40
 3.00000
  50
 275.000
  51
 0.151988E-10
   0
LINE
   8
LEVEL001
   6
CONTINUOUS
  62
7
  10
 180.000
  20
 398.000
  30
0.0
  11
 181.000
  21
 399.000
  31
0.0
   0
LINE
   8
LEVEL001
   6
CONTINUOUS
  62
7
  10
 181.000
  20
 399.000
  30
0.0
  11
 185.000
  21
 399.000
  31
0.0
   0
LINE
   8
LEVEL001
   6
CONTINUOUS
  62
7
  10
 215.000
  20
 399.000
  30
0.0
  11
 219.000
  21
 399.000
  31
0.0
   0
LINE
   8
LEVEL001
   6
CONTINUOUS
  62
7
  10
 219.000
  20
 399.000
  30
0.0
  11
 220.000
  21
 398.000
  31
0.0
   0
LINE
   8
LEVEL001
   6
CONTINUOUS
  62
7
  10
 180.000
  20
 398.000
  30
0.0
  11
 185.028
  21
 398.000
  31
0.0
   0
LINE
   8
LEVEL001
   6
CONTINUOUS
  62
7
  10
 220.000
  20
 398.000
  30
0.0
  11
 215.000
  21
 398.000
  31
0.0
   0
ARC
   8
LEVEL001
   6
CONTINUOUS
  62
7
  10
 207.000
  20
 420.000
  30
0.0
  40
 3.00000
  50
 90.0000
  51
 180.000
   0
LINE
   8
LEVEL001
   6
CONTINUOUS
  62
7
  10
 200.000
  20
 433.000
  30
0.0
  11
 191.000
  21
 432.213
  31
0.0
   0
ARC
   8
LEVEL001
   6
CONTINUOUS
  62
7
  10
 193.000
  20
 420.000
  30
0.0
  40
 3.00000
  50
0.0
  51
 90.0000
   0
LINE
   8
LEVEL001
   6
CONTINUOUS
  62
7
  10
 182.500
  20
 387.500
  30
0.0
  11
 193.000
  21
 387.500
  31
0.0
   0
ARC
   8
LEVEL001
   6
CONTINUOUS
  62
7
  10
 182.000
  20
 389.500
  30
0.0
  40
 2.00000
  50
 179.999
  51
 240.000
   0
ARC
   8
LEVEL001
   6
CONTINUOUS
  62
7
  10
 179.500
  20
 385.170
  30
0.0
  40
 3.00000
  50
0.0
  51
 60.0000
   0
ARC
   8
LEVEL001
   6
CONTINUOUS
  62
7
  10
 220.500
  20
 385.170
  30
0.0
  40
 3.00000
  50
 120.000
  51
 180.000
   0
ARC
   8
LEVEL001
   6
CONTINUOUS
  62
7
  10
 218.000
  20
 389.500
  30
0.0
  40
 2.00000
  50
 300.000
  51
 0.928921E-3
   0
LINE
   8
LEVEL001
   6
CONTINUOUS
  62
7
  10
 180.000
  20
 389.500
  30
0.0
  11
 180.000
  21
 398.000
  31
0.0
   0
LINE
   8
LEVEL001
   6
CONTINUOUS
  62
7
  10
 220.000
  20
 398.000
  30
0.0
  11
 220.000
  21
 389.500
  31
0.0
   0
LINE
   8
LEVEL001
   6
CONTINUOUS
  62
7
  10
 182.500
  20
 385.170
  30
0.0
  11
 182.500
  21
 383.650
  31
0.0
   0
LINE
   8
LEVEL003
   6
CONTINUOUS
  62
7
  10
 217.500
  20
 372.500
  30
0.0
  11
 218.500
  21
 372.500
  31
0.0
   0
LINE
   8
LEVEL003
   6
CONTINUOUS
  62
7
  10
 218.500
  20
 372.500
  30
0.0
  11
 218.500
  21
 382.500
  31
0.0
   0
LINE
   8
LEVEL003
   6
CONTINUOUS
  62
7
  10
 218.500
  20
 382.500
  30
0.0
  11
 217.500
  21
 382.500
  31
0.0
   0
ARC
   8
LEVEL001
   6
CONTINUOUS
  62
7
  10
 213.000
  20
 392.833
  30
0.0
  40
 2.00000
  50
 275.000
  51
 0.586240E-10
   0
ARC
   8
LEVEL001
   6
CONTINUOUS
  62
7
  10
 207.000
  20
 387.289
  30
0.0
  40
 3.00000
  50
 95.0000
  51
 180.000
   0
LINE
   8
LEVEL001
   6
CONTINUOUS
  62
7
  10
 213.174
  20
 390.840
  30
0.0
  11
 206.739
  21
 390.277
  31
0.0
   0
ARC
   8
LEVEL001
   6
CONTINUOUS
  62
7
  10
 187.000
  20
 392.833
  30
0.0
  40
 2.00000
  50
 180.000
  51
 265.000
   0
ARC
   8
LEVEL001
   6
CONTINUOUS
  62
7
  10
 193.000
  20
 387.289
  30
0.0
  40
 3.00000
  50
 0.977066E-11
  51
 85.0000
   0
LINE
   8
LEVEL001
   6
CONTINUOUS
  62
7
  10
 193.261
  20
 390.277
  30
0.0
  11
 186.826
  21
 390.840
  31
0.0
   0
ARC
   8
LEVEL003
   6
CONTINUOUS
  62
7
  10
 182.500
  20
 403.966
  30
0.0
  40
 1.00000
  50
 180.000
  51
 268.000
   0
LINE
   8
LEVEL003
   6
CONTINUOUS
  62
7
  10
 181.500
  20
 433.000
  30
0.0
  11
 181.500
  21
 403.966
  31
0.0
   0
ARC
   8
LEVEL003
   6
CONTINUOUS
  62
7
  10
 181.500
  20
 435.000
  30
0.0
  40
 2.00000
  50
 270.000
  51
 0.390827E-10
   0
ARC
   8
LEVEL003
   6
CONTINUOUS
  62
7
  10
 185.500
  20
 438.493
  30
0.0
  40
 2.00000
  50
 92.0000
  51
 180.000
   0
LINE
   8
LEVEL003
   6
CONTINUOUS
  62
7
  10
 185.430
  20
 440.491
  30
0.0
  11
 200.000
  21
 441.000
  31
0.0
   0
ARC
   8
LEVEL003
   6
CONTINUOUS
  62
7
  10
 218.500
  20
 435.000
  30
0.0
  40
 2.00000
  50
 180.000
  51
 270.000
   0
LINE
   8
LEVEL003
   6
CONTINUOUS
  62
7
  10
 200.000
  20
 441.000
  30
0.0
  11
 214.570
  21
 440.491
  31
0.0
   0
ARC
   8
LEVEL003
   6
CONTINUOUS
  62
7
  10
 214.500
  20
 438.493
  30
0.0
  40
 2.00000
  50
 0.227982E-10
  51
 88.0000
   0
LINE
   8
LEVEL003
   6
CONTINUOUS
  62
7
  10
 218.500
  20
 433.000
  30
0.0
  11
 218.500
  21
 403.966
  31
0.0
   0
ARC
   8
LEVEL003
   6
CONTINUOUS
  62
7
  10
 217.500
  20
 403.966
  30
0.0
  40
 1.00000
  50
 272.000
  51
 0.736057E-9
   0
LINE
   8
LEVEL003
   6
CONTINUOUS
  62
7
  10
 183.500
  20
 438.493
  30
0.0
  11
 183.500
  21
 399.000
  31
0.0
   0
LINE
   8
LEVEL003
   6
CONTINUOUS
  62
7
  10
 216.500
  20
 438.493
  30
0.0
  11
 216.500
  21
 399.000
  31
0.0
   0
LINE
   8
LEVEL003
   6
CONTINUOUS
  62
7
  10
 185.000
  20
 402.878
  30
0.0
  11
 182.465
  21
 402.967
  31
0.0
   0
LINE
   8
LEVEL003
   6
CONTINUOUS
  62
7
  10
 215.000
  20
 402.878
  30
0.0
  11
 217.535
  21
 402.967
  31
0.0
   0
LINE
   8
LEVEL001
   6
DASHDOT
  62
1
  10
 172.053
  20
 423.000
  30
0.0
  11
 227.053
  21
 423.000
  31
0.0
   0
LINE
   8
LEVEL001
   6
CONTINUOUS
  62
7
  10
 218.750
  20
 418.000
  30
0.0
  11
 218.750
  21
 408.000
  31
0.0
   0
LINE
   8
LEVEL001
   6
CONTINUOUS
  62
7
  10
 218.750
  20
 418.000
  30
0.0
  11
 218.500
  21
 418.000
  31
0.0
   0
LINE
   8
LEVEL001
   6
CONTINUOUS
  62
7
  10
 218.750
  20
 418.000
  30
0.0
  11
 219.750
  21
 417.000
  31
0.0
   0
LINE
   8
LEVEL001
   6
CONTINUOUS
  62
7
  10
 218.750
  20
 408.000
  30
0.0
  11
 218.500
  21
 408.000
  31
0.0
   0
LINE
   8
LEVEL001
   6
CONTINUOUS
  62
7
  10
 218.750
  20
 408.000
  30
0.0
  11
 219.750
  21
 409.000
  31
0.0
   0
LINE
   8
LEVEL001
   6
CONTINUOUS
  62
7
  10
 219.750
  20
 417.000
  30
0.0
  11
 219.750
  21
 409.000
  31
0.0
   0
LINE
   8
LEVEL001
   6
CONTINUOUS
  62
7
  10
 181.250
  20
 418.000
  30
0.0
  11
 181.250
  21
 408.000
  31
0.0
   0
LINE
   8
LEVEL001
   6
CONTINUOUS
  62
7
  10
 181.250
  20
 418.000
  30
0.0
  11
 181.500
  21
 418.000
  31
0.0
   0
LINE
   8
LEVEL001
   6
CONTINUOUS
  62
7
  10
 181.250
  20
 418.000
  30
0.0
  11
 180.250
  21
 417.000
  31
0.0
   0
LINE
   8
LEVEL001
   6
CONTINUOUS
  62
7
  10
 181.250
  20
 408.000
  30
0.0
  11
 181.500
  21
 408.000
  31
0.0
   0
LINE
   8
LEVEL001
   6
CONTINUOUS
  62
7
  10
 181.250
  20
 408.000
  30
0.0
  11
 180.250
  21
 409.000
  31
0.0
   0
LINE
   8
LEVEL001
   6
CONTINUOUS
  62
7
  10
 180.250
  20
 417.000
  30
0.0
  11
 180.250
  21
 409.000
  31
0.0
   0
LINE
   8
LEVEL003
   6
DASHDOT
  62
1
  10
 177.053
  20
 413.000
  30
0.0
  11
 222.053
  21
 413.000
  31
0.0
   0
LINE
   8
LEVEL001
   6
CONTINUOUS
  62
7
  10
 223.500
  20
 428.000
  30
0.0
  11
 218.500
  21
 428.000
  31
0.0
   0
LINE
   8
LEVEL001
   6
CONTINUOUS
  62
7
  10
 223.500
  20
 428.000
  30
0.0
  11
 224.500
  21
 427.000
  31
0.0
   0
LINE
   8
LEVEL001
   6
CONTINUOUS
  62
7
  10
 224.500
  20
 427.000
  30
0.0
  11
 224.500
  21
 419.000
  31
0.0
   0
LINE
   8
LEVEL001
   6
CONTINUOUS
  62
7
  10
 224.500
  20
 419.000
  30
0.0
  11
 223.500
  21
 418.000
  31
0.0
   0
LINE
   8
LEVEL001
   6
CONTINUOUS
  62
7
  10
 218.750
  20
 418.000
  30
0.0
  11
 223.500
  21
 418.000
  31
0.0
   0
LINE
   8
LEVEL001
   6
CONTINUOUS
  62
7
  10
 223.500
  20
 428.000
  30
0.0
  11
 223.500
  21
 418.000
  31
0.0
   0
LINE
   8
LEVEL001
   6
CONTINUOUS
  62
7
  10
 176.500
  20
 428.000
  30
0.0
  11
 181.500
  21
 428.000
  31
0.0
   0
LINE
   8
LEVEL001
   6
CONTINUOUS
  62
7
  10
 176.500
  20
 428.000
  30
0.0
  11
 175.500
  21
 427.000
  31
0.0
   0
LINE
   8
LEVEL001
   6
CONTINUOUS
  62
7
  10
 175.500
  20
 427.000
  30
0.0
  11
 175.500
  21
 419.000
  31
0.0
   0
LINE
   8
LEVEL001
   6
CONTINUOUS
  62
7
  10
 175.500
  20
 419.000
  30
0.0
  11
 176.500
  21
 418.000
  31
0.0
   0
LINE
   8
LEVEL001
   6
CONTINUOUS
  62
7
  10
 181.250
  20
 418.000
  30
0.0
  11
 176.500
  21
 418.000
  31
0.0
   0
LINE
   8
LEVEL001
   6
CONTINUOUS
  62
7
  10
 176.500
  20
 428.000
  30
0.0
  11
 176.500
  21
 418.000
  31
0.0
   0
LINE
   8
LEVEL001
   6
DASHDOT
  62
1
  10
 221.000
  20
 430.952
  30
0.0
  11
 221.000
  21
 417.374
  31
0.0
   0
LINE
   8
LEVEL001
   6
CONTINUOUS
  62
7
  10
 220.200
  20
 420.375
  30
0.0
  11
 220.200
  21
 426.775
  31
0.0
   0
LINE
   8
LEVEL001
   6
CONTINUOUS
  62
7
  10
 221.800
  20
 426.775
  30
0.0
  11
 221.800
  21
 420.375
  31
0.0
   0
ARC
   8
LEVEL001
   6
CONTINUOUS
  62
7
  10
 221.000
  20
 426.775
  30
0.0
  40
 0.800000
  50
0.0
  51
 180.000
   0
ARC
   8
LEVEL001
   6
CONTINUOUS
  62
7
  10
 221.000
  20
 420.375
  30
0.0
  40
 0.800000
  50
 180.000
  51
0.0
   0
LINE
   8
LEVEL001
   6
CONTINUOUS
  62
7
  10
 220.200
  20
 429.250
  30
0.0
  11
 220.200
  21
 428.000
  31
0.0
   0
LINE
   8
LEVEL001
   6
CONTINUOUS
  62
7
  10
 221.800
  20
 429.250
  30
0.0
  11
 221.800
  21
 428.000
  31
0.0
   0
ARC
   8
LEVEL001
   6
CONTINUOUS
  62
7
  10
 221.000
  20
 429.250
  30
0.0
  40
 0.800000
  50
0.0
  51
 180.000
   0
LINE
   8
LEVEL001
   6
DASHDOT
  62
1
  10
 179.000
  20
 430.952
  30
0.0
  11
 179.000
  21
 417.374
  31
0.0
   0
LINE
   8
LEVEL001
   6
CONTINUOUS
  62
7
  10
 179.800
  20
 429.250
  30
0.0
  11
 179.800
  21
 428.000
  31
0.0
   0
LINE
   8
LEVEL001
   6
CONTINUOUS
  62
7
  10
 178.200
  20
 429.250
  30
0.0
  11
 178.200
  21
 428.000
  31
0.0
   0
ARC
   8
LEVEL001
   6
CONTINUOUS
  62
7
  10
 179.000
  20
 429.250
  30
0.0
  40
 0.800000
  50
0.0
  51
 180.000
   0
LINE
   8
LEVEL001
   6
CONTINUOUS
  62
7
  10
 179.800
  20
 420.375
  30
0.0
  11
 179.800
  21
 426.775
  31
0.0
   0
LINE
   8
LEVEL001
   6
CONTINUOUS
  62
7
  10
 178.200
  20
 426.775
  30
0.0
  11
 178.200
  21
 420.375
  31
0.0
   0
ARC
   8
LEVEL001
   6
CONTINUOUS
  62
7
  10
 179.000
  20
 426.775
  30
0.0
  40
 0.800000
  50
0.0
  51
 180.000
   0
ARC
   8
LEVEL001
   6
CONTINUOUS
  62
7
  10
 179.000
  20
 420.375
  30
0.0
  40
 0.800000
  50
 180.000
  51
0.0
   0
LINE
   8
LEVEL003
   6
CONTINUOUS
  62
7
  10
 186.503
  20
 411.878
  30
0.0
  11
 190.500
  21
 415.877
  31
0.0
   0
LINE
   8
LEVEL003
   6
CONTINUOUS
  62
7
  10
 209.500
  20
 415.877
  30
0.0
  11
 213.497
  21
 411.878
  31
0.0
   0
LINE
   8
LEVEL003
   6
CONTINUOUS
  62
7
  10
 213.496
  20
 411.895
  30
0.0
  11
 218.499
  21
 412.070
  31
0.0
   0
LINE
   8
LEVEL003
   6
CONTINUOUS
  62
7
  10
 181.501
  20
 412.070
  30
0.0
  11
 186.504
  21
 411.895
  31
0.0
   0
LINE
   8
LEVEL003
   6
CONTINUOUS
  62
7
  10
 209.500
  20
 426.000
  30
0.0
  11
 216.500
  21
 426.000
  31
0.0
   0
LINE
   8
LEVEL001
   6
CONTINUOUS
  62
7
  10
 200.000
  20
 433.000
  30
0.0
  11
 209.500
  21
 432.169
  31
0.0
   0
LINE
   8
LEVEL001
   6
CONTINUOUS
  62
7
  10
 209.500
  20
 435.676
  30
0.0
  11
 216.500
  21
 435.676
  31
0.0
   0
LINE
   8
LEVEL001
   6
CONTINUOUS
  62
7
  10
 183.500
  20
 435.676
  30
0.0
  11
 190.500
  21
 435.676
  31
0.0
   0
LINE
   8
LEVEL001
   6
CONTINUOUS
  62
7
  10
 190.500
  20
 436.000
  30
0.0
  11
 209.500
  21
 436.000
  31
0.0
   0
LINE
   8
LEVEL003
   6
CONTINUOUS
  62
7
  10
 183.500
  20
 426.000
  30
0.0
  11
 190.500
  21
 426.000
  31
0.0
   0
ARC
   8
LEVEL001
   6
CONTINUOUS
  62
7
  10
 187.000
  20
 404.667
  30
0.0
  40
 2.00000
  50
 170.420
  51
 180.000
   0
ARC
   8
LEVEL001
   6
CONTINUOUS
  62
7
  10
 187.000
  20
 404.479
  30
0.0
  40
 2.00000
  50
 170.420
  51
 180.000
   0
ARC
   8
LEVEL001
   6
CONTINUOUS
  62
7
  10
 213.000
  20
 404.479
  30
0.0
  40
 2.00000
  50
0.0
  51
 9.57962
   0
LINE
   8
LEVEL001
   6
CONTINUOUS
  62
7
  10
 215.000
  20
 404.668
  30
0.0
  11
 215.000
  21
 392.833
  31
0.0
   0
ARC
   8
LEVEL001
   6
CONTINUOUS
  62
7
  10
 213.000
  20
 404.668
  30
0.0
  40
 2.00000
  50
 0.257294E-9
  51
 4.17184
   0
LINE
   8
LEVEL001
   6
CONTINUOUS
  62
7
  10
 185.000
  20
 404.479
  30
0.0
  11
 185.000
  21
 392.833
  31
0.0
   0
LINE
   8
LEVEL001
   6
CONTINUOUS
  62
7
  10
 240.221
  20
 373.349
  30
0.0
  11
 223.202
  21
 379.209
  31
0.0
   0
LINE
   8
LEVEL001
   6
CONTINUOUS
  62
7
  10
 219.490
  20
 368.430
  30
0.0
  11
 223.202
  21
 379.209
  31
0.0
   0
LINE
   8
LEVEL001
   6
CONTINUOUS
  62
7
  10
 223.202
  20
 379.209
  30
0.0
  11
 224.380
  21
 379.438
  31
0.0
   0
LINE
   8
LEVEL001
   6
CONTINUOUS
  62
7
  10
 224.380
  20
 379.438
  30
0.0
  11
 239.434
  21
 374.254
  31
0.0
   0
LINE
   8
LEVEL001
   6
CONTINUOUS
  62
7
  10
 239.434
  20
 374.254
  30
0.0
  11
 240.221
  21
 373.349
  31
0.0
   0
LINE
   8
LEVEL001
   6
CONTINUOUS
  62
7
  10
 240.221
  20
 373.349
  30
0.0
  11
 236.510
  21
 362.570
  31
0.0
   0
LINE
   8
LEVEL001
   6
DASHDOT
  62
1
  10
 232.887
  20
 379.694
  30
0.0
  11
 208.208
  21
 308.020
  31
0.0
   0
LINE
   8
LEVEL001
   6
CONTINUOUS
  62
7
  10
 217.500
  20
 385.170
  30
0.0
  11
 217.500
  21
 371.255
  31
0.0
   0
ARC
   8
LEVEL001
   6
CONTINUOUS
  62
7
  10
 236.804
  20
 360.353
  30
0.0
  40
 2.00000
  50
 341.000
  51
 71.0000
   0
LINE
   8
LEVEL001
   6
CONTINUOUS
  62
7
  10
 238.695
  20
 359.702
  30
0.0
  11
 235.000
  21
 348.971
  31
0.0
   0
ARC
   8
LEVEL003
   6
CONTINUOUS
  62
7
  10
 217.081
  20
 367.144
  30
0.0
  40
 2.00000
  50
 71.0000
  51
 85.0000
   0
ARC
   8
LEVEL001
   6
CONTINUOUS
  62
7
  10
 220.500
  20
 371.255
  30
0.0
  40
 3.00000
  50
 180.000
  51
 251.000
   0
LINE
   8
LEVEL001
   6
CONTINUOUS
  62
7
  10
 219.308
  20
 368.664
  30
0.0
  11
 218.013
  21
 369.135
  31
0.0
   0
LINE
   8
LEVEL001
   6
CONTINUOUS
  62
7
  10
 237.455
  20
 362.244
  30
0.0
  11
 217.732
  21
 369.035
  31
0.0
   0
ARC
   8
LEVEL001
   6
CONTINUOUS
  62
7
  10
 207.000
  20
 368.410
  30
0.0
  40
 3.00000
  50
 180.000
  51
 248.024
   0
ARC
   8
LEVEL001
   6
CONTINUOUS
  62
7
  10
 207.000
  20
 373.046
  30
0.0
  40
 3.00000
  50
 180.000
  51
 265.000
   0
LINE
   8
LEVEL001
   6
CONTINUOUS
  62
7
  10
 204.000
  20
 420.000
  30
0.0
  11
 204.000
  21
 368.410
  31
0.0
   0
LINE
   8
LEVEL003
   6
CONTINUOUS
  62
7
  10
 206.739
  20
 370.057
  30
0.0
  11
 217.255
  21
 369.137
  31
0.0
   0
ARC
   8
LEVEL001
   6
CONTINUOUS
  62
7
  10
 191.000
  20
 372.232
  30
0.0
  40
 5.00000
  50
 275.000
  51
0.0
   0
LINE
   8
LEVEL001
   6
CONTINUOUS
  62
7
  10
 196.000
  20
 420.000
  30
0.0
  11
 196.000
  21
 372.232
  31
0.0
   0
ARC
   8
LEVEL001
   6
CONTINUOUS
  62
7
  10
 181.112
  20
 364.013
  30
0.0
  40
 3.00000
  50
 55.8214
  51
 85.0000
   0
ARC
   8
LEVEL001
   6
CONTINUOUS
  62
7
  10
 207.000
  20
 349.000
  30
0.0
  40
 15.0000
  50
 277.178
  51
 292.393
   0
LINE
   8
LEVEL003
   6
CONTINUOUS
  62
7
  10
 212.714
  20
 335.131
  30
0.0
  11
 230.667
  21
 342.528
  31
0.0
   0
ARC
   8
LEVEL001
   6
CONTINUOUS
  62
7
  10
 207.000
  20
 349.000
  30
0.0
  40
 15.0000
  50
 67.6073
  51
 68.0242
   0
LINE
   8
LEVEL001
   6
CONTINUOUS
  62
7
  10
 200.445
  20
 367.820
  30
0.0
  11
 212.613
  21
 362.910
  31
0.0
   0
LINE
   8
LEVEL003
   6
CONTINUOUS
  62
7
  10
 212.714
  20
 362.869
  30
0.0
  11
 230.667
  21
 355.472
  31
0.0
   0
ARC
   8
LEVEL001
   6
CONTINUOUS
  62
7
  10
 242.904
  20
 341.212
  30
0.0
  40
 10.0000
  50
 161.000
  51
 222.095
   0
ARC
   8
LEVEL001
   6
CONTINUOUS
  62
7
  10
 200.000
  20
 336.000
  30
0.0
  40
 33.5000
  50
 3.38600
  51
 11.4809
   0
ARC
   8
LEVEL001
   6
CONTINUOUS
  62
7
  10
 228.000
  20
 349.000
  30
0.0
  40
 7.00000
  50
 294.901
  51
 71.9238
   0
ARC
   8
LEVEL001
   6
CONTINUOUS
  62
7
  10
 234.000
  20
 333.167
  30
0.0
  40
 2.00000
  50
 0.341973E-10
  51
 42.0945
   0
LINE
   8
LEVEL001
   6
CONTINUOUS
  62
7
  10
 236.000
  20
 328.000
  30
0.0
  11
 236.000
  21
 333.167
  31
0.0
   0
LINE
   8
LEVEL001
   6
CONTINUOUS
  62
7
  10
 228.000
  20
 351.309
  30
0.0
  11
 230.000
  21
 350.155
  31
0.0
   0
LINE
   8
LEVEL001
   6
CONTINUOUS
  62
7
  10
 230.000
  20
 350.155
  30
0.0
  11
 230.000
  21
 347.845
  31
0.0
   0
LINE
   8
LEVEL001
   6
CONTINUOUS
  62
7
  10
 230.000
  20
 347.845
  30
0.0
  11
 228.000
  21
 346.691
  31
0.0
   0
LINE
   8
LEVEL001
   6
CONTINUOUS
  62
7
  10
 228.000
  20
 346.691
  30
0.0
  11
 226.000
  21
 347.845
  31
0.0
   0
LINE
   8
LEVEL001
   6
CONTINUOUS
  62
7
  10
 226.000
  20
 347.845
  30
0.0
  11
 226.000
  21
 350.155
  31
0.0
   0
LINE
   8
LEVEL001
   6
CONTINUOUS
  62
7
  10
 226.000
  20
 350.155
  30
0.0
  11
 228.000
  21
 351.309
  31
0.0
   0
CIRCLE
   8
LEVEL001
   6
CONTINUOUS
  62
7
  10
 228.000
  20
 349.000
  30
0.0
  40
 4.00000
   0
CIRCLE
   8
LEVEL001
   6
CONTINUOUS
  62
3
  10
 228.000
  20
 349.000
  30
0.0
  40
 3.37500
   0
LINE
   8
LEVEL001
   6
DASHDOT
  62
1
  10
 228.000
  20
 356.000
  30
0.0
  11
 228.000
  21
 342.000
  31
0.0
   0
LINE
   8
LEVEL001
   6
DASHDOT
  62
1
  10
 236.418
  20
 336.000
  30
0.0
  11
 165.000
  21
 336.000
  31
0.0
   0
LINE
   8
LEVEL001
   6
DASHDOT
  62
1
  10
 236.418
  20
 336.000
  30
0.0
  11
 165.000
  21
 336.000
  31
0.0
   0
LINE
   8
LEVEL003
   6
CONTINUOUS
  62
7
  10
 214.197
  20
 321.970
  30
0.0
  11
 199.174
  21
 323.284
  31
0.0
   0
ARC
   8
LEVEL001
   6
CONTINUOUS
  62
7
  10
 234.000
  20
 322.833
  30
0.0
  40
 2.00000
  50
 275.000
  51
 0.407111E-10
   0
ARC
   8
LEVEL001
   6
CONTINUOUS
  62
7
  10
 230.206
  20
 315.474
  30
0.0
  40
 5.00000
  50
 95.0000
  51
 204.492
   0
ARC
   8
LEVEL001
   6
CONTINUOUS
  62
7
  10
 234.756
  20
 317.547
  30
0.0
  40
 10.0000
  50
 161.000
  51
 265.000
   0
ARC
   8
LEVEL001
   6
CONTINUOUS
  62
7
  10
 200.000
  20
 336.000
  30
0.0
  40
 33.5000
  50
 319.210
  51
 332.428
   0
ARC
   8
LEVEL003
   6
CONTINUOUS
  62
7
  10
 213.500
  20
 314.000
  30
0.0
  40
 8.00000
  50
 12.4107
  51
 85.0000
   0
ARC
   8
LEVEL003
   6
CONTINUOUS
  62
7
  10
 231.079
  20
 317.869
  30
0.0
  40
 10.0000
  50
 192.411
  51
 265.000
   0
LINE
   8
LEVEL001
   6
CONTINUOUS
  62
7
  10
 236.000
  20
 322.833
  30
0.0
  11
 236.000
  21
 328.000
  31
0.0
   0
LINE
   8
LEVEL001
   6
CONTINUOUS
  62
7
  10
 234.174
  20
 320.840
  30
0.0
  11
 229.770
  21
 320.455
  31
0.0
   0
LINE
   8
LEVEL001
   6
CONTINUOUS
  62
7
  10
 250.174
  20
 306.160
  30
0.0
  11
 230.208
  21
 307.907
  31
0.0
   0
LINE
   8
LEVEL001
   6
CONTINUOUS
  62
7
  10
 233.534
  20
 344.714
  30
0.0
  11
 225.301
  21
 320.803
  31
0.0
   0
LINE
   8
LEVEL001
   6
CONTINUOUS
  62
7
  10
 208.000
  20
 315.387
  30
0.0
  11
 210.500
  21
 313.943
  31
0.0
   0
LINE
   8
LEVEL001
   6
CONTINUOUS
  62
7
  10
 210.500
  20
 313.943
  30
0.0
  11
 210.500
  21
 311.057
  31
0.0
   0
LINE
   8
LEVEL001
   6
CONTINUOUS
  62
7
  10
 210.500
  20
 311.057
  30
0.0
  11
 208.000
  21
 309.613
  31
0.0
   0
LINE
   8
LEVEL001
   6
CONTINUOUS
  62
7
  10
 208.000
  20
 309.613
  30
0.0
  11
 205.500
  21
 311.057
  31
0.0
   0
LINE
   8
LEVEL001
   6
CONTINUOUS
  62
7
  10
 205.500
  20
 311.057
  30
0.0
  11
 205.500
  21
 313.943
  31
0.0
   0
LINE
   8
LEVEL001
   6
CONTINUOUS
  62
7
  10
 205.500
  20
 313.943
  30
0.0
  11
 208.000
  21
 315.387
  31
0.0
   0
CIRCLE
   8
LEVEL001
   6
CONTINUOUS
  62
7
  10
 208.000
  20
 312.500
  30
0.0
  40
 4.86400
   0
CIRCLE
   8
LEVEL001
   6
CONTINUOUS
  62
3
  10
 208.000
  20
 312.500
  30
0.0
  40
 4.28300
   0
LINE
   8
LEVEL001
   6
DASHDOT
  62
1
  10
 215.864
  20
 312.500
  30
0.0
  11
 200.136
  21
 312.500
  31
0.0
   0
LINE
   8
LEVEL001
   6
DASHDOT
  62
1
  10
 208.000
  20
 320.364
  30
0.0
  11
 208.000
  21
 304.636
  31
0.0
   0
ARC
   8
LEVEL001
   6
CONTINUOUS
  62
7
  10
 192.000
  20
 314.081
  30
0.0
  40
 5.00000
  50
 275.000
  51
 0.846791E-11
   0
ARC
   8
LEVEL001
   6
CONTINUOUS
  62
7
  10
 172.023
  20
 317.353
  30
0.0
  40
 10.0000
  50
 275.000
  51
 20.0000
   0
ARC
   8
LEVEL001
   6
CONTINUOUS
  62
7
  10
 199.000
  20
 321.292
  30
0.0
  40
 2.00000
  50
 85.0000
  51
 180.000
   0
LINE
   8
LEVEL001
   6
CONTINUOUS
  62
7
  10
 158.826
  20
 306.160
  30
0.0
  11
 192.436
  21
 309.100
  31
0.0
   0
LINE
   8
LEVEL001
   6
DASHDOT
  62
1
  10
 239.000
  20
 328.000
  30
0.0
  11
 181.013
  21
 328.000
  31
0.0
   0
ARC
   8
LEVEL001
   6
CONTINUOUS
  62
7
  10
 162.697
  20
 372.213
  30
0.0
  40
 2.00000
  50
 110.000
  51
 200.000
   0
ARC
   8
LEVEL001
   6
CONTINUOUS
  62
7
  10
 161.836
  20
 365.807
  30
0.0
  40
 3.00000
  50
 20.0000
  51
 73.1301
   0
ARC
   8
LEVEL001
   6
CONTINUOUS
  62
7
  10
 163.287
  20
 370.592
  30
0.0
  40
 2.00000
  50
 200.000
  51
 253.130
   0
LINE
   8
LEVEL001
   6
CONTINUOUS
  62
7
  10
 160.817
  20
 371.529
  30
0.0
  11
 161.408
  21
 369.908
  31
0.0
   0
LINE
   8
LEVEL001
   6
CONTINUOUS
  62
7
  10
 181.373
  20
 367.002
  30
0.0
  11
 163.113
  21
 368.599
  31
0.0
   0
LINE
   8
LEVEL001
   6
CONTINUOUS
  62
7
  10
 217.500
  20
 387.500
  30
0.0
  11
 207.000
  21
 387.500
  31
0.0
   0
ARC
   8
LEVEL001
   6
CONTINUOUS
  62
7
  10
 213.000
  20
 404.667
  30
0.0
  40
 2.00000
  50
 0.135161E-9
  51
 41.7903
   0
LINE
   8
LEVEL001
   6
CONTINUOUS
  62
7
  10
 209.500
  20
 406.000
  30
0.0
  11
 214.491
  21
 406.000
  31
0.0
   0
ARC
   8
LEVEL001
   6
CONTINUOUS
  62
7
  10
 187.000
  20
 404.668
  30
0.0
  40
 2.00000
  50
 138.216
  51
 180.000
   0
LINE
   8
LEVEL001
   6
CONTINUOUS
  62
7
  10
 185.509
  20
 406.000
  30
0.0
  11
 190.500
  21
 406.000
  31
0.0
   0
LINE
   8
LEVEL001
   6
CONTINUOUS
  62
7
  10
 190.500
  20
 436.000
  30
0.0
  11
 190.500
  21
 406.000
  31
0.0
   0
LINE
   8
LEVEL001
   6
CONTINUOUS
  62
7
  10
 209.500
  20
 436.000
  30
0.0
  11
 209.500
  21
 406.000
  31
0.0
   0
LINE
   8
LEVEL001
   6
CONTINUOUS
  62
7
  10
 159.000
  20
 362.087
  30
0.0
  11
 159.996
  21
 363.175
  31
0.0
   0
LINE
   8
LEVEL001
   6
CONTINUOUS
  62
7
  10
 159.000
  20
 335.913
  30
0.0
  11
 159.996
  21
 334.825
  31
0.0
   0
LINE
   8
LEVEL001
   6
CONTINUOUS
  62
7
  10
 164.655
  20
 366.833
  30
0.0
  11
 165.802
  21
 363.683
  31
0.0
   0
LINE
   8
LEVEL001
   6
CONTINUOUS
  62
7
  10
 159.996
  20
 363.175
  30
0.0
  11
 176.656
  21
 364.632
  31
0.0
   0
ARC
   8
LEVEL001
   6
CONTINUOUS
  62
7
  10
 200.000
  20
 336.000
  30
0.0
  40
 33.5000
  50
 182.990
  51
 230.819
   0
ARC
   8
LEVEL001
   6
CONTINUOUS
  62
7
  10
 173.232
  20
 328.648
  30
0.0
  40
 5.00000
  50
 20.0000
  51
 85.0000
   0
POINT
   8
LEVEL001
  62
7
  10
 176.841
  20
 333.352
  30
0.0
   0
LINE
   8
LEVEL001
   6
CONTINUOUS
  62
7
  10
 177.931
  20
 330.358
  30
0.0
  11
 181.420
  21
 320.773
  31
0.0
   0
LINE
   8
LEVEL001
   6
CONTINUOUS
  62
7
  10
 159.996
  20
 334.825
  30
0.0
  11
 192.436
  21
 331.987
  31
0.0
   0
ARC
   8
LEVEL001
   6
CONTINUOUS
  62
7
  10
 192.000
  20
 327.006
  30
0.0
  40
 5.00000
  50
 0.110734E-10
  51
 85.0000
   0
POINT
   8
LEVEL001
  62
7
  10
 197.000
  20
 331.588
  30
0.0
   0
LINE
   8
LEVEL001
   6
CONTINUOUS
  62
7
  10
 197.000
  20
 327.006
  30
0.0
  11
 197.000
  21
 314.081
  31
0.0
   0
LINE
   8
LEVEL001
   6
CONTINUOUS
  62
7
  10
 159.996
  20
 363.175
  30
0.0
  11
 159.996
  21
 334.825
  31
0.0
   0
ARC
   8
LEVEL003
   6
CONTINUOUS
  62
7
  10
 169.973
  20
 349.000
  30
0.0
  40
 21.9729
  50
 162.412
  51
 197.588
   0
ARC
   8
LEVEL003
   6
CONTINUOUS
  62
7
  10
 160.014
  20
 360.500
  30
0.0
  40
 12.0136
  50
 180.000
  51
 203.865
   0
LINE
   8
LEVEL003
   6
CONTINUOUS
  62
7
  10
 159.000
  20
 362.279
  30
0.0
  11
 159.000
  21
 335.721
  31
0.0
   0
LINE
   8
LEVEL003
   6
CONTINUOUS
  62
7
  10
 159.000
  20
 335.721
  30
0.0
  11
 149.027
  21
 335.721
  31
0.0
   0
LINE
   8
LEVEL003
   6
CONTINUOUS
  62
7
  10
 149.027
  20
 335.721
  30
0.0
  11
 148.000
  21
 337.500
  31
0.0
   0
LINE
   8
LEVEL003
   6
CONTINUOUS
  62
7
  10
 148.000
  20
 337.500
  30
0.0
  11
 148.000
  21
 360.500
  31
0.0
   0
LINE
   8
LEVEL003
   6
CONTINUOUS
  62
7
  10
 148.000
  20
 360.500
  30
0.0
  11
 149.027
  21
 362.279
  31
0.0
   0
LINE
   8
LEVEL003
   6
CONTINUOUS
  62
7
  10
 149.027
  20
 362.279
  30
0.0
  11
 159.000
  21
 362.279
  31
0.0
   0
LINE
   8
LEVEL003
   6
CONTINUOUS
  62
7
  10
 159.000
  20
 355.640
  30
0.0
  11
 149.027
  21
 355.640
  31
0.0
   0
ARC
   8
LEVEL003
   6
CONTINUOUS
  62
7
  10
 160.014
  20
 337.500
  30
0.0
  40
 12.0136
  50
 156.135
  51
 180.000
   0
LINE
   8
LEVEL003
   6
CONTINUOUS
  62
7
  10
 159.000
  20
 342.360
  30
0.0
  11
 149.027
  21
 342.360
  31
0.0
   0
LINE
   8
LEVEL001
   6
DASHDOT
  62
1
  10
 110.151
  20
 349.000
  30
0.0
  11
 236.418
  21
 349.000
  31
0.0
   0
LINE
   8
LEVEL001
   6
CONTINUOUS
  62
7
  10
 139.408
  20
 336.792
  30
0.0
  11
 139.408
  21
 344.000
  31
0.0
   0
LINE
   8
LEVEL001
   6
CONTINUOUS
  62
7
  10
 139.408
  20
 354.000
  30
0.0
  11
 139.408
  21
 361.208
  31
0.0
   0
ARC
   8
LEVEL001
   6
CONTINUOUS
  62
7
  10
 132.408
  20
 331.415
  30
0.0
  40
 3.00000
  50
 98.5311
  51
 179.999
   0
ARC
   8
LEVEL001
   6
CONTINUOUS
  62
7
  10
 120.183
  20
 326.143
  30
0.0
  40
 2.00000
  50
 188.884
  51
 270.000
   0
LINE
   8
LEVEL001
   6
CONTINUOUS
  62
7
  10
 117.408
  20
 331.707
  30
0.0
  11
 117.408
  21
 366.290
  31
0.0
   0
ARC
   8
LEVEL001
   6
CONTINUOUS
  62
7
  10
 266.407
  20
 348.999
  30
0.0
  40
 150.000
  50
 186.620
  51
 188.884
   0
LINE
   8
LEVEL001
   6
CONTINUOUS
  62
7
  10
 128.408
  20
 324.143
  30
0.0
  11
 120.183
  21
 324.143
  31
0.0
   0
ARC
   8
LEVEL001
   6
CONTINUOUS
  62
7
  10
 128.408
  20
 325.143
  30
0.0
  40
 1.00000
  50
 270.000
  51
 0.449451E-9
   0
LINE
   8
LEVEL001
   6
CONTINUOUS
  62
7
  10
 129.408
  20
 325.143
  30
0.0
  11
 129.408
  21
 349.000
  31
0.0
   0
ARC
   8
LEVEL010
   6
CONTINUOUS
  62
7
  10
 128.408
  20
 336.526
  30
0.0
  40
 1.00000
  50
 270.000
  51
0.0
   0
ARC
   8
LEVEL010
   6
CONTINUOUS
  62
7
  10
 120.207
  20
 337.526
  30
0.0
  40
 2.00000
  50
 180.000
  51
 270.000
   0
LINE
   8
LEVEL010
   6
CONTINUOUS
  62
7
  10
 117.408
  20
 345.500
  30
0.0
  11
 118.217
  21
 337.329
  31
0.0
   0
ARC
   8
LEVEL010
   6
CONTINUOUS
  62
7
  10
 128.408
  20
 334.526
  30
0.0
  40
 1.00000
  50
0.0
  51
 90.0000
   0
ARC
   8
LEVEL010
   6
CONTINUOUS
  62
7
  10
 120.207
  20
 333.526
  30
0.0
  40
 2.00000
  50
 90.0000
  51
 180.000
   0
LINE
   8
LEVEL010
   6
CONTINUOUS
  62
7
  10
 128.408
  20
 335.526
  30
0.0
  11
 120.207
  21
 335.526
  31
0.0
   0
LINE
   8
LEVEL010
   6
CONTINUOUS
  62
7
  10
 118.207
  20
 333.526
  30
0.0
  11
 118.207
  21
 328.025
  31
0.0
   0
LINE
   8
LEVEL010
   6
CONTINUOUS
  62
7
  10
 128.408
  20
 345.500
  30
0.0
  11
 120.207
  21
 345.500
  31
0.0
   0
ARC
   8
LEVEL001
   6
CONTINUOUS
  62
7
  10
 132.408
  20
 366.582
  30
0.0
  40
 3.00000
  50
 179.999
  51
 261.469
   0
ARC
   8
LEVEL001
   6
CONTINUOUS
  62
7
  10
 128.408
  20
 372.855
  30
0.0
  40
 1.00000
  50
0.0
  51
 90.0000
   0
ARC
   8
LEVEL001
   6
CONTINUOUS
  62
7
  10
 120.183
  20
 371.855
  30
0.0
  40
 2.00000
  50
 89.9999
  51
 171.117
   0
LINE
   8
LEVEL001
   6
CONTINUOUS
  62
7
  10
 128.408
  20
 373.855
  30
0.0
  11
 120.183
  21
 373.855
  31
0.0
   0
ARC
   8
LEVEL001
   6
CONTINUOUS
  62
7
  10
 266.408
  20
 348.999
  30
0.0
  40
 150.000
  50
 171.116
  51
 173.380
   0
LINE
   8
LEVEL001
   6
CONTINUOUS
  62
7
  10
 129.408
  20
 349.000
  30
0.0
  11
 129.408
  21
 372.855
  31
0.0
   0
ARC
   8
LEVEL010
   6
CONTINUOUS
  62
7
  10
 128.408
  20
 361.474
  30
0.0
  40
 1.00000
  50
0.0
  51
 90.0000
   0
ARC
   8
LEVEL010
   6
CONTINUOUS
  62
7
  10
 120.207
  20
 360.474
  30
0.0
  40
 2.00000
  50
 90.0000
  51
 180.000
   0
LINE
   8
LEVEL010
   6
CONTINUOUS
  62
7
  10
 117.408
  20
 352.500
  30
0.0
  11
 118.217
  21
 360.671
  31
0.0
   0
ARC
   8
LEVEL010
   6
CONTINUOUS
  62
7
  10
 128.408
  20
 363.474
  30
0.0
  40
 1.00000
  50
 270.000
  51
 0.130276E-9
   0
ARC
   8
LEVEL010
   6
CONTINUOUS
  62
7
  10
 120.207
  20
 364.474
  30
0.0
  40
 2.00000
  50
 180.000
  51
 270.000
   0
LINE
   8
LEVEL010
   6
CONTINUOUS
  62
7
  10
 128.408
  20
 362.474
  30
0.0
  11
 120.207
  21
 362.474
  31
0.0
   0
LINE
   8
LEVEL010
   6
CONTINUOUS
  62
7
  10
 118.207
  20
 364.474
  30
0.0
  11
 118.207
  21
 369.975
  31
0.0
   0
LINE
   8
LEVEL010
   6
CONTINUOUS
  62
7
  10
 128.408
  20
 352.500
  30
0.0
  11
 120.207
  21
 352.500
  31
0.0
   0
ARC
   8
LEVEL001
   6
CONTINUOUS
  62
7
  10
 137.408
  20
 360.776
  30
0.0
  40
 2.00000
  50
 0.768312E-3
  51
 81.4689
   0
LINE
   8
LEVEL001
   6
CONTINUOUS
  62
7
  10
 137.704
  20
 362.754
  30
0.0
  11
 131.962
  21
 363.615
  31
0.0
   0
LINE
   8
LEVEL001
   6
CONTINUOUS
  62
7
  10
 139.408
  20
 349.000
  30
0.0
  11
 139.408
  21
 360.776
  31
0.0
   0
ARC
   8
LEVEL001
   6
CONTINUOUS
  62
7
  10
 137.408
  20
 337.221
  30
0.0
  40
 2.00000
  50
 278.531
  51
 0.980216E-3
   0
LINE
   8
LEVEL001
   6
CONTINUOUS
  62
7
  10
 137.704
  20
 335.243
  30
0.0
  11
 131.962
  21
 334.382
  31
0.0
   0
LINE
   8
LEVEL001
   6
CONTINUOUS
  62
7
  10
 139.408
  20
 337.221
  30
0.0
  11
 139.408
  21
 349.000
  31
0.0
   0
ARC
   8
LEVEL001
   6
CONTINUOUS
  62
7
  10
 266.408
  20
 349.000
  30
0.0
  40
 150.000
  50
 170.951
  51
 189.049
   0
LINE
   8
LEVEL001
   6
CONTINUOUS
  62
7
  10
 139.408
  20
 342.649
  30
0.0
  11
 148.000
  21
 342.649
  31
0.0
   0
LINE
   8
LEVEL001
   6
CONTINUOUS
  62
7
  10
 139.408
  20
 355.349
  30
0.0
  11
 148.000
  21
 355.349
  31
0.0
   0
ARC
   8
LEVEL001
   6
CONTINUOUS
  62
7
  10
 197.503
  20
 432.938
  30
0.0
  40
 16.0000
  50
 59.7749
  51
 179.776
   0
ARC
   8
LEVEL001
   6
CONTINUOUS
  62
7
  10
 200.000
  20
 440.048
  30
0.0
  40
 13.5000
  50
 28.0020
  51
 151.998
   0
ARC
   8
LEVEL001
   6
CONTINUOUS
  62
7
  10
 200.000
  20
 437.280
  30
0.0
  40
 15.0000
  50
 12.4300
  51
 147.848
   0
ARC
   8
LEVEL001
   6
CONTINUOUS
  62
7
  10
 200.000
  20
 434.459
  30
0.0
  40
 13.5000
  50
 26.9603
  51
 153.040
   0
ARC
   8
LEVEL001
   6
CONTINUOUS
  62
7
  10
 200.000
  20
 432.426
  30
0.0
  40
 10.7500
  50
 50.8575
  51
 129.143
   0
ARC
   8
LEVEL001
   6
CONTINUOUS
  62
7
  10
 200.000
  20
 433.348
  30
0.0
  40
 11.0127
  50
 41.9835
  51
 138.017
   0
LINE
   8
LEVEL001
   6
DASHDOT
  62
1
  10
 200.000
  20
 458.092
  30
0.0
  11
 200.000
  21
 290.263
  31
0.0
   0
POINT
   8
LEVEL001
  62
7
  10
 200.000
  20
 300.000
  30
0.0
   0
ARC
   8
LEVEL001
   6
CONTINUOUS
  62
7
  10
 166.580
  20
 386.397
  30
0.0
  40
 7.50000
  50
 20.0000
  51
 200.000
   0
LINE
   8
LEVEL001
   6
CONTINUOUS
  62
7
  10
 178.963
  20
 381.070
  30
0.0
  11
 177.987
  21
 379.907
  31
0.0
   0
LINE
   8
LEVEL001
   6
CONTINUOUS
  62
7
  10
 177.987
  20
 379.907
  30
0.0
  11
 162.013
  21
 374.093
  31
0.0
   0
LINE
   8
LEVEL001
   6
CONTINUOUS
  62
7
  10
 162.013
  20
 374.093
  30
0.0
  11
 160.517
  21
 374.356
  31
0.0
   0
LINE
   8
LEVEL001
   6
CONTINUOUS
  62
7
  10
 160.517
  20
 374.356
  30
0.0
  11
 157.616
  21
 382.327
  31
0.0
   0
LINE
   8
LEVEL001
   6
CONTINUOUS
  62
7
  10
 157.616
  20
 382.327
  30
0.0
  11
 158.592
  21
 383.490
  31
0.0
   0
LINE
   8
LEVEL001
   6
CONTINUOUS
  62
7
  10
 158.592
  20
 383.490
  30
0.0
  11
 174.567
  21
 389.304
  31
0.0
   0
LINE
   8
LEVEL001
   6
CONTINUOUS
  62
7
  10
 174.567
  20
 389.304
  30
0.0
  11
 176.062
  21
 389.040
  31
0.0
   0
LINE
   8
LEVEL001
   6
CONTINUOUS
  62
7
  10
 176.062
  20
 389.040
  30
0.0
  11
 178.963
  21
 381.070
  31
0.0
   0
LINE
   8
LEVEL001
   6
CONTINUOUS
  62
7
  10
 165.129
  20
 376.035
  30
0.0
  11
 162.228
  21
 384.005
  31
0.0
   0
ARC
   8
LEVEL001
   6
CONTINUOUS
  62
7
  10
 172.134
  20
 371.136
  30
0.0
  40
 16.2408
  50
 92.4120
  51
 127.588
   0
ARC
   8
LEVEL001
   6
CONTINUOUS
  62
7
  10
 161.629
  20
 375.146
  30
0.0
  40
 8.87961
  50
 86.1351
  51
 110.000
   0
LINE
   8
LEVEL001
   6
CONTINUOUS
  62
7
  10
 174.352
  20
 379.392
  30
0.0
  11
 171.451
  21
 387.362
  31
0.0
   0
ARC
   8
LEVEL001
   6
CONTINUOUS
  62
7
  10
 177.604
  20
 380.960
  30
0.0
  40
 8.87961
  50
 110.000
  51
 133.865
   0
LINE
   8
LEVEL001
   6
DASHDOT
  62
1
  10
 163.141
  20
 395.845
  30
0.0
  11
 187.835
  21
 328.000
  31
0.0
   0
ARC
   8
LEVEL001
   6
CONTINUOUS
  62
7
  10
 164.445
  20
 392.261
  30
0.0
  40
 16.2408
  50
 272.412
  51
 307.588
   0
ARC
   8
LEVEL001
   6
CONTINUOUS
  62
7
  10
 174.950
  20
 388.251
  30
0.0
  40
 8.87961
  50
 266.135
  51
 290.000
   0
ARC
   8
LEVEL001
   6
CONTINUOUS
  62
7
  10
 158.976
  20
 382.437
  30
0.0
  40
 8.87961
  50
 290.000
  51
 313.865
   0
CIRCLE
   8
LEVEL001
   6
CONTINUOUS
  62
7
  10
 200.000
  20
 349.000
  30
0.0
  40
 10.2500
   0
CIRCLE
   8
LEVEL001
   6
CONTINUOUS
  62
3
  10
 200.000
  20
 349.000
  30
0.0
  40
 11.0000
   0
CIRCLE
   8
LEVEL001
   6
CONTINUOUS
  62
7
  10
 200.000
  20
 349.000
  30
0.0
  40
 2.50000
   0
LINE
   8
LEVEL001
   6
CONTINUOUS
  62
3
  10
 205.328
  20
 358.624
  30
0.0
  11
 247.906
  21
 435.528
  31
0.0
   0
LINE
   8
LEVEL001
   6
CONTINUOUS
  62
3
  10
 247.906
  20
 435.528
  30
0.0
  11
 359.736
  21
 435.528
  31
0.0
   0
LINE
   8
LEVEL001
   6
CONTINUOUS
  62
3
  10
 205.328
  20
 358.624
  30
0.0
  11
 212.991
  21
 368.097
  31
0.0
   0
LINE
   8
LEVEL001
   6
CONTINUOUS
  62
3
  10
 205.328
  20
 358.624
  30
0.0
  11
 209.289
  21
 370.147
  31
0.0
   0
TEXT
   8
LEVEL003
  62
3
  10
 247.906
  20
 435.528
  30
0.0
  40
 16.0000
   1
Ｍ２２×１．５
   7
STANDARD
   0
LINE
   8
LEVEL003
   6
CONTINUOUS
  62
3
  10
 116.408
  20
 345.000
  30
0.0
  11
 116.408
  21
 252.000
  31
0.0
   0
LINE
   8
LEVEL003
   6
CONTINUOUS
  62
3
  10
 252.000
  20
 296.000
  30
0.0
  11
 252.000
  21
 252.000
  31
0.0
   0
LINE
   8
LEVEL003
   6
CONTINUOUS
  62
3
  10
 116.408
  20
 260.000
  30
0.0
  11
 252.000
  21
 260.000
  31
0.0
   0
LINE
   8
LEVEL003
   6
CONTINUOUS
  62
3
  10
 116.408
  20
 260.000
  30
0.0
  11
 128.408
  21
 257.884
  31
0.0
   0
LINE
   8
LEVEL003
   6
CONTINUOUS
  62
3
  10
 116.408
  20
 260.000
  30
0.0
  11
 128.408
  21
 262.116
  31
0.0
   0
LINE
   8
LEVEL003
   6
CONTINUOUS
  62
3
  10
 252.000
  20
 260.000
  30
0.0
  11
 240.000
  21
 262.116
  31
0.0
   0
LINE
   8
LEVEL003
   6
CONTINUOUS
  62
3
  10
 252.000
  20
 260.000
  30
0.0
  11
 240.000
  21
 257.884
  31
0.0
   0
TEXT
   8
LEVEL003
  62
3
  10
 164.204
  20
 263.200
  30
0.0
  40
 16.0000
   1
約135
   7
STANDARD
  72
1
  11
 184.204
  21
 263.200
  31
0.0
   0
LINE
   8
LEVEL003
   6
CONTINUOUS
  62
3
  10
 106.151
  20
 349.000
  30
0.0
  11
 72.0000
  21
 349.000
  31
0.0
   0
LINE
   8
LEVEL003
   6
CONTINUOUS
  62
3
  10
 153.000
  20
 300.000
  30
0.0
  11
 72.0000
  21
 300.000
  31
0.0
   0
LINE
   8
LEVEL003
   6
CONTINUOUS
  62
3
  10
 80.0000
  20
 349.000
  30
0.0
  11
 80.0000
  21
 300.000
  31
0.0
   0
LINE
   8
LEVEL003
   6
CONTINUOUS
  62
3
  10
 80.0000
  20
 349.000
  30
0.0
  11
 77.8841
  21
 337.000
  31
0.0
   0
LINE
   8
LEVEL003
   6
CONTINUOUS
  62
3
  10
 80.0000
  20
 349.000
  30
0.0
  11
 82.1159
  21
 337.000
  31
0.0
   0
LINE
   8
LEVEL003
   6
CONTINUOUS
  62
3
  10
 80.0000
  20
 300.000
  30
0.0
  11
 82.1159
  21
 312.000
  31
0.0
   0
LINE
   8
LEVEL003
   6
CONTINUOUS
  62
3
  10
 80.0000
  20
 300.000
  30
0.0
  11
 77.8841
  21
 312.000
  31
0.0
   0
TEXT
   8
LEVEL003
  62
3
  10
 76.8000
  20
 316.500
  30
0.0
  40
 16.0000
   1
49
  50
 90.0000
  41
 0.500000
   7
STANDARD
  72
1
  11
 76.8000
  21
 324.500
  31
0.0
   0
LINE
   8
LEVEL003
   6
CONTINUOUS
  62
7
  10
 887.216
  20
 387.864
  30
0.0
  11
 888.015
  21
 387.888
  31
0.0
   0
LINE
   8
LEVEL001
   6
CONTINUOUS
  62
7
  10
 887.964
  20
 389.637
  30
0.0
  11
 890.207
  21
 389.507
  31
0.0
   0
ARC
   8
LEVEL001
   6
CONTINUOUS
  62
7
  10
 890.057
  20
 386.912
  30
0.0
  40
 2.60000
  50
 17.5728
  51
 86.6919
   0
LINE
   8
LEVEL001
   6
CONTINUOUS
  62
7
  10
 887.964
  20
 389.637
  30
0.0
  11
 888.377
  21
 375.643
  31
0.0
   0
ARC
   8
LEVEL001
   6
CONTINUOUS
  62
7
  10
 875.376
  20
 382.262
  30
0.0
  40
 18.0000
  50
 345.811
  51
 17.5728
   0
LINE
   8
LEVEL003
   6
CONTINUOUS
  62
7
  10
 887.526
  20
 377.369
  30
0.0
  11
 888.325
  21
 377.392
  31
0.0
   0
LINE
   8
LEVEL001
   6
CONTINUOUS
  62
7
  10
 888.377
  20
 375.643
  30
0.0
  11
 890.609
  21
 375.905
  31
0.0
   0
ARC
   8
LEVEL001
   6
CONTINUOUS
  62
7
  10
 890.306
  20
 378.487
  30
0.0
  40
 2.60000
  50
 276.692
  51
 345.811
   0
CIRCLE
   8
LEVEL003
   6
CONTINUOUS
  62
7
  10
 1220.76
  20
 79.6176
  30
0.0
  40
 9.00000
   0
LINE
   8
LEVEL003
   6
CONTINUOUS
  62
7
  10
 1238.42
  20
 88.6176
  30
0.0
  11
 1226.99
  21
 68.8176
  31
0.0
   0
LINE
   8
LEVEL003
   6
CONTINUOUS
  62
7
  10
 1226.99
  20
 68.8176
  30
0.0
  11
 1204.13
  21
 68.8176
  31
0.0
   0
LINE
   8
LEVEL003
   6
CONTINUOUS
  62
7
  10
 1201.53
  20
 64.3176
  30
0.0
  11
 1242.39
  21
 64.3176
  31
0.0
   0
LINE
   8
LEVEL003
   6
CONTINUOUS
  62
7
  10
 1242.39
  20
 64.3176
  30
0.0
  11
 1256.42
  21
 88.6176
  31
0.0
   0
LINE
   8
LEVEL003
   6
CONTINUOUS
  62
7
  10
 1256.42
  20
 88.6176
  30
0.0
  11
 1238.42
  21
 88.6176
  31
0.0
   0
LINE
   8
LEVEL003
   6
CONTINUOUS
  62
7
  10
 1204.13
  20
 68.8176
  30
0.0
  11
 1201.53
  21
 64.3176
  31
0.0
   0
TEXT
   8
LEVEL003
  62
7
  10
 1263.57
  20
 58.2976
  30
0.0
  40
 22.5000
   1
ＯＳＡＫＡ ＪＡＣＫ
   7
STANDARD
   0
TEXT
   8
LEVEL003
  62
7
  10
 1268.31
  20
 103.847
  30
0.0
  40
 15.0000
   1
Model : ＴＷＡＺ－０．７
   7
STANDARD
   0
ENDSEC
   0
EOF
