   0
SECTION
   2
HEADER
   9
$LIMMIN
  10
-66.0000
  20
0.0
   9
$LIMMAX
  10
 1680.00
  20
 1188.00
   9
$EXTMIN
  10
-66.0000
  20
0.0
   9
$EXTMAX
  10
 1680.00
  20
 1188.00
   9
$LTSCALE
  40
 34.9200
   0
ENDSEC
   0
SECTION
   2
TABLES
  0
TABLE
  2
LTYPE
 70
    25
  0
LTYPE
  2
CONTINUOUS
 70
    64
  3
Solid line
 72
    65
 73
     0
 40
0.0
  0
LTYPE
  2
BORDER
 70
    64
  3
__ __ . __ __ . __ __ . __ __ . __ __ . __ __ .
 72
    65
 73
     6
 40
1.75
 49
0.5
 49
-0.25
 49
0.5
 49
-0.25
 49
0.0
 49
-0.25
  0
LTYPE
  2
BORDER2
 70
    64
  3
__.__.__.__.__.__.__.__.__.__.__.__.__.__.__.__
 72
    65
 73
     6
 40
0.875
 49
0.25
 49
-0.125
 49
0.25
 49
-0.125
 49
0.0
 49
-0.125
  0
LTYPE
  2
BORDERX2
 70
    64
  3
____  ____  .  ____  ____  .  ____  ____  .  __
 72
    65
 73
     6
 40
3.5
 49
1.0
 49
-0.5
 49
1.0
 49
-0.5
 49
0.0
 49
-0.5
  0
LTYPE
  2
CENTER
 70
    64
  3
____ _ ____ _ ____ _ ____ _ ____ _ ____ _ ____ 
 72
    65
 73
     4
 40
2.0
 49
1.25
 49
-0.25
 49
0.25
 49
-0.25
  0
LTYPE
  2
CENTER2
 70
    64
  3
___ _ ___ _ ___ _ ___ _ ___ _ ___ _ ___ _ ___ _
 72
    65
 73
     4
 40
1.125
 49
0.75
 49
-0.125
 49
0.125
 49
-0.125
  0
LTYPE
  2
CENTERX2
 70
    64
  3
________  __  ________  __  ________  __  _____
 72
    65
 73
     4
 40
4.0
 49
2.5
 49
-0.5
 49
0.5
 49
-0.5
  0
LTYPE
  2
DASHDOT
 70
    64
  3
__ . __ . __ . __ . __ . __ . __ . __ . __ . __
 72
    65
 73
     4
 40
1.0
 49
0.5
 49
-0.25
 49
0.0
 49
-0.25
  0
LTYPE
  2
DASHDOT2
 70
    64
  3
_._._._._._._._._._._._._._._._._._._._._._._._
 72
    65
 73
     4
 40
0.5
 49
0.25
 49
-0.125
 49
0.0
 49
-0.125
  0
LTYPE
  2
DASHDOTX2
 70
    64
  3
____  .  ____  .  ____  .  ____  .  ____  .  __
 72
    65
 73
     4
 40
2.0
 49
1.0
 49
-0.5
 49
0.0
 49
-0.5
  0
LTYPE
  2
DASHED
 70
    64
  3
__ __ __ __ __ __ __ __ __ __ __ __ __ __ __ __
 72
    65
 73
     2
 40
0.75
 49
0.5
 49
-0.25
  0
LTYPE
  2
DASHED2
 70
    64
  3
_ _ _ _ _ _ _ _ _ _ _ _ _ _ _ _ _ _ _ _ _ _ _ _
 72
    65
 73
     2
 40
0.375
 49
0.25
 49
-0.125
  0
LTYPE
  2
DASHEDX2
 70
    64
  3
____  ____  ____  ____  ____  ____  ____  ____ 
 72
    65
 73
     2
 40
1.5
 49
1.0
 49
-0.5
  0
LTYPE
  2
DIVIDE
 70
    64
  3
____ . . ____ . . ____ . . ____ . . ____ . . __
 72
    65
 73
     6
 40
1.25
 49
0.5
 49
-0.25
 49
0.0
 49
-0.25
 49
0.0
 49
-0.25
  0
LTYPE
  2
DIVIDE2
 70
    64
  3
__..__..__..__..__..__..__..__..__..__..__..__.
 72
    65
 73
     6
 40
0.625
 49
0.25
 49
-0.125
 49
0.0
 49
-0.125
 49
0.0
 49
-0.125
  0
LTYPE
  2
DIVIDEX2
 70
    64
  3
________  .  .  ________  .  .  ________  .  . 
 72
    65
 73
     6
 40
2.5
 49
1.0
 49
-0.5
 49
0.0
 49
-0.5
 49
0.0
 49
-0.5
  0
LTYPE
  2
DOT
 70
    64
  3
. . . . . . . . . . . . . . . . . . . . . . . .
 72
    65
 73
     2
 40
0.25
 49
0.0
 49
-0.25
  0
LTYPE
  2
DOT2
 70
    64
  3
...............................................
 72
    65
 73
     2
 40
0.125
 49
0.0
 49
-0.125
  0
LTYPE
  2
DOTX2
 70
    64
  3
.  .  .  .  .  .  .  .  .  .  .  .  .  .  .  . 
 72
    65
 73
     2
 40
0.5
 49
0.0
 49
-0.5
  0
LTYPE
  2
HIDDEN
 70
    64
  3
__ __ __ __ __ __ __ __ __ __ __ __ __ __ __ __
 72
    65
 73
     2
 40
0.375
 49
0.25
 49
-0.125
  0
LTYPE
  2
HIDDEN2
 70
    64
  3
_ _ _ _ _ _ _ _ _ _ _ _ _ _ _ _ _ _ _ _ _ _ _ _
 72
    65
 73
     2
 40
0.1875
 49
0.125
 49
-0.0625
  0
LTYPE
  2
HIDDENX2
 70
    64
  3
____ ____ ____ ____ ____ ____ ____ ____ ____ __
 72
    65
 73
     2
 40
0.75
 49
0.5
 49
-0.25
  0
LTYPE
  2
PHANTOM
 70
    64
  3
______  __  __  ______  __  __  ______  __  __ 
 72
    65
 73
     6
 40
2.5
 49
1.25
 49
-0.25
 49
0.25
 49
-0.25
 49
0.25
 49
-0.25
  0
LTYPE
  2
PHANTOM2
 70
    64
  3
___ _ _ ___ _ _ ___ _ _ ___ _ _ ___ _ _ ___ _ _
 72
    65
 73
     6
 40
1.25
 49
0.625
 49
-0.125
 49
0.125
 49
-0.125
 49
0.125
 49
-0.125
  0
LTYPE
  2
PHANTOMX2
 70
    64
  3
____________    ____    ____    ____________   
 72
    65
 73
     6
 40
5.0
 49
2.5
 49
-0.5
 49
0.5
 49
-0.5
 49
0.5
 49
-0.5
  0
ENDTAB
  0
TABLE
  2
STYLE
 70
     2
  0
STYLE
  2
STANDARD
 70
0
 40
0.0
 41
1.0
 50
0.0
 71
0
 42
0.2
  3
TXT
  4
BIGFONT
  0
STYLE
  2
STANDARD1
 70
     4
 40
0.0
 41
1.0
 50
0.0
 71
     0
 42
0.2
  3
TXT
  4
BIGFONT
  0
ENDTAB
   0
TABLE
   2
LAYER
  70
11
   0
LAYER
   2
0
  70
0
  62
7
   6
CONTINUOUS
   0
LAYER
   2
LEVEL001
  70
0
  62
7
   6
CONTINUOUS
   0
LAYER
   2
LEVEL003
  70
0
  62
7
   6
CONTINUOUS
   0
LAYER
   2
LEVEL010
  70
0
  62
7
   6
CONTINUOUS
   0
LAYER
   2
LEVEL011
  70
0
  62
7
   6
CONTINUOUS
   0
LAYER
   2
LEVEL012
  70
0
  62
7
   6
CONTINUOUS
   0
LAYER
   2
LEVEL014
  70
0
  62
7
   6
CONTINUOUS
   0
LAYER
   2
LEVEL020
  70
0
  62
7
   6
CONTINUOUS
   0
LAYER
   2
LEVEL030
  70
0
  62
7
   6
CONTINUOUS
   0
LAYER
   2
LEVEL050
  70
0
  62
7
   6
CONTINUOUS
   0
LAYER
   2
LEVEL100
  70
0
  62
-7
   6
CONTINUOUS
   0
ENDTAB
   0
ENDSEC
   0
SECTION
   2
ENTITIES
   0
LINE
   8
LEVEL100
   6
CONTINUOUS
  62
7
  10
 1145.00
  20
 216.000
  30
0.0
  11
 1145.00
  21
 188.000
  31
0.0
   0
LINE
   8
LEVEL100
   6
CONTINUOUS
  62
7
  10
 1265.00
  20
 216.000
  30
0.0
  11
 1265.00
  21
 124.000
  31
0.0
   0
LINE
   8
LEVEL100
   6
CONTINUOUS
  62
7
  10
 1345.00
  20
 216.000
  30
0.0
  11
 1345.00
  21
 188.000
  31
0.0
   0
LINE
   8
LEVEL100
   6
CONTINUOUS
  62
7
  10
 1377.00
  20
 216.000
  30
0.0
  11
 1377.00
  21
 188.000
  31
0.0
   0
LINE
   8
LEVEL100
   6
CONTINUOUS
  62
7
  10
 1423.00
  20
 216.000
  30
0.0
  11
 1423.00
  21
 188.000
  31
0.0
   0
LINE
   8
LEVEL100
   6
CONTINUOUS
  62
7
  10
 1227.00
  20
 188.000
  30
0.0
  11
 1227.00
  21
 124.000
  31
0.0
   0
LINE
   8
LEVEL100
   6
CONTINUOUS
  62
7
  10
 1161.00
  20
 66.0000
  30
0.0
  11
 1181.00
  21
 86.0000
  31
0.0
   0
CIRCLE
   8
LEVEL100
   6
CONTINUOUS
  62
7
  10
 1133.00
  20
 6.00000
  30
0.0
  40
 1.60000
   0
CIRCLE
   8
LEVEL100
   6
CONTINUOUS
  62
7
  10
 1161.00
  20
 6.00000
  30
0.0
  40
 1.60000
   0
CIRCLE
   8
LEVEL100
   6
CONTINUOUS
  62
7
  10
 1133.00
  20
 6.00000
  30
0.0
  40
 1.00000
   0
CIRCLE
   8
LEVEL100
   6
CONTINUOUS
  62
7
  10
 1161.00
  20
 6.00000
  30
0.0
  40
 1.00000
   0
LINE
   8
LEVEL100
   6
CONTINUOUS
  62
7
  10
 1284.00
  20
 22.0000
  30
0.0
  11
 1284.00
  21
 26.0000
  31
0.0
   0
LINE
   8
LEVEL100
   6
CONTINUOUS
  62
7
  10
 1284.00
  20
 26.0000
  30
0.0
  11
 1296.00
  21
 26.0000
  31
0.0
   0
LINE
   8
LEVEL100
   6
CONTINUOUS
  62
7
  10
 1296.00
  20
 26.0000
  30
0.0
  11
 1296.00
  21
 22.0000
  31
0.0
   0
LINE
   8
LEVEL100
   6
CONTINUOUS
  62
7
  10
 1296.00
  20
 22.0000
  30
0.0
  11
 1284.00
  21
 22.0000
  31
0.0
   0
LINE
   8
LEVEL100
   6
CONTINUOUS
  62
7
  10
 1105.00
  20
0.0
  30
0.0
  11
 1105.00
  21
 216.000
  31
0.0
   0
LINE
   8
LEVEL100
   6
CONTINUOUS
  62
7
  10
 1189.00
  20
 188.000
  30
0.0
  11
 1189.00
  21
0.0
  31
0.0
   0
LINE
   8
LEVEL100
   6
CONTINUOUS
  62
7
  10
 1105.00
  20
 92.0000
  30
0.0
  11
 1189.00
  21
 92.0000
  31
0.0
   0
TEXT
   8
LEVEL100
  62
7
  10
 1203.00
  20
 14.0000
  30
0.0
  40
 20.0000
   1
ＯＪ
  41
 0.700000
   7
STANDARD
   0
LINE
   8
LEVEL100
   6
CONTINUOUS
  62
7
  10
 1105.00
  20
 188.000
  30
0.0
  11
 1532.60
  21
 188.000
  31
0.0
   0
LINE
   8
LEVEL100
   6
CONTINUOUS
  62
7
  10
 1105.00
  20
 172.000
  30
0.0
  11
 1532.60
  21
 172.000
  31
0.0
   0
LINE
   8
LEVEL100
   6
CONTINUOUS
  62
7
  10
 1105.00
  20
 216.000
  30
0.0
  11
 1532.60
  21
 216.000
  31
0.0
   0
LINE
   8
LEVEL100
   6
CONTINUOUS
  62
7
  10
 1208.60
  20
 1012.00
  30
0.0
  11
 1208.60
  21
 1112.00
  31
0.0
   0
LINE
   8
LEVEL100
   6
CONTINUOUS
  62
7
  10
 1208.60
  20
 1092.00
  30
0.0
  11
 1532.60
  21
 1092.00
  31
0.0
   0
LINE
   8
LEVEL100
   6
CONTINUOUS
  62
7
  10
 1208.60
  20
 1072.00
  30
0.0
  11
 1532.60
  21
 1072.00
  31
0.0
   0
LINE
   8
LEVEL100
   6
CONTINUOUS
  62
7
  10
 1244.60
  20
 1092.00
  30
0.0
  11
 1244.60
  21
 1072.00
  31
0.0
   0
LINE
   8
LEVEL100
   6
CONTINUOUS
  62
7
  10
 1452.60
  20
 1092.00
  30
0.0
  11
 1452.60
  21
 1072.00
  31
0.0
   0
LINE
   8
LEVEL100
   6
CONTINUOUS
  62
7
  10
 1500.60
  20
 1092.00
  30
0.0
  11
 1500.60
  21
 1072.00
  31
0.0
   0
LINE
   8
LEVEL100
   6
CONTINUOUS
  62
7
  10
 1105.00
  20
 124.000
  30
0.0
  11
 1532.60
  21
 124.000
  31
0.0
   0
LINE
   8
LEVEL100
   6
CONTINUOUS
  62
7
  10
 1105.00
  20
 60.0000
  30
0.0
  11
 1532.60
  21
 60.0000
  31
0.0
   0
LINE
   8
LEVEL100
   6
CONTINUOUS
  62
7
  10
 1420.60
  20
 60.0000
  30
0.0
  11
 1420.60
  21
0.0
  31
0.0
   0
LINE
   8
LEVEL100
   6
CONTINUOUS
  62
7
  10
 1436.60
  20
0.0
  30
0.0
  11
 1504.60
  21
 40.0000
  31
0.0
   0
LINE
   8
LEVEL100
   6
CONTINUOUS
  62
7
  10
0.0
  20
 1112.00
  30
0.0
  11
 1532.60
  21
 1112.00
  31
0.0
   0
LINE
   8
LEVEL100
   6
CONTINUOUS
  62
7
  10
 1532.60
  20
 1112.00
  30
0.0
  11
 1532.60
  21
0.0
  31
0.0
   0
LINE
   8
LEVEL100
   6
CONTINUOUS
  62
7
  10
 1532.60
  20
0.0
  30
0.0
  11
0.0
  21
0.0
  31
0.0
   0
LINE
   8
LEVEL100
   6
CONTINUOUS
  62
7
  10
0.0
  20
 1076.80
  30
0.0
  11
 200.600
  21
 1076.80
  31
0.0
   0
LINE
   8
LEVEL100
   6
CONTINUOUS
  62
7
  10
 200.600
  20
 1076.80
  30
0.0
  11
 200.600
  21
 1112.00
  31
0.0
   0
TEXT
   8
LEVEL100
  62
7
  10
 196.600
  20
 1104.40
  30
0.0
  40
 20.0000
   1
ＯＪ．
  50
 180.000
  41
 0.900000
   7
STANDARD
   0
LINE
   8
LEVEL100
   6
CONTINUOUS
  62
7
  10
 128.600
  20
 1096.40
  30
0.0
  11
 116.600
  21
 1096.40
  31
0.0
   0
LINE
   8
LEVEL100
   6
CONTINUOUS
  62
7
  10
 116.600
  20
 1096.40
  30
0.0
  11
 116.600
  21
 1092.40
  31
0.0
   0
LINE
   8
LEVEL100
   6
CONTINUOUS
  62
7
  10
 116.600
  20
 1092.40
  30
0.0
  11
 128.600
  21
 1092.40
  31
0.0
   0
LINE
   8
LEVEL100
   6
CONTINUOUS
  62
7
  10
 128.600
  20
 1092.40
  30
0.0
  11
 128.600
  21
 1096.40
  31
0.0
   0
TEXT
   8
LEVEL100
  62
7
  10
 1149.00
  20
 192.000
  30
0.0
  40
 16.0000
   1
Ｓ．ＩＭＡＮＩＳＨＩ
  41
 0.625000
   7
STANDARD
   0
TEXT
   8
LEVEL100
  62
3
  10
 1265.00
  20
 124.000
  30
0.0
  40
 20.0000
   1
＊＊＊＊＊＊＊＊＊＊＊＊＊＊
  41
 0.700000
   7
STANDARD
   0
TEXT
   8
LEVEL100
  62
3
  10
 1437.79
  20
 21.2000
  30
0.0
  40
 20.0000
   1
＊＊
  41
 0.630000
   7
STANDARD
  72
1
  11
 1450.39
  21
 21.2000
  31
0.0
   0
LINE
   8
LEVEL001
   6
CONTINUOUS
  62
7
  10
 106.947
  20
 341.913
  30
0.0
  11
 106.947
  21
 354.000
  31
0.0
   0
LINE
   8
LEVEL001
   6
CONTINUOUS
  62
7
  10
 106.947
  20
 366.087
  30
0.0
  11
 106.947
  21
 354.000
  31
0.0
   0
LINE
   8
LEVEL001
   6
CONTINUOUS
  62
7
  10
 147.497
  20
 338.161
  30
0.0
  11
 126.915
  21
 345.526
  31
0.0
   0
ARC
   8
LEVEL001
   6
CONTINUOUS
  62
7
  10
 148.171
  20
 340.044
  30
0.0
  40
 2.00000
  50
 250.311
  51
 277.178
   0
LINE
   8
LEVEL001
   6
CONTINUOUS
  62
7
  10
 148.421
  20
 338.060
  30
0.0
  11
 156.821
  21
 339.118
  31
0.0
   0
LINE
   8
LEVEL001
   6
CONTINUOUS
  62
7
  10
 120.947
  20
 354.000
  30
0.0
  11
 120.947
  21
 362.391
  31
0.0
   0
ARC
   8
LEVEL001
   6
CONTINUOUS
  62
7
  10
 129.947
  20
 362.391
  30
0.0
  40
 9.00000
  50
 95.0000
  51
 180.000
   0
ARC
   8
LEVEL001
   6
CONTINUOUS
  62
7
  10
 147.644
  20
 370.966
  30
0.0
  40
 2.00000
  50
 68.0242
  51
 95.0000
   0
ARC
   8
LEVEL001
   6
CONTINUOUS
  62
7
  10
 129.947
  20
 354.000
  30
0.0
  40
 9.00003
  50
 180.000
  51
 250.311
   0
LINE
   8
LEVEL001
   6
CONTINUOUS
  62
7
  10
 147.469
  20
 372.958
  30
0.0
  11
 129.163
  21
 371.357
  31
0.0
   0
ARC
   8
LEVEL001
   6
CONTINUOUS
  62
7
  10
 106.947
  20
 309.167
  30
0.0
  40
 2.00000
  50
 95.0000
  51
 180.000
   0
LINE
   8
LEVEL001
   6
CONTINUOUS
  62
7
  10
 104.947
  20
 305.000
  30
0.0
  11
 104.947
  21
 309.167
  31
0.0
   0
LINE
   8
LEVEL001
   6
CONTINUOUS
  62
7
  10
 104.947
  20
 305.000
  30
0.0
  11
 199.947
  21
 305.000
  31
0.0
   0
ARC
   8
LEVEL001
   6
CONTINUOUS
  62
7
  10
 197.947
  20
 309.167
  30
0.0
  40
 2.00000
  50
 0.423395E-10
  51
 85.0000
   0
LINE
   8
LEVEL001
   6
CONTINUOUS
  62
7
  10
 199.947
  20
 305.000
  30
0.0
  11
 199.947
  21
 309.167
  31
0.0
   0
ARC
   8
LEVEL001
   6
CONTINUOUS
  62
7
  10
 130.884
  20
 384.580
  30
0.0
  40
 2.00000
  50
 95.0000
  51
 110.000
   0
ARC
   8
LEVEL001
   6
CONTINUOUS
  62
7
  10
 127.447
  20
 388.650
  30
0.0
  40
 3.00000
  50
 290.000
  51
0.0
   0
LINE
   8
LEVEL001
   6
CONTINUOUS
  62
7
  10
 109.960
  20
 379.093
  30
0.0
  11
 130.686
  21
 386.637
  31
0.0
   0
LINE
   8
LEVEL001
   6
CONTINUOUS
  62
7
  10
 130.709
  20
 386.573
  30
0.0
  11
 141.209
  21
 387.491
  31
0.0
   0
ARC
   8
LEVEL001
   6
CONTINUOUS
  62
7
  10
 140.947
  20
 390.480
  30
0.0
  40
 3.00000
  50
 275.000
  51
0.0
   0
LINE
   8
LEVEL001
   6
CONTINUOUS
  62
7
  10
 127.947
  20
 403.000
  30
0.0
  11
 128.947
  21
 404.000
  31
0.0
   0
LINE
   8
LEVEL001
   6
CONTINUOUS
  62
7
  10
 128.947
  20
 404.000
  30
0.0
  11
 132.947
  21
 404.000
  31
0.0
   0
LINE
   8
LEVEL001
   6
CONTINUOUS
  62
7
  10
 162.947
  20
 404.000
  30
0.0
  11
 166.947
  21
 404.000
  31
0.0
   0
LINE
   8
LEVEL001
   6
CONTINUOUS
  62
7
  10
 166.947
  20
 404.000
  30
0.0
  11
 167.947
  21
 403.000
  31
0.0
   0
LINE
   8
LEVEL001
   6
CONTINUOUS
  62
7
  10
 127.947
  20
 403.000
  30
0.0
  11
 132.975
  21
 403.000
  31
0.0
   0
LINE
   8
LEVEL001
   6
CONTINUOUS
  62
7
  10
 167.947
  20
 403.000
  30
0.0
  11
 162.947
  21
 403.000
  31
0.0
   0
ARC
   8
LEVEL001
   6
CONTINUOUS
  62
7
  10
 154.947
  20
 425.000
  30
0.0
  40
 3.00000
  50
 90.0000
  51
 180.000
   0
LINE
   8
LEVEL001
   6
CONTINUOUS
  62
7
  10
 147.947
  20
 438.000
  30
0.0
  11
 138.947
  21
 437.213
  31
0.0
   0
ARC
   8
LEVEL001
   6
CONTINUOUS
  62
7
  10
 140.947
  20
 425.000
  30
0.0
  40
 3.00000
  50
0.0
  51
 90.0000
   0
LINE
   8
LEVEL001
   6
CONTINUOUS
  62
7
  10
 130.447
  20
 392.500
  30
0.0
  11
 140.947
  21
 392.500
  31
0.0
   0
ARC
   8
LEVEL001
   6
CONTINUOUS
  62
7
  10
 129.947
  20
 394.500
  30
0.0
  40
 2.00000
  50
 179.999
  51
 240.000
   0
ARC
   8
LEVEL001
   6
CONTINUOUS
  62
7
  10
 127.447
  20
 390.170
  30
0.0
  40
 3.00000
  50
0.0
  51
 60.0000
   0
ARC
   8
LEVEL001
   6
CONTINUOUS
  62
7
  10
 168.447
  20
 390.170
  30
0.0
  40
 3.00000
  50
 120.000
  51
 180.000
   0
ARC
   8
LEVEL001
   6
CONTINUOUS
  62
7
  10
 165.947
  20
 394.500
  30
0.0
  40
 2.00000
  50
 300.000
  51
 0.928922E-3
   0
LINE
   8
LEVEL001
   6
CONTINUOUS
  62
7
  10
 127.947
  20
 394.500
  30
0.0
  11
 127.947
  21
 403.000
  31
0.0
   0
LINE
   8
LEVEL001
   6
CONTINUOUS
  62
7
  10
 167.947
  20
 403.000
  30
0.0
  11
 167.947
  21
 394.500
  31
0.0
   0
LINE
   8
LEVEL001
   6
CONTINUOUS
  62
7
  10
 130.447
  20
 390.170
  30
0.0
  11
 130.447
  21
 388.650
  31
0.0
   0
LINE
   8
LEVEL003
   6
CONTINUOUS
  62
7
  10
 165.447
  20
 377.500
  30
0.0
  11
 166.447
  21
 377.500
  31
0.0
   0
LINE
   8
LEVEL003
   6
CONTINUOUS
  62
7
  10
 166.447
  20
 377.500
  30
0.0
  11
 166.447
  21
 387.500
  31
0.0
   0
LINE
   8
LEVEL003
   6
CONTINUOUS
  62
7
  10
 166.447
  20
 387.500
  30
0.0
  11
 165.447
  21
 387.500
  31
0.0
   0
ARC
   8
LEVEL001
   6
CONTINUOUS
  62
7
  10
 160.947
  20
 397.833
  30
0.0
  40
 2.00000
  50
 275.000
  51
 0.182386E-9
   0
ARC
   8
LEVEL001
   6
CONTINUOUS
  62
7
  10
 154.947
  20
 392.289
  30
0.0
  40
 3.00000
  50
 95.0000
  51
 180.000
   0
LINE
   8
LEVEL001
   6
CONTINUOUS
  62
7
  10
 161.122
  20
 395.840
  30
0.0
  11
 154.686
  21
 395.277
  31
0.0
   0
ARC
   8
LEVEL001
   6
CONTINUOUS
  62
7
  10
 134.947
  20
 397.833
  30
0.0
  40
 2.00000
  50
 180.000
  51
 265.000
   0
ARC
   8
LEVEL001
   6
CONTINUOUS
  62
7
  10
 140.947
  20
 392.289
  30
0.0
  40
 3.00000
  50
0.0
  51
 85.0000
   0
LINE
   8
LEVEL001
   6
CONTINUOUS
  62
7
  10
 141.209
  20
 395.277
  30
0.0
  11
 134.773
  21
 395.840
  31
0.0
   0
LINE
   8
LEVEL001
   6
CONTINUOUS
  62
7
  10
 125.465
  20
 384.736
  30
0.0
  11
 123.952
  21
 388.894
  31
0.0
   0
LINE
   8
LEVEL001
   6
CONTINUOUS
  62
7
  10
 123.952
  20
 388.894
  30
0.0
  11
 117.139
  21
 386.414
  31
0.0
   0
LINE
   8
LEVEL001
   6
CONTINUOUS
  62
7
  10
 117.139
  20
 386.414
  30
0.0
  11
 117.823
  21
 384.535
  31
0.0
   0
LINE
   8
LEVEL001
   6
CONTINUOUS
  62
7
  10
 117.823
  20
 384.535
  30
0.0
  11
 116.413
  21
 384.021
  31
0.0
   0
LINE
   8
LEVEL001
   6
CONTINUOUS
  62
7
  10
 116.413
  20
 384.021
  30
0.0
  11
 115.729
  21
 385.901
  31
0.0
   0
LINE
   8
LEVEL001
   6
CONTINUOUS
  62
7
  10
 115.729
  20
 385.901
  30
0.0
  11
 108.917
  21
 383.421
  31
0.0
   0
LINE
   8
LEVEL001
   6
CONTINUOUS
  62
7
  10
 108.917
  20
 383.421
  30
0.0
  11
 110.430
  21
 379.264
  31
0.0
   0
LINE
   8
LEVEL001
   6
DASHDOT
  62
1
  10
 115.227
  20
 389.474
  30
0.0
  11
 135.782
  21
 333.000
  31
0.0
   0
ARC
   8
LEVEL003
   6
CONTINUOUS
  62
7
  10
 130.447
  20
 408.966
  30
0.0
  40
 1.00000
  50
 180.000
  51
 268.000
   0
LINE
   8
LEVEL003
   6
CONTINUOUS
  62
7
  10
 129.447
  20
 438.000
  30
0.0
  11
 129.447
  21
 408.966
  31
0.0
   0
ARC
   8
LEVEL003
   6
CONTINUOUS
  62
7
  10
 129.447
  20
 440.000
  30
0.0
  40
 2.00000
  50
 270.000
  51
 0.123762E-9
   0
ARC
   8
LEVEL003
   6
CONTINUOUS
  62
7
  10
 133.447
  20
 443.493
  30
0.0
  40
 2.00000
  50
 92.0000
  51
 180.000
   0
LINE
   8
LEVEL003
   6
CONTINUOUS
  62
7
  10
 133.377
  20
 445.491
  30
0.0
  11
 147.947
  21
 446.000
  31
0.0
   0
ARC
   8
LEVEL003
   6
CONTINUOUS
  62
7
  10
 166.447
  20
 440.000
  30
0.0
  40
 2.00000
  50
 180.000
  51
 270.000
   0
LINE
   8
LEVEL003
   6
CONTINUOUS
  62
7
  10
 147.947
  20
 446.000
  30
0.0
  11
 162.517
  21
 445.491
  31
0.0
   0
ARC
   8
LEVEL003
   6
CONTINUOUS
  62
7
  10
 162.447
  20
 443.493
  30
0.0
  40
 2.00000
  50
0.0
  51
 88.0000
   0
LINE
   8
LEVEL003
   6
CONTINUOUS
  62
7
  10
 166.447
  20
 438.000
  30
0.0
  11
 166.447
  21
 408.966
  31
0.0
   0
ARC
   8
LEVEL003
   6
CONTINUOUS
  62
7
  10
 165.447
  20
 408.966
  30
0.0
  40
 1.00000
  50
 272.000
  51
 0.807708E-9
   0
LINE
   8
LEVEL003
   6
CONTINUOUS
  62
7
  10
 131.447
  20
 443.493
  30
0.0
  11
 131.447
  21
 404.000
  31
0.0
   0
LINE
   8
LEVEL003
   6
CONTINUOUS
  62
7
  10
 164.447
  20
 443.493
  30
0.0
  11
 164.447
  21
 404.000
  31
0.0
   0
LINE
   8
LEVEL003
   6
CONTINUOUS
  62
7
  10
 132.947
  20
 407.878
  30
0.0
  11
 130.412
  21
 407.967
  31
0.0
   0
LINE
   8
LEVEL003
   6
CONTINUOUS
  62
7
  10
 162.947
  20
 407.878
  30
0.0
  11
 165.482
  21
 407.967
  31
0.0
   0
LINE
   8
LEVEL001
   6
DASHDOT
  62
1
  10
 120.000
  20
 428.000
  30
0.0
  11
 175.000
  21
 428.000
  31
0.0
   0
LINE
   8
LEVEL001
   6
CONTINUOUS
  62
7
  10
 166.697
  20
 423.000
  30
0.0
  11
 166.697
  21
 413.000
  31
0.0
   0
LINE
   8
LEVEL001
   6
CONTINUOUS
  62
7
  10
 166.697
  20
 423.000
  30
0.0
  11
 166.447
  21
 423.000
  31
0.0
   0
LINE
   8
LEVEL001
   6
CONTINUOUS
  62
7
  10
 166.697
  20
 423.000
  30
0.0
  11
 167.697
  21
 422.000
  31
0.0
   0
LINE
   8
LEVEL001
   6
CONTINUOUS
  62
7
  10
 166.697
  20
 413.000
  30
0.0
  11
 166.447
  21
 413.000
  31
0.0
   0
LINE
   8
LEVEL001
   6
CONTINUOUS
  62
7
  10
 166.697
  20
 413.000
  30
0.0
  11
 167.697
  21
 414.000
  31
0.0
   0
LINE
   8
LEVEL001
   6
CONTINUOUS
  62
7
  10
 167.697
  20
 422.000
  30
0.0
  11
 167.697
  21
 414.000
  31
0.0
   0
LINE
   8
LEVEL001
   6
CONTINUOUS
  62
7
  10
 129.197
  20
 423.000
  30
0.0
  11
 129.197
  21
 413.000
  31
0.0
   0
LINE
   8
LEVEL001
   6
CONTINUOUS
  62
7
  10
 129.197
  20
 423.000
  30
0.0
  11
 129.447
  21
 423.000
  31
0.0
   0
LINE
   8
LEVEL001
   6
CONTINUOUS
  62
7
  10
 129.197
  20
 423.000
  30
0.0
  11
 128.197
  21
 422.000
  31
0.0
   0
LINE
   8
LEVEL001
   6
CONTINUOUS
  62
7
  10
 129.197
  20
 413.000
  30
0.0
  11
 129.447
  21
 413.000
  31
0.0
   0
LINE
   8
LEVEL001
   6
CONTINUOUS
  62
7
  10
 129.197
  20
 413.000
  30
0.0
  11
 128.197
  21
 414.000
  31
0.0
   0
LINE
   8
LEVEL001
   6
CONTINUOUS
  62
7
  10
 128.197
  20
 422.000
  30
0.0
  11
 128.197
  21
 414.000
  31
0.0
   0
LINE
   8
LEVEL003
   6
DASHDOT
  62
1
  10
 125.000
  20
 418.000
  30
0.0
  11
 170.000
  21
 418.000
  31
0.0
   0
LINE
   8
LEVEL001
   6
CONTINUOUS
  62
7
  10
 171.447
  20
 433.000
  30
0.0
  11
 166.447
  21
 433.000
  31
0.0
   0
LINE
   8
LEVEL001
   6
CONTINUOUS
  62
7
  10
 171.447
  20
 433.000
  30
0.0
  11
 172.447
  21
 432.000
  31
0.0
   0
LINE
   8
LEVEL001
   6
CONTINUOUS
  62
7
  10
 172.447
  20
 432.000
  30
0.0
  11
 172.447
  21
 424.000
  31
0.0
   0
LINE
   8
LEVEL001
   6
CONTINUOUS
  62
7
  10
 172.447
  20
 424.000
  30
0.0
  11
 171.447
  21
 423.000
  31
0.0
   0
LINE
   8
LEVEL001
   6
CONTINUOUS
  62
7
  10
 166.697
  20
 423.000
  30
0.0
  11
 171.447
  21
 423.000
  31
0.0
   0
LINE
   8
LEVEL001
   6
CONTINUOUS
  62
7
  10
 171.447
  20
 433.000
  30
0.0
  11
 171.447
  21
 423.000
  31
0.0
   0
LINE
   8
LEVEL001
   6
CONTINUOUS
  62
7
  10
 124.447
  20
 433.000
  30
0.0
  11
 129.447
  21
 433.000
  31
0.0
   0
LINE
   8
LEVEL001
   6
CONTINUOUS
  62
7
  10
 124.447
  20
 433.000
  30
0.0
  11
 123.447
  21
 432.000
  31
0.0
   0
LINE
   8
LEVEL001
   6
CONTINUOUS
  62
7
  10
 123.447
  20
 432.000
  30
0.0
  11
 123.447
  21
 424.000
  31
0.0
   0
LINE
   8
LEVEL001
   6
CONTINUOUS
  62
7
  10
 123.447
  20
 424.000
  30
0.0
  11
 124.447
  21
 423.000
  31
0.0
   0
LINE
   8
LEVEL001
   6
CONTINUOUS
  62
7
  10
 129.197
  20
 423.000
  30
0.0
  11
 124.447
  21
 423.000
  31
0.0
   0
LINE
   8
LEVEL001
   6
CONTINUOUS
  62
7
  10
 124.447
  20
 433.000
  30
0.0
  11
 124.447
  21
 423.000
  31
0.0
   0
LINE
   8
LEVEL001
   6
DASHDOT
  62
1
  10
 168.947
  20
 435.952
  30
0.0
  11
 168.947
  21
 422.374
  31
0.0
   0
LINE
   8
LEVEL001
   6
CONTINUOUS
  62
7
  10
 168.147
  20
 425.375
  30
0.0
  11
 168.147
  21
 431.775
  31
0.0
   0
LINE
   8
LEVEL001
   6
CONTINUOUS
  62
7
  10
 169.747
  20
 431.775
  30
0.0
  11
 169.747
  21
 425.375
  31
0.0
   0
ARC
   8
LEVEL001
   6
CONTINUOUS
  62
7
  10
 168.947
  20
 431.775
  30
0.0
  40
 0.800000
  50
0.0
  51
 180.000
   0
ARC
   8
LEVEL001
   6
CONTINUOUS
  62
7
  10
 168.947
  20
 425.375
  30
0.0
  40
 0.800000
  50
 180.000
  51
0.0
   0
LINE
   8
LEVEL001
   6
CONTINUOUS
  62
7
  10
 168.147
  20
 434.250
  30
0.0
  11
 168.147
  21
 433.000
  31
0.0
   0
LINE
   8
LEVEL001
   6
CONTINUOUS
  62
7
  10
 169.747
  20
 434.250
  30
0.0
  11
 169.747
  21
 433.000
  31
0.0
   0
ARC
   8
LEVEL001
   6
CONTINUOUS
  62
7
  10
 168.947
  20
 434.250
  30
0.0
  40
 0.800000
  50
0.0
  51
 180.000
   0
LINE
   8
LEVEL001
   6
DASHDOT
  62
1
  10
 126.947
  20
 435.952
  30
0.0
  11
 126.947
  21
 422.374
  31
0.0
   0
LINE
   8
LEVEL001
   6
CONTINUOUS
  62
7
  10
 127.747
  20
 434.250
  30
0.0
  11
 127.747
  21
 433.000
  31
0.0
   0
LINE
   8
LEVEL001
   6
CONTINUOUS
  62
7
  10
 126.147
  20
 434.250
  30
0.0
  11
 126.147
  21
 433.000
  31
0.0
   0
ARC
   8
LEVEL001
   6
CONTINUOUS
  62
7
  10
 126.947
  20
 434.250
  30
0.0
  40
 0.800000
  50
0.0
  51
 180.000
   0
LINE
   8
LEVEL001
   6
CONTINUOUS
  62
7
  10
 127.747
  20
 425.375
  30
0.0
  11
 127.747
  21
 431.775
  31
0.0
   0
LINE
   8
LEVEL001
   6
CONTINUOUS
  62
7
  10
 126.147
  20
 431.775
  30
0.0
  11
 126.147
  21
 425.375
  31
0.0
   0
ARC
   8
LEVEL001
   6
CONTINUOUS
  62
7
  10
 126.947
  20
 431.775
  30
0.0
  40
 0.800000
  50
0.0
  51
 180.000
   0
ARC
   8
LEVEL001
   6
CONTINUOUS
  62
7
  10
 126.947
  20
 425.375
  30
0.0
  40
 0.800000
  50
 180.000
  51
0.0
   0
LINE
   8
LEVEL003
   6
CONTINUOUS
  62
7
  10
 134.450
  20
 416.878
  30
0.0
  11
 138.447
  21
 420.877
  31
0.0
   0
LINE
   8
LEVEL003
   6
CONTINUOUS
  62
7
  10
 157.447
  20
 420.877
  30
0.0
  11
 161.444
  21
 416.878
  31
0.0
   0
LINE
   8
LEVEL003
   6
CONTINUOUS
  62
7
  10
 161.444
  20
 416.895
  30
0.0
  11
 166.446
  21
 417.070
  31
0.0
   0
LINE
   8
LEVEL003
   6
CONTINUOUS
  62
7
  10
 129.448
  20
 417.070
  30
0.0
  11
 134.451
  21
 416.895
  31
0.0
   0
LINE
   8
LEVEL003
   6
CONTINUOUS
  62
7
  10
 157.447
  20
 431.000
  30
0.0
  11
 164.447
  21
 431.000
  31
0.0
   0
LINE
   8
LEVEL001
   6
CONTINUOUS
  62
7
  10
 147.947
  20
 438.000
  30
0.0
  11
 157.447
  21
 437.169
  31
0.0
   0
LINE
   8
LEVEL001
   6
CONTINUOUS
  62
7
  10
 157.447
  20
 440.676
  30
0.0
  11
 164.447
  21
 440.676
  31
0.0
   0
LINE
   8
LEVEL001
   6
CONTINUOUS
  62
7
  10
 131.447
  20
 440.676
  30
0.0
  11
 138.447
  21
 440.676
  31
0.0
   0
LINE
   8
LEVEL001
   6
CONTINUOUS
  62
7
  10
 138.447
  20
 441.000
  30
0.0
  11
 157.447
  21
 441.000
  31
0.0
   0
LINE
   8
LEVEL003
   6
CONTINUOUS
  62
7
  10
 131.447
  20
 431.000
  30
0.0
  11
 138.447
  21
 431.000
  31
0.0
   0
ARC
   8
LEVEL001
   6
CONTINUOUS
  62
7
  10
 134.947
  20
 409.667
  30
0.0
  40
 2.00000
  50
 170.420
  51
 180.000
   0
ARC
   8
LEVEL001
   6
CONTINUOUS
  62
7
  10
 134.947
  20
 409.479
  30
0.0
  40
 2.00000
  50
 170.420
  51
 180.000
   0
ARC
   8
LEVEL001
   6
CONTINUOUS
  62
7
  10
 160.947
  20
 409.479
  30
0.0
  40
 2.00000
  50
 0.255666E-9
  51
 9.57962
   0
LINE
   8
LEVEL001
   6
CONTINUOUS
  62
7
  10
 162.947
  20
 409.668
  30
0.0
  11
 162.947
  21
 397.833
  31
0.0
   0
ARC
   8
LEVEL001
   6
CONTINUOUS
  62
7
  10
 160.947
  20
 409.668
  30
0.0
  40
 2.00000
  50
 0.210232E-8
  51
 4.17184
   0
LINE
   8
LEVEL001
   6
CONTINUOUS
  62
7
  10
 132.947
  20
 409.479
  30
0.0
  11
 132.947
  21
 397.833
  31
0.0
   0
LINE
   8
LEVEL001
   6
CONTINUOUS
  62
7
  10
 188.168
  20
 378.349
  30
0.0
  11
 171.149
  21
 384.209
  31
0.0
   0
LINE
   8
LEVEL001
   6
CONTINUOUS
  62
7
  10
 167.438
  20
 373.430
  30
0.0
  11
 171.149
  21
 384.209
  31
0.0
   0
LINE
   8
LEVEL001
   6
CONTINUOUS
  62
7
  10
 171.149
  20
 384.209
  30
0.0
  11
 172.327
  21
 384.438
  31
0.0
   0
LINE
   8
LEVEL001
   6
CONTINUOUS
  62
7
  10
 172.327
  20
 384.438
  30
0.0
  11
 187.381
  21
 379.254
  31
0.0
   0
LINE
   8
LEVEL001
   6
CONTINUOUS
  62
7
  10
 187.381
  20
 379.254
  30
0.0
  11
 188.168
  21
 378.349
  31
0.0
   0
LINE
   8
LEVEL001
   6
CONTINUOUS
  62
7
  10
 188.168
  20
 378.349
  30
0.0
  11
 184.457
  21
 367.570
  31
0.0
   0
LINE
   8
LEVEL001
   6
DASHDOT
  62
1
  10
 180.835
  20
 384.694
  30
0.0
  11
 156.155
  21
 313.020
  31
0.0
   0
LINE
   8
LEVEL001
   6
CONTINUOUS
  62
7
  10
 165.447
  20
 390.170
  30
0.0
  11
 165.447
  21
 376.255
  31
0.0
   0
ARC
   8
LEVEL001
   6
CONTINUOUS
  62
7
  10
 184.751
  20
 365.353
  30
0.0
  40
 2.00000
  50
 341.000
  51
 71.0000
   0
LINE
   8
LEVEL001
   6
CONTINUOUS
  62
7
  10
 186.642
  20
 364.702
  30
0.0
  11
 182.947
  21
 353.971
  31
0.0
   0
ARC
   8
LEVEL003
   6
CONTINUOUS
  62
7
  10
 165.028
  20
 372.144
  30
0.0
  40
 2.00000
  50
 71.0000
  51
 85.0000
   0
ARC
   8
LEVEL001
   6
CONTINUOUS
  62
7
  10
 168.447
  20
 376.255
  30
0.0
  40
 3.00000
  50
 180.000
  51
 251.000
   0
LINE
   8
LEVEL001
   6
CONTINUOUS
  62
7
  10
 167.255
  20
 373.664
  30
0.0
  11
 165.960
  21
 374.135
  31
0.0
   0
LINE
   8
LEVEL001
   6
CONTINUOUS
  62
7
  10
 185.402
  20
 367.244
  30
0.0
  11
 165.679
  21
 374.035
  31
0.0
   0
ARC
   8
LEVEL001
   6
CONTINUOUS
  62
7
  10
 154.947
  20
 373.410
  30
0.0
  40
 3.00000
  50
 180.000
  51
 248.024
   0
ARC
   8
LEVEL001
   6
CONTINUOUS
  62
7
  10
 154.947
  20
 378.046
  30
0.0
  40
 3.00000
  50
 180.000
  51
 265.000
   0
LINE
   8
LEVEL001
   6
CONTINUOUS
  62
7
  10
 151.947
  20
 425.000
  30
0.0
  11
 151.947
  21
 373.410
  31
0.0
   0
LINE
   8
LEVEL003
   6
CONTINUOUS
  62
7
  10
 154.686
  20
 375.057
  30
0.0
  11
 165.203
  21
 374.137
  31
0.0
   0
ARC
   8
LEVEL001
   6
CONTINUOUS
  62
7
  10
 138.947
  20
 377.232
  30
0.0
  40
 5.00000
  50
 275.000
  51
 0.130276E-11
   0
LINE
   8
LEVEL001
   6
CONTINUOUS
  62
7
  10
 143.947
  20
 425.000
  30
0.0
  11
 143.947
  21
 377.232
  31
0.0
   0
ARC
   8
LEVEL001
   6
CONTINUOUS
  62
7
  10
 129.059
  20
 369.013
  30
0.0
  40
 3.00000
  50
 55.8214
  51
 85.0000
   0
ARC
   8
LEVEL001
   6
CONTINUOUS
  62
7
  10
 154.947
  20
 354.000
  30
0.0
  40
 15.0000
  50
 277.178
  51
 292.393
   0
LINE
   8
LEVEL003
   6
CONTINUOUS
  62
7
  10
 160.661
  20
 340.131
  30
0.0
  11
 178.614
  21
 347.528
  31
0.0
   0
ARC
   8
LEVEL001
   6
CONTINUOUS
  62
7
  10
 154.947
  20
 354.000
  30
0.0
  40
 15.0000
  50
 67.6073
  51
 68.0242
   0
LINE
   8
LEVEL001
   6
CONTINUOUS
  62
7
  10
 148.392
  20
 372.820
  30
0.0
  11
 160.560
  21
 367.910
  31
0.0
   0
LINE
   8
LEVEL003
   6
CONTINUOUS
  62
7
  10
 160.661
  20
 367.869
  30
0.0
  11
 178.614
  21
 360.472
  31
0.0
   0
ARC
   8
LEVEL001
   6
CONTINUOUS
  62
7
  10
 190.852
  20
 346.212
  30
0.0
  40
 10.0000
  50
 161.000
  51
 222.095
   0
ARC
   8
LEVEL001
   6
CONTINUOUS
  62
7
  10
 147.947
  20
 341.000
  30
0.0
  40
 33.5000
  50
 3.38600
  51
 11.4809
   0
ARC
   8
LEVEL001
   6
CONTINUOUS
  62
7
  10
 175.947
  20
 354.000
  30
0.0
  40
 7.00000
  50
 294.901
  51
 71.9238
   0
ARC
   8
LEVEL001
   6
CONTINUOUS
  62
7
  10
 181.947
  20
 338.167
  30
0.0
  40
 2.00000
  50
 0.863075E-10
  51
 42.0945
   0
LINE
   8
LEVEL001
   6
CONTINUOUS
  62
7
  10
 183.947
  20
 333.000
  30
0.0
  11
 183.947
  21
 338.167
  31
0.0
   0
LINE
   8
LEVEL001
   6
DASHDOT
  62
1
  10
 184.365
  20
 341.000
  30
0.0
  11
 112.947
  21
 341.000
  31
0.0
   0
LINE
   8
LEVEL001
   6
DASHDOT
  62
1
  10
 184.365
  20
 341.000
  30
0.0
  11
 112.947
  21
 341.000
  31
0.0
   0
LINE
   8
LEVEL003
   6
CONTINUOUS
  62
7
  10
 162.144
  20
 326.970
  30
0.0
  11
 147.122
  21
 328.284
  31
0.0
   0
ARC
   8
LEVEL001
   6
CONTINUOUS
  62
7
  10
 181.947
  20
 327.833
  30
0.0
  40
 2.00000
  50
 275.000
  51
 0.244267E-10
   0
ARC
   8
LEVEL001
   6
CONTINUOUS
  62
7
  10
 178.153
  20
 320.474
  30
0.0
  40
 5.00000
  50
 95.0000
  51
 204.492
   0
ARC
   8
LEVEL001
   6
CONTINUOUS
  62
7
  10
 182.703
  20
 322.547
  30
0.0
  40
 10.0000
  50
 161.000
  51
 265.000
   0
ARC
   8
LEVEL001
   6
CONTINUOUS
  62
7
  10
 147.947
  20
 341.000
  30
0.0
  40
 33.5000
  50
 319.210
  51
 332.428
   0
ARC
   8
LEVEL003
   6
CONTINUOUS
  62
7
  10
 161.447
  20
 319.000
  30
0.0
  40
 8.00000
  50
 12.4107
  51
 85.0000
   0
ARC
   8
LEVEL003
   6
CONTINUOUS
  62
7
  10
 179.027
  20
 322.869
  30
0.0
  40
 10.0000
  50
 192.411
  51
 265.000
   0
LINE
   8
LEVEL001
   6
CONTINUOUS
  62
7
  10
 183.947
  20
 327.833
  30
0.0
  11
 183.947
  21
 333.000
  31
0.0
   0
LINE
   8
LEVEL001
   6
CONTINUOUS
  62
7
  10
 182.122
  20
 325.840
  30
0.0
  11
 177.717
  21
 325.455
  31
0.0
   0
LINE
   8
LEVEL001
   6
CONTINUOUS
  62
7
  10
 198.122
  20
 311.160
  30
0.0
  11
 178.155
  21
 312.907
  31
0.0
   0
LINE
   8
LEVEL001
   6
CONTINUOUS
  62
7
  10
 181.481
  20
 349.714
  30
0.0
  11
 173.248
  21
 325.803
  31
0.0
   0
ARC
   8
LEVEL001
   6
CONTINUOUS
  62
7
  10
 139.947
  20
 319.081
  30
0.0
  40
 5.00000
  50
 275.000
  51
 0.325689E-11
   0
ARC
   8
LEVEL001
   6
CONTINUOUS
  62
7
  10
 119.970
  20
 322.353
  30
0.0
  40
 10.0000
  50
 275.000
  51
 20.0000
   0
ARC
   8
LEVEL001
   6
CONTINUOUS
  62
7
  10
 146.947
  20
 326.292
  30
0.0
  40
 2.00000
  50
 85.0000
  51
 180.000
   0
LINE
   8
LEVEL001
   6
CONTINUOUS
  62
7
  10
 106.773
  20
 311.160
  30
0.0
  11
 140.383
  21
 314.100
  31
0.0
   0
LINE
   8
LEVEL001
   6
DASHDOT
  62
1
  10
 186.947
  20
 333.000
  30
0.0
  11
 128.960
  21
 333.000
  31
0.0
   0
ARC
   8
LEVEL001
   6
CONTINUOUS
  62
7
  10
 110.644
  20
 377.213
  30
0.0
  40
 2.00000
  50
 110.000
  51
 200.000
   0
ARC
   8
LEVEL001
   6
CONTINUOUS
  62
7
  10
 109.783
  20
 370.807
  30
0.0
  40
 3.00000
  50
 20.0000
  51
 73.1301
   0
ARC
   8
LEVEL001
   6
CONTINUOUS
  62
7
  10
 111.234
  20
 375.592
  30
0.0
  40
 2.00000
  50
 200.000
  51
 253.130
   0
LINE
   8
LEVEL001
   6
CONTINUOUS
  62
7
  10
 108.764
  20
 376.529
  30
0.0
  11
 109.355
  21
 374.908
  31
0.0
   0
LINE
   8
LEVEL001
   6
CONTINUOUS
  62
7
  10
 129.321
  20
 372.002
  30
0.0
  11
 111.060
  21
 373.599
  31
0.0
   0
LINE
   8
LEVEL001
   6
CONTINUOUS
  62
7
  10
 165.447
  20
 392.500
  30
0.0
  11
 154.947
  21
 392.500
  31
0.0
   0
ARC
   8
LEVEL001
   6
CONTINUOUS
  62
7
  10
 160.947
  20
 409.667
  30
0.0
  40
 2.00000
  50
 0.143303E-9
  51
 41.7903
   0
LINE
   8
LEVEL001
   6
CONTINUOUS
  62
7
  10
 157.447
  20
 411.000
  30
0.0
  11
 162.438
  21
 411.000
  31
0.0
   0
ARC
   8
LEVEL001
   6
CONTINUOUS
  62
7
  10
 134.947
  20
 409.668
  30
0.0
  40
 2.00000
  50
 138.216
  51
 180.000
   0
LINE
   8
LEVEL001
   6
CONTINUOUS
  62
7
  10
 133.456
  20
 411.000
  30
0.0
  11
 138.447
  21
 411.000
  31
0.0
   0
LINE
   8
LEVEL001
   6
CONTINUOUS
  62
7
  10
 138.447
  20
 441.000
  30
0.0
  11
 138.447
  21
 411.000
  31
0.0
   0
LINE
   8
LEVEL001
   6
CONTINUOUS
  62
7
  10
 157.447
  20
 441.000
  30
0.0
  11
 157.447
  21
 411.000
  31
0.0
   0
LINE
   8
LEVEL001
   6
CONTINUOUS
  62
7
  10
 106.947
  20
 367.087
  30
0.0
  11
 107.943
  21
 368.175
  31
0.0
   0
LINE
   8
LEVEL001
   6
CONTINUOUS
  62
7
  10
 106.947
  20
 340.913
  30
0.0
  11
 107.943
  21
 339.825
  31
0.0
   0
LINE
   8
LEVEL001
   6
CONTINUOUS
  62
7
  10
 112.602
  20
 371.833
  30
0.0
  11
 113.749
  21
 368.683
  31
0.0
   0
LINE
   8
LEVEL001
   6
CONTINUOUS
  62
7
  10
 107.943
  20
 368.175
  30
0.0
  11
 124.603
  21
 369.632
  31
0.0
   0
ARC
   8
LEVEL001
   6
CONTINUOUS
  62
7
  10
 147.947
  20
 341.000
  30
0.0
  40
 33.5000
  50
 182.990
  51
 230.819
   0
ARC
   8
LEVEL001
   6
CONTINUOUS
  62
7
  10
 121.179
  20
 333.648
  30
0.0
  40
 5.00000
  50
 20.0000
  51
 85.0000
   0
LINE
   8
LEVEL001
   6
CONTINUOUS
  62
7
  10
 125.878
  20
 335.358
  30
0.0
  11
 129.367
  21
 325.773
  31
0.0
   0
LINE
   8
LEVEL001
   6
CONTINUOUS
  62
7
  10
 107.943
  20
 339.825
  30
0.0
  11
 140.383
  21
 336.987
  31
0.0
   0
ARC
   8
LEVEL001
   6
CONTINUOUS
  62
7
  10
 139.947
  20
 332.006
  30
0.0
  40
 5.00000
  50
 0.110734E-10
  51
 85.0000
   0
LINE
   8
LEVEL001
   6
CONTINUOUS
  62
7
  10
 144.947
  20
 332.006
  30
0.0
  11
 144.947
  21
 319.081
  31
0.0
   0
LINE
   8
LEVEL001
   6
CONTINUOUS
  62
7
  10
 107.943
  20
 368.175
  30
0.0
  11
 107.943
  21
 339.825
  31
0.0
   0
LINE
   8
LEVEL001
   6
DASHDOT
  62
1
  10
 147.947
  20
 472.458
  30
0.0
  11
 147.947
  21
 295.263
  31
0.0
   0
ARC
   8
LEVEL003
   6
CONTINUOUS
  62
7
  10
 147.947
  20
 446.070
  30
0.0
  40
 13.4716
  50
 357.701
  51
 182.299
   0
ARC
   8
LEVEL003
   6
CONTINUOUS
  62
7
  10
 147.947
  20
 444.465
  30
0.0
  40
 10.7274
  50
 6.22252
  51
 173.777
   0
ARC
   8
LEVEL003
   6
CONTINUOUS
  62
3
  10
 147.947
  20
 448.795
  30
0.0
  40
 14.9300
  50
 347.225
  51
 192.775
   0
ARC
   8
LEVEL003
   6
CONTINUOUS
  62
7
  10
 147.947
  20
 451.389
  30
0.0
  40
 13.4716
  50
 29.7520
  51
 150.248
   0
ARC
   8
LEVEL003
   6
CONTINUOUS
  62
7
  10
 147.947
  20
 343.209
  30
0.0
  40
 33.9907
  50
 186.639
  51
 194.657
   0
ARC
   8
LEVEL003
   6
CONTINUOUS
  62
7
  10
 147.947
  20
 343.209
  30
0.0
  40
 33.9907
  50
 357.526
  51
 10.4814
   0
ARC
   8
LEVEL003
   6
CONTINUOUS
  62
7
  10
 117.920
  20
 354.000
  30
0.0
  40
 21.9729
  50
 162.412
  51
 197.588
   0
ARC
   8
LEVEL003
   6
CONTINUOUS
  62
7
  10
 107.961
  20
 365.500
  30
0.0
  40
 12.0136
  50
 180.000
  51
 203.865
   0
LINE
   8
LEVEL003
   6
CONTINUOUS
  62
7
  10
 106.947
  20
 367.279
  30
0.0
  11
 106.947
  21
 340.721
  31
0.0
   0
LINE
   8
LEVEL003
   6
CONTINUOUS
  62
7
  10
 106.947
  20
 340.721
  30
0.0
  11
 96.9743
  21
 340.721
  31
0.0
   0
LINE
   8
LEVEL003
   6
CONTINUOUS
  62
7
  10
 96.9743
  20
 340.721
  30
0.0
  11
 95.9472
  21
 342.500
  31
0.0
   0
LINE
   8
LEVEL003
   6
CONTINUOUS
  62
7
  10
 95.9472
  20
 342.500
  30
0.0
  11
 95.9472
  21
 365.500
  31
0.0
   0
LINE
   8
LEVEL003
   6
CONTINUOUS
  62
7
  10
 95.9472
  20
 365.500
  30
0.0
  11
 96.9743
  21
 367.279
  31
0.0
   0
LINE
   8
LEVEL003
   6
CONTINUOUS
  62
7
  10
 96.9743
  20
 367.279
  30
0.0
  11
 106.947
  21
 367.279
  31
0.0
   0
LINE
   8
LEVEL003
   6
CONTINUOUS
  62
7
  10
 106.947
  20
 360.640
  30
0.0
  11
 96.9743
  21
 360.640
  31
0.0
   0
ARC
   8
LEVEL003
   6
CONTINUOUS
  62
7
  10
 107.961
  20
 342.500
  30
0.0
  40
 12.0136
  50
 156.135
  51
 180.000
   0
LINE
   8
LEVEL003
   6
CONTINUOUS
  62
7
  10
 106.947
  20
 347.360
  30
0.0
  11
 96.9743
  21
 347.360
  31
0.0
   0
LINE
   8
LEVEL001
   6
DASHDOT
  62
1
  10
 58.0987
  20
 354.000
  30
0.0
  11
 184.365
  21
 354.000
  31
0.0
   0
LINE
   8
LEVEL001
   6
CONTINUOUS
  62
7
  10
 87.3547
  20
 341.792
  30
0.0
  11
 87.3547
  21
 349.000
  31
0.0
   0
LINE
   8
LEVEL001
   6
CONTINUOUS
  62
7
  10
 87.3547
  20
 359.000
  30
0.0
  11
 87.3547
  21
 366.208
  31
0.0
   0
ARC
   8
LEVEL001
   6
CONTINUOUS
  62
7
  10
 80.3547
  20
 336.415
  30
0.0
  40
 3.00000
  50
 98.5311
  51
 179.999
   0
ARC
   8
LEVEL001
   6
CONTINUOUS
  62
7
  10
 68.1302
  20
 331.143
  30
0.0
  40
 2.00000
  50
 188.884
  51
 270.000
   0
LINE
   8
LEVEL001
   6
CONTINUOUS
  62
7
  10
 65.3547
  20
 336.707
  30
0.0
  11
 65.3547
  21
 371.290
  31
0.0
   0
ARC
   8
LEVEL001
   6
CONTINUOUS
  62
7
  10
 214.355
  20
 353.999
  30
0.0
  40
 150.000
  50
 186.620
  51
 188.884
   0
LINE
   8
LEVEL001
   6
CONTINUOUS
  62
7
  10
 76.3547
  20
 329.143
  30
0.0
  11
 68.1302
  21
 329.143
  31
0.0
   0
ARC
   8
LEVEL001
   6
CONTINUOUS
  62
7
  10
 76.3547
  20
 330.143
  30
0.0
  40
 1.00000
  50
 270.000
  51
 0.651378E-11
   0
LINE
   8
LEVEL001
   6
CONTINUOUS
  62
7
  10
 77.3547
  20
 330.143
  30
0.0
  11
 77.3547
  21
 354.000
  31
0.0
   0
ARC
   8
LEVEL010
   6
CONTINUOUS
  62
7
  10
 76.3547
  20
 341.526
  30
0.0
  40
 1.00000
  50
 270.000
  51
 0.325689E-9
   0
ARC
   8
LEVEL010
   6
CONTINUOUS
  62
7
  10
 68.1542
  20
 342.526
  30
0.0
  40
 2.00000
  50
 180.000
  51
 270.000
   0
LINE
   8
LEVEL010
   6
CONTINUOUS
  62
7
  10
 65.3547
  20
 350.500
  30
0.0
  11
 66.1639
  21
 342.329
  31
0.0
   0
ARC
   8
LEVEL010
   6
CONTINUOUS
  62
7
  10
 76.3547
  20
 339.526
  30
0.0
  40
 1.00000
  50
0.0
  51
 90.0000
   0
ARC
   8
LEVEL010
   6
CONTINUOUS
  62
7
  10
 68.1542
  20
 338.526
  30
0.0
  40
 2.00000
  50
 90.0000
  51
 180.000
   0
LINE
   8
LEVEL010
   6
CONTINUOUS
  62
7
  10
 76.3547
  20
 340.526
  30
0.0
  11
 68.1542
  21
 340.526
  31
0.0
   0
LINE
   8
LEVEL010
   6
CONTINUOUS
  62
7
  10
 66.1542
  20
 338.526
  30
0.0
  11
 66.1542
  21
 333.025
  31
0.0
   0
LINE
   8
LEVEL010
   6
CONTINUOUS
  62
7
  10
 76.3547
  20
 350.500
  30
0.0
  11
 68.1542
  21
 350.500
  31
0.0
   0
ARC
   8
LEVEL001
   6
CONTINUOUS
  62
7
  10
 80.3547
  20
 371.582
  30
0.0
  40
 3.00000
  50
 179.999
  51
 261.469
   0
ARC
   8
LEVEL001
   6
CONTINUOUS
  62
7
  10
 76.3547
  20
 377.855
  30
0.0
  40
 1.00000
  50
0.0
  51
 90.0000
   0
ARC
   8
LEVEL001
   6
CONTINUOUS
  62
7
  10
 68.1302
  20
 376.855
  30
0.0
  40
 2.00000
  50
 89.9999
  51
 171.117
   0
LINE
   8
LEVEL001
   6
CONTINUOUS
  62
7
  10
 76.3547
  20
 378.855
  30
0.0
  11
 68.1302
  21
 378.855
  31
0.0
   0
ARC
   8
LEVEL001
   6
CONTINUOUS
  62
7
  10
 214.355
  20
 353.999
  30
0.0
  40
 150.000
  50
 171.116
  51
 173.380
   0
LINE
   8
LEVEL001
   6
CONTINUOUS
  62
7
  10
 77.3547
  20
 354.000
  30
0.0
  11
 77.3547
  21
 377.855
  31
0.0
   0
ARC
   8
LEVEL010
   6
CONTINUOUS
  62
7
  10
 76.3547
  20
 366.474
  30
0.0
  40
 1.00000
  50
0.0
  51
 90.0000
   0
ARC
   8
LEVEL010
   6
CONTINUOUS
  62
7
  10
 68.1542
  20
 365.474
  30
0.0
  40
 2.00000
  50
 90.0000
  51
 180.000
   0
LINE
   8
LEVEL010
   6
CONTINUOUS
  62
7
  10
 65.3547
  20
 357.500
  30
0.0
  11
 66.1639
  21
 365.671
  31
0.0
   0
ARC
   8
LEVEL010
   6
CONTINUOUS
  62
7
  10
 76.3547
  20
 368.474
  30
0.0
  40
 1.00000
  50
 270.000
  51
 0.104220E-9
   0
ARC
   8
LEVEL010
   6
CONTINUOUS
  62
7
  10
 68.1542
  20
 369.474
  30
0.0
  40
 2.00000
  50
 180.000
  51
 270.000
   0
LINE
   8
LEVEL010
   6
CONTINUOUS
  62
7
  10
 76.3547
  20
 367.474
  30
0.0
  11
 68.1542
  21
 367.474
  31
0.0
   0
LINE
   8
LEVEL010
   6
CONTINUOUS
  62
7
  10
 66.1542
  20
 369.474
  30
0.0
  11
 66.1542
  21
 374.975
  31
0.0
   0
LINE
   8
LEVEL010
   6
CONTINUOUS
  62
7
  10
 76.3547
  20
 357.500
  30
0.0
  11
 68.1542
  21
 357.500
  31
0.0
   0
ARC
   8
LEVEL001
   6
CONTINUOUS
  62
7
  10
 85.3547
  20
 365.776
  30
0.0
  40
 2.00000
  50
 0.768312E-3
  51
 81.4689
   0
LINE
   8
LEVEL001
   6
CONTINUOUS
  62
7
  10
 85.6514
  20
 367.754
  30
0.0
  11
 79.9097
  21
 368.615
  31
0.0
   0
LINE
   8
LEVEL001
   6
CONTINUOUS
  62
7
  10
 87.3547
  20
 354.000
  30
0.0
  11
 87.3547
  21
 365.776
  31
0.0
   0
ARC
   8
LEVEL001
   6
CONTINUOUS
  62
7
  10
 85.3547
  20
 342.221
  30
0.0
  40
 2.00000
  50
 278.531
  51
 0.980216E-3
   0
LINE
   8
LEVEL001
   6
CONTINUOUS
  62
7
  10
 85.6514
  20
 340.243
  30
0.0
  11
 79.9097
  21
 339.382
  31
0.0
   0
LINE
   8
LEVEL001
   6
CONTINUOUS
  62
7
  10
 87.3547
  20
 342.221
  30
0.0
  11
 87.3547
  21
 354.000
  31
0.0
   0
ARC
   8
LEVEL001
   6
CONTINUOUS
  62
7
  10
 214.355
  20
 354.000
  30
0.0
  40
 150.000
  50
 170.951
  51
 189.049
   0
LINE
   8
LEVEL001
   6
CONTINUOUS
  62
7
  10
 87.3547
  20
 347.649
  30
0.0
  11
 95.9472
  21
 347.649
  31
0.0
   0
LINE
   8
LEVEL001
   6
CONTINUOUS
  62
7
  10
 87.3547
  20
 360.349
  30
0.0
  11
 95.9472
  21
 360.349
  31
0.0
   0
LINE
   8
LEVEL003
   6
CONTINUOUS
  62
3
  10
 54.0987
  20
 354.000
  30
0.0
  11
 30.9459
  21
 354.000
  31
0.0
   0
LINE
   8
LEVEL003
   6
CONTINUOUS
  62
3
  10
 100.947
  20
 305.000
  30
0.0
  11
 30.9459
  21
 305.000
  31
0.0
   0
LINE
   8
LEVEL003
   6
CONTINUOUS
  62
3
  10
 38.9459
  20
 354.000
  30
0.0
  11
 38.9459
  21
 305.000
  31
0.0
   0
LINE
   8
LEVEL003
   6
CONTINUOUS
  62
3
  10
 38.9459
  20
 354.000
  30
0.0
  11
 36.8300
  21
 342.000
  31
0.0
   0
LINE
   8
LEVEL003
   6
CONTINUOUS
  62
3
  10
 38.9459
  20
 354.000
  30
0.0
  11
 41.0618
  21
 342.000
  31
0.0
   0
LINE
   8
LEVEL003
   6
CONTINUOUS
  62
3
  10
 38.9459
  20
 305.000
  30
0.0
  11
 41.0618
  21
 317.000
  31
0.0
   0
LINE
   8
LEVEL003
   6
CONTINUOUS
  62
3
  10
 38.9459
  20
 305.000
  30
0.0
  11
 36.8300
  21
 317.000
  31
0.0
   0
TEXT
   8
LEVEL003
  62
3
  10
 35.7459
  20
 321.500
  30
0.0
  40
 16.0000
   1
49
  50
 90.0000
  41
 0.500000
   7
STANDARD
  72
1
  11
 35.7459
  21
 329.500
  31
0.0
   0
LINE
   8
LEVEL003
   6
CONTINUOUS
  62
3
  10
 64.3547
  20
 350.000
  30
0.0
  11
 64.3547
  21
 254.314
  31
0.0
   0
LINE
   8
LEVEL003
   6
CONTINUOUS
  62
3
  10
 199.947
  20
 301.000
  30
0.0
  11
 199.947
  21
 254.314
  31
0.0
   0
LINE
   8
LEVEL003
   6
CONTINUOUS
  62
3
  10
 64.3547
  20
 262.314
  30
0.0
  11
 199.947
  21
 262.314
  31
0.0
   0
LINE
   8
LEVEL003
   6
CONTINUOUS
  62
3
  10
 64.3547
  20
 262.314
  30
0.0
  11
 76.3547
  21
 260.198
  31
0.0
   0
LINE
   8
LEVEL003
   6
CONTINUOUS
  62
3
  10
 64.3547
  20
 262.314
  30
0.0
  11
 76.3547
  21
 264.429
  31
0.0
   0
LINE
   8
LEVEL003
   6
CONTINUOUS
  62
3
  10
 199.947
  20
 262.314
  30
0.0
  11
 187.947
  21
 264.429
  31
0.0
   0
LINE
   8
LEVEL003
   6
CONTINUOUS
  62
3
  10
 199.947
  20
 262.314
  30
0.0
  11
 187.947
  21
 260.198
  31
0.0
   0
TEXT
   8
LEVEL003
  62
3
  10
 112.151
  20
 265.514
  30
0.0
  40
 16.0000
   1
約135
   7
STANDARD
  72
1
  11
 132.151
  21
 265.514
  31
0.0
   0
TEXT
   8
LEVEL003
  62
3
  10
 195.853
  20
 440.528
  30
0.0
  40
 16.0000
   1
Ｍ２２×１．５
   7
STANDARD
   0
LINE
   8
LEVEL001
   6
CONTINUOUS
  62
7
  10
 161.447
  20
 321.887
  30
0.0
  11
 163.947
  21
 320.443
  31
0.0
   0
LINE
   8
LEVEL001
   6
CONTINUOUS
  62
7
  10
 163.947
  20
 320.443
  30
0.0
  11
 163.947
  21
 317.557
  31
0.0
   0
LINE
   8
LEVEL001
   6
CONTINUOUS
  62
7
  10
 163.947
  20
 317.557
  30
0.0
  11
 161.447
  21
 316.113
  31
0.0
   0
LINE
   8
LEVEL001
   6
CONTINUOUS
  62
7
  10
 161.447
  20
 316.113
  30
0.0
  11
 158.947
  21
 317.557
  31
0.0
   0
LINE
   8
LEVEL001
   6
CONTINUOUS
  62
7
  10
 158.947
  20
 317.557
  30
0.0
  11
 158.947
  21
 320.443
  31
0.0
   0
LINE
   8
LEVEL001
   6
CONTINUOUS
  62
7
  10
 158.947
  20
 320.443
  30
0.0
  11
 161.447
  21
 321.887
  31
0.0
   0
CIRCLE
   8
LEVEL001
   6
CONTINUOUS
  62
7
  10
 161.447
  20
 319.000
  30
0.0
  40
 4.86400
   0
CIRCLE
   8
LEVEL001
   6
CONTINUOUS
  62
3
  10
 161.447
  20
 319.000
  30
0.0
  40
 4.28300
   0
LINE
   8
LEVEL001
   6
DASHDOT
  62
1
  10
 169.311
  20
 319.000
  30
0.0
  11
 153.583
  21
 319.000
  31
0.0
   0
LINE
   8
LEVEL001
   6
DASHDOT
  62
1
  10
 161.447
  20
 326.864
  30
0.0
  11
 161.447
  21
 311.136
  31
0.0
   0
CIRCLE
   8
LEVEL001
   6
CONTINUOUS
  62
7
  10
 147.947
  20
 354.000
  30
0.0
  40
 10.2500
   0
CIRCLE
   8
LEVEL001
   6
CONTINUOUS
  62
3
  10
 147.947
  20
 354.000
  30
0.0
  40
 11.0000
   0
CIRCLE
   8
LEVEL001
   6
CONTINUOUS
  62
7
  10
 147.947
  20
 354.000
  30
0.0
  40
 2.50000
   0
LINE
   8
LEVEL001
   6
CONTINUOUS
  62
7
  10
 170.447
  20
 356.309
  30
0.0
  11
 172.447
  21
 355.155
  31
0.0
   0
LINE
   8
LEVEL001
   6
CONTINUOUS
  62
7
  10
 172.447
  20
 355.155
  30
0.0
  11
 172.447
  21
 352.845
  31
0.0
   0
LINE
   8
LEVEL001
   6
CONTINUOUS
  62
7
  10
 172.447
  20
 352.845
  30
0.0
  11
 170.447
  21
 351.691
  31
0.0
   0
LINE
   8
LEVEL001
   6
CONTINUOUS
  62
7
  10
 170.447
  20
 351.691
  30
0.0
  11
 168.447
  21
 352.845
  31
0.0
   0
LINE
   8
LEVEL001
   6
CONTINUOUS
  62
7
  10
 168.447
  20
 352.845
  30
0.0
  11
 168.447
  21
 355.155
  31
0.0
   0
LINE
   8
LEVEL001
   6
CONTINUOUS
  62
7
  10
 168.447
  20
 355.155
  30
0.0
  11
 170.447
  21
 356.309
  31
0.0
   0
CIRCLE
   8
LEVEL001
   6
CONTINUOUS
  62
7
  10
 170.447
  20
 354.000
  30
0.0
  40
 4.00000
   0
CIRCLE
   8
LEVEL001
   6
CONTINUOUS
  62
3
  10
 170.447
  20
 354.000
  30
0.0
  40
 3.37500
   0
LINE
   8
LEVEL001
   6
DASHDOT
  62
1
  10
 170.447
  20
 361.000
  30
0.0
  11
 170.447
  21
 347.000
  31
0.0
   0
LINE
   8
LEVEL003
   6
CONTINUOUS
  62
3
  10
 153.275
  20
 363.624
  30
0.0
  11
 195.853
  21
 440.528
  31
0.0
   0
LINE
   8
LEVEL003
   6
CONTINUOUS
  62
3
  10
 195.853
  20
 440.528
  30
0.0
  11
 307.683
  21
 440.528
  31
0.0
   0
LINE
   8
LEVEL003
   6
CONTINUOUS
  62
3
  10
 153.275
  20
 363.624
  30
0.0
  11
 160.939
  21
 373.097
  31
0.0
   0
LINE
   8
LEVEL003
   6
CONTINUOUS
  62
3
  10
 153.275
  20
 363.624
  30
0.0
  11
 157.236
  21
 375.147
  31
0.0
   0
POINT
   8
LEVEL003
  62
7
  10
 147.947
  20
 305.000
  30
0.0
   0
TEXT
   8
LEVEL003
  62
3
  10
 415.000
  20
 880.000
  30
0.0
  40
 16.0000
   1
低圧安全弁
   7
STANDARD
   0
TEXT
   8
LEVEL003
  62
3
  10
 435.000
  20
 720.000
  30
0.0
  40
 16.0000
   1
サクション＆デリベリ（低圧）
   7
STANDARD
   0
TEXT
   8
LEVEL003
  62
3
  10
 435.000
  20
 680.000
  30
0.0
  40
 16.0000
   1
サクション＆デリベリ（高圧）
   7
STANDARD
   0
LINE
   8
LEVEL003
   6
CONTINUOUS
  62
3
  10
 379.615
  20
 841.154
  30
0.0
  11
 415.000
  21
 880.000
  31
0.0
   0
LINE
   8
LEVEL003
   6
CONTINUOUS
  62
3
  10
 415.000
  20
 880.000
  30
0.0
  11
 495.000
  21
 880.000
  31
0.0
   0
LINE
   8
LEVEL003
   6
CONTINUOUS
  62
3
  10
 379.615
  20
 841.154
  30
0.0
  11
 389.260
  21
 848.600
  31
0.0
   0
LINE
   8
LEVEL003
   6
CONTINUOUS
  62
3
  10
 379.615
  20
 841.154
  30
0.0
  11
 386.132
  21
 851.450
  31
0.0
   0
TEXT
   8
LEVEL003
  62
3
  10
 415.000
  20
 920.000
  30
0.0
  40
 16.0000
   1
高圧安全弁
   7
STANDARD
   0
LINE
   8
LEVEL003
   6
CONTINUOUS
  62
3
  10
 358.077
  20
 842.500
  30
0.0
  11
 415.000
  21
 920.000
  31
0.0
   0
LINE
   8
LEVEL003
   6
CONTINUOUS
  62
3
  10
 415.000
  20
 920.000
  30
0.0
  11
 495.000
  21
 920.000
  31
0.0
   0
LINE
   8
LEVEL003
   6
CONTINUOUS
  62
3
  10
 358.077
  20
 842.500
  30
0.0
  11
 366.886
  21
 850.919
  31
0.0
   0
LINE
   8
LEVEL003
   6
CONTINUOUS
  62
3
  10
 358.077
  20
 842.500
  30
0.0
  11
 363.475
  21
 853.424
  31
0.0
   0
LINE
   8
LEVEL003
   6
CONTINUOUS
  62
3
  10
 380.288
  20
 767.115
  30
0.0
  11
 435.000
  21
 720.000
  31
0.0
   0
LINE
   8
LEVEL003
   6
CONTINUOUS
  62
3
  10
 435.000
  20
 720.000
  30
0.0
  11
 655.000
  21
 720.000
  31
0.0
   0
LINE
   8
LEVEL003
   6
CONTINUOUS
  62
3
  10
 380.288
  20
 767.115
  30
0.0
  11
 388.001
  21
 757.682
  31
0.0
   0
LINE
   8
LEVEL003
   6
CONTINUOUS
  62
3
  10
 380.288
  20
 767.115
  30
0.0
  11
 390.762
  21
 760.888
  31
0.0
   0
LINE
   8
LEVEL003
   6
CONTINUOUS
  62
3
  10
 357.404
  20
 767.115
  30
0.0
  11
 435.000
  21
 680.000
  31
0.0
   0
LINE
   8
LEVEL003
   6
CONTINUOUS
  62
3
  10
 435.000
  20
 680.000
  30
0.0
  11
 655.000
  21
 680.000
  31
0.0
   0
LINE
   8
LEVEL003
   6
CONTINUOUS
  62
3
  10
 357.404
  20
 767.115
  30
0.0
  11
 363.805
  21
 756.747
  31
0.0
   0
LINE
   8
LEVEL003
   6
CONTINUOUS
  62
3
  10
 357.404
  20
 767.115
  30
0.0
  11
 366.965
  21
 759.562
  31
0.0
   0
LINE
   8
LEVEL003
   6
CONTINUOUS
  62
3
  10
 346.759
  20
 848.263
  30
0.0
  11
 267.000
  21
 848.263
  31
0.0
   0
LINE
   8
LEVEL003
   6
CONTINUOUS
  62
3
  10
 309.415
  20
 805.263
  30
0.0
  11
 267.000
  21
 805.263
  31
0.0
   0
LINE
   8
LEVEL003
   6
CONTINUOUS
  62
3
  10
 275.000
  20
 848.263
  30
0.0
  11
 275.000
  21
 805.263
  31
0.0
   0
LINE
   8
LEVEL003
   6
CONTINUOUS
  62
3
  10
 275.000
  20
 848.263
  30
0.0
  11
 272.884
  21
 836.263
  31
0.0
   0
LINE
   8
LEVEL003
   6
CONTINUOUS
  62
3
  10
 275.000
  20
 848.263
  30
0.0
  11
 277.116
  21
 836.263
  31
0.0
   0
LINE
   8
LEVEL003
   6
CONTINUOUS
  62
3
  10
 275.000
  20
 805.263
  30
0.0
  11
 277.116
  21
 817.263
  31
0.0
   0
LINE
   8
LEVEL003
   6
CONTINUOUS
  62
3
  10
 275.000
  20
 805.263
  30
0.0
  11
 272.884
  21
 817.263
  31
0.0
   0
TEXT
   8
LEVEL003
  62
3
  10
 271.800
  20
 818.763
  30
0.0
  40
 16.0000
   1
43
  50
 90.0000
  41
 0.500000
   7
STANDARD
  72
1
  11
 271.800
  21
 826.763
  31
0.0
   0
LINE
   8
LEVEL003
   6
CONTINUOUS
  62
3
  10
 309.415
  20
 805.263
  30
0.0
  11
 267.000
  21
 805.263
  31
0.0
   0
LINE
   8
LEVEL003
   6
CONTINUOUS
  62
3
  10
 347.541
  20
 753.263
  30
0.0
  11
 267.000
  21
 753.263
  31
0.0
   0
LINE
   8
LEVEL003
   6
CONTINUOUS
  62
3
  10
 275.000
  20
 805.263
  30
0.0
  11
 275.000
  21
 753.263
  31
0.0
   0
LINE
   8
LEVEL003
   6
CONTINUOUS
  62
3
  10
 275.000
  20
 805.263
  30
0.0
  11
 272.884
  21
 793.263
  31
0.0
   0
LINE
   8
LEVEL003
   6
CONTINUOUS
  62
3
  10
 275.000
  20
 805.263
  30
0.0
  11
 277.116
  21
 793.263
  31
0.0
   0
LINE
   8
LEVEL003
   6
CONTINUOUS
  62
3
  10
 275.000
  20
 753.263
  30
0.0
  11
 277.116
  21
 765.263
  31
0.0
   0
LINE
   8
LEVEL003
   6
CONTINUOUS
  62
3
  10
 275.000
  20
 753.263
  30
0.0
  11
 272.884
  21
 765.263
  31
0.0
   0
TEXT
   8
LEVEL003
  62
3
  10
 271.800
  20
 771.263
  30
0.0
  40
 16.0000
   1
52
  50
 90.0000
  41
 0.500000
   7
STANDARD
  72
1
  11
 271.800
  21
 779.263
  31
0.0
   0
LINE
   8
LEVEL001
   6
CONTINUOUS
  62
3
  10
 377.785
  20
 769.026
  30
0.0
  11
 377.785
  21
 769.263
  31
0.0
   0
LINE
   8
LEVEL003
   6
CONTINUOUS
  62
3
  10
 346.759
  20
 848.263
  30
0.0
  11
 227.000
  21
 848.263
  31
0.0
   0
LINE
   8
LEVEL003
   6
CONTINUOUS
  62
3
  10
 347.541
  20
 753.263
  30
0.0
  11
 227.000
  21
 753.263
  31
0.0
   0
LINE
   8
LEVEL003
   6
CONTINUOUS
  62
3
  10
 235.000
  20
 848.263
  30
0.0
  11
 235.000
  21
 753.263
  31
0.0
   0
LINE
   8
LEVEL003
   6
CONTINUOUS
  62
3
  10
 235.000
  20
 848.263
  30
0.0
  11
 232.884
  21
 836.263
  31
0.0
   0
LINE
   8
LEVEL003
   6
CONTINUOUS
  62
3
  10
 235.000
  20
 848.263
  30
0.0
  11
 237.116
  21
 836.263
  31
0.0
   0
LINE
   8
LEVEL003
   6
CONTINUOUS
  62
3
  10
 235.000
  20
 753.263
  30
0.0
  11
 237.116
  21
 765.263
  31
0.0
   0
LINE
   8
LEVEL003
   6
CONTINUOUS
  62
3
  10
 235.000
  20
 753.263
  30
0.0
  11
 232.884
  21
 765.263
  31
0.0
   0
TEXT
   8
LEVEL003
  62
3
  10
 231.800
  20
 792.763
  30
0.0
  40
 16.0000
   1
95
  50
 90.0000
  41
 0.500000
   7
STANDARD
  72
1
  11
 231.800
  21
 800.763
  31
0.0
   0
TEXT
   8
LEVEL003
  62
3
  10
 175.000
  20
 920.000
  30
0.0
  40
 16.0000
   1
レリースバルブ
   7
STANDARD
   0
LINE
   8
LEVEL001
   6
CONTINUOUS
  62
3
  10
 377.785
  20
 769.026
  30
0.0
  11
 377.785
  21
 769.263
  31
0.0
   0
LINE
   8
LEVEL001
   6
CONTINUOUS
  62
3
  10
 377.785
  20
 769.026
  30
0.0
  11
 377.785
  21
 769.263
  31
0.0
   0
LINE
   8
LEVEL001
   6
CONTINUOUS
  62
3
  10
 377.781
  20
 769.026
  30
0.0
  11
 377.781
  21
 769.263
  31
0.0
   0
LINE
   8
LEVEL001
   6
DASHDOT
  62
1
  10
 329.406
  20
 820.263
  30
0.0
  11
 313.406
  21
 820.263
  31
0.0
   0
LINE
   8
LEVEL001
   6
DASHDOT
  62
1
  10
 361.406
  20
 783.427
  30
0.0
  11
 361.406
  21
 827.780
  31
0.0
   0
ARC
   8
LEVEL001
   6
CONTINUOUS
  62
7
  10
 321.332
  20
 812.263
  30
0.0
  40
 3.00000
  50
 270.000
  51
 355.000
   0
ARC
   8
LEVEL001
   6
CONTINUOUS
  62
7
  10
 319.406
  20
 807.263
  30
0.0
  40
 2.00000
  50
 90.0000
  51
 180.000
   0
LINE
   8
LEVEL001
   6
CONTINUOUS
  62
7
  10
 317.406
  20
 807.263
  30
0.0
  11
 317.406
  21
 803.263
  31
0.0
   0
ARC
   8
LEVEL001
   6
CONTINUOUS
  62
7
  10
 319.406
  20
 803.263
  30
0.0
  40
 2.00000
  50
 180.000
  51
 270.000
   0
LINE
   8
LEVEL001
   6
CONTINUOUS
  62
7
  10
 314.906
  20
 831.324
  30
0.0
  11
 314.906
  21
 776.688
  31
0.0
   0
ARC
   8
LEVEL001
   6
CONTINUOUS
  62
7
  10
 316.601
  20
 830.263
  30
0.0
  40
 2.00000
  50
 90.0000
  51
 147.933
   0
LINE
   8
LEVEL001
   6
CONTINUOUS
  62
7
  10
 345.513
  20
 769.691
  30
0.0
  11
 346.551
  21
 757.827
  31
0.0
   0
ARC
   8
LEVEL001
   6
CONTINUOUS
  62
7
  10
 351.532
  20
 758.263
  30
0.0
  40
 5.00000
  50
 185.000
  51
 270.000
   0
ARC
   8
LEVEL001
   6
CONTINUOUS
  62
7
  10
 373.275
  20
 758.263
  30
0.0
  40
 5.00000
  50
 270.000
  51
 355.000
   0
LINE
   8
LEVEL001
   6
CONTINUOUS
  62
7
  10
 351.532
  20
 753.263
  30
0.0
  11
 373.275
  21
 753.263
  31
0.0
   0
ARC
   8
LEVEL001
   6
CONTINUOUS
  62
7
  10
 325.694
  20
 812.263
  30
0.0
  40
 3.00000
  50
 270.000
  51
 355.000
   0
LINE
   8
LEVEL001
   6
CONTINUOUS
  62
7
  10
 319.406
  20
 809.263
  30
0.0
  11
 325.694
  21
 809.263
  31
0.0
   0
ARC
   8
LEVEL001
   6
CONTINUOUS
  62
7
  10
 325.694
  20
 798.263
  30
0.0
  40
 3.00000
  50
 5.00000
  51
 90.0000
   0
LINE
   8
LEVEL001
   6
CONTINUOUS
  62
7
  10
 319.406
  20
 801.263
  30
0.0
  11
 325.694
  21
 801.263
  31
0.0
   0
LINE
   8
LEVEL001
   6
DASHDOT
  62
1
  10
 354.406
  20
 850.263
  30
0.0
  11
 354.406
  21
 764.179
  31
0.0
   0
ARC
   8
LEVEL001
   6
CONTINUOUS
  62
7
  10
 323.906
  20
 823.763
  30
0.0
  40
 2.00000
  50
 270.000
  51
 0.162844E-9
   0
ARC
   8
LEVEL001
   6
CONTINUOUS
  62
7
  10
 317.203
  20
 819.763
  30
0.0
  40
 2.00000
  50
 90.0001
  51
 178.000
   0
ARC
   8
LEVEL001
   6
CONTINUOUS
  62
7
  10
 429.075
  20
 819.763
  30
0.0
  40
 2.00000
  50
 2.00010
  51
 90.0001
   0
LINE
   8
LEVEL001
   6
CONTINUOUS
  62
7
  10
 431.074
  20
 819.833
  30
0.0
  11
 431.377
  21
 811.158
  31
0.0
   0
ARC
   8
LEVEL001
   6
CONTINUOUS
  62
7
  10
 374.406
  20
 823.763
  30
0.0
  40
 2.00000
  50
 180.000
  51
 270.000
   0
LINE
   8
LEVEL001
   6
CONTINUOUS
  62
7
  10
 325.906
  20
 823.763
  30
0.0
  11
 372.406
  21
 823.763
  31
0.0
   0
ARC
   8
LEVEL001
   6
CONTINUOUS
  62
7
  10
 466.478
  20
 821.763
  30
0.0
  40
 1.00000
  50
 90.0006
  51
 179.999
   0
LINE
   8
LEVEL001
   6
CONTINUOUS
  62
7
  10
 465.478
  20
 821.763
  30
0.0
  11
 465.478
  21
 788.763
  31
0.0
   0
LINE
   8
LEVEL001
   6
CONTINUOUS
  62
7
  10
 317.203
  20
 821.763
  30
0.0
  11
 465.478
  21
 821.763
  31
0.0
   0
LINE
   8
LEVEL001
   6
CONTINUOUS
  62
7
  10
 466.478
  20
 822.763
  30
0.0
  11
 472.978
  21
 822.763
  31
0.0
   0
LINE
   8
LEVEL001
   6
CONTINUOUS
  62
7
  10
 472.978
  20
 822.763
  30
0.0
  11
 473.978
  21
 821.763
  31
0.0
   0
LINE
   8
LEVEL001
   6
CONTINUOUS
  62
7
  10
 472.978
  20
 822.763
  30
0.0
  11
 472.978
  21
 787.763
  31
0.0
   0
ARC
   8
LEVEL001
   6
CONTINUOUS
  62
7
  10
 323.906
  20
 786.763
  30
0.0
  40
 2.00000
  50
 0.125267E-3
  51
 90.0000
   0
ARC
   8
LEVEL001
   6
CONTINUOUS
  62
7
  10
 317.203
  20
 790.763
  30
0.0
  40
 2.00000
  50
 182.000
  51
 270.000
   0
ARC
   8
LEVEL001
   6
CONTINUOUS
  62
7
  10
 429.075
  20
 790.763
  30
0.0
  40
 2.00000
  50
 270.000
  51
 358.000
   0
LINE
   8
LEVEL001
   6
CONTINUOUS
  62
7
  10
 431.377
  20
 799.367
  30
0.0
  11
 431.074
  21
 790.693
  31
0.0
   0
ARC
   8
LEVEL001
   6
CONTINUOUS
  62
7
  10
 374.406
  20
 786.763
  30
0.0
  40
 2.00000
  50
 90.0000
  51
 180.000
   0
LINE
   8
LEVEL001
   6
CONTINUOUS
  62
7
  10
 325.906
  20
 786.763
  30
0.0
  11
 372.406
  21
 786.763
  31
0.0
   0
ARC
   8
LEVEL001
   6
CONTINUOUS
  62
7
  10
 466.478
  20
 788.763
  30
0.0
  40
 1.00000
  50
 180.001
  51
 270.000
   0
LINE
   8
LEVEL001
   6
CONTINUOUS
  62
7
  10
 317.203
  20
 788.763
  30
0.0
  11
 465.478
  21
 788.763
  31
0.0
   0
LINE
   8
LEVEL001
   6
CONTINUOUS
  62
7
  10
 473.978
  20
 821.763
  30
0.0
  11
 473.978
  21
 788.763
  31
0.0
   0
LINE
   8
LEVEL001
   6
CONTINUOUS
  62
7
  10
 473.978
  20
 788.763
  30
0.0
  11
 472.978
  21
 787.763
  31
0.0
   0
LINE
   8
LEVEL001
   6
CONTINUOUS
  62
7
  10
 466.478
  20
 787.763
  30
0.0
  11
 472.978
  21
 787.763
  31
0.0
   0
ARC
   8
LEVEL001
   6
CONTINUOUS
  62
7
  10
 434.375
  20
 811.263
  30
0.0
  40
 3.00000
  50
 182.000
  51
 270.000
   0
ARC
   8
LEVEL001
   6
CONTINUOUS
  62
7
  10
 434.375
  20
 799.263
  30
0.0
  40
 3.00000
  50
 90.0001
  51
 178.000
   0
LINE
   8
LEVEL001
   6
CONTINUOUS
  62
7
  10
 386.360
  20
 776.217
  30
0.0
  11
 387.458
  21
 788.763
  31
0.0
   0
LINE
   8
LEVEL003
   6
CONTINUOUS
  62
7
  10
 363.406
  20
 773.364
  30
0.0
  11
 363.336
  21
 774.418
  31
0.0
   0
LINE
   8
LEVEL003
   6
CONTINUOUS
  62
7
  10
 363.336
  20
 774.418
  30
0.0
  11
 363.126
  21
 775.456
  31
0.0
   0
LINE
   8
LEVEL003
   6
CONTINUOUS
  62
7
  10
 363.126
  20
 775.456
  30
0.0
  11
 362.780
  21
 776.461
  31
0.0
   0
LINE
   8
LEVEL003
   6
CONTINUOUS
  62
7
  10
 362.780
  20
 776.461
  30
0.0
  11
 362.304
  21
 777.418
  31
0.0
   0
LINE
   8
LEVEL003
   6
CONTINUOUS
  62
7
  10
 362.304
  20
 777.418
  30
0.0
  11
 361.704
  21
 778.312
  31
0.0
   0
LINE
   8
LEVEL003
   6
CONTINUOUS
  62
7
  10
 361.704
  20
 778.312
  30
0.0
  11
 360.991
  21
 779.128
  31
0.0
   0
LINE
   8
LEVEL003
   6
CONTINUOUS
  62
7
  10
 360.991
  20
 779.128
  30
0.0
  11
 360.175
  21
 779.855
  31
0.0
   0
LINE
   8
LEVEL003
   6
CONTINUOUS
  62
7
  10
 360.175
  20
 779.855
  30
0.0
  11
 359.269
  21
 780.480
  31
0.0
   0
LINE
   8
LEVEL003
   6
CONTINUOUS
  62
7
  10
 359.269
  20
 780.480
  30
0.0
  11
 358.286
  21
 780.994
  31
0.0
   0
LINE
   8
LEVEL003
   6
CONTINUOUS
  62
7
  10
 358.286
  20
 780.994
  30
0.0
  11
 357.244
  21
 781.389
  31
0.0
   0
LINE
   8
LEVEL003
   6
CONTINUOUS
  62
7
  10
 357.244
  20
 781.389
  30
0.0
  11
 356.157
  21
 781.659
  31
0.0
   0
LINE
   8
LEVEL003
   6
CONTINUOUS
  62
7
  10
 356.157
  20
 781.659
  30
0.0
  11
 355.042
  21
 781.800
  31
0.0
   0
LINE
   8
LEVEL003
   6
CONTINUOUS
  62
7
  10
 355.042
  20
 781.800
  30
0.0
  11
 353.918
  21
 781.808
  31
0.0
   0
LINE
   8
LEVEL003
   6
CONTINUOUS
  62
7
  10
 353.918
  20
 781.808
  30
0.0
  11
 352.802
  21
 781.685
  31
0.0
   0
LINE
   8
LEVEL003
   6
CONTINUOUS
  62
7
  10
 352.802
  20
 781.685
  30
0.0
  11
 351.710
  21
 781.433
  31
0.0
   0
LINE
   8
LEVEL003
   6
CONTINUOUS
  62
7
  10
 351.710
  20
 781.433
  30
0.0
  11
 350.660
  21
 781.054
  31
0.0
   0
LINE
   8
LEVEL003
   6
CONTINUOUS
  62
7
  10
 350.660
  20
 781.054
  30
0.0
  11
 349.669
  21
 780.555
  31
0.0
   0
LINE
   8
LEVEL003
   6
CONTINUOUS
  62
7
  10
 349.669
  20
 780.555
  30
0.0
  11
 348.752
  21
 779.944
  31
0.0
   0
LINE
   8
LEVEL003
   6
CONTINUOUS
  62
7
  10
 348.752
  20
 779.944
  30
0.0
  11
 347.923
  21
 779.230
  31
0.0
   0
LINE
   8
LEVEL003
   6
CONTINUOUS
  62
7
  10
 347.923
  20
 779.230
  30
0.0
  11
 347.196
  21
 778.425
  31
0.0
   0
LINE
   8
LEVEL003
   6
CONTINUOUS
  62
7
  10
 347.196
  20
 778.425
  30
0.0
  11
 346.580
  21
 777.541
  31
0.0
   0
LINE
   8
LEVEL003
   6
CONTINUOUS
  62
7
  10
 346.580
  20
 777.541
  30
0.0
  11
 346.087
  21
 776.591
  31
0.0
   0
LINE
   8
LEVEL003
   6
CONTINUOUS
  62
7
  10
 346.087
  20
 776.591
  30
0.0
  11
 345.724
  21
 775.592
  31
0.0
   0
LINE
   8
LEVEL003
   6
CONTINUOUS
  62
7
  10
 345.724
  20
 775.592
  30
0.0
  11
 345.496
  21
 774.557
  31
0.0
   0
LINE
   8
LEVEL003
   6
CONTINUOUS
  62
7
  10
 345.496
  20
 774.557
  30
0.0
  11
 345.407
  21
 773.504
  31
0.0
   0
LINE
   8
LEVEL003
   6
CONTINUOUS
  62
7
  10
 345.407
  20
 773.504
  30
0.0
  11
 345.459
  21
 772.449
  31
0.0
   0
LINE
   8
LEVEL003
   6
CONTINUOUS
  62
7
  10
 345.459
  20
 772.449
  30
0.0
  11
 345.650
  21
 771.408
  31
0.0
   0
LINE
   8
LEVEL003
   6
CONTINUOUS
  62
7
  10
 345.650
  20
 771.408
  30
0.0
  11
 345.978
  21
 770.397
  31
0.0
   0
LINE
   8
LEVEL003
   6
CONTINUOUS
  62
7
  10
 345.978
  20
 770.397
  30
0.0
  11
 346.437
  21
 769.433
  31
0.0
   0
LINE
   8
LEVEL003
   6
CONTINUOUS
  62
7
  10
 346.437
  20
 769.433
  30
0.0
  11
 347.021
  21
 768.530
  31
0.0
   0
LINE
   8
LEVEL003
   6
CONTINUOUS
  62
7
  10
 347.021
  20
 768.530
  30
0.0
  11
 347.720
  21
 767.702
  31
0.0
   0
LINE
   8
LEVEL003
   6
CONTINUOUS
  62
7
  10
 347.720
  20
 767.702
  30
0.0
  11
 348.523
  21
 766.963
  31
0.0
   0
LINE
   8
LEVEL003
   6
CONTINUOUS
  62
7
  10
 348.523
  20
 766.963
  30
0.0
  11
 349.418
  21
 766.324
  31
0.0
   0
LINE
   8
LEVEL003
   6
CONTINUOUS
  62
7
  10
 349.418
  20
 766.324
  30
0.0
  11
 350.391
  21
 765.794
  31
0.0
   0
LINE
   8
LEVEL003
   6
CONTINUOUS
  62
7
  10
 350.391
  20
 765.794
  30
0.0
  11
 351.427
  21
 765.383
  31
0.0
   0
LINE
   8
LEVEL003
   6
CONTINUOUS
  62
7
  10
 351.427
  20
 765.383
  30
0.0
  11
 352.509
  21
 765.096
  31
0.0
   0
LINE
   8
LEVEL003
   6
CONTINUOUS
  62
7
  10
 352.509
  20
 765.096
  30
0.0
  11
 353.620
  21
 764.939
  31
0.0
   0
LINE
   8
LEVEL003
   6
CONTINUOUS
  62
7
  10
 353.620
  20
 764.939
  30
0.0
  11
 354.744
  21
 764.912
  31
0.0
   0
LINE
   8
LEVEL003
   6
CONTINUOUS
  62
7
  10
 354.744
  20
 764.912
  30
0.0
  11
 355.863
  21
 765.018
  31
0.0
   0
LINE
   8
LEVEL003
   6
CONTINUOUS
  62
7
  10
 355.863
  20
 765.018
  30
0.0
  11
 356.959
  21
 765.254
  31
0.0
   0
LINE
   8
LEVEL003
   6
CONTINUOUS
  62
7
  10
 356.959
  20
 765.254
  30
0.0
  11
 358.015
  21
 765.616
  31
0.0
   0
LINE
   8
LEVEL003
   6
CONTINUOUS
  62
7
  10
 358.015
  20
 765.616
  30
0.0
  11
 359.015
  21
 766.099
  31
0.0
   0
LINE
   8
LEVEL003
   6
CONTINUOUS
  62
7
  10
 359.015
  20
 766.099
  30
0.0
  11
 359.942
  21
 766.696
  31
0.0
   0
LINE
   8
LEVEL003
   6
CONTINUOUS
  62
7
  10
 359.942
  20
 766.696
  30
0.0
  11
 360.784
  21
 767.397
  31
0.0
   0
LINE
   8
LEVEL003
   6
CONTINUOUS
  62
7
  10
 360.784
  20
 767.397
  30
0.0
  11
 361.526
  21
 768.190
  31
0.0
   0
LINE
   8
LEVEL003
   6
CONTINUOUS
  62
7
  10
 361.526
  20
 768.190
  30
0.0
  11
 362.157
  21
 769.065
  31
0.0
   0
LINE
   8
LEVEL003
   6
CONTINUOUS
  62
7
  10
 362.157
  20
 769.065
  30
0.0
  11
 362.666
  21
 770.007
  31
0.0
   0
LINE
   8
LEVEL003
   6
CONTINUOUS
  62
7
  10
 362.666
  20
 770.007
  30
0.0
  11
 363.047
  21
 771.001
  31
0.0
   0
LINE
   8
LEVEL003
   6
CONTINUOUS
  62
7
  10
 363.047
  20
 771.001
  30
0.0
  11
 363.293
  21
 772.031
  31
0.0
   0
LINE
   8
LEVEL003
   6
CONTINUOUS
  62
7
  10
 363.293
  20
 772.031
  30
0.0
  11
 363.401
  21
 773.083
  31
0.0
   0
LINE
   8
LEVEL003
   6
CONTINUOUS
  62
7
  10
 363.401
  20
 773.083
  30
0.0
  11
 363.406
  21
 773.364
  31
0.0
   0
LINE
   8
LEVEL003
   6
CONTINUOUS
  62
7
  10
 345.406
  20
 773.364
  30
0.0
  11
 345.406
  21
 777.263
  31
0.0
   0
LINE
   8
LEVEL003
   6
CONTINUOUS
  62
7
  10
 363.406
  20
 773.364
  30
0.0
  11
 363.406
  21
 777.263
  31
0.0
   0
LINE
   8
LEVEL003
   6
CONTINUOUS
  62
7
  10
 362.406
  20
 773.158
  30
0.0
  11
 362.343
  21
 774.096
  31
0.0
   0
LINE
   8
LEVEL003
   6
CONTINUOUS
  62
7
  10
 362.343
  20
 774.096
  30
0.0
  11
 362.157
  21
 775.018
  31
0.0
   0
LINE
   8
LEVEL003
   6
CONTINUOUS
  62
7
  10
 362.157
  20
 775.018
  30
0.0
  11
 361.850
  21
 775.912
  31
0.0
   0
LINE
   8
LEVEL003
   6
CONTINUOUS
  62
7
  10
 361.850
  20
 775.912
  30
0.0
  11
 361.426
  21
 776.763
  31
0.0
   0
LINE
   8
LEVEL003
   6
CONTINUOUS
  62
7
  10
 361.426
  20
 776.763
  30
0.0
  11
 360.894
  21
 777.557
  31
0.0
   0
LINE
   8
LEVEL003
   6
CONTINUOUS
  62
7
  10
 360.894
  20
 777.557
  30
0.0
  11
 360.259
  21
 778.283
  31
0.0
   0
LINE
   8
LEVEL003
   6
CONTINUOUS
  62
7
  10
 360.259
  20
 778.283
  30
0.0
  11
 359.534
  21
 778.928
  31
0.0
   0
LINE
   8
LEVEL003
   6
CONTINUOUS
  62
7
  10
 359.534
  20
 778.928
  30
0.0
  11
 358.728
  21
 779.484
  31
0.0
   0
LINE
   8
LEVEL003
   6
CONTINUOUS
  62
7
  10
 358.728
  20
 779.484
  30
0.0
  11
 357.855
  21
 779.941
  31
0.0
   0
LINE
   8
LEVEL003
   6
CONTINUOUS
  62
7
  10
 357.855
  20
 779.941
  30
0.0
  11
 356.928
  21
 780.292
  31
0.0
   0
LINE
   8
LEVEL003
   6
CONTINUOUS
  62
7
  10
 356.928
  20
 780.292
  30
0.0
  11
 355.962
  21
 780.532
  31
0.0
   0
LINE
   8
LEVEL003
   6
CONTINUOUS
  62
7
  10
 355.962
  20
 780.532
  30
0.0
  11
 354.972
  21
 780.657
  31
0.0
   0
LINE
   8
LEVEL003
   6
CONTINUOUS
  62
7
  10
 354.972
  20
 780.657
  30
0.0
  11
 353.972
  21
 780.665
  31
0.0
   0
LINE
   8
LEVEL003
   6
CONTINUOUS
  62
7
  10
 353.972
  20
 780.665
  30
0.0
  11
 352.980
  21
 780.556
  31
0.0
   0
LINE
   8
LEVEL003
   6
CONTINUOUS
  62
7
  10
 352.980
  20
 780.556
  30
0.0
  11
 352.010
  21
 780.331
  31
0.0
   0
LINE
   8
LEVEL003
   6
CONTINUOUS
  62
7
  10
 352.010
  20
 780.331
  30
0.0
  11
 351.077
  21
 779.994
  31
0.0
   0
LINE
   8
LEVEL003
   6
CONTINUOUS
  62
7
  10
 351.077
  20
 779.994
  30
0.0
  11
 350.196
  21
 779.551
  31
0.0
   0
LINE
   8
LEVEL003
   6
CONTINUOUS
  62
7
  10
 350.196
  20
 779.551
  30
0.0
  11
 349.380
  21
 779.008
  31
0.0
   0
LINE
   8
LEVEL003
   6
CONTINUOUS
  62
7
  10
 349.380
  20
 779.008
  30
0.0
  11
 348.644
  21
 778.373
  31
0.0
   0
LINE
   8
LEVEL003
   6
CONTINUOUS
  62
7
  10
 348.644
  20
 778.373
  30
0.0
  11
 347.997
  21
 777.657
  31
0.0
   0
LINE
   8
LEVEL003
   6
CONTINUOUS
  62
7
  10
 347.997
  20
 777.657
  30
0.0
  11
 347.450
  21
 776.871
  31
0.0
   0
LINE
   8
LEVEL003
   6
CONTINUOUS
  62
7
  10
 347.450
  20
 776.871
  30
0.0
  11
 347.011
  21
 776.028
  31
0.0
   0
LINE
   8
LEVEL003
   6
CONTINUOUS
  62
7
  10
 347.011
  20
 776.028
  30
0.0
  11
 346.688
  21
 775.139
  31
0.0
   0
LINE
   8
LEVEL003
   6
CONTINUOUS
  62
7
  10
 346.688
  20
 775.139
  30
0.0
  11
 346.486
  21
 774.219
  31
0.0
   0
LINE
   8
LEVEL003
   6
CONTINUOUS
  62
7
  10
 346.486
  20
 774.219
  30
0.0
  11
 346.407
  21
 773.283
  31
0.0
   0
LINE
   8
LEVEL003
   6
CONTINUOUS
  62
7
  10
 346.407
  20
 773.283
  30
0.0
  11
 346.453
  21
 772.345
  31
0.0
   0
LINE
   8
LEVEL003
   6
CONTINUOUS
  62
7
  10
 346.453
  20
 772.345
  30
0.0
  11
 346.623
  21
 771.420
  31
0.0
   0
LINE
   8
LEVEL003
   6
CONTINUOUS
  62
7
  10
 346.623
  20
 771.420
  30
0.0
  11
 346.914
  21
 770.521
  31
0.0
   0
LINE
   8
LEVEL003
   6
CONTINUOUS
  62
7
  10
 346.914
  20
 770.521
  30
0.0
  11
 347.322
  21
 769.664
  31
0.0
   0
LINE
   8
LEVEL003
   6
CONTINUOUS
  62
7
  10
 347.322
  20
 769.664
  30
0.0
  11
 347.841
  21
 768.862
  31
0.0
   0
LINE
   8
LEVEL003
   6
CONTINUOUS
  62
7
  10
 347.841
  20
 768.862
  30
0.0
  11
 348.463
  21
 768.126
  31
0.0
   0
LINE
   8
LEVEL003
   6
CONTINUOUS
  62
7
  10
 348.463
  20
 768.126
  30
0.0
  11
 349.177
  21
 767.469
  31
0.0
   0
LINE
   8
LEVEL003
   6
CONTINUOUS
  62
7
  10
 349.177
  20
 767.469
  30
0.0
  11
 349.972
  21
 766.901
  31
0.0
   0
LINE
   8
LEVEL003
   6
CONTINUOUS
  62
7
  10
 349.972
  20
 766.901
  30
0.0
  11
 350.837
  21
 766.430
  31
0.0
   0
LINE
   8
LEVEL003
   6
CONTINUOUS
  62
7
  10
 350.837
  20
 766.430
  30
0.0
  11
 351.758
  21
 766.065
  31
0.0
   0
LINE
   8
LEVEL003
   6
CONTINUOUS
  62
7
  10
 351.758
  20
 766.065
  30
0.0
  11
 352.719
  21
 765.810
  31
0.0
   0
LINE
   8
LEVEL003
   6
CONTINUOUS
  62
7
  10
 352.719
  20
 765.810
  30
0.0
  11
 353.708
  21
 765.670
  31
0.0
   0
LINE
   8
LEVEL003
   6
CONTINUOUS
  62
7
  10
 353.708
  20
 765.670
  30
0.0
  11
 354.707
  21
 765.646
  31
0.0
   0
LINE
   8
LEVEL003
   6
CONTINUOUS
  62
7
  10
 354.707
  20
 765.646
  30
0.0
  11
 355.701
  21
 765.740
  31
0.0
   0
LINE
   8
LEVEL003
   6
CONTINUOUS
  62
7
  10
 355.701
  20
 765.740
  30
0.0
  11
 356.675
  21
 765.950
  31
0.0
   0
LINE
   8
LEVEL003
   6
CONTINUOUS
  62
7
  10
 356.675
  20
 765.950
  30
0.0
  11
 357.614
  21
 766.272
  31
0.0
   0
LINE
   8
LEVEL003
   6
CONTINUOUS
  62
7
  10
 357.614
  20
 766.272
  30
0.0
  11
 358.502
  21
 766.701
  31
0.0
   0
LINE
   8
LEVEL003
   6
CONTINUOUS
  62
7
  10
 358.502
  20
 766.701
  30
0.0
  11
 359.327
  21
 767.232
  31
0.0
   0
LINE
   8
LEVEL003
   6
CONTINUOUS
  62
7
  10
 359.327
  20
 767.232
  30
0.0
  11
 360.075
  21
 767.854
  31
0.0
   0
LINE
   8
LEVEL003
   6
CONTINUOUS
  62
7
  10
 360.075
  20
 767.854
  30
0.0
  11
 360.735
  21
 768.560
  31
0.0
   0
LINE
   8
LEVEL003
   6
CONTINUOUS
  62
7
  10
 360.735
  20
 768.560
  30
0.0
  11
 361.295
  21
 769.337
  31
0.0
   0
LINE
   8
LEVEL003
   6
CONTINUOUS
  62
7
  10
 361.295
  20
 769.337
  30
0.0
  11
 361.749
  21
 770.174
  31
0.0
   0
LINE
   8
LEVEL003
   6
CONTINUOUS
  62
7
  10
 361.749
  20
 770.174
  30
0.0
  11
 362.087
  21
 771.058
  31
0.0
   0
LINE
   8
LEVEL003
   6
CONTINUOUS
  62
7
  10
 362.087
  20
 771.058
  30
0.0
  11
 362.306
  21
 771.974
  31
0.0
   0
LINE
   8
LEVEL003
   6
CONTINUOUS
  62
7
  10
 362.306
  20
 771.974
  30
0.0
  11
 362.401
  21
 772.909
  31
0.0
   0
LINE
   8
LEVEL003
   6
CONTINUOUS
  62
7
  10
 362.401
  20
 772.909
  30
0.0
  11
 362.406
  21
 773.158
  31
0.0
   0
LINE
   8
LEVEL003
   6
CONTINUOUS
  62
7
  10
 354.406
  20
 778.389
  30
0.0
  11
 359.406
  21
 776.045
  31
0.0
   0
LINE
   8
LEVEL003
   6
CONTINUOUS
  62
7
  10
 359.406
  20
 776.045
  30
0.0
  11
 359.406
  21
 770.272
  31
0.0
   0
LINE
   8
LEVEL003
   6
CONTINUOUS
  62
7
  10
 359.406
  20
 770.272
  30
0.0
  11
 354.406
  21
 767.928
  31
0.0
   0
LINE
   8
LEVEL003
   6
CONTINUOUS
  62
7
  10
 354.406
  20
 767.928
  30
0.0
  11
 349.406
  21
 770.272
  31
0.0
   0
LINE
   8
LEVEL003
   6
CONTINUOUS
  62
7
  10
 349.406
  20
 770.272
  30
0.0
  11
 349.406
  21
 776.045
  31
0.0
   0
LINE
   8
LEVEL003
   6
CONTINUOUS
  62
7
  10
 349.406
  20
 776.045
  30
0.0
  11
 354.406
  21
 778.389
  31
0.0
   0
LINE
   8
LEVEL003
   6
CONTINUOUS
  62
7
  10
 383.406
  20
 773.364
  30
0.0
  11
 383.336
  21
 774.418
  31
0.0
   0
LINE
   8
LEVEL003
   6
CONTINUOUS
  62
7
  10
 383.336
  20
 774.418
  30
0.0
  11
 383.126
  21
 775.456
  31
0.0
   0
LINE
   8
LEVEL003
   6
CONTINUOUS
  62
7
  10
 383.126
  20
 775.456
  30
0.0
  11
 382.780
  21
 776.461
  31
0.0
   0
LINE
   8
LEVEL003
   6
CONTINUOUS
  62
7
  10
 382.780
  20
 776.461
  30
0.0
  11
 382.304
  21
 777.418
  31
0.0
   0
LINE
   8
LEVEL003
   6
CONTINUOUS
  62
7
  10
 382.304
  20
 777.418
  30
0.0
  11
 381.704
  21
 778.312
  31
0.0
   0
LINE
   8
LEVEL003
   6
CONTINUOUS
  62
7
  10
 381.704
  20
 778.312
  30
0.0
  11
 380.991
  21
 779.128
  31
0.0
   0
LINE
   8
LEVEL003
   6
CONTINUOUS
  62
7
  10
 380.991
  20
 779.128
  30
0.0
  11
 380.175
  21
 779.855
  31
0.0
   0
LINE
   8
LEVEL003
   6
CONTINUOUS
  62
7
  10
 380.175
  20
 779.855
  30
0.0
  11
 379.269
  21
 780.480
  31
0.0
   0
LINE
   8
LEVEL003
   6
CONTINUOUS
  62
7
  10
 379.269
  20
 780.480
  30
0.0
  11
 378.286
  21
 780.994
  31
0.0
   0
LINE
   8
LEVEL003
   6
CONTINUOUS
  62
7
  10
 378.286
  20
 780.994
  30
0.0
  11
 377.244
  21
 781.389
  31
0.0
   0
LINE
   8
LEVEL003
   6
CONTINUOUS
  62
7
  10
 377.244
  20
 781.389
  30
0.0
  11
 376.157
  21
 781.659
  31
0.0
   0
LINE
   8
LEVEL003
   6
CONTINUOUS
  62
7
  10
 376.157
  20
 781.659
  30
0.0
  11
 375.042
  21
 781.800
  31
0.0
   0
LINE
   8
LEVEL003
   6
CONTINUOUS
  62
7
  10
 375.042
  20
 781.800
  30
0.0
  11
 373.918
  21
 781.808
  31
0.0
   0
LINE
   8
LEVEL003
   6
CONTINUOUS
  62
7
  10
 373.918
  20
 781.808
  30
0.0
  11
 372.802
  21
 781.685
  31
0.0
   0
LINE
   8
LEVEL003
   6
CONTINUOUS
  62
7
  10
 372.802
  20
 781.685
  30
0.0
  11
 371.710
  21
 781.433
  31
0.0
   0
LINE
   8
LEVEL003
   6
CONTINUOUS
  62
7
  10
 371.710
  20
 781.433
  30
0.0
  11
 370.660
  21
 781.054
  31
0.0
   0
LINE
   8
LEVEL003
   6
CONTINUOUS
  62
7
  10
 370.660
  20
 781.054
  30
0.0
  11
 369.669
  21
 780.555
  31
0.0
   0
LINE
   8
LEVEL003
   6
CONTINUOUS
  62
7
  10
 369.669
  20
 780.555
  30
0.0
  11
 368.752
  21
 779.944
  31
0.0
   0
LINE
   8
LEVEL003
   6
CONTINUOUS
  62
7
  10
 368.752
  20
 779.944
  30
0.0
  11
 367.923
  21
 779.230
  31
0.0
   0
LINE
   8
LEVEL003
   6
CONTINUOUS
  62
7
  10
 367.923
  20
 779.230
  30
0.0
  11
 367.196
  21
 778.425
  31
0.0
   0
LINE
   8
LEVEL003
   6
CONTINUOUS
  62
7
  10
 367.196
  20
 778.425
  30
0.0
  11
 366.580
  21
 777.541
  31
0.0
   0
LINE
   8
LEVEL003
   6
CONTINUOUS
  62
7
  10
 366.580
  20
 777.541
  30
0.0
  11
 366.087
  21
 776.591
  31
0.0
   0
LINE
   8
LEVEL003
   6
CONTINUOUS
  62
7
  10
 366.087
  20
 776.591
  30
0.0
  11
 365.724
  21
 775.592
  31
0.0
   0
LINE
   8
LEVEL003
   6
CONTINUOUS
  62
7
  10
 365.724
  20
 775.592
  30
0.0
  11
 365.496
  21
 774.557
  31
0.0
   0
LINE
   8
LEVEL003
   6
CONTINUOUS
  62
7
  10
 365.496
  20
 774.557
  30
0.0
  11
 365.407
  21
 773.504
  31
0.0
   0
LINE
   8
LEVEL003
   6
CONTINUOUS
  62
7
  10
 365.407
  20
 773.504
  30
0.0
  11
 365.459
  21
 772.449
  31
0.0
   0
LINE
   8
LEVEL003
   6
CONTINUOUS
  62
7
  10
 365.459
  20
 772.449
  30
0.0
  11
 365.650
  21
 771.408
  31
0.0
   0
LINE
   8
LEVEL003
   6
CONTINUOUS
  62
7
  10
 365.650
  20
 771.408
  30
0.0
  11
 365.978
  21
 770.397
  31
0.0
   0
LINE
   8
LEVEL003
   6
CONTINUOUS
  62
7
  10
 365.978
  20
 770.397
  30
0.0
  11
 366.437
  21
 769.433
  31
0.0
   0
LINE
   8
LEVEL003
   6
CONTINUOUS
  62
7
  10
 366.437
  20
 769.433
  30
0.0
  11
 367.021
  21
 768.530
  31
0.0
   0
LINE
   8
LEVEL003
   6
CONTINUOUS
  62
7
  10
 367.021
  20
 768.530
  30
0.0
  11
 367.720
  21
 767.702
  31
0.0
   0
LINE
   8
LEVEL003
   6
CONTINUOUS
  62
7
  10
 367.720
  20
 767.702
  30
0.0
  11
 368.523
  21
 766.963
  31
0.0
   0
LINE
   8
LEVEL003
   6
CONTINUOUS
  62
7
  10
 368.523
  20
 766.963
  30
0.0
  11
 369.418
  21
 766.324
  31
0.0
   0
LINE
   8
LEVEL003
   6
CONTINUOUS
  62
7
  10
 369.418
  20
 766.324
  30
0.0
  11
 370.391
  21
 765.794
  31
0.0
   0
LINE
   8
LEVEL003
   6
CONTINUOUS
  62
7
  10
 370.391
  20
 765.794
  30
0.0
  11
 371.427
  21
 765.383
  31
0.0
   0
LINE
   8
LEVEL003
   6
CONTINUOUS
  62
7
  10
 371.427
  20
 765.383
  30
0.0
  11
 372.509
  21
 765.096
  31
0.0
   0
LINE
   8
LEVEL003
   6
CONTINUOUS
  62
7
  10
 372.509
  20
 765.096
  30
0.0
  11
 373.620
  21
 764.939
  31
0.0
   0
LINE
   8
LEVEL003
   6
CONTINUOUS
  62
7
  10
 373.620
  20
 764.939
  30
0.0
  11
 374.744
  21
 764.912
  31
0.0
   0
LINE
   8
LEVEL003
   6
CONTINUOUS
  62
7
  10
 374.744
  20
 764.912
  30
0.0
  11
 375.863
  21
 765.018
  31
0.0
   0
LINE
   8
LEVEL003
   6
CONTINUOUS
  62
7
  10
 375.863
  20
 765.018
  30
0.0
  11
 376.959
  21
 765.254
  31
0.0
   0
LINE
   8
LEVEL003
   6
CONTINUOUS
  62
7
  10
 376.959
  20
 765.254
  30
0.0
  11
 378.015
  21
 765.616
  31
0.0
   0
LINE
   8
LEVEL003
   6
CONTINUOUS
  62
7
  10
 378.015
  20
 765.616
  30
0.0
  11
 379.015
  21
 766.099
  31
0.0
   0
LINE
   8
LEVEL003
   6
CONTINUOUS
  62
7
  10
 379.015
  20
 766.099
  30
0.0
  11
 379.942
  21
 766.696
  31
0.0
   0
LINE
   8
LEVEL003
   6
CONTINUOUS
  62
7
  10
 379.942
  20
 766.696
  30
0.0
  11
 380.784
  21
 767.397
  31
0.0
   0
LINE
   8
LEVEL003
   6
CONTINUOUS
  62
7
  10
 380.784
  20
 767.397
  30
0.0
  11
 381.526
  21
 768.190
  31
0.0
   0
LINE
   8
LEVEL003
   6
CONTINUOUS
  62
7
  10
 381.526
  20
 768.190
  30
0.0
  11
 382.157
  21
 769.065
  31
0.0
   0
LINE
   8
LEVEL003
   6
CONTINUOUS
  62
7
  10
 382.157
  20
 769.065
  30
0.0
  11
 382.666
  21
 770.007
  31
0.0
   0
LINE
   8
LEVEL003
   6
CONTINUOUS
  62
7
  10
 382.666
  20
 770.007
  30
0.0
  11
 383.047
  21
 771.001
  31
0.0
   0
LINE
   8
LEVEL003
   6
CONTINUOUS
  62
7
  10
 383.047
  20
 771.001
  30
0.0
  11
 383.293
  21
 772.031
  31
0.0
   0
LINE
   8
LEVEL003
   6
CONTINUOUS
  62
7
  10
 383.293
  20
 772.031
  30
0.0
  11
 383.401
  21
 773.083
  31
0.0
   0
LINE
   8
LEVEL003
   6
CONTINUOUS
  62
7
  10
 383.401
  20
 773.083
  30
0.0
  11
 383.406
  21
 773.364
  31
0.0
   0
LINE
   8
LEVEL003
   6
CONTINUOUS
  62
7
  10
 365.406
  20
 773.364
  30
0.0
  11
 365.406
  21
 777.263
  31
0.0
   0
LINE
   8
LEVEL003
   6
CONTINUOUS
  62
7
  10
 383.406
  20
 773.364
  30
0.0
  11
 383.406
  21
 777.263
  31
0.0
   0
LINE
   8
LEVEL003
   6
CONTINUOUS
  62
7
  10
 382.406
  20
 773.158
  30
0.0
  11
 382.343
  21
 774.096
  31
0.0
   0
LINE
   8
LEVEL003
   6
CONTINUOUS
  62
7
  10
 382.343
  20
 774.096
  30
0.0
  11
 382.157
  21
 775.018
  31
0.0
   0
LINE
   8
LEVEL003
   6
CONTINUOUS
  62
7
  10
 382.157
  20
 775.018
  30
0.0
  11
 381.850
  21
 775.912
  31
0.0
   0
LINE
   8
LEVEL003
   6
CONTINUOUS
  62
7
  10
 381.850
  20
 775.912
  30
0.0
  11
 381.426
  21
 776.763
  31
0.0
   0
LINE
   8
LEVEL003
   6
CONTINUOUS
  62
7
  10
 381.426
  20
 776.763
  30
0.0
  11
 380.894
  21
 777.557
  31
0.0
   0
LINE
   8
LEVEL003
   6
CONTINUOUS
  62
7
  10
 380.894
  20
 777.557
  30
0.0
  11
 380.259
  21
 778.283
  31
0.0
   0
LINE
   8
LEVEL003
   6
CONTINUOUS
  62
7
  10
 380.259
  20
 778.283
  30
0.0
  11
 379.534
  21
 778.928
  31
0.0
   0
LINE
   8
LEVEL003
   6
CONTINUOUS
  62
7
  10
 379.534
  20
 778.928
  30
0.0
  11
 378.728
  21
 779.484
  31
0.0
   0
LINE
   8
LEVEL003
   6
CONTINUOUS
  62
7
  10
 378.728
  20
 779.484
  30
0.0
  11
 377.855
  21
 779.941
  31
0.0
   0
LINE
   8
LEVEL003
   6
CONTINUOUS
  62
7
  10
 377.855
  20
 779.941
  30
0.0
  11
 376.928
  21
 780.292
  31
0.0
   0
LINE
   8
LEVEL003
   6
CONTINUOUS
  62
7
  10
 376.928
  20
 780.292
  30
0.0
  11
 375.962
  21
 780.532
  31
0.0
   0
LINE
   8
LEVEL003
   6
CONTINUOUS
  62
7
  10
 375.962
  20
 780.532
  30
0.0
  11
 374.972
  21
 780.657
  31
0.0
   0
LINE
   8
LEVEL003
   6
CONTINUOUS
  62
7
  10
 374.972
  20
 780.657
  30
0.0
  11
 373.972
  21
 780.665
  31
0.0
   0
LINE
   8
LEVEL003
   6
CONTINUOUS
  62
7
  10
 373.972
  20
 780.665
  30
0.0
  11
 372.980
  21
 780.556
  31
0.0
   0
LINE
   8
LEVEL003
   6
CONTINUOUS
  62
7
  10
 372.980
  20
 780.556
  30
0.0
  11
 372.010
  21
 780.331
  31
0.0
   0
LINE
   8
LEVEL003
   6
CONTINUOUS
  62
7
  10
 372.010
  20
 780.331
  30
0.0
  11
 371.077
  21
 779.994
  31
0.0
   0
LINE
   8
LEVEL003
   6
CONTINUOUS
  62
7
  10
 371.077
  20
 779.994
  30
0.0
  11
 370.196
  21
 779.551
  31
0.0
   0
LINE
   8
LEVEL003
   6
CONTINUOUS
  62
7
  10
 370.196
  20
 779.551
  30
0.0
  11
 369.380
  21
 779.008
  31
0.0
   0
LINE
   8
LEVEL003
   6
CONTINUOUS
  62
7
  10
 369.380
  20
 779.008
  30
0.0
  11
 368.644
  21
 778.373
  31
0.0
   0
LINE
   8
LEVEL003
   6
CONTINUOUS
  62
7
  10
 368.644
  20
 778.373
  30
0.0
  11
 367.997
  21
 777.657
  31
0.0
   0
LINE
   8
LEVEL003
   6
CONTINUOUS
  62
7
  10
 367.997
  20
 777.657
  30
0.0
  11
 367.450
  21
 776.871
  31
0.0
   0
LINE
   8
LEVEL003
   6
CONTINUOUS
  62
7
  10
 367.450
  20
 776.871
  30
0.0
  11
 367.011
  21
 776.028
  31
0.0
   0
LINE
   8
LEVEL003
   6
CONTINUOUS
  62
7
  10
 367.011
  20
 776.028
  30
0.0
  11
 366.688
  21
 775.139
  31
0.0
   0
LINE
   8
LEVEL003
   6
CONTINUOUS
  62
7
  10
 366.688
  20
 775.139
  30
0.0
  11
 366.486
  21
 774.219
  31
0.0
   0
LINE
   8
LEVEL003
   6
CONTINUOUS
  62
7
  10
 366.486
  20
 774.219
  30
0.0
  11
 366.407
  21
 773.283
  31
0.0
   0
LINE
   8
LEVEL003
   6
CONTINUOUS
  62
7
  10
 366.407
  20
 773.283
  30
0.0
  11
 366.453
  21
 772.345
  31
0.0
   0
LINE
   8
LEVEL003
   6
CONTINUOUS
  62
7
  10
 366.453
  20
 772.345
  30
0.0
  11
 366.623
  21
 771.420
  31
0.0
   0
LINE
   8
LEVEL003
   6
CONTINUOUS
  62
7
  10
 366.623
  20
 771.420
  30
0.0
  11
 366.914
  21
 770.521
  31
0.0
   0
LINE
   8
LEVEL003
   6
CONTINUOUS
  62
7
  10
 366.914
  20
 770.521
  30
0.0
  11
 367.322
  21
 769.664
  31
0.0
   0
LINE
   8
LEVEL003
   6
CONTINUOUS
  62
7
  10
 367.322
  20
 769.664
  30
0.0
  11
 367.841
  21
 768.862
  31
0.0
   0
LINE
   8
LEVEL003
   6
CONTINUOUS
  62
7
  10
 367.841
  20
 768.862
  30
0.0
  11
 368.463
  21
 768.126
  31
0.0
   0
LINE
   8
LEVEL003
   6
CONTINUOUS
  62
7
  10
 368.463
  20
 768.126
  30
0.0
  11
 369.177
  21
 767.469
  31
0.0
   0
LINE
   8
LEVEL003
   6
CONTINUOUS
  62
7
  10
 369.177
  20
 767.469
  30
0.0
  11
 369.972
  21
 766.901
  31
0.0
   0
LINE
   8
LEVEL003
   6
CONTINUOUS
  62
7
  10
 369.972
  20
 766.901
  30
0.0
  11
 370.837
  21
 766.430
  31
0.0
   0
LINE
   8
LEVEL003
   6
CONTINUOUS
  62
7
  10
 370.837
  20
 766.430
  30
0.0
  11
 371.758
  21
 766.065
  31
0.0
   0
LINE
   8
LEVEL003
   6
CONTINUOUS
  62
7
  10
 371.758
  20
 766.065
  30
0.0
  11
 372.719
  21
 765.810
  31
0.0
   0
LINE
   8
LEVEL003
   6
CONTINUOUS
  62
7
  10
 372.719
  20
 765.810
  30
0.0
  11
 373.708
  21
 765.670
  31
0.0
   0
LINE
   8
LEVEL003
   6
CONTINUOUS
  62
7
  10
 373.708
  20
 765.670
  30
0.0
  11
 374.707
  21
 765.646
  31
0.0
   0
LINE
   8
LEVEL003
   6
CONTINUOUS
  62
7
  10
 374.707
  20
 765.646
  30
0.0
  11
 375.701
  21
 765.740
  31
0.0
   0
LINE
   8
LEVEL003
   6
CONTINUOUS
  62
7
  10
 375.701
  20
 765.740
  30
0.0
  11
 376.675
  21
 765.950
  31
0.0
   0
LINE
   8
LEVEL003
   6
CONTINUOUS
  62
7
  10
 376.675
  20
 765.950
  30
0.0
  11
 377.614
  21
 766.272
  31
0.0
   0
LINE
   8
LEVEL003
   6
CONTINUOUS
  62
7
  10
 377.614
  20
 766.272
  30
0.0
  11
 378.502
  21
 766.701
  31
0.0
   0
LINE
   8
LEVEL003
   6
CONTINUOUS
  62
7
  10
 378.502
  20
 766.701
  30
0.0
  11
 379.327
  21
 767.232
  31
0.0
   0
LINE
   8
LEVEL003
   6
CONTINUOUS
  62
7
  10
 379.327
  20
 767.232
  30
0.0
  11
 380.075
  21
 767.854
  31
0.0
   0
LINE
   8
LEVEL003
   6
CONTINUOUS
  62
7
  10
 380.075
  20
 767.854
  30
0.0
  11
 380.735
  21
 768.560
  31
0.0
   0
LINE
   8
LEVEL003
   6
CONTINUOUS
  62
7
  10
 380.735
  20
 768.560
  30
0.0
  11
 381.295
  21
 769.337
  31
0.0
   0
LINE
   8
LEVEL003
   6
CONTINUOUS
  62
7
  10
 381.295
  20
 769.337
  30
0.0
  11
 381.749
  21
 770.174
  31
0.0
   0
LINE
   8
LEVEL003
   6
CONTINUOUS
  62
7
  10
 381.749
  20
 770.174
  30
0.0
  11
 382.087
  21
 771.058
  31
0.0
   0
LINE
   8
LEVEL003
   6
CONTINUOUS
  62
7
  10
 382.087
  20
 771.058
  30
0.0
  11
 382.306
  21
 771.974
  31
0.0
   0
LINE
   8
LEVEL003
   6
CONTINUOUS
  62
7
  10
 382.306
  20
 771.974
  30
0.0
  11
 382.401
  21
 772.909
  31
0.0
   0
LINE
   8
LEVEL003
   6
CONTINUOUS
  62
7
  10
 382.401
  20
 772.909
  30
0.0
  11
 382.406
  21
 773.158
  31
0.0
   0
LINE
   8
LEVEL003
   6
CONTINUOUS
  62
7
  10
 383.406
  20
 777.263
  30
0.0
  11
 383.336
  21
 778.317
  31
0.0
   0
LINE
   8
LEVEL003
   6
CONTINUOUS
  62
7
  10
 383.336
  20
 778.317
  30
0.0
  11
 383.126
  21
 779.355
  31
0.0
   0
LINE
   8
LEVEL003
   6
CONTINUOUS
  62
7
  10
 383.126
  20
 779.355
  30
0.0
  11
 382.780
  21
 780.360
  31
0.0
   0
LINE
   8
LEVEL003
   6
CONTINUOUS
  62
7
  10
 382.780
  20
 780.360
  30
0.0
  11
 382.304
  21
 781.317
  31
0.0
   0
LINE
   8
LEVEL003
   6
CONTINUOUS
  62
7
  10
 382.304
  20
 781.317
  30
0.0
  11
 381.704
  21
 782.211
  31
0.0
   0
LINE
   8
LEVEL003
   6
CONTINUOUS
  62
7
  10
 381.704
  20
 782.211
  30
0.0
  11
 380.991
  21
 783.027
  31
0.0
   0
LINE
   8
LEVEL003
   6
CONTINUOUS
  62
7
  10
 380.991
  20
 783.027
  30
0.0
  11
 380.175
  21
 783.754
  31
0.0
   0
LINE
   8
LEVEL003
   6
CONTINUOUS
  62
7
  10
 380.175
  20
 783.754
  30
0.0
  11
 379.269
  21
 784.379
  31
0.0
   0
LINE
   8
LEVEL003
   6
CONTINUOUS
  62
7
  10
 379.269
  20
 784.379
  30
0.0
  11
 378.286
  21
 784.893
  31
0.0
   0
LINE
   8
LEVEL003
   6
CONTINUOUS
  62
7
  10
 378.286
  20
 784.893
  30
0.0
  11
 377.244
  21
 785.288
  31
0.0
   0
LINE
   8
LEVEL003
   6
CONTINUOUS
  62
7
  10
 377.244
  20
 785.288
  30
0.0
  11
 376.157
  21
 785.558
  31
0.0
   0
LINE
   8
LEVEL003
   6
CONTINUOUS
  62
7
  10
 376.157
  20
 785.558
  30
0.0
  11
 375.042
  21
 785.699
  31
0.0
   0
LINE
   8
LEVEL003
   6
CONTINUOUS
  62
7
  10
 375.042
  20
 785.699
  30
0.0
  11
 373.918
  21
 785.707
  31
0.0
   0
LINE
   8
LEVEL003
   6
CONTINUOUS
  62
7
  10
 373.918
  20
 785.707
  30
0.0
  11
 372.802
  21
 785.584
  31
0.0
   0
LINE
   8
LEVEL003
   6
CONTINUOUS
  62
7
  10
 372.802
  20
 785.584
  30
0.0
  11
 371.710
  21
 785.332
  31
0.0
   0
LINE
   8
LEVEL003
   6
CONTINUOUS
  62
7
  10
 371.710
  20
 785.332
  30
0.0
  11
 370.660
  21
 784.953
  31
0.0
   0
LINE
   8
LEVEL003
   6
CONTINUOUS
  62
7
  10
 370.660
  20
 784.953
  30
0.0
  11
 369.669
  21
 784.454
  31
0.0
   0
LINE
   8
LEVEL003
   6
CONTINUOUS
  62
7
  10
 369.669
  20
 784.454
  30
0.0
  11
 368.752
  21
 783.843
  31
0.0
   0
LINE
   8
LEVEL003
   6
CONTINUOUS
  62
7
  10
 368.752
  20
 783.843
  30
0.0
  11
 367.923
  21
 783.129
  31
0.0
   0
LINE
   8
LEVEL003
   6
CONTINUOUS
  62
7
  10
 367.923
  20
 783.129
  30
0.0
  11
 367.196
  21
 782.324
  31
0.0
   0
LINE
   8
LEVEL003
   6
CONTINUOUS
  62
7
  10
 367.196
  20
 782.324
  30
0.0
  11
 366.580
  21
 781.440
  31
0.0
   0
LINE
   8
LEVEL003
   6
CONTINUOUS
  62
7
  10
 366.580
  20
 781.440
  30
0.0
  11
 366.087
  21
 780.490
  31
0.0
   0
LINE
   8
LEVEL003
   6
CONTINUOUS
  62
7
  10
 366.087
  20
 780.490
  30
0.0
  11
 365.724
  21
 779.491
  31
0.0
   0
LINE
   8
LEVEL003
   6
CONTINUOUS
  62
7
  10
 365.724
  20
 779.491
  30
0.0
  11
 365.496
  21
 778.456
  31
0.0
   0
LINE
   8
LEVEL003
   6
CONTINUOUS
  62
7
  10
 365.496
  20
 778.456
  30
0.0
  11
 365.407
  21
 777.403
  31
0.0
   0
LINE
   8
LEVEL003
   6
CONTINUOUS
  62
7
  10
 365.407
  20
 777.403
  30
0.0
  11
 365.406
  21
 777.263
  31
0.0
   0
LINE
   8
LEVEL003
   6
CONTINUOUS
  62
7
  10
 374.406
  20
 778.389
  30
0.0
  11
 379.406
  21
 776.045
  31
0.0
   0
LINE
   8
LEVEL003
   6
CONTINUOUS
  62
7
  10
 379.406
  20
 776.045
  30
0.0
  11
 379.406
  21
 770.272
  31
0.0
   0
LINE
   8
LEVEL003
   6
CONTINUOUS
  62
7
  10
 379.406
  20
 770.272
  30
0.0
  11
 374.406
  21
 767.928
  31
0.0
   0
LINE
   8
LEVEL003
   6
CONTINUOUS
  62
7
  10
 374.406
  20
 767.928
  30
0.0
  11
 369.406
  21
 770.272
  31
0.0
   0
LINE
   8
LEVEL003
   6
CONTINUOUS
  62
7
  10
 369.406
  20
 770.272
  30
0.0
  11
 369.406
  21
 776.045
  31
0.0
   0
LINE
   8
LEVEL003
   6
CONTINUOUS
  62
7
  10
 369.406
  20
 776.045
  30
0.0
  11
 374.406
  21
 778.389
  31
0.0
   0
LINE
   8
LEVEL003
   6
DASHDOT
  62
1
  10
 386.406
  20
 773.158
  30
0.0
  11
 362.406
  21
 773.158
  31
0.0
   0
LINE
   8
LEVEL003
   6
DASHDOT
  62
1
  10
 366.406
  20
 773.158
  30
0.0
  11
 342.406
  21
 773.158
  31
0.0
   0
LINE
   8
LEVEL001
   6
CONTINUOUS
  62
7
  10
 388.906
  20
 772.263
  30
0.0
  11
 388.906
  21
 788.763
  31
0.0
   0
LINE
   8
LEVEL001
   6
CONTINUOUS
  62
7
  10
 356.406
  20
 824.013
  30
0.0
  11
 366.406
  21
 824.013
  31
0.0
   0
LINE
   8
LEVEL001
   6
CONTINUOUS
  62
7
  10
 366.406
  20
 824.013
  30
0.0
  11
 366.406
  21
 823.763
  31
0.0
   0
LINE
   8
LEVEL001
   6
CONTINUOUS
  62
7
  10
 366.406
  20
 824.013
  30
0.0
  11
 365.406
  21
 825.013
  31
0.0
   0
LINE
   8
LEVEL001
   6
CONTINUOUS
  62
7
  10
 356.406
  20
 824.013
  30
0.0
  11
 356.406
  21
 823.763
  31
0.0
   0
LINE
   8
LEVEL001
   6
CONTINUOUS
  62
7
  10
 356.406
  20
 824.013
  30
0.0
  11
 357.406
  21
 825.013
  31
0.0
   0
LINE
   8
LEVEL001
   6
CONTINUOUS
  62
7
  10
 357.406
  20
 825.013
  30
0.0
  11
 365.406
  21
 825.013
  31
0.0
   0
LINE
   8
LEVEL001
   6
CONTINUOUS
  62
7
  10
 356.406
  20
 786.513
  30
0.0
  11
 366.406
  21
 786.513
  31
0.0
   0
LINE
   8
LEVEL001
   6
CONTINUOUS
  62
7
  10
 356.406
  20
 786.513
  30
0.0
  11
 356.406
  21
 786.763
  31
0.0
   0
LINE
   8
LEVEL001
   6
CONTINUOUS
  62
7
  10
 356.406
  20
 786.513
  30
0.0
  11
 357.406
  21
 785.513
  31
0.0
   0
LINE
   8
LEVEL001
   6
CONTINUOUS
  62
7
  10
 366.406
  20
 786.513
  30
0.0
  11
 366.406
  21
 786.763
  31
0.0
   0
LINE
   8
LEVEL001
   6
CONTINUOUS
  62
7
  10
 366.406
  20
 786.513
  30
0.0
  11
 365.406
  21
 785.513
  31
0.0
   0
LINE
   8
LEVEL001
   6
CONTINUOUS
  62
7
  10
 357.406
  20
 785.513
  30
0.0
  11
 365.406
  21
 785.513
  31
0.0
   0
ARC
   8
LEVEL001
   6
CONTINUOUS
  62
7
  10
 361.406
  20
 805.263
  30
0.0
  40
 20.0000
  50
 102.108
  51
 112.332
   0
ARC
   8
LEVEL001
   6
CONTINUOUS
  62
7
  10
 361.406
  20
 805.263
  30
0.0
  40
 20.0000
  50
 67.6685
  51
 77.8932
   0
ARC
   8
LEVEL001
   6
CONTINUOUS
  62
7
  10
 361.406
  20
 805.263
  30
0.0
  40
 20.0000
  50
 80.9313
  51
 99.0687
   0
ARC
   8
LEVEL001
   6
CONTINUOUS
  62
7
  10
 361.406
  20
 805.263
  30
0.0
  40
 20.0000
  50
 247.668
  51
 257.892
   0
ARC
   8
LEVEL001
   6
CONTINUOUS
  62
7
  10
 361.406
  20
 805.263
  30
0.0
  40
 20.0000
  50
 260.931
  51
 279.069
   0
ARC
   8
LEVEL001
   6
CONTINUOUS
  62
7
  10
 361.406
  20
 805.263
  30
0.0
  40
 20.0000
  50
 282.107
  51
 292.332
   0
LINE
   8
LEVEL001
   6
CONTINUOUS
  62
7
  10
 342.457
  20
 776.217
  30
0.0
  11
 342.689
  21
 774.826
  31
0.0
   0
LINE
   8
LEVEL001
   6
CONTINUOUS
  62
7
  10
 342.689
  20
 774.826
  30
0.0
  11
 343.104
  21
 773.472
  31
0.0
   0
LINE
   8
LEVEL001
   6
CONTINUOUS
  62
7
  10
 343.104
  20
 773.472
  30
0.0
  11
 343.695
  21
 772.178
  31
0.0
   0
LINE
   8
LEVEL001
   6
CONTINUOUS
  62
7
  10
 343.695
  20
 772.178
  30
0.0
  11
 344.453
  21
 770.962
  31
0.0
   0
LINE
   8
LEVEL001
   6
CONTINUOUS
  62
7
  10
 344.453
  20
 770.962
  30
0.0
  11
 345.367
  21
 769.846
  31
0.0
   0
LINE
   8
LEVEL001
   6
CONTINUOUS
  62
7
  10
 345.367
  20
 769.846
  30
0.0
  11
 346.422
  21
 768.845
  31
0.0
   0
LINE
   8
LEVEL001
   6
CONTINUOUS
  62
7
  10
 346.422
  20
 768.845
  30
0.0
  11
 347.295
  21
 768.179
  31
0.0
   0
LINE
   8
LEVEL001
   6
CONTINUOUS
  62
7
  10
 358.807
  20
 765.986
  30
0.0
  11
 370.005
  21
 765.986
  31
0.0
   0
LINE
   8
LEVEL001
   6
CONTINUOUS
  62
7
  10
 381.517
  20
 768.179
  30
0.0
  11
 382.666
  21
 769.083
  31
0.0
   0
LINE
   8
LEVEL001
   6
CONTINUOUS
  62
7
  10
 382.666
  20
 769.083
  30
0.0
  11
 383.687
  21
 770.115
  31
0.0
   0
LINE
   8
LEVEL001
   6
CONTINUOUS
  62
7
  10
 383.687
  20
 770.115
  30
0.0
  11
 384.563
  21
 771.258
  31
0.0
   0
LINE
   8
LEVEL001
   6
CONTINUOUS
  62
7
  10
 384.563
  20
 771.258
  30
0.0
  11
 385.280
  21
 772.495
  31
0.0
   0
LINE
   8
LEVEL001
   6
CONTINUOUS
  62
7
  10
 385.280
  20
 772.495
  30
0.0
  11
 385.828
  21
 773.806
  31
0.0
   0
LINE
   8
LEVEL001
   6
CONTINUOUS
  62
7
  10
 385.828
  20
 773.806
  30
0.0
  11
 386.198
  21
 775.171
  31
0.0
   0
LINE
   8
LEVEL001
   6
CONTINUOUS
  62
7
  10
 386.198
  20
 775.171
  30
0.0
  11
 386.354
  21
 776.217
  31
0.0
   0
LINE
   8
LEVEL001
   6
DASHDOT
  62
1
  10
 338.406
  20
 777.315
  30
0.0
  11
 338.406
  21
 832.315
  31
0.0
   0
LINE
   8
LEVEL001
   6
CONTINUOUS
  62
7
  10
 333.406
  20
 828.763
  30
0.0
  11
 334.406
  21
 829.763
  31
0.0
   0
LINE
   8
LEVEL001
   6
CONTINUOUS
  62
7
  10
 334.406
  20
 829.763
  30
0.0
  11
 342.406
  21
 829.763
  31
0.0
   0
LINE
   8
LEVEL001
   6
CONTINUOUS
  62
7
  10
 342.406
  20
 829.763
  30
0.0
  11
 343.406
  21
 828.763
  31
0.0
   0
LINE
   8
LEVEL001
   6
CONTINUOUS
  62
7
  10
 333.406
  20
 828.763
  30
0.0
  11
 343.406
  21
 828.763
  31
0.0
   0
LINE
   8
LEVEL001
   6
CONTINUOUS
  62
7
  10
 342.451
  20
 776.217
  30
0.0
  11
 342.054
  21
 780.763
  31
0.0
   0
ARC
   8
LEVEL001
   6
CONTINUOUS
  62
7
  10
 324.791
  20
 826.263
  30
0.0
  40
 0.800000
  50
 90.0000
  51
 270.000
   0
LINE
   8
LEVEL001
   6
CONTINUOUS
  62
7
  10
 324.791
  20
 827.063
  30
0.0
  11
 351.702
  21
 827.063
  31
0.0
   0
LINE
   8
LEVEL001
   6
CONTINUOUS
  62
7
  10
 324.791
  20
 825.463
  30
0.0
  11
 351.702
  21
 825.463
  31
0.0
   0
LINE
   8
LEVEL001
   6
DASHDOT
  62
1
  10
 323.248
  20
 826.263
  30
0.0
  11
 352.620
  21
 826.263
  31
0.0
   0
LINE
   8
LEVEL001
   6
CONTINUOUS
  62
7
  10
 351.702
  20
 827.063
  30
0.0
  11
 351.702
  21
 825.463
  31
0.0
   0
ARC
   8
LEVEL001
   6
CONTINUOUS
  62
7
  10
 349.520
  20
 826.263
  30
0.0
  40
 0.800000
  50
 270.000
  51
 90.0000
   0
LINE
   8
LEVEL001
   6
CONTINUOUS
  62
7
  10
 343.406
  20
 827.063
  30
0.0
  11
 343.406
  21
 828.763
  31
0.0
   0
LINE
   8
LEVEL001
   6
CONTINUOUS
  62
7
  10
 333.406
  20
 828.763
  30
0.0
  11
 333.406
  21
 827.063
  31
0.0
   0
LINE
   8
LEVEL001
   6
CONTINUOUS
  62
7
  10
 333.406
  20
 825.463
  30
0.0
  11
 333.406
  21
 823.763
  31
0.0
   0
LINE
   8
LEVEL001
   6
CONTINUOUS
  62
7
  10
 333.406
  20
 781.763
  30
0.0
  11
 334.406
  21
 780.763
  31
0.0
   0
LINE
   8
LEVEL001
   6
CONTINUOUS
  62
7
  10
 334.406
  20
 780.763
  30
0.0
  11
 342.406
  21
 780.763
  31
0.0
   0
LINE
   8
LEVEL001
   6
CONTINUOUS
  62
7
  10
 333.406
  20
 781.763
  30
0.0
  11
 343.406
  21
 781.763
  31
0.0
   0
LINE
   8
LEVEL001
   6
CONTINUOUS
  62
7
  10
 324.791
  20
 783.463
  30
0.0
  11
 351.702
  21
 783.463
  31
0.0
   0
LINE
   8
LEVEL001
   6
CONTINUOUS
  62
7
  10
 324.791
  20
 785.063
  30
0.0
  11
 351.702
  21
 785.063
  31
0.0
   0
LINE
   8
LEVEL001
   6
DASHDOT
  62
1
  10
 323.248
  20
 784.263
  30
0.0
  11
 352.620
  21
 784.263
  31
0.0
   0
LINE
   8
LEVEL001
   6
CONTINUOUS
  62
7
  10
 333.406
  20
 781.763
  30
0.0
  11
 333.406
  21
 783.463
  31
0.0
   0
LINE
   8
LEVEL001
   6
CONTINUOUS
  62
7
  10
 333.406
  20
 785.063
  30
0.0
  11
 333.406
  21
 786.763
  31
0.0
   0
LINE
   8
LEVEL001
   6
CONTINUOUS
  62
7
  10
 342.406
  20
 780.763
  30
0.0
  11
 343.406
  21
 781.763
  31
0.0
   0
LINE
   8
LEVEL001
   6
CONTINUOUS
  62
7
  10
 343.406
  20
 783.463
  30
0.0
  11
 343.406
  21
 781.763
  31
0.0
   0
LINE
   8
LEVEL001
   6
CONTINUOUS
  62
7
  10
 351.702
  20
 783.463
  30
0.0
  11
 351.702
  21
 785.063
  31
0.0
   0
ARC
   8
LEVEL001
   6
CONTINUOUS
  62
7
  10
 349.520
  20
 784.263
  30
0.0
  40
 0.800000
  50
 270.000
  51
 90.0000
   0
ARC
   8
LEVEL001
   6
CONTINUOUS
  62
7
  10
 324.791
  20
 784.263
  30
0.0
  40
 0.800000
  50
 90.0000
  51
 270.000
   0
LINE
   8
LEVEL001
   6
CONTINUOUS
  62
7
  10
 343.406
  20
 823.763
  30
0.0
  11
 343.406
  21
 825.463
  31
0.0
   0
LINE
   8
LEVEL001
   6
CONTINUOUS
  62
7
  10
 343.406
  20
 786.763
  30
0.0
  11
 343.406
  21
 785.063
  31
0.0
   0
LINE
   8
LEVEL003
   6
CONTINUOUS
  62
7
  10
 363.406
  20
 777.263
  30
0.0
  11
 363.336
  21
 778.317
  31
0.0
   0
LINE
   8
LEVEL003
   6
CONTINUOUS
  62
7
  10
 363.336
  20
 778.317
  30
0.0
  11
 363.126
  21
 779.355
  31
0.0
   0
LINE
   8
LEVEL003
   6
CONTINUOUS
  62
7
  10
 363.126
  20
 779.355
  30
0.0
  11
 362.780
  21
 780.360
  31
0.0
   0
LINE
   8
LEVEL003
   6
CONTINUOUS
  62
7
  10
 362.780
  20
 780.360
  30
0.0
  11
 362.304
  21
 781.317
  31
0.0
   0
LINE
   8
LEVEL003
   6
CONTINUOUS
  62
7
  10
 362.304
  20
 781.317
  30
0.0
  11
 361.704
  21
 782.211
  31
0.0
   0
LINE
   8
LEVEL003
   6
CONTINUOUS
  62
7
  10
 361.704
  20
 782.211
  30
0.0
  11
 360.991
  21
 783.027
  31
0.0
   0
LINE
   8
LEVEL003
   6
CONTINUOUS
  62
7
  10
 360.991
  20
 783.027
  30
0.0
  11
 360.175
  21
 783.754
  31
0.0
   0
LINE
   8
LEVEL003
   6
CONTINUOUS
  62
7
  10
 360.175
  20
 783.754
  30
0.0
  11
 359.269
  21
 784.379
  31
0.0
   0
LINE
   8
LEVEL003
   6
CONTINUOUS
  62
7
  10
 359.269
  20
 784.379
  30
0.0
  11
 358.286
  21
 784.893
  31
0.0
   0
LINE
   8
LEVEL003
   6
CONTINUOUS
  62
7
  10
 358.286
  20
 784.893
  30
0.0
  11
 357.244
  21
 785.288
  31
0.0
   0
LINE
   8
LEVEL003
   6
CONTINUOUS
  62
7
  10
 357.244
  20
 785.288
  30
0.0
  11
 356.157
  21
 785.558
  31
0.0
   0
LINE
   8
LEVEL003
   6
CONTINUOUS
  62
7
  10
 356.157
  20
 785.558
  30
0.0
  11
 355.042
  21
 785.699
  31
0.0
   0
LINE
   8
LEVEL003
   6
CONTINUOUS
  62
7
  10
 355.042
  20
 785.699
  30
0.0
  11
 353.918
  21
 785.707
  31
0.0
   0
LINE
   8
LEVEL003
   6
CONTINUOUS
  62
7
  10
 353.918
  20
 785.707
  30
0.0
  11
 352.802
  21
 785.584
  31
0.0
   0
LINE
   8
LEVEL003
   6
CONTINUOUS
  62
7
  10
 352.802
  20
 785.584
  30
0.0
  11
 351.710
  21
 785.332
  31
0.0
   0
LINE
   8
LEVEL003
   6
CONTINUOUS
  62
7
  10
 351.710
  20
 785.332
  30
0.0
  11
 350.927
  21
 785.063
  31
0.0
   0
LINE
   8
LEVEL003
   6
CONTINUOUS
  62
7
  10
 348.285
  20
 783.463
  30
0.0
  11
 347.510
  21
 782.697
  31
0.0
   0
LINE
   8
LEVEL003
   6
CONTINUOUS
  62
7
  10
 347.510
  20
 782.697
  30
0.0
  11
 346.843
  21
 781.847
  31
0.0
   0
LINE
   8
LEVEL003
   6
CONTINUOUS
  62
7
  10
 346.843
  20
 781.847
  30
0.0
  11
 346.293
  21
 780.925
  31
0.0
   0
LINE
   8
LEVEL003
   6
CONTINUOUS
  62
7
  10
 346.293
  20
 780.925
  30
0.0
  11
 345.871
  21
 779.946
  31
0.0
   0
LINE
   8
LEVEL003
   6
CONTINUOUS
  62
7
  10
 345.871
  20
 779.946
  30
0.0
  11
 345.581
  21
 778.925
  31
0.0
   0
LINE
   8
LEVEL003
   6
CONTINUOUS
  62
7
  10
 345.581
  20
 778.925
  30
0.0
  11
 345.430
  21
 777.878
  31
0.0
   0
LINE
   8
LEVEL003
   6
CONTINUOUS
  62
7
  10
 345.430
  20
 777.878
  30
0.0
  11
 345.406
  21
 777.263
  31
0.0
   0
LINE
   8
LEVEL001
   6
CONTINUOUS
  62
7
  10
 343.946
  20
 836.178
  30
0.0
  11
 343.306
  21
 828.863
  31
0.0
   0
ARC
   8
LEVEL001
   6
CONTINUOUS
  62
7
  10
 339.058
  20
 837.263
  30
0.0
  40
 5.00000
  50
 270.000
  51
 355.000
   0
LINE
   8
LEVEL001
   6
CONTINUOUS
  62
7
  10
 316.601
  20
 832.263
  30
0.0
  11
 339.058
  21
 832.263
  31
0.0
   0
LINE
   8
LEVEL001
   6
CONTINUOUS
  62
7
  10
 315.204
  20
 819.832
  30
0.0
  11
 315.027
  21
 814.762
  31
0.0
   0
LINE
   8
LEVEL001
   6
CONTINUOUS
  62
7
  10
 315.027
  20
 795.763
  30
0.0
  11
 315.204
  21
 790.693
  31
0.0
   0
LINE
   8
LEVEL001
   6
CONTINUOUS
  62
7
  10
 324.562
  20
 814.763
  30
0.0
  11
 324.321
  21
 812.001
  31
0.0
   0
LINE
   8
LEVEL001
   6
CONTINUOUS
  62
7
  10
 328.683
  20
 812.001
  30
0.0
  11
 328.925
  21
 814.763
  31
0.0
   0
LINE
   8
LEVEL001
   6
CONTINUOUS
  62
7
  10
 328.406
  20
 805.263
  30
0.0
  11
 329.237
  21
 814.763
  31
0.0
   0
LINE
   8
LEVEL001
   6
CONTINUOUS
  62
7
  10
 315.010
  20
 795.763
  30
0.0
  11
 338.978
  21
 795.763
  31
0.0
   0
LINE
   8
LEVEL001
   6
CONTINUOUS
  62
7
  10
 315.010
  20
 814.763
  30
0.0
  11
 338.978
  21
 814.763
  31
0.0
   0
LINE
   8
LEVEL001
   6
CONTINUOUS
  62
7
  10
 338.978
  20
 814.763
  30
0.0
  11
 338.978
  21
 795.763
  31
0.0
   0
LINE
   8
LEVEL001
   6
CONTINUOUS
  62
7
  10
 328.683
  20
 798.524
  30
0.0
  11
 328.925
  21
 795.763
  31
0.0
   0
LINE
   8
LEVEL001
   6
CONTINUOUS
  62
7
  10
 328.406
  20
 805.263
  30
0.0
  11
 329.237
  21
 795.763
  31
0.0
   0
LINE
   8
LEVEL001
   6
CONTINUOUS
  62
7
  10
 351.906
  20
 848.263
  30
0.0
  11
 374.062
  21
 848.263
  31
0.0
   0
LINE
   8
LEVEL001
   6
CONTINUOUS
  62
7
  10
 388.406
  20
 771.263
  30
0.0
  11
 388.906
  21
 771.763
  31
0.0
   0
LINE
   8
LEVEL001
   6
CONTINUOUS
  62
7
  10
 388.906
  20
 771.763
  30
0.0
  11
 388.906
  21
 772.763
  31
0.0
   0
ARC
   8
LEVEL001
   6
CONTINUOUS
  62
7
  10
 317.301
  20
 772.263
  30
0.0
  40
 2.00000
  50
 185.000
  51
 270.000
   0
LINE
   8
LEVEL001
   6
CONTINUOUS
  62
7
  10
 314.906
  20
 776.688
  30
0.0
  11
 315.308
  21
 772.088
  31
0.0
   0
LINE
   8
LEVEL001
   6
CONTINUOUS
  62
7
  10
 317.301
  20
 770.263
  30
0.0
  11
 344.998
  21
 770.263
  31
0.0
   0
LINE
   8
LEVEL001
   6
DASHDOT
  62
1
  10
 313.030
  20
 777.263
  30
0.0
  11
 382.283
  21
 777.263
  31
0.0
   0
LINE
   8
LEVEL001
   6
CONTINUOUS
  62
7
  10
 378.978
  20
 766.079
  30
0.0
  11
 378.256
  21
 757.827
  31
0.0
   0
LINE
   8
LEVEL003
   6
CONTINUOUS
  62
7
  10
 384.566
  20
 771.263
  30
0.0
  11
 388.406
  21
 771.263
  31
0.0
   0
LINE
   8
LEVEL001
   6
CONTINUOUS
  62
7
  10
 326.231
  20
 845.266
  30
0.0
  11
 325.493
  21
 836.827
  31
0.0
   0
ARC
   8
LEVEL001
   6
CONTINUOUS
  62
7
  10
 320.512
  20
 837.263
  30
0.0
  40
 5.00000
  50
 270.000
  51
 355.000
   0
LINE
   8
LEVEL001
   6
CONTINUOUS
  62
7
  10
 327.318
  20
 846.263
  30
0.0
  11
 326.231
  21
 845.266
  31
0.0
   0
LINE
   8
LEVEL001
   6
CONTINUOUS
  62
7
  10
 353.493
  20
 846.263
  30
0.0
  11
 354.580
  21
 845.266
  31
0.0
   0
LINE
   8
LEVEL001
   6
CONTINUOUS
  62
7
  10
 327.318
  20
 846.263
  30
0.0
  11
 340.406
  21
 846.263
  31
0.0
   0
LINE
   8
LEVEL001
   6
CONTINUOUS
  62
7
  10
 353.493
  20
 846.263
  30
0.0
  11
 340.406
  21
 846.263
  31
0.0
   0
LINE
   8
LEVEL001
   6
CONTINUOUS
  62
7
  10
 326.231
  20
 845.266
  30
0.0
  11
 354.580
  21
 845.266
  31
0.0
   0
LINE
   8
LEVEL001
   6
DASHDOT
  62
1
  10
 313.406
  20
 805.263
  30
0.0
  11
 1034.70
  21
 805.263
  31
0.0
   0
LINE
   8
LEVEL014
   6
CONTINUOUS
  62
7
  10
 916.096
  20
 794.513
  30
0.0
  11
 916.096
  21
 816.013
  31
0.0
   0
LINE
   8
LEVEL014
   6
CONTINUOUS
  62
7
  10
 918.846
  20
 797.263
  30
0.0
  11
 918.846
  21
 813.263
  31
0.0
   0
LINE
   8
LEVEL003
   6
CONTINUOUS
  62
7
  10
 340.406
  20
 846.263
  30
0.0
  11
 340.406
  21
 856.236
  31
0.0
   0
ARC
   8
LEVEL003
   6
CONTINUOUS
  62
7
  10
 346.156
  20
 840.655
  30
0.0
  40
 16.6080
  50
 69.7438
  51
 110.256
   0
ARC
   8
LEVEL003
   6
CONTINUOUS
  62
7
  10
 334.656
  20
 840.655
  30
0.0
  40
 16.6080
  50
 69.7438
  51
 110.256
   0
LINE
   8
LEVEL003
   6
CONTINUOUS
  62
7
  10
 351.906
  20
 846.263
  30
0.0
  11
 351.906
  21
 857.263
  31
0.0
   0
LINE
   8
LEVEL003
   6
CONTINUOUS
  62
7
  10
 351.906
  20
 857.263
  30
0.0
  11
 328.906
  21
 857.263
  31
0.0
   0
LINE
   8
LEVEL003
   6
CONTINUOUS
  62
7
  10
 328.906
  20
 857.263
  30
0.0
  11
 328.906
  21
 846.263
  31
0.0
   0
LINE
   8
LEVEL001
   6
DASHDOT
  62
1
  10
 340.406
  20
 892.951
  30
0.0
  11
 340.406
  21
 835.000
  31
0.0
   0
LINE
   8
LEVEL001
   6
CONTINUOUS
  62
7
  10
 328.198
  20
 865.855
  30
0.0
  11
 335.406
  21
 865.855
  31
0.0
   0
LINE
   8
LEVEL001
   6
CONTINUOUS
  62
7
  10
 345.406
  20
 865.855
  30
0.0
  11
 352.614
  21
 865.855
  31
0.0
   0
ARC
   8
LEVEL001
   6
CONTINUOUS
  62
7
  10
 322.821
  20
 872.855
  30
0.0
  40
 3.00000
  50
 8.53108
  51
 89.9986
   0
ARC
   8
LEVEL001
   6
CONTINUOUS
  62
7
  10
 317.548
  20
 885.080
  30
0.0
  40
 2.00000
  50
 98.8840
  51
 180.000
   0
LINE
   8
LEVEL001
   6
CONTINUOUS
  62
7
  10
 323.113
  20
 887.855
  30
0.0
  11
 357.696
  21
 887.855
  31
0.0
   0
ARC
   8
LEVEL001
   6
CONTINUOUS
  62
7
  10
 340.404
  20
 738.855
  30
0.0
  40
 150.000
  50
 96.6196
  51
 98.8839
   0
LINE
   8
LEVEL001
   6
CONTINUOUS
  62
7
  10
 315.548
  20
 876.855
  30
0.0
  11
 315.548
  21
 885.080
  31
0.0
   0
ARC
   8
LEVEL001
   6
CONTINUOUS
  62
7
  10
 316.548
  20
 876.855
  30
0.0
  40
 1.00000
  50
 180.000
  51
 270.000
   0
LINE
   8
LEVEL001
   6
CONTINUOUS
  62
7
  10
 316.548
  20
 875.855
  30
0.0
  11
 340.406
  21
 875.855
  31
0.0
   0
ARC
   8
LEVEL010
   6
CONTINUOUS
  62
7
  10
 327.932
  20
 876.855
  30
0.0
  40
 1.00000
  50
 180.000
  51
 270.000
   0
ARC
   8
LEVEL010
   6
CONTINUOUS
  62
7
  10
 328.932
  20
 885.056
  30
0.0
  40
 2.00000
  50
 90.0000
  51
 180.000
   0
LINE
   8
LEVEL010
   6
CONTINUOUS
  62
7
  10
 336.906
  20
 887.855
  30
0.0
  11
 328.735
  21
 887.046
  31
0.0
   0
ARC
   8
LEVEL010
   6
CONTINUOUS
  62
7
  10
 325.932
  20
 876.855
  30
0.0
  40
 1.00000
  50
 270.000
  51
 0.184991E-8
   0
ARC
   8
LEVEL010
   6
CONTINUOUS
  62
7
  10
 324.932
  20
 885.056
  30
0.0
  40
 2.00000
  50
0.0
  51
 90.0000
   0
LINE
   8
LEVEL010
   6
CONTINUOUS
  62
7
  10
 326.932
  20
 876.855
  30
0.0
  11
 326.932
  21
 885.056
  31
0.0
   0
LINE
   8
LEVEL010
   6
CONTINUOUS
  62
7
  10
 324.932
  20
 887.056
  30
0.0
  11
 319.431
  21
 887.056
  31
0.0
   0
LINE
   8
LEVEL010
   6
CONTINUOUS
  62
7
  10
 336.906
  20
 876.855
  30
0.0
  11
 336.906
  21
 885.056
  31
0.0
   0
ARC
   8
LEVEL001
   6
CONTINUOUS
  62
7
  10
 357.988
  20
 872.855
  30
0.0
  40
 3.00000
  50
 89.9990
  51
 171.469
   0
ARC
   8
LEVEL001
   6
CONTINUOUS
  62
7
  10
 364.261
  20
 876.855
  30
0.0
  40
 1.00000
  50
 270.000
  51
 0.247523E-9
   0
ARC
   8
LEVEL001
   6
CONTINUOUS
  62
7
  10
 363.261
  20
 885.080
  30
0.0
  40
 2.00000
  50
 0.651378E-10
  51
 81.1169
   0
LINE
   8
LEVEL001
   6
CONTINUOUS
  62
7
  10
 365.261
  20
 876.855
  30
0.0
  11
 365.261
  21
 885.080
  31
0.0
   0
ARC
   8
LEVEL001
   6
CONTINUOUS
  62
7
  10
 340.405
  20
 738.855
  30
0.0
  40
 150.000
  50
 81.1161
  51
 83.3804
   0
LINE
   8
LEVEL001
   6
CONTINUOUS
  62
7
  10
 340.406
  20
 875.855
  30
0.0
  11
 364.261
  21
 875.855
  31
0.0
   0
ARC
   8
LEVEL010
   6
CONTINUOUS
  62
7
  10
 352.879
  20
 876.855
  30
0.0
  40
 1.00000
  50
 270.000
  51
 0.269670E-8
   0
ARC
   8
LEVEL010
   6
CONTINUOUS
  62
7
  10
 351.879
  20
 885.056
  30
0.0
  40
 2.00000
  50
0.0
  51
 90.0000
   0
LINE
   8
LEVEL010
   6
CONTINUOUS
  62
7
  10
 343.906
  20
 887.855
  30
0.0
  11
 352.077
  21
 887.046
  31
0.0
   0
ARC
   8
LEVEL010
   6
CONTINUOUS
  62
7
  10
 354.879
  20
 876.855
  30
0.0
  40
 1.00000
  50
 180.000
  51
 270.000
   0
ARC
   8
LEVEL010
   6
CONTINUOUS
  62
7
  10
 355.879
  20
 885.056
  30
0.0
  40
 2.00000
  50
 90.0000
  51
 180.000
   0
LINE
   8
LEVEL010
   6
CONTINUOUS
  62
7
  10
 353.879
  20
 876.855
  30
0.0
  11
 353.879
  21
 885.056
  31
0.0
   0
LINE
   8
LEVEL010
   6
CONTINUOUS
  62
7
  10
 355.879
  20
 887.056
  30
0.0
  11
 361.381
  21
 887.056
  31
0.0
   0
LINE
   8
LEVEL010
   6
CONTINUOUS
  62
7
  10
 343.906
  20
 876.855
  30
0.0
  11
 343.906
  21
 885.056
  31
0.0
   0
ARC
   8
LEVEL001
   6
CONTINUOUS
  62
7
  10
 352.182
  20
 867.855
  30
0.0
  40
 2.00000
  50
 270.001
  51
 351.469
   0
LINE
   8
LEVEL001
   6
CONTINUOUS
  62
7
  10
 354.160
  20
 867.558
  30
0.0
  11
 355.021
  21
 873.300
  31
0.0
   0
LINE
   8
LEVEL001
   6
CONTINUOUS
  62
7
  10
 340.406
  20
 865.855
  30
0.0
  11
 352.182
  21
 865.855
  31
0.0
   0
ARC
   8
LEVEL001
   6
CONTINUOUS
  62
7
  10
 328.627
  20
 867.855
  30
0.0
  40
 2.00000
  50
 188.531
  51
 270.001
   0
LINE
   8
LEVEL001
   6
CONTINUOUS
  62
7
  10
 326.649
  20
 867.558
  30
0.0
  11
 325.788
  21
 873.300
  31
0.0
   0
LINE
   8
LEVEL001
   6
CONTINUOUS
  62
7
  10
 328.627
  20
 865.855
  30
0.0
  11
 340.406
  21
 865.855
  31
0.0
   0
ARC
   8
LEVEL001
   6
CONTINUOUS
  62
7
  10
 340.406
  20
 738.855
  30
0.0
  40
 150.000
  50
 80.9510
  51
 99.0490
   0
LINE
   8
LEVEL001
   6
CONTINUOUS
  62
7
  10
 334.054
  20
 865.855
  30
0.0
  11
 334.054
  21
 857.263
  31
0.0
   0
LINE
   8
LEVEL001
   6
CONTINUOUS
  62
7
  10
 346.754
  20
 865.855
  30
0.0
  11
 346.754
  21
 857.263
  31
0.0
   0
LINE
   8
LEVEL001
   6
CONTINUOUS
  62
3
  10
 316.182
  20
 886.075
  30
0.0
  11
 293.143
  21
 919.746
  31
0.0
   0
LINE
   8
LEVEL001
   6
CONTINUOUS
  62
3
  10
 293.143
  20
 919.746
  30
0.0
  11
 173.997
  21
 919.746
  31
0.0
   0
LINE
   8
LEVEL001
   6
CONTINUOUS
  62
3
  10
 316.182
  20
 886.075
  30
0.0
  11
 311.152
  21
 897.173
  31
0.0
   0
LINE
   8
LEVEL001
   6
CONTINUOUS
  62
3
  10
 316.182
  20
 886.075
  30
0.0
  11
 307.659
  21
 894.783
  31
0.0
   0
POINT
   8
LEVEL001
  62
7
  10
 342.406
  20
 805.263
  30
0.0
   0
LINE
   8
LEVEL001
   6
CONTINUOUS
  62
7
  10
 405.406
  20
 837.763
  30
0.0
  11
 406.406
  21
 836.763
  31
0.0
   0
LINE
   8
LEVEL001
   6
CONTINUOUS
  62
7
  10
 406.406
  20
 836.763
  30
0.0
  11
 406.406
  21
 821.763
  31
0.0
   0
LINE
   8
LEVEL001
   6
CONTINUOUS
  62
7
  10
 405.406
  20
 837.763
  30
0.0
  11
 405.406
  21
 821.763
  31
0.0
   0
LINE
   8
LEVEL001
   6
CONTINUOUS
  62
7
  10
 438.406
  20
 839.263
  30
0.0
  11
 893.406
  21
 839.263
  31
0.0
   0
LINE
   8
LEVEL001
   6
CONTINUOUS
  62
7
  10
 409.406
  20
 833.263
  30
0.0
  11
 409.406
  21
 833.463
  31
0.0
   0
ARC
   8
LEVEL001
   6
CONTINUOUS
  62
7
  10
 405.406
  20
 829.688
  30
0.0
  40
 5.50000
  50
 43.3418
  51
 79.5243
   0
LINE
   8
LEVEL001
   6
CONTINUOUS
  62
7
  10
 406.406
  20
 833.263
  30
0.0
  11
 415.406
  21
 833.263
  31
0.0
   0
LINE
   8
LEVEL003
   6
CONTINUOUS
  62
7
  10
 415.406
  20
 821.763
  30
0.0
  11
 415.406
  21
 833.763
  31
0.0
   0
LINE
   8
LEVEL001
   6
CONTINUOUS
  62
7
  10
 418.406
  20
 833.763
  30
0.0
  11
 438.406
  21
 839.263
  31
0.0
   0
LINE
   8
LEVEL003
   6
CONTINUOUS
  62
7
  10
 415.406
  20
 833.763
  30
0.0
  11
 418.406
  21
 833.763
  31
0.0
   0
LINE
   8
LEVEL001
   6
CONTINUOUS
  62
7
  10
 418.406
  20
 821.763
  30
0.0
  11
 418.406
  21
 833.763
  31
0.0
   0
LINE
   8
LEVEL001
   6
CONTINUOUS
  62
7
  10
 438.406
  20
 839.263
  30
0.0
  11
 438.406
  21
 821.763
  31
0.0
   0
LINE
   8
LEVEL001
   6
CONTINUOUS
  62
7
  10
 406.406
  20
 788.763
  30
0.0
  11
 406.406
  21
 773.763
  31
0.0
   0
LINE
   8
LEVEL001
   6
CONTINUOUS
  62
7
  10
 406.406
  20
 773.763
  30
0.0
  11
 405.406
  21
 772.763
  31
0.0
   0
LINE
   8
LEVEL001
   6
CONTINUOUS
  62
7
  10
 405.406
  20
 788.763
  30
0.0
  11
 405.406
  21
 772.763
  31
0.0
   0
LINE
   8
LEVEL001
   6
CONTINUOUS
  62
7
  10
 438.406
  20
 771.263
  30
0.0
  11
 893.406
  21
 771.263
  31
0.0
   0
LINE
   8
LEVEL001
   6
CONTINUOUS
  62
7
  10
 418.406
  20
 776.763
  30
0.0
  11
 438.406
  21
 771.263
  31
0.0
   0
LINE
   8
LEVEL003
   6
CONTINUOUS
  62
7
  10
 415.406
  20
 776.763
  30
0.0
  11
 418.406
  21
 776.763
  31
0.0
   0
LINE
   8
LEVEL003
   6
CONTINUOUS
  62
7
  10
 406.406
  20
 777.263
  30
0.0
  11
 415.406
  21
 777.263
  31
0.0
   0
LINE
   8
LEVEL003
   6
CONTINUOUS
  62
7
  10
 415.406
  20
 788.763
  30
0.0
  11
 415.406
  21
 776.763
  31
0.0
   0
LINE
   8
LEVEL001
   6
CONTINUOUS
  62
7
  10
 418.406
  20
 788.763
  30
0.0
  11
 418.406
  21
 776.763
  31
0.0
   0
LINE
   8
LEVEL001
   6
CONTINUOUS
  62
7
  10
 438.406
  20
 771.263
  30
0.0
  11
 438.406
  21
 788.763
  31
0.0
   0
LINE
   8
LEVEL003
   6
CONTINUOUS
  62
3
  10
 944.410
  20
 857.763
  30
0.0
  11
 1089.00
  21
 857.763
  31
0.0
   0
LINE
   8
LEVEL003
   6
CONTINUOUS
  62
3
  10
 944.410
  20
 752.763
  30
0.0
  11
 1089.00
  21
 752.763
  31
0.0
   0
LINE
   8
LEVEL003
   6
CONTINUOUS
  62
3
  10
 1081.00
  20
 857.763
  30
0.0
  11
 1081.00
  21
 752.763
  31
0.0
   0
LINE
   8
LEVEL003
   6
CONTINUOUS
  62
3
  10
 1081.00
  20
 857.763
  30
0.0
  11
 1078.88
  21
 845.763
  31
0.0
   0
LINE
   8
LEVEL003
   6
CONTINUOUS
  62
3
  10
 1081.00
  20
 857.763
  30
0.0
  11
 1083.12
  21
 845.763
  31
0.0
   0
LINE
   8
LEVEL003
   6
CONTINUOUS
  62
3
  10
 1081.00
  20
 752.763
  30
0.0
  11
 1083.12
  21
 764.763
  31
0.0
   0
LINE
   8
LEVEL003
   6
CONTINUOUS
  62
3
  10
 1081.00
  20
 752.763
  30
0.0
  11
 1078.88
  21
 764.763
  31
0.0
   0
TEXT
   8
LEVEL003
  62
3
  10
 1077.80
  20
 793.263
  30
0.0
  40
 16.0000
   1
105
  50
 90.0000
  41
 0.500000
   7
STANDARD
  72
1
  11
 1077.80
  21
 805.263
  31
0.0
   0
ARC
   8
LEVEL001
   6
CONTINUOUS
  62
7
  10
 909.406
  20
 855.763
  30
0.0
  40
 2.00000
  50
 90.0000
  51
 180.000
   0
LINE
   8
LEVEL001
   6
CONTINUOUS
  62
7
  10
 909.406
  20
 857.763
  30
0.0
  11
 940.406
  21
 857.763
  31
0.0
   0
ARC
   8
LEVEL001
   6
CONTINUOUS
  62
7
  10
 940.406
  20
 855.763
  30
0.0
  40
 2.00000
  50
0.0
  51
 90.0000
   0
ARC
   8
LEVEL001
   6
CONTINUOUS
  62
7
  10
 907.406
  20
 823.013
  30
0.0
  40
 17.0000
  50
0.0
  51
 90.0000
   0
LINE
   8
LEVEL001
   6
CONTINUOUS
  62
7
  10
 907.406
  20
 855.763
  30
0.0
  11
 907.406
  21
 840.013
  31
0.0
   0
LINE
   8
LEVEL003
   6
CONTINUOUS
  62
7
  10
 893.406
  20
 816.013
  30
0.0
  11
 893.406
  21
 839.763
  31
0.0
   0
LINE
   8
LEVEL003
   6
CONTINUOUS
  62
7
  10
 907.406
  20
 840.013
  30
0.0
  11
 893.406
  21
 839.704
  31
0.0
   0
LINE
   8
LEVEL003
   6
CONTINUOUS
  62
3
  10
 911.310
  20
 760.592
  30
0.0
  11
 927.033
  21
 700.897
  31
0.0
   0
LINE
   8
LEVEL003
   6
CONTINUOUS
  62
3
  10
 927.033
  20
 700.897
  30
0.0
  11
 1052.35
  21
 700.897
  31
0.0
   0
LINE
   8
LEVEL003
   6
CONTINUOUS
  62
3
  10
 911.310
  20
 760.592
  30
0.0
  11
 912.321
  21
 748.449
  31
0.0
   0
LINE
   8
LEVEL003
   6
CONTINUOUS
  62
3
  10
 911.310
  20
 760.592
  30
0.0
  11
 916.413
  21
 749.527
  31
0.0
   0
TEXT
   8
LEVEL003
  62
3
  10
 930.110
  20
 702.244
  30
0.0
  40
 16.0000
   1
エア抜きプラグ
   7
STANDARD
   0
TEXT
   8
LEVEL003
  62
3
  10
 930.110
  20
 680.910
  30
0.0
  40
 16.0000
   1
検油棒及び給油口兼用
   7
STANDARD
   0
LINE
   8
LEVEL050
   6
DASHDOT
  62
1
  10
 922.406
  20
 766.793
  30
0.0
  11
 892.406
  21
 766.793
  31
0.0
   0
LINE
   8
LEVEL003
   6
DASHDOT
  62
1
  10
 916.406
  20
 766.793
  30
0.0
  11
 916.336
  21
 767.877
  31
0.0
   0
LINE
   8
LEVEL003
   6
DASHDOT
  62
1
  10
 916.336
  20
 767.877
  30
0.0
  11
 916.126
  21
 768.943
  31
0.0
   0
LINE
   8
LEVEL003
   6
DASHDOT
  62
1
  10
 916.126
  20
 768.943
  30
0.0
  11
 915.780
  21
 769.977
  31
0.0
   0
LINE
   8
LEVEL003
   6
DASHDOT
  62
1
  10
 915.780
  20
 769.977
  30
0.0
  11
 915.304
  21
 770.960
  31
0.0
   0
LINE
   8
LEVEL003
   6
DASHDOT
  62
1
  10
 915.304
  20
 770.960
  30
0.0
  11
 914.704
  21
 771.879
  31
0.0
   0
LINE
   8
LEVEL003
   6
DASHDOT
  62
1
  10
 914.704
  20
 771.879
  30
0.0
  11
 913.991
  21
 772.718
  31
0.0
   0
LINE
   8
LEVEL003
   6
DASHDOT
  62
1
  10
 913.991
  20
 772.718
  30
0.0
  11
 913.175
  21
 773.465
  31
0.0
   0
LINE
   8
LEVEL003
   6
DASHDOT
  62
1
  10
 913.175
  20
 773.465
  30
0.0
  11
 912.269
  21
 774.108
  31
0.0
   0
LINE
   8
LEVEL003
   6
DASHDOT
  62
1
  10
 912.269
  20
 774.108
  30
0.0
  11
 911.286
  21
 774.636
  31
0.0
   0
LINE
   8
LEVEL003
   6
DASHDOT
  62
1
  10
 911.286
  20
 774.636
  30
0.0
  11
 910.244
  21
 775.043
  31
0.0
   0
LINE
   8
LEVEL003
   6
DASHDOT
  62
1
  10
 910.244
  20
 775.043
  30
0.0
  11
 909.157
  21
 775.320
  31
0.0
   0
LINE
   8
LEVEL003
   6
DASHDOT
  62
1
  10
 909.157
  20
 775.320
  30
0.0
  11
 908.042
  21
 775.464
  31
0.0
   0
LINE
   8
LEVEL003
   6
DASHDOT
  62
1
  10
 908.042
  20
 775.464
  30
0.0
  11
 906.918
  21
 775.473
  31
0.0
   0
LINE
   8
LEVEL003
   6
DASHDOT
  62
1
  10
 906.918
  20
 775.473
  30
0.0
  11
 905.802
  21
 775.347
  31
0.0
   0
LINE
   8
LEVEL003
   6
DASHDOT
  62
1
  10
 905.802
  20
 775.347
  30
0.0
  11
 904.710
  21
 775.087
  31
0.0
   0
LINE
   8
LEVEL003
   6
DASHDOT
  62
1
  10
 904.710
  20
 775.087
  30
0.0
  11
 903.660
  21
 774.697
  31
0.0
   0
LINE
   8
LEVEL003
   6
DASHDOT
  62
1
  10
 903.660
  20
 774.697
  30
0.0
  11
 902.669
  21
 774.185
  31
0.0
   0
LINE
   8
LEVEL003
   6
DASHDOT
  62
1
  10
 902.669
  20
 774.185
  30
0.0
  11
 901.752
  21
 773.557
  31
0.0
   0
LINE
   8
LEVEL003
   6
DASHDOT
  62
1
  10
 901.752
  20
 773.557
  30
0.0
  11
 900.923
  21
 772.823
  31
0.0
   0
LINE
   8
LEVEL003
   6
DASHDOT
  62
1
  10
 900.923
  20
 772.823
  30
0.0
  11
 900.196
  21
 771.995
  31
0.0
   0
LINE
   8
LEVEL003
   6
DASHDOT
  62
1
  10
 900.196
  20
 771.995
  30
0.0
  11
 899.580
  21
 771.086
  31
0.0
   0
LINE
   8
LEVEL003
   6
DASHDOT
  62
1
  10
 899.580
  20
 771.086
  30
0.0
  11
 899.087
  21
 770.111
  31
0.0
   0
LINE
   8
LEVEL003
   6
DASHDOT
  62
1
  10
 899.087
  20
 770.111
  30
0.0
  11
 898.724
  21
 769.083
  31
0.0
   0
LINE
   8
LEVEL003
   6
DASHDOT
  62
1
  10
 898.724
  20
 769.083
  30
0.0
  11
 898.496
  21
 768.019
  31
0.0
   0
LINE
   8
LEVEL003
   6
DASHDOT
  62
1
  10
 898.496
  20
 768.019
  30
0.0
  11
 898.407
  21
 766.937
  31
0.0
   0
LINE
   8
LEVEL003
   6
DASHDOT
  62
1
  10
 898.407
  20
 766.937
  30
0.0
  11
 898.459
  21
 765.852
  31
0.0
   0
LINE
   8
LEVEL003
   6
DASHDOT
  62
1
  10
 898.459
  20
 765.852
  30
0.0
  11
 898.650
  21
 764.782
  31
0.0
   0
LINE
   8
LEVEL003
   6
DASHDOT
  62
1
  10
 898.650
  20
 764.782
  30
0.0
  11
 898.978
  21
 763.743
  31
0.0
   0
LINE
   8
LEVEL003
   6
DASHDOT
  62
1
  10
 898.978
  20
 763.743
  30
0.0
  11
 899.437
  21
 762.752
  31
0.0
   0
LINE
   8
LEVEL003
   6
DASHDOT
  62
1
  10
 899.437
  20
 762.752
  30
0.0
  11
 900.021
  21
 761.824
  31
0.0
   0
LINE
   8
LEVEL003
   6
DASHDOT
  62
1
  10
 900.021
  20
 761.824
  30
0.0
  11
 900.720
  21
 760.973
  31
0.0
   0
LINE
   8
LEVEL003
   6
DASHDOT
  62
1
  10
 900.720
  20
 760.973
  30
0.0
  11
 901.523
  21
 760.214
  31
0.0
   0
LINE
   8
LEVEL003
   6
DASHDOT
  62
1
  10
 901.523
  20
 760.214
  30
0.0
  11
 902.418
  21
 759.556
  31
0.0
   0
LINE
   8
LEVEL003
   6
DASHDOT
  62
1
  10
 902.418
  20
 759.556
  30
0.0
  11
 903.391
  21
 759.012
  31
0.0
   0
LINE
   8
LEVEL003
   6
DASHDOT
  62
1
  10
 903.391
  20
 759.012
  30
0.0
  11
 904.427
  21
 758.589
  31
0.0
   0
LINE
   8
LEVEL003
   6
DASHDOT
  62
1
  10
 904.427
  20
 758.589
  30
0.0
  11
 905.509
  21
 758.295
  31
0.0
   0
LINE
   8
LEVEL003
   6
DASHDOT
  62
1
  10
 905.509
  20
 758.295
  30
0.0
  11
 906.620
  21
 758.133
  31
0.0
   0
LINE
   8
LEVEL003
   6
DASHDOT
  62
1
  10
 906.620
  20
 758.133
  30
0.0
  11
 907.744
  21
 758.105
  31
0.0
   0
LINE
   8
LEVEL003
   6
DASHDOT
  62
1
  10
 907.744
  20
 758.105
  30
0.0
  11
 908.863
  21
 758.214
  31
0.0
   0
LINE
   8
LEVEL003
   6
DASHDOT
  62
1
  10
 908.863
  20
 758.214
  30
0.0
  11
 909.959
  21
 758.456
  31
0.0
   0
LINE
   8
LEVEL003
   6
DASHDOT
  62
1
  10
 909.959
  20
 758.456
  30
0.0
  11
 911.015
  21
 758.829
  31
0.0
   0
LINE
   8
LEVEL003
   6
DASHDOT
  62
1
  10
 911.015
  20
 758.829
  30
0.0
  11
 912.015
  21
 759.326
  31
0.0
   0
LINE
   8
LEVEL003
   6
DASHDOT
  62
1
  10
 912.015
  20
 759.326
  30
0.0
  11
 912.942
  21
 759.939
  31
0.0
   0
LINE
   8
LEVEL003
   6
DASHDOT
  62
1
  10
 912.942
  20
 759.939
  30
0.0
  11
 913.784
  21
 760.659
  31
0.0
   0
LINE
   8
LEVEL003
   6
DASHDOT
  62
1
  10
 913.784
  20
 760.659
  30
0.0
  11
 914.526
  21
 761.475
  31
0.0
   0
LINE
   8
LEVEL003
   6
DASHDOT
  62
1
  10
 914.526
  20
 761.475
  30
0.0
  11
 915.157
  21
 762.374
  31
0.0
   0
LINE
   8
LEVEL003
   6
DASHDOT
  62
1
  10
 915.157
  20
 762.374
  30
0.0
  11
 915.666
  21
 763.342
  31
0.0
   0
LINE
   8
LEVEL003
   6
DASHDOT
  62
1
  10
 915.666
  20
 763.342
  30
0.0
  11
 916.047
  21
 764.364
  31
0.0
   0
LINE
   8
LEVEL003
   6
DASHDOT
  62
1
  10
 916.047
  20
 764.364
  30
0.0
  11
 916.293
  21
 765.423
  31
0.0
   0
LINE
   8
LEVEL003
   6
DASHDOT
  62
1
  10
 916.293
  20
 765.423
  30
0.0
  11
 916.401
  21
 766.504
  31
0.0
   0
LINE
   8
LEVEL003
   6
DASHDOT
  62
1
  10
 916.401
  20
 766.504
  30
0.0
  11
 916.406
  21
 766.793
  31
0.0
   0
LINE
   8
LEVEL003
   6
CONTINUOUS
  62
7
  10
 917.406
  20
 769.453
  30
0.0
  11
 917.406
  21
 766.793
  31
0.0
   0
LINE
   8
LEVEL003
   6
CONTINUOUS
  62
7
  10
 917.406
  20
 769.453
  30
0.0
  11
 917.328
  21
 770.657
  31
0.0
   0
LINE
   8
LEVEL003
   6
CONTINUOUS
  62
7
  10
 917.328
  20
 770.657
  30
0.0
  11
 917.095
  21
 771.842
  31
0.0
   0
LINE
   8
LEVEL003
   6
CONTINUOUS
  62
7
  10
 917.095
  20
 771.842
  30
0.0
  11
 916.711
  21
 772.991
  31
0.0
   0
LINE
   8
LEVEL003
   6
CONTINUOUS
  62
7
  10
 916.711
  20
 772.991
  30
0.0
  11
 916.182
  21
 774.084
  31
0.0
   0
LINE
   8
LEVEL003
   6
CONTINUOUS
  62
7
  10
 916.182
  20
 774.084
  30
0.0
  11
 915.515
  21
 775.104
  31
0.0
   0
LINE
   8
LEVEL003
   6
CONTINUOUS
  62
7
  10
 915.515
  20
 775.104
  30
0.0
  11
 914.723
  21
 776.037
  31
0.0
   0
LINE
   8
LEVEL003
   6
CONTINUOUS
  62
7
  10
 914.723
  20
 776.037
  30
0.0
  11
 913.816
  21
 776.867
  31
0.0
   0
LINE
   8
LEVEL003
   6
CONTINUOUS
  62
7
  10
 913.816
  20
 776.867
  30
0.0
  11
 912.809
  21
 777.581
  31
0.0
   0
LINE
   8
LEVEL003
   6
CONTINUOUS
  62
7
  10
 912.809
  20
 777.581
  30
0.0
  11
 911.718
  21
 778.168
  31
0.0
   0
LINE
   8
LEVEL003
   6
CONTINUOUS
  62
7
  10
 911.718
  20
 778.168
  30
0.0
  11
 910.559
  21
 778.619
  31
0.0
   0
LINE
   8
LEVEL003
   6
CONTINUOUS
  62
7
  10
 910.559
  20
 778.619
  30
0.0
  11
 909.351
  21
 778.927
  31
0.0
   0
LINE
   8
LEVEL003
   6
CONTINUOUS
  62
7
  10
 909.351
  20
 778.927
  30
0.0
  11
 908.113
  21
 779.088
  31
0.0
   0
LINE
   8
LEVEL003
   6
CONTINUOUS
  62
7
  10
 908.113
  20
 779.088
  30
0.0
  11
 906.864
  21
 779.098
  31
0.0
   0
LINE
   8
LEVEL003
   6
CONTINUOUS
  62
7
  10
 906.864
  20
 779.098
  30
0.0
  11
 905.623
  21
 778.957
  31
0.0
   0
LINE
   8
LEVEL003
   6
CONTINUOUS
  62
7
  10
 905.623
  20
 778.957
  30
0.0
  11
 904.410
  21
 778.668
  31
0.0
   0
LINE
   8
LEVEL003
   6
CONTINUOUS
  62
7
  10
 904.410
  20
 778.668
  30
0.0
  11
 903.244
  21
 778.236
  31
0.0
   0
LINE
   8
LEVEL003
   6
CONTINUOUS
  62
7
  10
 903.244
  20
 778.236
  30
0.0
  11
 902.143
  21
 777.666
  31
0.0
   0
LINE
   8
LEVEL003
   6
CONTINUOUS
  62
7
  10
 902.143
  20
 777.666
  30
0.0
  11
 901.124
  21
 776.968
  31
0.0
   0
LINE
   8
LEVEL003
   6
CONTINUOUS
  62
7
  10
 901.124
  20
 776.968
  30
0.0
  11
 900.203
  21
 776.153
  31
0.0
   0
LINE
   8
LEVEL003
   6
CONTINUOUS
  62
7
  10
 900.203
  20
 776.153
  30
0.0
  11
 899.394
  21
 775.233
  31
0.0
   0
LINE
   8
LEVEL003
   6
CONTINUOUS
  62
7
  10
 899.394
  20
 775.233
  30
0.0
  11
 898.711
  21
 774.224
  31
0.0
   0
LINE
   8
LEVEL003
   6
CONTINUOUS
  62
7
  10
 898.711
  20
 774.224
  30
0.0
  11
 898.163
  21
 773.139
  31
0.0
   0
LINE
   8
LEVEL003
   6
CONTINUOUS
  62
7
  10
 898.163
  20
 773.139
  30
0.0
  11
 897.759
  21
 771.997
  31
0.0
   0
LINE
   8
LEVEL003
   6
CONTINUOUS
  62
7
  10
 897.759
  20
 771.997
  30
0.0
  11
 897.506
  21
 770.816
  31
0.0
   0
LINE
   8
LEVEL003
   6
CONTINUOUS
  62
7
  10
 897.506
  20
 770.816
  30
0.0
  11
 897.407
  21
 769.613
  31
0.0
   0
LINE
   8
LEVEL003
   6
CONTINUOUS
  62
7
  10
 897.407
  20
 769.613
  30
0.0
  11
 897.406
  21
 769.453
  31
0.0
   0
LINE
   8
LEVEL050
   6
DASHDOT
  62
1
  10
 907.406
  20
 781.793
  30
0.0
  11
 907.406
  21
 751.793
  31
0.0
   0
LINE
   8
LEVEL003
   6
CONTINUOUS
  62
7
  10
 897.406
  20
 769.453
  30
0.0
  11
 897.406
  21
 766.793
  31
0.0
   0
ARC
   8
LEVEL001
   6
CONTINUOUS
  62
7
  10
 909.406
  20
 754.763
  30
0.0
  40
 2.00000
  50
 180.000
  51
 270.000
   0
LINE
   8
LEVEL001
   6
CONTINUOUS
  62
7
  10
 909.406
  20
 752.763
  30
0.0
  11
 940.406
  21
 752.763
  31
0.0
   0
ARC
   8
LEVEL001
   6
CONTINUOUS
  62
7
  10
 940.406
  20
 754.763
  30
0.0
  40
 2.00000
  50
 270.000
  51
 0.651378E-11
   0
ARC
   8
LEVEL003
   6
CONTINUOUS
  62
7
  10
 892.061
  20
 768.075
  30
0.0
  40
 3.00000
  50
 8.11460
  51
 87.8945
   0
ARC
   8
LEVEL003
   6
CONTINUOUS
  62
7
  10
 922.906
  20
 774.873
  30
0.0
  40
 3.00000
  50
 140.805
  51
 180.000
   0
ARC
   8
LEVEL001
   6
CONTINUOUS
  62
7
  10
 907.406
  20
 787.513
  30
0.0
  40
 17.0000
  50
 320.805
  51
 0.160929E-10
   0
LINE
   8
LEVEL003
   6
CONTINUOUS
  62
7
  10
 896.169
  20
 785.263
  30
0.0
  11
 917.723
  21
 785.263
  31
0.0
   0
LINE
   8
LEVEL003
   6
CONTINUOUS
  62
7
  10
 894.906
  20
 770.263
  30
0.0
  11
 895.003
  21
 768.757
  31
0.0
   0
LINE
   8
LEVEL003
   6
CONTINUOUS
  62
7
  10
 895.003
  20
 768.757
  30
0.0
  11
 895.294
  21
 767.275
  31
0.0
   0
LINE
   8
LEVEL003
   6
CONTINUOUS
  62
7
  10
 895.294
  20
 767.275
  30
0.0
  11
 895.774
  21
 765.840
  31
0.0
   0
LINE
   8
LEVEL003
   6
CONTINUOUS
  62
7
  10
 895.774
  20
 765.840
  30
0.0
  11
 896.436
  21
 764.474
  31
0.0
   0
LINE
   8
LEVEL003
   6
CONTINUOUS
  62
7
  10
 896.436
  20
 764.474
  30
0.0
  11
 897.269
  21
 763.198
  31
0.0
   0
LINE
   8
LEVEL003
   6
CONTINUOUS
  62
7
  10
 897.269
  20
 763.198
  30
0.0
  11
 898.260
  21
 762.033
  31
0.0
   0
LINE
   8
LEVEL003
   6
CONTINUOUS
  62
7
  10
 898.260
  20
 762.033
  30
0.0
  11
 899.393
  21
 760.995
  31
0.0
   0
LINE
   8
LEVEL003
   6
CONTINUOUS
  62
7
  10
 899.393
  20
 760.995
  30
0.0
  11
 899.431
  21
 760.965
  31
0.0
   0
LINE
   8
LEVEL003
   6
CONTINUOUS
  62
7
  10
 915.381
  20
 760.965
  30
0.0
  11
 916.519
  21
 761.998
  31
0.0
   0
LINE
   8
LEVEL003
   6
CONTINUOUS
  62
7
  10
 916.519
  20
 761.998
  30
0.0
  11
 917.514
  21
 763.160
  31
0.0
   0
LINE
   8
LEVEL003
   6
CONTINUOUS
  62
7
  10
 917.514
  20
 763.160
  30
0.0
  11
 918.352
  21
 764.433
  31
0.0
   0
LINE
   8
LEVEL003
   6
CONTINUOUS
  62
7
  10
 918.352
  20
 764.433
  30
0.0
  11
 919.019
  21
 765.797
  31
0.0
   0
LINE
   8
LEVEL003
   6
CONTINUOUS
  62
7
  10
 919.019
  20
 765.797
  30
0.0
  11
 919.505
  21
 767.230
  31
0.0
   0
LINE
   8
LEVEL003
   6
CONTINUOUS
  62
7
  10
 919.505
  20
 767.230
  30
0.0
  11
 919.802
  21
 768.711
  31
0.0
   0
LINE
   8
LEVEL003
   6
CONTINUOUS
  62
7
  10
 919.802
  20
 768.711
  30
0.0
  11
 919.906
  21
 770.216
  31
0.0
   0
LINE
   8
LEVEL003
   6
CONTINUOUS
  62
7
  10
 919.906
  20
 770.216
  30
0.0
  11
 919.906
  21
 770.263
  31
0.0
   0
LINE
   8
LEVEL001
   6
CONTINUOUS
  62
7
  10
 907.406
  20
 757.133
  30
0.0
  11
 907.406
  21
 754.763
  31
0.0
   0
LINE
   8
LEVEL003
   6
CONTINUOUS
  62
7
  10
 894.906
  20
 770.263
  30
0.0
  11
 894.906
  21
 794.513
  31
0.0
   0
LINE
   8
LEVEL003
   6
CONTINUOUS
  62
7
  10
 897.406
  20
 766.793
  30
0.0
  11
 897.484
  21
 765.588
  31
0.0
   0
LINE
   8
LEVEL003
   6
CONTINUOUS
  62
7
  10
 897.484
  20
 765.588
  30
0.0
  11
 897.717
  21
 764.403
  31
0.0
   0
LINE
   8
LEVEL003
   6
CONTINUOUS
  62
7
  10
 897.717
  20
 764.403
  30
0.0
  11
 898.101
  21
 763.255
  31
0.0
   0
LINE
   8
LEVEL003
   6
CONTINUOUS
  62
7
  10
 898.101
  20
 763.255
  30
0.0
  11
 898.630
  21
 762.162
  31
0.0
   0
LINE
   8
LEVEL003
   6
CONTINUOUS
  62
7
  10
 898.630
  20
 762.162
  30
0.0
  11
 899.296
  21
 761.141
  31
0.0
   0
LINE
   8
LEVEL003
   6
CONTINUOUS
  62
7
  10
 899.296
  20
 761.141
  30
0.0
  11
 900.089
  21
 760.209
  31
0.0
   0
LINE
   8
LEVEL003
   6
CONTINUOUS
  62
7
  10
 900.089
  20
 760.209
  30
0.0
  11
 900.996
  21
 759.379
  31
0.0
   0
LINE
   8
LEVEL003
   6
CONTINUOUS
  62
7
  10
 900.996
  20
 759.379
  30
0.0
  11
 902.003
  21
 758.665
  31
0.0
   0
LINE
   8
LEVEL003
   6
CONTINUOUS
  62
7
  10
 902.003
  20
 758.665
  30
0.0
  11
 903.094
  21
 758.077
  31
0.0
   0
LINE
   8
LEVEL003
   6
CONTINUOUS
  62
7
  10
 903.094
  20
 758.077
  30
0.0
  11
 904.253
  21
 757.626
  31
0.0
   0
LINE
   8
LEVEL003
   6
CONTINUOUS
  62
7
  10
 904.253
  20
 757.626
  30
0.0
  11
 905.460
  21
 757.318
  31
0.0
   0
LINE
   8
LEVEL003
   6
CONTINUOUS
  62
7
  10
 905.460
  20
 757.318
  30
0.0
  11
 906.698
  21
 757.158
  31
0.0
   0
LINE
   8
LEVEL003
   6
CONTINUOUS
  62
7
  10
 906.698
  20
 757.158
  30
0.0
  11
 907.948
  21
 757.148
  31
0.0
   0
LINE
   8
LEVEL003
   6
CONTINUOUS
  62
7
  10
 907.948
  20
 757.148
  30
0.0
  11
 909.188
  21
 757.288
  31
0.0
   0
LINE
   8
LEVEL003
   6
CONTINUOUS
  62
7
  10
 909.188
  20
 757.288
  30
0.0
  11
 910.401
  21
 757.577
  31
0.0
   0
LINE
   8
LEVEL003
   6
CONTINUOUS
  62
7
  10
 910.401
  20
 757.577
  30
0.0
  11
 911.567
  21
 758.010
  31
0.0
   0
LINE
   8
LEVEL003
   6
CONTINUOUS
  62
7
  10
 911.567
  20
 758.010
  30
0.0
  11
 912.668
  21
 758.579
  31
0.0
   0
LINE
   8
LEVEL003
   6
CONTINUOUS
  62
7
  10
 912.668
  20
 758.579
  30
0.0
  11
 913.688
  21
 759.277
  31
0.0
   0
LINE
   8
LEVEL003
   6
CONTINUOUS
  62
7
  10
 913.688
  20
 759.277
  30
0.0
  11
 914.609
  21
 760.092
  31
0.0
   0
LINE
   8
LEVEL003
   6
CONTINUOUS
  62
7
  10
 914.609
  20
 760.092
  30
0.0
  11
 915.417
  21
 761.012
  31
0.0
   0
LINE
   8
LEVEL003
   6
CONTINUOUS
  62
7
  10
 915.417
  20
 761.012
  30
0.0
  11
 916.101
  21
 762.022
  31
0.0
   0
LINE
   8
LEVEL003
   6
CONTINUOUS
  62
7
  10
 916.101
  20
 762.022
  30
0.0
  11
 916.649
  21
 763.106
  31
0.0
   0
LINE
   8
LEVEL003
   6
CONTINUOUS
  62
7
  10
 916.649
  20
 763.106
  30
0.0
  11
 917.053
  21
 764.248
  31
0.0
   0
LINE
   8
LEVEL003
   6
CONTINUOUS
  62
7
  10
 917.053
  20
 764.248
  30
0.0
  11
 917.306
  21
 765.430
  31
0.0
   0
LINE
   8
LEVEL003
   6
CONTINUOUS
  62
7
  10
 917.306
  20
 765.430
  30
0.0
  11
 917.404
  21
 766.632
  31
0.0
   0
LINE
   8
LEVEL003
   6
CONTINUOUS
  62
7
  10
 917.404
  20
 766.632
  30
0.0
  11
 917.406
  21
 766.793
  31
0.0
   0
LINE
   8
LEVEL003
   6
CONTINUOUS
  62
7
  10
 916.072
  20
 771.612
  30
0.0
  11
 915.383
  21
 772.618
  31
0.0
   0
LINE
   8
LEVEL003
   6
CONTINUOUS
  62
7
  10
 915.383
  20
 772.618
  30
0.0
  11
 914.569
  21
 773.533
  31
0.0
   0
LINE
   8
LEVEL003
   6
CONTINUOUS
  62
7
  10
 914.569
  20
 773.533
  30
0.0
  11
 913.643
  21
 774.343
  31
0.0
   0
LINE
   8
LEVEL003
   6
CONTINUOUS
  62
7
  10
 913.643
  20
 774.343
  30
0.0
  11
 912.620
  21
 775.035
  31
0.0
   0
LINE
   8
LEVEL003
   6
CONTINUOUS
  62
7
  10
 912.620
  20
 775.035
  30
0.0
  11
 911.515
  21
 775.599
  31
0.0
   0
LINE
   8
LEVEL003
   6
CONTINUOUS
  62
7
  10
 911.515
  20
 775.599
  30
0.0
  11
 910.346
  21
 776.025
  31
0.0
   0
LINE
   8
LEVEL003
   6
CONTINUOUS
  62
7
  10
 910.346
  20
 776.025
  30
0.0
  11
 909.132
  21
 776.307
  31
0.0
   0
LINE
   8
LEVEL003
   6
CONTINUOUS
  62
7
  10
 909.132
  20
 776.307
  30
0.0
  11
 907.890
  21
 776.441
  31
0.0
   0
LINE
   8
LEVEL003
   6
CONTINUOUS
  62
7
  10
 907.890
  20
 776.441
  30
0.0
  11
 906.641
  21
 776.424
  31
0.0
   0
LINE
   8
LEVEL003
   6
CONTINUOUS
  62
7
  10
 906.641
  20
 776.424
  30
0.0
  11
 905.404
  21
 776.256
  31
0.0
   0
LINE
   8
LEVEL003
   6
CONTINUOUS
  62
7
  10
 905.404
  20
 776.256
  30
0.0
  11
 904.198
  21
 775.942
  31
0.0
   0
LINE
   8
LEVEL003
   6
CONTINUOUS
  62
7
  10
 904.198
  20
 775.942
  30
0.0
  11
 903.042
  21
 775.484
  31
0.0
   0
LINE
   8
LEVEL003
   6
CONTINUOUS
  62
7
  10
 903.042
  20
 775.484
  30
0.0
  11
 901.955
  21
 774.891
  31
0.0
   0
LINE
   8
LEVEL003
   6
CONTINUOUS
  62
7
  10
 901.955
  20
 774.891
  30
0.0
  11
 900.952
  21
 774.171
  31
0.0
   0
LINE
   8
LEVEL003
   6
CONTINUOUS
  62
7
  10
 900.952
  20
 774.171
  30
0.0
  11
 900.050
  21
 773.336
  31
0.0
   0
LINE
   8
LEVEL003
   6
CONTINUOUS
  62
7
  10
 900.050
  20
 773.336
  30
0.0
  11
 899.263
  21
 772.399
  31
0.0
   0
LINE
   8
LEVEL003
   6
CONTINUOUS
  62
7
  10
 899.263
  20
 772.399
  30
0.0
  11
 898.739
  21
 771.612
  31
0.0
   0
LINE
   8
LEVEL003
   6
CONTINUOUS
  62
7
  10
 926.338
  20
 790.008
  30
0.0
  11
 920.938
  21
 769.857
  31
0.0
   0
ARC
   8
LEVEL003
   6
CONTINUOUS
  62
7
  10
 919.006
  20
 770.375
  30
0.0
  40
 2.00000
  50
 292.642
  51
 345.000
   0
LINE
   8
LEVEL003
   6
CONTINUOUS
  62
7
  10
 919.906
  20
 770.263
  30
0.0
  11
 919.906
  21
 797.263
  31
0.0
   0
ARC
   8
LEVEL001
   6
CONTINUOUS
  62
7
  10
 925.406
  20
 818.799
  30
0.0
  40
 1.00000
  50
 0.195413E-9
  51
 60.0000
   0
ARC
   8
LEVEL001
   6
CONTINUOUS
  62
7
  10
 927.406
  20
 822.263
  30
0.0
  40
 3.00000
  50
 180.000
  51
 240.000
   0
LINE
   8
LEVEL001
   6
CONTINUOUS
  62
7
  10
 924.406
  20
 823.013
  30
0.0
  11
 924.406
  21
 813.263
  31
0.0
   0
LINE
   8
LEVEL001
   6
CONTINUOUS
  62
7
  10
 924.406
  20
 797.263
  30
0.0
  11
 924.406
  21
 787.513
  31
0.0
   0
LINE
   8
LEVEL001
   6
CONTINUOUS
  62
7
  10
 405.406
  20
 837.763
  30
0.0
  11
 388.906
  21
 837.763
  31
0.0
   0
LINE
   8
LEVEL001
   6
CONTINUOUS
  62
7
  10
 388.906
  20
 772.763
  30
0.0
  11
 405.406
  21
 772.763
  31
0.0
   0
LINE
   8
LEVEL001
   6
CONTINUOUS
  62
7
  10
 926.406
  20
 823.760
  30
0.0
  11
 929.606
  21
 823.760
  31
0.0
   0
LINE
   8
LEVEL003
   6
CONTINUOUS
  62
7
  10
 929.606
  20
 823.760
  30
0.0
  11
 929.606
  21
 793.426
  31
0.0
   0
LINE
   8
LEVEL003
   6
CONTINUOUS
  62
7
  10
 929.606
  20
 816.263
  30
0.0
  11
 929.906
  21
 816.263
  31
0.0
   0
LINE
   8
LEVEL003
   6
CONTINUOUS
  62
7
  10
 937.595
  20
 817.263
  30
0.0
  11
 929.906
  21
 817.263
  31
0.0
   0
LINE
   8
LEVEL003
   6
CONTINUOUS
  62
7
  10
 929.906
  20
 817.263
  30
0.0
  11
 929.906
  21
 813.263
  31
0.0
   0
LINE
   8
LEVEL001
   6
CONTINUOUS
  62
7
  10
 926.406
  20
 793.426
  30
0.0
  11
 929.606
  21
 793.426
  31
0.0
   0
LINE
   8
LEVEL003
   6
CONTINUOUS
  62
7
  10
 929.606
  20
 794.263
  30
0.0
  11
 929.906
  21
 794.263
  31
0.0
   0
LINE
   8
LEVEL003
   6
CONTINUOUS
  62
7
  10
 929.906
  20
 797.263
  30
0.0
  11
 929.906
  21
 793.263
  31
0.0
   0
LINE
   8
LEVEL003
   6
CONTINUOUS
  62
7
  10
 929.906
  20
 793.263
  30
0.0
  11
 937.595
  21
 793.263
  31
0.0
   0
LINE
   8
LEVEL001
   6
DASHDOT
  62
1
  10
 374.406
  20
 786.763
  30
0.0
  11
 374.406
  21
 764.179
  31
0.0
   0
LINE
   8
LEVEL001
   6
CONTINUOUS
  62
7
  10
 388.906
  20
 821.763
  30
0.0
  11
 388.906
  21
 838.263
  31
0.0
   0
CIRCLE
   8
LEVEL001
   6
CONTINUOUS
  62
7
  10
 377.456
  20
 835.263
  30
0.0
  40
 7.50000
   0
LINE
   8
LEVEL001
   6
CONTINUOUS
  62
7
  10
 377.456
  20
 825.801
  30
0.0
  11
 368.956
  21
 830.355
  31
0.0
   0
LINE
   8
LEVEL001
   6
CONTINUOUS
  62
7
  10
 368.956
  20
 830.355
  30
0.0
  11
 368.956
  21
 839.636
  31
0.0
   0
LINE
   8
LEVEL001
   6
CONTINUOUS
  62
7
  10
 368.956
  20
 839.636
  30
0.0
  11
 377.456
  21
 844.247
  31
0.0
   0
LINE
   8
LEVEL001
   6
CONTINUOUS
  62
7
  10
 377.456
  20
 844.247
  30
0.0
  11
 385.956
  21
 839.636
  31
0.0
   0
LINE
   8
LEVEL001
   6
CONTINUOUS
  62
7
  10
 385.956
  20
 839.636
  30
0.0
  11
 385.956
  21
 830.355
  31
0.0
   0
LINE
   8
LEVEL001
   6
CONTINUOUS
  62
7
  10
 385.956
  20
 830.355
  30
0.0
  11
 377.456
  21
 825.801
  31
0.0
   0
LINE
   8
LEVEL001
   6
CONTINUOUS
  62
7
  10
 368.956
  20
 834.998
  30
0.0
  11
 369.022
  21
 834.002
  31
0.0
   0
LINE
   8
LEVEL001
   6
CONTINUOUS
  62
7
  10
 369.022
  20
 834.002
  30
0.0
  11
 369.220
  21
 833.022
  31
0.0
   0
LINE
   8
LEVEL001
   6
CONTINUOUS
  62
7
  10
 369.220
  20
 833.022
  30
0.0
  11
 369.546
  21
 832.072
  31
0.0
   0
LINE
   8
LEVEL001
   6
CONTINUOUS
  62
7
  10
 369.546
  20
 832.072
  30
0.0
  11
 369.996
  21
 831.169
  31
0.0
   0
LINE
   8
LEVEL001
   6
CONTINUOUS
  62
7
  10
 369.996
  20
 831.169
  30
0.0
  11
 370.562
  21
 830.325
  31
0.0
   0
LINE
   8
LEVEL001
   6
CONTINUOUS
  62
7
  10
 370.562
  20
 830.325
  30
0.0
  11
 371.236
  21
 829.554
  31
0.0
   0
LINE
   8
LEVEL001
   6
CONTINUOUS
  62
7
  10
 371.236
  20
 829.554
  30
0.0
  11
 372.007
  21
 828.867
  31
0.0
   0
LINE
   8
LEVEL001
   6
CONTINUOUS
  62
7
  10
 372.007
  20
 828.867
  30
0.0
  11
 372.863
  21
 828.277
  31
0.0
   0
LINE
   8
LEVEL001
   6
CONTINUOUS
  62
7
  10
 372.863
  20
 828.277
  30
0.0
  11
 373.791
  21
 827.791
  31
0.0
   0
LINE
   8
LEVEL001
   6
CONTINUOUS
  62
7
  10
 373.791
  20
 827.791
  30
0.0
  11
 374.775
  21
 827.418
  31
0.0
   0
LINE
   8
LEVEL001
   6
CONTINUOUS
  62
7
  10
 374.775
  20
 827.418
  30
0.0
  11
 375.802
  21
 827.163
  31
0.0
   0
LINE
   8
LEVEL001
   6
CONTINUOUS
  62
7
  10
 375.802
  20
 827.163
  30
0.0
  11
 376.854
  21
 827.031
  31
0.0
   0
LINE
   8
LEVEL001
   6
CONTINUOUS
  62
7
  10
 376.854
  20
 827.031
  30
0.0
  11
 377.916
  21
 827.022
  31
0.0
   0
LINE
   8
LEVEL001
   6
CONTINUOUS
  62
7
  10
 377.916
  20
 827.022
  30
0.0
  11
 378.971
  21
 827.139
  31
0.0
   0
LINE
   8
LEVEL001
   6
CONTINUOUS
  62
7
  10
 378.971
  20
 827.139
  30
0.0
  11
 380.002
  21
 827.377
  31
0.0
   0
LINE
   8
LEVEL001
   6
CONTINUOUS
  62
7
  10
 380.002
  20
 827.377
  30
0.0
  11
 380.993
  21
 827.735
  31
0.0
   0
LINE
   8
LEVEL001
   6
CONTINUOUS
  62
7
  10
 380.993
  20
 827.735
  30
0.0
  11
 381.929
  21
 828.206
  31
0.0
   0
LINE
   8
LEVEL001
   6
CONTINUOUS
  62
7
  10
 381.929
  20
 828.206
  30
0.0
  11
 382.795
  21
 828.783
  31
0.0
   0
LINE
   8
LEVEL001
   6
CONTINUOUS
  62
7
  10
 382.795
  20
 828.783
  30
0.0
  11
 383.578
  21
 829.457
  31
0.0
   0
LINE
   8
LEVEL001
   6
CONTINUOUS
  62
7
  10
 383.578
  20
 829.457
  30
0.0
  11
 384.265
  21
 830.218
  31
0.0
   0
LINE
   8
LEVEL001
   6
CONTINUOUS
  62
7
  10
 384.265
  20
 830.218
  30
0.0
  11
 384.846
  21
 831.053
  31
0.0
   0
LINE
   8
LEVEL001
   6
CONTINUOUS
  62
7
  10
 384.846
  20
 831.053
  30
0.0
  11
 385.312
  21
 831.950
  31
0.0
   0
LINE
   8
LEVEL001
   6
CONTINUOUS
  62
7
  10
 385.312
  20
 831.950
  30
0.0
  11
 385.655
  21
 832.894
  31
0.0
   0
LINE
   8
LEVEL001
   6
CONTINUOUS
  62
7
  10
 385.655
  20
 832.894
  30
0.0
  11
 385.871
  21
 833.871
  31
0.0
   0
LINE
   8
LEVEL001
   6
CONTINUOUS
  62
7
  10
 385.871
  20
 833.871
  30
0.0
  11
 385.954
  21
 834.866
  31
0.0
   0
LINE
   8
LEVEL001
   6
CONTINUOUS
  62
7
  10
 385.954
  20
 834.866
  30
0.0
  11
 385.906
  21
 835.862
  31
0.0
   0
LINE
   8
LEVEL001
   6
CONTINUOUS
  62
7
  10
 385.906
  20
 835.862
  30
0.0
  11
 385.725
  21
 836.845
  31
0.0
   0
LINE
   8
LEVEL001
   6
CONTINUOUS
  62
7
  10
 385.725
  20
 836.845
  30
0.0
  11
 385.416
  21
 837.800
  31
0.0
   0
LINE
   8
LEVEL001
   6
CONTINUOUS
  62
7
  10
 385.416
  20
 837.800
  30
0.0
  11
 384.982
  21
 838.711
  31
0.0
   0
LINE
   8
LEVEL001
   6
CONTINUOUS
  62
7
  10
 384.982
  20
 838.711
  30
0.0
  11
 384.430
  21
 839.563
  31
0.0
   0
LINE
   8
LEVEL001
   6
CONTINUOUS
  62
7
  10
 384.430
  20
 839.563
  30
0.0
  11
 383.770
  21
 840.345
  31
0.0
   0
LINE
   8
LEVEL001
   6
CONTINUOUS
  62
7
  10
 383.770
  20
 840.345
  30
0.0
  11
 383.012
  21
 841.043
  31
0.0
   0
LINE
   8
LEVEL001
   6
CONTINUOUS
  62
7
  10
 383.012
  20
 841.043
  30
0.0
  11
 382.166
  21
 841.647
  31
0.0
   0
LINE
   8
LEVEL001
   6
CONTINUOUS
  62
7
  10
 382.166
  20
 841.647
  30
0.0
  11
 381.247
  21
 842.147
  31
0.0
   0
LINE
   8
LEVEL001
   6
CONTINUOUS
  62
7
  10
 381.247
  20
 842.147
  30
0.0
  11
 380.269
  21
 842.535
  31
0.0
   0
LINE
   8
LEVEL001
   6
CONTINUOUS
  62
7
  10
 380.269
  20
 842.535
  30
0.0
  11
 379.247
  21
 842.806
  31
0.0
   0
LINE
   8
LEVEL001
   6
CONTINUOUS
  62
7
  10
 379.247
  20
 842.806
  30
0.0
  11
 378.198
  21
 842.955
  31
0.0
   0
LINE
   8
LEVEL001
   6
CONTINUOUS
  62
7
  10
 378.198
  20
 842.955
  30
0.0
  11
 377.136
  21
 842.980
  31
0.0
   0
LINE
   8
LEVEL001
   6
CONTINUOUS
  62
7
  10
 377.136
  20
 842.980
  30
0.0
  11
 376.080
  21
 842.880
  31
0.0
   0
LINE
   8
LEVEL001
   6
CONTINUOUS
  62
7
  10
 376.080
  20
 842.880
  30
0.0
  11
 375.045
  21
 842.657
  31
0.0
   0
LINE
   8
LEVEL001
   6
CONTINUOUS
  62
7
  10
 375.045
  20
 842.657
  30
0.0
  11
 374.047
  21
 842.315
  31
0.0
   0
LINE
   8
LEVEL001
   6
CONTINUOUS
  62
7
  10
 374.047
  20
 842.315
  30
0.0
  11
 373.103
  21
 841.859
  31
0.0
   0
LINE
   8
LEVEL001
   6
CONTINUOUS
  62
7
  10
 373.103
  20
 841.859
  30
0.0
  11
 372.227
  21
 841.295
  31
0.0
   0
LINE
   8
LEVEL001
   6
CONTINUOUS
  62
7
  10
 372.227
  20
 841.295
  30
0.0
  11
 371.432
  21
 840.633
  31
0.0
   0
LINE
   8
LEVEL001
   6
CONTINUOUS
  62
7
  10
 371.432
  20
 840.633
  30
0.0
  11
 370.731
  21
 839.884
  31
0.0
   0
LINE
   8
LEVEL001
   6
CONTINUOUS
  62
7
  10
 370.731
  20
 839.884
  30
0.0
  11
 370.136
  21
 839.058
  31
0.0
   0
LINE
   8
LEVEL001
   6
CONTINUOUS
  62
7
  10
 370.136
  20
 839.058
  30
0.0
  11
 369.654
  21
 838.169
  31
0.0
   0
LINE
   8
LEVEL001
   6
CONTINUOUS
  62
7
  10
 369.654
  20
 838.169
  30
0.0
  11
 369.294
  21
 837.230
  31
0.0
   0
LINE
   8
LEVEL001
   6
CONTINUOUS
  62
7
  10
 369.294
  20
 837.230
  30
0.0
  11
 369.062
  21
 836.256
  31
0.0
   0
LINE
   8
LEVEL001
   6
CONTINUOUS
  62
7
  10
 369.062
  20
 836.256
  30
0.0
  11
 368.960
  21
 835.263
  31
0.0
   0
LINE
   8
LEVEL001
   6
CONTINUOUS
  62
7
  10
 368.960
  20
 835.263
  30
0.0
  11
 368.956
  21
 834.998
  31
0.0
   0
LINE
   8
LEVEL001
   6
CONTINUOUS
  62
7
  10
 368.383
  20
 840.308
  30
0.0
  11
 367.784
  21
 839.212
  31
0.0
   0
LINE
   8
LEVEL001
   6
CONTINUOUS
  62
7
  10
 367.784
  20
 839.212
  30
0.0
  11
 367.335
  21
 838.054
  31
0.0
   0
LINE
   8
LEVEL001
   6
CONTINUOUS
  62
7
  10
 367.335
  20
 838.054
  30
0.0
  11
 367.043
  21
 836.852
  31
0.0
   0
LINE
   8
LEVEL001
   6
CONTINUOUS
  62
7
  10
 367.043
  20
 836.852
  30
0.0
  11
 366.913
  21
 835.626
  31
0.0
   0
LINE
   8
LEVEL001
   6
CONTINUOUS
  62
7
  10
 366.913
  20
 835.626
  30
0.0
  11
 366.947
  21
 834.393
  31
0.0
   0
LINE
   8
LEVEL001
   6
CONTINUOUS
  62
7
  10
 366.947
  20
 834.393
  30
0.0
  11
 367.144
  21
 833.175
  31
0.0
   0
LINE
   8
LEVEL001
   6
CONTINUOUS
  62
7
  10
 367.144
  20
 833.175
  30
0.0
  11
 367.501
  21
 831.989
  31
0.0
   0
LINE
   8
LEVEL001
   6
CONTINUOUS
  62
7
  10
 367.501
  20
 831.989
  30
0.0
  11
 368.012
  21
 830.854
  31
0.0
   0
LINE
   8
LEVEL001
   6
CONTINUOUS
  62
7
  10
 368.012
  20
 830.854
  30
0.0
  11
 368.671
  21
 829.788
  31
0.0
   0
LINE
   8
LEVEL001
   6
CONTINUOUS
  62
7
  10
 368.671
  20
 829.788
  30
0.0
  11
 368.956
  21
 829.406
  31
0.0
   0
LINE
   8
LEVEL001
   6
DASHDOT
  62
1
  10
 387.189
  20
 835.263
  30
0.0
  11
 367.947
  21
 835.263
  31
0.0
   0
LINE
   8
LEVEL001
   6
DASHDOT
  62
1
  10
 377.406
  20
 850.263
  30
0.0
  11
 377.406
  21
 820.017
  31
0.0
   0
LINE
   8
LEVEL001
   6
CONTINUOUS
  62
7
  10
 387.866
  20
 836.178
  30
0.0
  11
 388.906
  21
 824.291
  31
0.0
   0
LINE
   8
LEVEL001
   6
CONTINUOUS
  62
7
  10
 385.956
  20
 830.355
  30
0.0
  11
 385.956
  21
 827.512
  31
0.0
   0
LINE
   8
LEVEL001
   6
CONTINUOUS
  62
7
  10
 385.956
  20
 827.512
  30
0.0
  11
 377.456
  21
 822.900
  31
0.0
   0
LINE
   8
LEVEL001
   6
CONTINUOUS
  62
7
  10
 377.456
  20
 822.900
  30
0.0
  11
 368.956
  21
 827.512
  31
0.0
   0
LINE
   8
LEVEL001
   6
CONTINUOUS
  62
7
  10
 368.956
  20
 827.512
  30
0.0
  11
 368.956
  21
 830.355
  31
0.0
   0
LINE
   8
LEVEL001
   6
CONTINUOUS
  62
7
  10
 385.956
  20
 829.535
  30
0.0
  11
 386.649
  21
 830.582
  31
0.0
   0
LINE
   8
LEVEL001
   6
CONTINUOUS
  62
7
  10
 386.649
  20
 830.582
  30
0.0
  11
 387.198
  21
 831.701
  31
0.0
   0
LINE
   8
LEVEL001
   6
CONTINUOUS
  62
7
  10
 387.198
  20
 831.701
  30
0.0
  11
 387.594
  21
 832.876
  31
0.0
   0
LINE
   8
LEVEL001
   6
CONTINUOUS
  62
7
  10
 387.594
  20
 832.876
  30
0.0
  11
 387.831
  21
 834.088
  31
0.0
   0
LINE
   8
LEVEL001
   6
CONTINUOUS
  62
7
  10
 387.831
  20
 834.088
  30
0.0
  11
 387.906
  21
 835.319
  31
0.0
   0
LINE
   8
LEVEL001
   6
CONTINUOUS
  62
7
  10
 387.906
  20
 835.319
  30
0.0
  11
 387.861
  21
 836.177
  31
0.0
   0
LINE
   8
LEVEL001
   6
CONTINUOUS
  62
7
  10
 387.861
  20
 836.177
  30
0.0
  11
 387.658
  21
 837.395
  31
0.0
   0
LINE
   8
LEVEL001
   6
CONTINUOUS
  62
7
  10
 387.658
  20
 837.395
  30
0.0
  11
 387.295
  21
 838.579
  31
0.0
   0
LINE
   8
LEVEL001
   6
CONTINUOUS
  62
7
  10
 387.295
  20
 838.579
  30
0.0
  11
 386.778
  21
 839.712
  31
0.0
   0
LINE
   8
LEVEL001
   6
CONTINUOUS
  62
7
  10
 386.778
  20
 839.712
  30
0.0
  11
 386.114
  21
 840.775
  31
0.0
   0
LINE
   8
LEVEL001
   6
CONTINUOUS
  62
7
  10
 386.114
  20
 840.775
  30
0.0
  11
 385.315
  21
 841.753
  31
0.0
   0
LINE
   8
LEVEL001
   6
CONTINUOUS
  62
7
  10
 385.315
  20
 841.753
  30
0.0
  11
 384.392
  21
 842.629
  31
0.0
   0
LINE
   8
LEVEL001
   6
CONTINUOUS
  62
7
  10
 384.392
  20
 842.629
  30
0.0
  11
 383.360
  21
 843.390
  31
0.0
   0
LINE
   8
LEVEL001
   6
CONTINUOUS
  62
7
  10
 383.360
  20
 843.390
  30
0.0
  11
 382.235
  21
 844.024
  31
0.0
   0
LINE
   8
LEVEL001
   6
CONTINUOUS
  62
7
  10
 382.235
  20
 844.024
  30
0.0
  11
 381.035
  21
 844.521
  31
0.0
   0
LINE
   8
LEVEL001
   6
CONTINUOUS
  62
7
  10
 381.035
  20
 844.521
  30
0.0
  11
 379.779
  21
 844.874
  31
0.0
   0
LINE
   8
LEVEL001
   6
CONTINUOUS
  62
7
  10
 379.779
  20
 844.874
  30
0.0
  11
 378.485
  21
 845.077
  31
0.0
   0
LINE
   8
LEVEL001
   6
CONTINUOUS
  62
7
  10
 378.485
  20
 845.077
  30
0.0
  11
 377.174
  21
 845.127
  31
0.0
   0
LINE
   8
LEVEL001
   6
CONTINUOUS
  62
7
  10
 377.174
  20
 845.127
  30
0.0
  11
 375.867
  21
 845.023
  31
0.0
   0
LINE
   8
LEVEL001
   6
CONTINUOUS
  62
7
  10
 375.867
  20
 845.023
  30
0.0
  11
 374.584
  21
 844.767
  31
0.0
   0
LINE
   8
LEVEL001
   6
CONTINUOUS
  62
7
  10
 374.584
  20
 844.767
  30
0.0
  11
 373.346
  21
 844.362
  31
0.0
   0
LINE
   8
LEVEL001
   6
CONTINUOUS
  62
7
  10
 373.346
  20
 844.362
  30
0.0
  11
 372.170
  21
 843.815
  31
0.0
   0
LINE
   8
LEVEL001
   6
CONTINUOUS
  62
7
  10
 372.170
  20
 843.815
  30
0.0
  11
 371.076
  21
 843.135
  31
0.0
   0
LINE
   8
LEVEL001
   6
CONTINUOUS
  62
7
  10
 371.076
  20
 843.135
  30
0.0
  11
 370.081
  21
 842.332
  31
0.0
   0
LINE
   8
LEVEL001
   6
CONTINUOUS
  62
7
  10
 370.081
  20
 842.332
  30
0.0
  11
 369.200
  21
 841.419
  31
0.0
   0
LINE
   8
LEVEL001
   6
CONTINUOUS
  62
7
  10
 369.200
  20
 841.419
  30
0.0
  11
 368.447
  21
 840.409
  31
0.0
   0
LINE
   8
LEVEL001
   6
CONTINUOUS
  62
7
  10
 368.447
  20
 840.409
  30
0.0
  11
 368.383
  21
 840.308
  31
0.0
   0
LINE
   8
LEVEL001
   6
CONTINUOUS
  62
7
  10
 388.406
  20
 838.763
  30
0.0
  11
 387.223
  21
 838.763
  31
0.0
   0
ARC
   8
LEVEL001
   6
CONTINUOUS
  62
7
  10
 364.356
  20
 843.663
  30
0.0
  40
 3.00000
  50
 231.910
  51
 308.090
   0
LINE
   8
LEVEL001
   6
CONTINUOUS
  62
7
  10
 374.356
  20
 845.129
  30
0.0
  11
 373.047
  21
 845.052
  31
0.0
   0
LINE
   8
LEVEL001
   6
CONTINUOUS
  62
7
  10
 373.047
  20
 845.052
  30
0.0
  11
 371.758
  21
 844.823
  31
0.0
   0
LINE
   8
LEVEL001
   6
CONTINUOUS
  62
7
  10
 371.758
  20
 844.823
  30
0.0
  11
 370.510
  21
 844.444
  31
0.0
   0
LINE
   8
LEVEL001
   6
CONTINUOUS
  62
7
  10
 370.510
  20
 844.444
  30
0.0
  11
 369.322
  21
 843.922
  31
0.0
   0
LINE
   8
LEVEL001
   6
CONTINUOUS
  62
7
  10
 369.322
  20
 843.922
  30
0.0
  11
 368.212
  21
 843.264
  31
0.0
   0
LINE
   8
LEVEL001
   6
CONTINUOUS
  62
7
  10
 368.212
  20
 843.264
  30
0.0
  11
 367.199
  21
 842.482
  31
0.0
   0
LINE
   8
LEVEL001
   6
CONTINUOUS
  62
7
  10
 367.199
  20
 842.482
  30
0.0
  11
 366.297
  21
 841.587
  31
0.0
   0
LINE
   8
LEVEL001
   6
CONTINUOUS
  62
7
  10
 366.297
  20
 841.587
  30
0.0
  11
 366.111
  21
 841.372
  31
0.0
   0
LINE
   8
LEVEL001
   6
CONTINUOUS
  62
7
  10
 362.906
  20
 829.470
  30
0.0
  11
 363.608
  21
 830.511
  31
0.0
   0
LINE
   8
LEVEL001
   6
CONTINUOUS
  62
7
  10
 363.608
  20
 830.511
  30
0.0
  11
 364.167
  21
 831.626
  31
0.0
   0
LINE
   8
LEVEL001
   6
CONTINUOUS
  62
7
  10
 364.167
  20
 831.626
  30
0.0
  11
 364.573
  21
 832.798
  31
0.0
   0
LINE
   8
LEVEL001
   6
CONTINUOUS
  62
7
  10
 364.573
  20
 832.798
  30
0.0
  11
 364.821
  21
 834.008
  31
0.0
   0
LINE
   8
LEVEL001
   6
CONTINUOUS
  62
7
  10
 364.821
  20
 834.008
  30
0.0
  11
 364.906
  21
 835.238
  31
0.0
   0
LINE
   8
LEVEL001
   6
CONTINUOUS
  62
7
  10
 364.906
  20
 835.238
  30
0.0
  11
 364.827
  21
 836.469
  31
0.0
   0
LINE
   8
LEVEL001
   6
CONTINUOUS
  62
7
  10
 364.827
  20
 836.469
  30
0.0
  11
 364.586
  21
 837.680
  31
0.0
   0
LINE
   8
LEVEL001
   6
CONTINUOUS
  62
7
  10
 364.586
  20
 837.680
  30
0.0
  11
 364.186
  21
 838.854
  31
0.0
   0
LINE
   8
LEVEL001
   6
CONTINUOUS
  62
7
  10
 364.186
  20
 838.854
  30
0.0
  11
 363.813
  21
 839.646
  31
0.0
   0
LINE
   8
LEVEL001
   6
DASHDOT
  62
1
  10
 342.906
  20
 835.263
  30
0.0
  11
 365.906
  21
 835.263
  31
0.0
   0
CIRCLE
   8
LEVEL001
   6
CONTINUOUS
  62
7
  10
 354.406
  20
 835.263
  30
0.0
  40
 7.50000
   0
LINE
   8
LEVEL001
   6
CONTINUOUS
  62
7
  10
 354.406
  20
 825.801
  30
0.0
  11
 345.906
  21
 830.355
  31
0.0
   0
LINE
   8
LEVEL001
   6
CONTINUOUS
  62
7
  10
 345.906
  20
 830.355
  30
0.0
  11
 345.906
  21
 839.636
  31
0.0
   0
LINE
   8
LEVEL001
   6
CONTINUOUS
  62
7
  10
 345.906
  20
 839.636
  30
0.0
  11
 354.406
  21
 844.247
  31
0.0
   0
LINE
   8
LEVEL001
   6
CONTINUOUS
  62
7
  10
 354.406
  20
 844.247
  30
0.0
  11
 362.906
  21
 839.636
  31
0.0
   0
LINE
   8
LEVEL001
   6
CONTINUOUS
  62
7
  10
 362.906
  20
 839.636
  30
0.0
  11
 362.906
  21
 830.355
  31
0.0
   0
LINE
   8
LEVEL001
   6
CONTINUOUS
  62
7
  10
 362.906
  20
 830.355
  30
0.0
  11
 354.406
  21
 825.801
  31
0.0
   0
LINE
   8
LEVEL001
   6
CONTINUOUS
  62
7
  10
 345.906
  20
 834.998
  30
0.0
  11
 345.972
  21
 834.002
  31
0.0
   0
LINE
   8
LEVEL001
   6
CONTINUOUS
  62
7
  10
 345.972
  20
 834.002
  30
0.0
  11
 346.170
  21
 833.022
  31
0.0
   0
LINE
   8
LEVEL001
   6
CONTINUOUS
  62
7
  10
 346.170
  20
 833.022
  30
0.0
  11
 346.496
  21
 832.072
  31
0.0
   0
LINE
   8
LEVEL001
   6
CONTINUOUS
  62
7
  10
 346.496
  20
 832.072
  30
0.0
  11
 346.946
  21
 831.169
  31
0.0
   0
LINE
   8
LEVEL001
   6
CONTINUOUS
  62
7
  10
 346.946
  20
 831.169
  30
0.0
  11
 347.513
  21
 830.325
  31
0.0
   0
LINE
   8
LEVEL001
   6
CONTINUOUS
  62
7
  10
 347.513
  20
 830.325
  30
0.0
  11
 348.186
  21
 829.554
  31
0.0
   0
LINE
   8
LEVEL001
   6
CONTINUOUS
  62
7
  10
 348.186
  20
 829.554
  30
0.0
  11
 348.957
  21
 828.867
  31
0.0
   0
LINE
   8
LEVEL001
   6
CONTINUOUS
  62
7
  10
 348.957
  20
 828.867
  30
0.0
  11
 349.813
  21
 828.277
  31
0.0
   0
LINE
   8
LEVEL001
   6
CONTINUOUS
  62
7
  10
 349.813
  20
 828.277
  30
0.0
  11
 350.741
  21
 827.791
  31
0.0
   0
LINE
   8
LEVEL001
   6
CONTINUOUS
  62
7
  10
 350.741
  20
 827.791
  30
0.0
  11
 351.726
  21
 827.418
  31
0.0
   0
LINE
   8
LEVEL001
   6
CONTINUOUS
  62
7
  10
 351.726
  20
 827.418
  30
0.0
  11
 352.752
  21
 827.163
  31
0.0
   0
LINE
   8
LEVEL001
   6
CONTINUOUS
  62
7
  10
 352.752
  20
 827.163
  30
0.0
  11
 353.805
  21
 827.031
  31
0.0
   0
LINE
   8
LEVEL001
   6
CONTINUOUS
  62
7
  10
 353.805
  20
 827.031
  30
0.0
  11
 354.866
  21
 827.022
  31
0.0
   0
LINE
   8
LEVEL001
   6
CONTINUOUS
  62
7
  10
 354.866
  20
 827.022
  30
0.0
  11
 355.921
  21
 827.139
  31
0.0
   0
LINE
   8
LEVEL001
   6
CONTINUOUS
  62
7
  10
 355.921
  20
 827.139
  30
0.0
  11
 356.952
  21
 827.377
  31
0.0
   0
LINE
   8
LEVEL001
   6
CONTINUOUS
  62
7
  10
 356.952
  20
 827.377
  30
0.0
  11
 357.943
  21
 827.735
  31
0.0
   0
LINE
   8
LEVEL001
   6
CONTINUOUS
  62
7
  10
 357.943
  20
 827.735
  30
0.0
  11
 358.879
  21
 828.206
  31
0.0
   0
LINE
   8
LEVEL001
   6
CONTINUOUS
  62
7
  10
 358.879
  20
 828.206
  30
0.0
  11
 359.745
  21
 828.783
  31
0.0
   0
LINE
   8
LEVEL001
   6
CONTINUOUS
  62
7
  10
 359.745
  20
 828.783
  30
0.0
  11
 360.528
  21
 829.457
  31
0.0
   0
LINE
   8
LEVEL001
   6
CONTINUOUS
  62
7
  10
 360.528
  20
 829.457
  30
0.0
  11
 361.216
  21
 830.218
  31
0.0
   0
LINE
   8
LEVEL001
   6
CONTINUOUS
  62
7
  10
 361.216
  20
 830.218
  30
0.0
  11
 361.797
  21
 831.053
  31
0.0
   0
LINE
   8
LEVEL001
   6
CONTINUOUS
  62
7
  10
 361.797
  20
 831.053
  30
0.0
  11
 362.262
  21
 831.950
  31
0.0
   0
LINE
   8
LEVEL001
   6
CONTINUOUS
  62
7
  10
 362.262
  20
 831.950
  30
0.0
  11
 362.606
  21
 832.894
  31
0.0
   0
LINE
   8
LEVEL001
   6
CONTINUOUS
  62
7
  10
 362.606
  20
 832.894
  30
0.0
  11
 362.821
  21
 833.871
  31
0.0
   0
LINE
   8
LEVEL001
   6
CONTINUOUS
  62
7
  10
 362.821
  20
 833.871
  30
0.0
  11
 362.905
  21
 834.866
  31
0.0
   0
LINE
   8
LEVEL001
   6
CONTINUOUS
  62
7
  10
 362.905
  20
 834.866
  30
0.0
  11
 362.856
  21
 835.862
  31
0.0
   0
LINE
   8
LEVEL001
   6
CONTINUOUS
  62
7
  10
 362.856
  20
 835.862
  30
0.0
  11
 362.675
  21
 836.845
  31
0.0
   0
LINE
   8
LEVEL001
   6
CONTINUOUS
  62
7
  10
 362.675
  20
 836.845
  30
0.0
  11
 362.366
  21
 837.800
  31
0.0
   0
LINE
   8
LEVEL001
   6
CONTINUOUS
  62
7
  10
 362.366
  20
 837.800
  30
0.0
  11
 361.932
  21
 838.711
  31
0.0
   0
LINE
   8
LEVEL001
   6
CONTINUOUS
  62
7
  10
 361.932
  20
 838.711
  30
0.0
  11
 361.381
  21
 839.563
  31
0.0
   0
LINE
   8
LEVEL001
   6
CONTINUOUS
  62
7
  10
 361.381
  20
 839.563
  30
0.0
  11
 360.720
  21
 840.345
  31
0.0
   0
LINE
   8
LEVEL001
   6
CONTINUOUS
  62
7
  10
 360.720
  20
 840.345
  30
0.0
  11
 359.962
  21
 841.043
  31
0.0
   0
LINE
   8
LEVEL001
   6
CONTINUOUS
  62
7
  10
 359.962
  20
 841.043
  30
0.0
  11
 359.116
  21
 841.647
  31
0.0
   0
LINE
   8
LEVEL001
   6
CONTINUOUS
  62
7
  10
 359.116
  20
 841.647
  30
0.0
  11
 358.198
  21
 842.147
  31
0.0
   0
LINE
   8
LEVEL001
   6
CONTINUOUS
  62
7
  10
 358.198
  20
 842.147
  30
0.0
  11
 357.220
  21
 842.535
  31
0.0
   0
LINE
   8
LEVEL001
   6
CONTINUOUS
  62
7
  10
 357.220
  20
 842.535
  30
0.0
  11
 356.198
  21
 842.806
  31
0.0
   0
LINE
   8
LEVEL001
   6
CONTINUOUS
  62
7
  10
 356.198
  20
 842.806
  30
0.0
  11
 355.148
  21
 842.955
  31
0.0
   0
LINE
   8
LEVEL001
   6
CONTINUOUS
  62
7
  10
 355.148
  20
 842.955
  30
0.0
  11
 354.086
  21
 842.980
  31
0.0
   0
LINE
   8
LEVEL001
   6
CONTINUOUS
  62
7
  10
 354.086
  20
 842.980
  30
0.0
  11
 353.030
  21
 842.880
  31
0.0
   0
LINE
   8
LEVEL001
   6
CONTINUOUS
  62
7
  10
 353.030
  20
 842.880
  30
0.0
  11
 351.995
  21
 842.657
  31
0.0
   0
LINE
   8
LEVEL001
   6
CONTINUOUS
  62
7
  10
 351.995
  20
 842.657
  30
0.0
  11
 350.997
  21
 842.315
  31
0.0
   0
LINE
   8
LEVEL001
   6
CONTINUOUS
  62
7
  10
 350.997
  20
 842.315
  30
0.0
  11
 350.053
  21
 841.859
  31
0.0
   0
LINE
   8
LEVEL001
   6
CONTINUOUS
  62
7
  10
 350.053
  20
 841.859
  30
0.0
  11
 349.177
  21
 841.295
  31
0.0
   0
LINE
   8
LEVEL001
   6
CONTINUOUS
  62
7
  10
 349.177
  20
 841.295
  30
0.0
  11
 348.382
  21
 840.633
  31
0.0
   0
LINE
   8
LEVEL001
   6
CONTINUOUS
  62
7
  10
 348.382
  20
 840.633
  30
0.0
  11
 347.681
  21
 839.884
  31
0.0
   0
LINE
   8
LEVEL001
   6
CONTINUOUS
  62
7
  10
 347.681
  20
 839.884
  30
0.0
  11
 347.086
  21
 839.058
  31
0.0
   0
LINE
   8
LEVEL001
   6
CONTINUOUS
  62
7
  10
 347.086
  20
 839.058
  30
0.0
  11
 346.604
  21
 838.169
  31
0.0
   0
LINE
   8
LEVEL001
   6
CONTINUOUS
  62
7
  10
 346.604
  20
 838.169
  30
0.0
  11
 346.244
  21
 837.230
  31
0.0
   0
LINE
   8
LEVEL001
   6
CONTINUOUS
  62
7
  10
 346.244
  20
 837.230
  30
0.0
  11
 346.012
  21
 836.256
  31
0.0
   0
LINE
   8
LEVEL001
   6
CONTINUOUS
  62
7
  10
 346.012
  20
 836.256
  30
0.0
  11
 345.910
  21
 835.263
  31
0.0
   0
LINE
   8
LEVEL001
   6
CONTINUOUS
  62
7
  10
 345.910
  20
 835.263
  30
0.0
  11
 345.906
  21
 834.998
  31
0.0
   0
LINE
   8
LEVEL001
   6
CONTINUOUS
  62
7
  10
 363.462
  20
 840.256
  30
0.0
  11
 362.729
  21
 841.278
  31
0.0
   0
LINE
   8
LEVEL001
   6
CONTINUOUS
  62
7
  10
 362.729
  20
 841.278
  30
0.0
  11
 361.866
  21
 842.206
  31
0.0
   0
LINE
   8
LEVEL001
   6
CONTINUOUS
  62
7
  10
 361.866
  20
 842.206
  30
0.0
  11
 360.887
  21
 843.026
  31
0.0
   0
LINE
   8
LEVEL001
   6
CONTINUOUS
  62
7
  10
 360.887
  20
 843.026
  30
0.0
  11
 359.806
  21
 843.724
  31
0.0
   0
LINE
   8
LEVEL001
   6
CONTINUOUS
  62
7
  10
 359.806
  20
 843.724
  30
0.0
  11
 358.641
  21
 844.291
  31
0.0
   0
LINE
   8
LEVEL001
   6
CONTINUOUS
  62
7
  10
 358.641
  20
 844.291
  30
0.0
  11
 357.410
  21
 844.717
  31
0.0
   0
LINE
   8
LEVEL001
   6
CONTINUOUS
  62
7
  10
 357.410
  20
 844.717
  30
0.0
  11
 356.132
  21
 844.995
  31
0.0
   0
LINE
   8
LEVEL001
   6
CONTINUOUS
  62
7
  10
 356.132
  20
 844.995
  30
0.0
  11
 354.828
  21
 845.121
  31
0.0
   0
LINE
   8
LEVEL001
   6
CONTINUOUS
  62
7
  10
 354.828
  20
 845.121
  30
0.0
  11
 353.516
  21
 845.094
  31
0.0
   0
LINE
   8
LEVEL001
   6
CONTINUOUS
  62
7
  10
 353.516
  20
 845.094
  30
0.0
  11
 352.219
  21
 844.913
  31
0.0
   0
LINE
   8
LEVEL001
   6
CONTINUOUS
  62
7
  10
 352.219
  20
 844.913
  30
0.0
  11
 350.956
  21
 844.582
  31
0.0
   0
LINE
   8
LEVEL001
   6
CONTINUOUS
  62
7
  10
 350.956
  20
 844.582
  30
0.0
  11
 349.746
  21
 844.105
  31
0.0
   0
LINE
   8
LEVEL001
   6
CONTINUOUS
  62
7
  10
 349.746
  20
 844.105
  30
0.0
  11
 348.609
  21
 843.490
  31
0.0
   0
LINE
   8
LEVEL001
   6
CONTINUOUS
  62
7
  10
 348.609
  20
 843.490
  30
0.0
  11
 347.563
  21
 842.747
  31
0.0
   0
LINE
   8
LEVEL001
   6
CONTINUOUS
  62
7
  10
 347.563
  20
 842.747
  30
0.0
  11
 346.624
  21
 841.886
  31
0.0
   0
LINE
   8
LEVEL001
   6
CONTINUOUS
  62
7
  10
 346.624
  20
 841.886
  30
0.0
  11
 345.805
  21
 840.923
  31
0.0
   0
LINE
   8
LEVEL001
   6
CONTINUOUS
  62
7
  10
 345.805
  20
 840.923
  30
0.0
  11
 345.122
  21
 839.871
  31
0.0
   0
LINE
   8
LEVEL001
   6
CONTINUOUS
  62
7
  10
 345.122
  20
 839.871
  30
0.0
  11
 344.583
  21
 838.748
  31
0.0
   0
LINE
   8
LEVEL001
   6
CONTINUOUS
  62
7
  10
 344.583
  20
 838.748
  30
0.0
  11
 344.197
  21
 837.570
  31
0.0
   0
LINE
   8
LEVEL001
   6
CONTINUOUS
  62
7
  10
 344.197
  20
 837.570
  30
0.0
  11
 343.970
  21
 836.356
  31
0.0
   0
LINE
   8
LEVEL001
   6
CONTINUOUS
  62
7
  10
 343.970
  20
 836.356
  30
0.0
  11
 343.951
  21
 836.177
  31
0.0
   0
LINE
   8
LEVEL001
   6
CONTINUOUS
  62
7
  10
 344.039
  20
 836.827
  30
0.0
  11
 343.912
  21
 835.600
  31
0.0
   0
LINE
   8
LEVEL001
   6
CONTINUOUS
  62
7
  10
 343.912
  20
 835.600
  30
0.0
  11
 343.949
  21
 834.368
  31
0.0
   0
LINE
   8
LEVEL001
   6
CONTINUOUS
  62
7
  10
 343.949
  20
 834.368
  30
0.0
  11
 344.149
  21
 833.150
  31
0.0
   0
LINE
   8
LEVEL001
   6
CONTINUOUS
  62
7
  10
 344.149
  20
 833.150
  30
0.0
  11
 344.510
  21
 831.965
  31
0.0
   0
LINE
   8
LEVEL001
   6
CONTINUOUS
  62
7
  10
 344.510
  20
 831.965
  30
0.0
  11
 345.024
  21
 830.831
  31
0.0
   0
LINE
   8
LEVEL001
   6
CONTINUOUS
  62
7
  10
 345.024
  20
 830.831
  30
0.0
  11
 345.686
  21
 829.767
  31
0.0
   0
LINE
   8
LEVEL001
   6
CONTINUOUS
  62
7
  10
 345.686
  20
 829.767
  30
0.0
  11
 345.906
  21
 829.470
  31
0.0
   0
LINE
   8
LEVEL001
   6
CONTINUOUS
  62
7
  10
 346.734
  20
 827.063
  30
0.0
  11
 345.906
  21
 827.512
  31
0.0
   0
LINE
   8
LEVEL001
   6
CONTINUOUS
  62
7
  10
 345.906
  20
 827.512
  30
0.0
  11
 345.906
  21
 830.355
  31
0.0
   0
LINE
   8
LEVEL001
   6
CONTINUOUS
  62
7
  10
 362.906
  20
 830.355
  30
0.0
  11
 362.906
  21
 827.512
  31
0.0
   0
LINE
   8
LEVEL001
   6
CONTINUOUS
  62
7
  10
 362.906
  20
 827.512
  30
0.0
  11
 358.264
  21
 824.994
  31
0.0
   0
ARC
   8
LEVEL001
   6
CONTINUOUS
  62
7
  10
 361.406
  20
 805.263
  30
0.0
  40
 20.0000
  50
 102.108
  51
 112.332
   0
LINE
   8
LEVEL001
   6
CONTINUOUS
  62
7
  10
 352.817
  20
 823.763
  30
0.0
  11
 349.660
  21
 825.475
  31
0.0
   0
LINE
   8
LEVEL001
   6
CONTINUOUS
  62
7
  10
 377.406
  20
 845.129
  30
0.0
  11
 374.356
  21
 845.129
  31
0.0
   0
LINE
   8
LEVEL001
   6
CONTINUOUS
  62
7
  10
 388.906
  20
 838.263
  30
0.0
  11
 388.406
  21
 838.763
  31
0.0
   0
ARC
   8
LEVEL001
   6
CONTINUOUS
  62
7
  10
 374.062
  20
 843.263
  30
0.0
  40
 5.00000
  50
 20.9505
  51
 90.0000
   0
LINE
   8
LEVEL014
   6
CONTINUOUS
  62
7
  10
 937.741
  20
 791.763
  30
0.0
  11
 937.741
  21
 818.763
  31
0.0
   0
LINE
   8
LEVEL014
   6
CONTINUOUS
  62
7
  10
 937.741
  20
 818.763
  30
0.0
  11
 947.741
  21
 817.763
  31
0.0
   0
LINE
   8
LEVEL014
   6
CONTINUOUS
  62
7
  10
 947.741
  20
 817.763
  30
0.0
  11
 947.741
  21
 792.763
  31
0.0
   0
LINE
   8
LEVEL014
   6
CONTINUOUS
  62
7
  10
 947.741
  20
 792.763
  30
0.0
  11
 937.741
  21
 791.763
  31
0.0
   0
LINE
   8
LEVEL014
   6
CONTINUOUS
  62
3
  10
 949.741
  20
 792.609
  30
0.0
  11
 949.741
  21
 817.917
  31
0.0
   0
LINE
   8
LEVEL014
   6
CONTINUOUS
  62
3
  10
 949.741
  20
 817.917
  30
0.0
  11
 951.741
  21
 818.070
  31
0.0
   0
LINE
   8
LEVEL014
   6
CONTINUOUS
  62
3
  10
 951.741
  20
 818.070
  30
0.0
  11
 951.741
  21
 792.455
  31
0.0
   0
LINE
   8
LEVEL014
   6
CONTINUOUS
  62
3
  10
 951.741
  20
 792.455
  30
0.0
  11
 949.741
  21
 792.609
  31
0.0
   0
LINE
   8
LEVEL014
   6
CONTINUOUS
  62
3
  10
 947.741
  20
 816.258
  30
0.0
  11
 949.741
  21
 816.412
  31
0.0
   0
LINE
   8
LEVEL014
   6
CONTINUOUS
  62
3
  10
 953.741
  20
 792.301
  30
0.0
  11
 953.741
  21
 818.224
  31
0.0
   0
LINE
   8
LEVEL014
   6
CONTINUOUS
  62
3
  10
 953.741
  20
 818.224
  30
0.0
  11
 955.741
  21
 818.378
  31
0.0
   0
LINE
   8
LEVEL014
   6
CONTINUOUS
  62
3
  10
 955.741
  20
 818.378
  30
0.0
  11
 955.741
  21
 792.147
  31
0.0
   0
LINE
   8
LEVEL014
   6
CONTINUOUS
  62
3
  10
 955.741
  20
 792.147
  30
0.0
  11
 953.741
  21
 792.301
  31
0.0
   0
LINE
   8
LEVEL014
   6
CONTINUOUS
  62
3
  10
 957.741
  20
 791.993
  30
0.0
  11
 957.741
  21
 818.532
  31
0.0
   0
LINE
   8
LEVEL014
   6
CONTINUOUS
  62
3
  10
 957.741
  20
 818.532
  30
0.0
  11
 959.741
  21
 818.686
  31
0.0
   0
LINE
   8
LEVEL014
   6
CONTINUOUS
  62
3
  10
 959.741
  20
 818.686
  30
0.0
  11
 959.741
  21
 791.840
  31
0.0
   0
LINE
   8
LEVEL014
   6
CONTINUOUS
  62
3
  10
 959.741
  20
 791.840
  30
0.0
  11
 957.741
  21
 791.993
  31
0.0
   0
LINE
   8
LEVEL014
   6
CONTINUOUS
  62
3
  10
 961.741
  20
 791.686
  30
0.0
  11
 961.741
  21
 818.840
  31
0.0
   0
LINE
   8
LEVEL014
   6
CONTINUOUS
  62
3
  10
 961.741
  20
 818.840
  30
0.0
  11
 963.741
  21
 818.993
  31
0.0
   0
LINE
   8
LEVEL014
   6
CONTINUOUS
  62
3
  10
 963.741
  20
 818.993
  30
0.0
  11
 963.741
  21
 791.532
  31
0.0
   0
LINE
   8
LEVEL014
   6
CONTINUOUS
  62
3
  10
 963.741
  20
 791.532
  30
0.0
  11
 961.741
  21
 791.686
  31
0.0
   0
LINE
   8
LEVEL014
   6
CONTINUOUS
  62
3
  10
 965.741
  20
 791.378
  30
0.0
  11
 965.741
  21
 819.147
  31
0.0
   0
LINE
   8
LEVEL014
   6
CONTINUOUS
  62
3
  10
 965.741
  20
 819.147
  30
0.0
  11
 967.741
  21
 819.301
  31
0.0
   0
LINE
   8
LEVEL014
   6
CONTINUOUS
  62
3
  10
 967.741
  20
 819.301
  30
0.0
  11
 967.741
  21
 791.224
  31
0.0
   0
LINE
   8
LEVEL014
   6
CONTINUOUS
  62
3
  10
 967.741
  20
 791.224
  30
0.0
  11
 965.741
  21
 791.378
  31
0.0
   0
LINE
   8
LEVEL014
   6
CONTINUOUS
  62
3
  10
 969.741
  20
 791.070
  30
0.0
  11
 969.741
  21
 819.455
  31
0.0
   0
LINE
   8
LEVEL014
   6
CONTINUOUS
  62
3
  10
 969.741
  20
 819.455
  30
0.0
  11
 971.741
  21
 819.609
  31
0.0
   0
LINE
   8
LEVEL014
   6
CONTINUOUS
  62
3
  10
 971.741
  20
 819.609
  30
0.0
  11
 971.741
  21
 790.917
  31
0.0
   0
LINE
   8
LEVEL014
   6
CONTINUOUS
  62
3
  10
 971.741
  20
 790.917
  30
0.0
  11
 969.741
  21
 791.070
  31
0.0
   0
LINE
   8
LEVEL014
   6
CONTINUOUS
  62
3
  10
 973.741
  20
 790.763
  30
0.0
  11
 973.741
  21
 819.763
  31
0.0
   0
LINE
   8
LEVEL014
   6
CONTINUOUS
  62
3
  10
 973.741
  20
 819.763
  30
0.0
  11
 975.741
  21
 819.917
  31
0.0
   0
LINE
   8
LEVEL014
   6
CONTINUOUS
  62
3
  10
 975.741
  20
 819.917
  30
0.0
  11
 975.741
  21
 790.609
  31
0.0
   0
LINE
   8
LEVEL014
   6
CONTINUOUS
  62
3
  10
 975.741
  20
 790.609
  30
0.0
  11
 973.741
  21
 790.763
  31
0.0
   0
LINE
   8
LEVEL014
   6
CONTINUOUS
  62
3
  10
 951.741
  20
 816.566
  30
0.0
  11
 953.741
  21
 816.720
  31
0.0
   0
LINE
   8
LEVEL014
   6
CONTINUOUS
  62
3
  10
 955.741
  20
 816.874
  30
0.0
  11
 957.741
  21
 817.027
  31
0.0
   0
LINE
   8
LEVEL014
   6
CONTINUOUS
  62
3
  10
 959.741
  20
 817.181
  30
0.0
  11
 961.741
  21
 817.335
  31
0.0
   0
LINE
   8
LEVEL014
   6
CONTINUOUS
  62
3
  10
 963.741
  20
 817.489
  30
0.0
  11
 965.741
  21
 817.643
  31
0.0
   0
LINE
   8
LEVEL014
   6
CONTINUOUS
  62
3
  10
 967.741
  20
 817.797
  30
0.0
  11
 969.741
  21
 817.951
  31
0.0
   0
LINE
   8
LEVEL014
   6
CONTINUOUS
  62
3
  10
 971.741
  20
 818.104
  30
0.0
  11
 973.741
  21
 818.258
  31
0.0
   0
LINE
   8
LEVEL014
   6
CONTINUOUS
  62
3
  10
 985.741
  20
 790.729
  30
0.0
  11
 985.741
  21
 819.797
  31
0.0
   0
LINE
   8
LEVEL014
   6
CONTINUOUS
  62
3
  10
 985.741
  20
 819.797
  30
0.0
  11
 987.741
  21
 819.627
  31
0.0
   0
LINE
   8
LEVEL014
   6
CONTINUOUS
  62
3
  10
 987.741
  20
 819.627
  30
0.0
  11
 987.741
  21
 790.898
  31
0.0
   0
LINE
   8
LEVEL014
   6
CONTINUOUS
  62
3
  10
 987.741
  20
 790.898
  30
0.0
  11
 985.741
  21
 790.729
  31
0.0
   0
LINE
   8
LEVEL014
   6
CONTINUOUS
  62
3
  10
 989.741
  20
 791.068
  30
0.0
  11
 989.741
  21
 819.458
  31
0.0
   0
LINE
   8
LEVEL014
   6
CONTINUOUS
  62
3
  10
 989.741
  20
 819.458
  30
0.0
  11
 991.741
  21
 819.288
  31
0.0
   0
LINE
   8
LEVEL014
   6
CONTINUOUS
  62
3
  10
 991.741
  20
 819.288
  30
0.0
  11
 991.741
  21
 791.237
  31
0.0
   0
LINE
   8
LEVEL014
   6
CONTINUOUS
  62
3
  10
 991.741
  20
 791.237
  30
0.0
  11
 989.741
  21
 791.068
  31
0.0
   0
LINE
   8
LEVEL014
   6
CONTINUOUS
  62
3
  10
 993.741
  20
 791.407
  30
0.0
  11
 993.741
  21
 819.119
  31
0.0
   0
LINE
   8
LEVEL014
   6
CONTINUOUS
  62
3
  10
 993.741
  20
 819.119
  30
0.0
  11
 995.741
  21
 818.949
  31
0.0
   0
LINE
   8
LEVEL014
   6
CONTINUOUS
  62
3
  10
 995.741
  20
 818.949
  30
0.0
  11
 995.741
  21
 791.576
  31
0.0
   0
LINE
   8
LEVEL014
   6
CONTINUOUS
  62
3
  10
 995.741
  20
 791.576
  30
0.0
  11
 993.741
  21
 791.407
  31
0.0
   0
LINE
   8
LEVEL014
   6
CONTINUOUS
  62
3
  10
 997.741
  20
 791.746
  30
0.0
  11
 997.741
  21
 818.780
  31
0.0
   0
LINE
   8
LEVEL014
   6
CONTINUOUS
  62
3
  10
 997.741
  20
 818.780
  30
0.0
  11
 999.741
  21
 818.610
  31
0.0
   0
LINE
   8
LEVEL014
   6
CONTINUOUS
  62
3
  10
 999.741
  20
 818.610
  30
0.0
  11
 999.741
  21
 791.915
  31
0.0
   0
LINE
   8
LEVEL014
   6
CONTINUOUS
  62
3
  10
 999.741
  20
 791.915
  30
0.0
  11
 997.741
  21
 791.746
  31
0.0
   0
LINE
   8
LEVEL014
   6
CONTINUOUS
  62
3
  10
 1001.74
  20
 792.085
  30
0.0
  11
 1001.74
  21
 818.441
  31
0.0
   0
LINE
   8
LEVEL014
   6
CONTINUOUS
  62
3
  10
 1001.74
  20
 818.441
  30
0.0
  11
 1003.74
  21
 818.271
  31
0.0
   0
LINE
   8
LEVEL014
   6
CONTINUOUS
  62
3
  10
 1003.74
  20
 818.271
  30
0.0
  11
 1003.74
  21
 792.254
  31
0.0
   0
LINE
   8
LEVEL014
   6
CONTINUOUS
  62
3
  10
 1003.74
  20
 792.254
  30
0.0
  11
 1001.74
  21
 792.085
  31
0.0
   0
LINE
   8
LEVEL014
   6
CONTINUOUS
  62
3
  10
 1005.74
  20
 792.424
  30
0.0
  11
 1005.74
  21
 818.102
  31
0.0
   0
LINE
   8
LEVEL014
   6
CONTINUOUS
  62
3
  10
 1005.74
  20
 818.102
  30
0.0
  11
 1007.74
  21
 817.932
  31
0.0
   0
LINE
   8
LEVEL014
   6
CONTINUOUS
  62
3
  10
 1007.74
  20
 817.932
  30
0.0
  11
 1007.74
  21
 792.593
  31
0.0
   0
LINE
   8
LEVEL014
   6
CONTINUOUS
  62
3
  10
 1007.74
  20
 792.593
  30
0.0
  11
 1005.74
  21
 792.424
  31
0.0
   0
LINE
   8
LEVEL014
   6
CONTINUOUS
  62
3
  10
 975.741
  20
 818.412
  30
0.0
  11
 977.741
  21
 818.566
  31
0.0
   0
LINE
   8
LEVEL014
   6
CONTINUOUS
  62
3
  10
 979.741
  20
 818.800
  30
0.0
  11
 981.741
  21
 818.630
  31
0.0
   0
LINE
   8
LEVEL014
   6
CONTINUOUS
  62
3
  10
 983.741
  20
 818.461
  30
0.0
  11
 985.741
  21
 818.291
  31
0.0
   0
LINE
   8
LEVEL014
   6
CONTINUOUS
  62
3
  10
 987.741
  20
 818.122
  30
0.0
  11
 989.741
  21
 817.952
  31
0.0
   0
LINE
   8
LEVEL014
   6
CONTINUOUS
  62
3
  10
 991.741
  20
 817.783
  30
0.0
  11
 993.741
  21
 817.613
  31
0.0
   0
LINE
   8
LEVEL014
   6
CONTINUOUS
  62
3
  10
 995.741
  20
 817.444
  30
0.0
  11
 997.741
  21
 817.274
  31
0.0
   0
LINE
   8
LEVEL014
   6
CONTINUOUS
  62
3
  10
 999.741
  20
 817.105
  30
0.0
  11
 1001.74
  21
 816.935
  31
0.0
   0
LINE
   8
LEVEL014
   6
CONTINUOUS
  62
3
  10
 1003.74
  20
 816.766
  30
0.0
  11
 1005.74
  21
 816.596
  31
0.0
   0
LINE
   8
LEVEL014
   6
CONTINUOUS
  62
3
  10
 1007.74
  20
 816.427
  30
0.0
  11
 1009.74
  21
 816.257
  31
0.0
   0
ARC
   8
LEVEL014
   6
CONTINUOUS
  62
7
  10
 990.866
  20
 805.263
  30
0.0
  40
 31.8750
  50
 334.942
  51
 25.0576
   0
LINE
   8
LEVEL014
   6
CONTINUOUS
  62
7
  10
 1009.74
  20
 792.763
  30
0.0
  11
 1009.74
  21
 817.763
  31
0.0
   0
LINE
   8
LEVEL014
   6
CONTINUOUS
  62
7
  10
 1009.74
  20
 817.763
  30
0.0
  11
 1019.74
  21
 818.763
  31
0.0
   0
LINE
   8
LEVEL014
   6
CONTINUOUS
  62
7
  10
 1019.74
  20
 818.763
  30
0.0
  11
 1019.74
  21
 791.763
  31
0.0
   0
LINE
   8
LEVEL014
   6
CONTINUOUS
  62
7
  10
 1019.74
  20
 791.763
  30
0.0
  11
 1009.74
  21
 792.763
  31
0.0
   0
LINE
   8
LEVEL014
   6
CONTINUOUS
  62
3
  10
 981.741
  20
 805.263
  30
0.0
  11
 981.741
  21
 820.136
  31
0.0
   0
LINE
   8
LEVEL014
   6
CONTINUOUS
  62
3
  10
 981.741
  20
 820.136
  30
0.0
  11
 983.741
  21
 819.966
  31
0.0
   0
LINE
   8
LEVEL014
   6
CONTINUOUS
  62
3
  10
 983.741
  20
 819.966
  30
0.0
  11
 983.741
  21
 805.263
  31
0.0
   0
LINE
   8
LEVEL014
   6
CONTINUOUS
  62
3
  10
 977.741
  20
 805.263
  30
0.0
  11
 977.741
  21
 820.070
  31
0.0
   0
LINE
   8
LEVEL014
   6
CONTINUOUS
  62
3
  10
 977.741
  20
 820.070
  30
0.0
  11
 979.741
  21
 820.224
  31
0.0
   0
LINE
   8
LEVEL014
   6
CONTINUOUS
  62
3
  10
 979.741
  20
 820.224
  30
0.0
  11
 979.741
  21
 805.263
  31
0.0
   0
LINE
   8
LEVEL014
   6
CONTINUOUS
  62
3
  10
 947.741
  20
 794.267
  30
0.0
  11
 949.741
  21
 794.113
  31
0.0
   0
LINE
   8
LEVEL014
   6
CONTINUOUS
  62
3
  10
 951.741
  20
 793.959
  30
0.0
  11
 953.741
  21
 793.806
  31
0.0
   0
LINE
   8
LEVEL014
   6
CONTINUOUS
  62
3
  10
 955.741
  20
 793.652
  30
0.0
  11
 957.741
  21
 793.498
  31
0.0
   0
LINE
   8
LEVEL014
   6
CONTINUOUS
  62
3
  10
 959.741
  20
 793.344
  30
0.0
  11
 961.741
  21
 793.190
  31
0.0
   0
LINE
   8
LEVEL014
   6
CONTINUOUS
  62
3
  10
 963.741
  20
 793.036
  30
0.0
  11
 965.741
  21
 792.882
  31
0.0
   0
LINE
   8
LEVEL014
   6
CONTINUOUS
  62
3
  10
 967.741
  20
 792.729
  30
0.0
  11
 969.741
  21
 792.575
  31
0.0
   0
LINE
   8
LEVEL014
   6
CONTINUOUS
  62
3
  10
 971.741
  20
 792.421
  30
0.0
  11
 973.741
  21
 792.267
  31
0.0
   0
LINE
   8
LEVEL014
   6
CONTINUOUS
  62
3
  10
 995.741
  20
 793.082
  30
0.0
  11
 997.741
  21
 793.251
  31
0.0
   0
LINE
   8
LEVEL014
   6
CONTINUOUS
  62
3
  10
 999.741
  20
 793.421
  30
0.0
  11
 1001.74
  21
 793.590
  31
0.0
   0
LINE
   8
LEVEL014
   6
CONTINUOUS
  62
3
  10
 1003.74
  20
 793.760
  30
0.0
  11
 1005.74
  21
 793.929
  31
0.0
   0
LINE
   8
LEVEL014
   6
CONTINUOUS
  62
3
  10
 1007.74
  20
 794.099
  30
0.0
  11
 1009.74
  21
 794.268
  31
0.0
   0
LINE
   8
LEVEL014
   6
CONTINUOUS
  62
3
  10
 975.741
  20
 792.113
  30
0.0
  11
 977.741
  21
 791.959
  31
0.0
   0
LINE
   8
LEVEL014
   6
CONTINUOUS
  62
3
  10
 979.741
  20
 791.726
  30
0.0
  11
 981.741
  21
 791.895
  31
0.0
   0
LINE
   8
LEVEL014
   6
CONTINUOUS
  62
3
  10
 983.741
  20
 792.065
  30
0.0
  11
 985.741
  21
 792.234
  31
0.0
   0
LINE
   8
LEVEL014
   6
CONTINUOUS
  62
3
  10
 987.741
  20
 792.404
  30
0.0
  11
 989.741
  21
 792.573
  31
0.0
   0
LINE
   8
LEVEL014
   6
CONTINUOUS
  62
3
  10
 991.741
  20
 792.743
  30
0.0
  11
 993.741
  21
 792.912
  31
0.0
   0
LINE
   8
LEVEL014
   6
CONTINUOUS
  62
3
  10
 981.741
  20
 805.263
  30
0.0
  11
 981.741
  21
 790.390
  31
0.0
   0
LINE
   8
LEVEL014
   6
CONTINUOUS
  62
3
  10
 981.741
  20
 790.390
  30
0.0
  11
 983.741
  21
 790.559
  31
0.0
   0
LINE
   8
LEVEL014
   6
CONTINUOUS
  62
3
  10
 983.741
  20
 790.559
  30
0.0
  11
 983.741
  21
 805.263
  31
0.0
   0
LINE
   8
LEVEL014
   6
CONTINUOUS
  62
3
  10
 977.741
  20
 805.263
  30
0.0
  11
 977.741
  21
 790.455
  31
0.0
   0
LINE
   8
LEVEL014
   6
CONTINUOUS
  62
3
  10
 977.741
  20
 790.455
  30
0.0
  11
 979.741
  21
 790.301
  31
0.0
   0
LINE
   8
LEVEL014
   6
CONTINUOUS
  62
3
  10
 979.741
  20
 790.301
  30
0.0
  11
 979.741
  21
 805.263
  31
0.0
   0
LINE
   8
LEVEL014
   6
CONTINUOUS
  62
7
  10
 473.978
  20
 816.013
  30
0.0
  11
 916.096
  21
 816.013
  31
0.0
   0
LINE
   8
LEVEL014
   6
CONTINUOUS
  62
7
  10
 916.096
  20
 816.013
  30
0.0
  11
 918.846
  21
 813.263
  31
0.0
   0
LINE
   8
LEVEL014
   6
CONTINUOUS
  62
7
  10
 918.846
  20
 813.263
  30
0.0
  11
 926.406
  21
 813.263
  31
0.0
   0
LINE
   8
LEVEL014
   6
CONTINUOUS
  62
7
  10
 473.978
  20
 794.513
  30
0.0
  11
 916.096
  21
 794.513
  31
0.0
   0
LINE
   8
LEVEL014
   6
CONTINUOUS
  62
7
  10
 916.096
  20
 794.513
  30
0.0
  11
 918.846
  21
 797.263
  31
0.0
   0
LINE
   8
LEVEL014
   6
CONTINUOUS
  62
7
  10
 918.846
  20
 797.263
  30
0.0
  11
 926.406
  21
 797.263
  31
0.0
   0
LINE
   8
LEVEL003
   6
CONTINUOUS
  62
7
  10
 926.406
  20
 823.760
  30
0.0
  11
 926.406
  21
 790.008
  31
0.0
   0
LINE
   8
LEVEL014
   6
CONTINUOUS
  62
7
  10
 929.606
  20
 813.263
  30
0.0
  11
 937.741
  21
 813.263
  31
0.0
   0
LINE
   8
LEVEL014
   6
CONTINUOUS
  62
7
  10
 929.606
  20
 797.263
  30
0.0
  11
 937.741
  21
 797.263
  31
0.0
   0
LINE
   8
LEVEL001
   6
CONTINUOUS
  62
7
  10
 942.406
  20
 855.763
  30
0.0
  11
 942.406
  21
 818.296
  31
0.0
   0
LINE
   8
LEVEL001
   6
CONTINUOUS
  62
7
  10
 942.406
  20
 792.229
  30
0.0
  11
 942.406
  21
 754.763
  31
0.0
   0
LINE
   8
LEVEL003
   6
DOT
  62
3
  10
 315.656
  20
 795.013
  30
0.0
  11
 315.656
  21
 815.513
  31
0.0
   0
LINE
   8
LEVEL003
   6
DOT
  62
3
  10
 326.100
  20
 816.263
  30
0.0
  11
 314.906
  21
 816.263
  31
0.0
   0
LINE
   8
LEVEL003
   6
DOT
  62
3
  10
 326.100
  20
 815.513
  30
0.0
  11
 315.656
  21
 815.513
  31
0.0
   0
LINE
   8
LEVEL003
   6
DOT
  62
3
  10
 315.656
  20
 815.513
  30
0.0
  11
 314.906
  21
 816.263
  31
0.0
   0
LINE
   8
LEVEL003
   6
DOT
  62
3
  10
 314.906
  20
 794.263
  30
0.0
  11
 326.100
  21
 794.263
  31
0.0
   0
LINE
   8
LEVEL003
   6
DOT
  62
3
  10
 314.906
  20
 794.263
  30
0.0
  11
 315.656
  21
 795.013
  31
0.0
   0
LINE
   8
LEVEL003
   6
DOT
  62
3
  10
 315.656
  20
 795.013
  30
0.0
  11
 326.100
  21
 795.013
  31
0.0
   0
TEXT
   8
LEVEL003
  62
3
  10
 600.000
  20
 500.000
  30
0.0
  40
 16.0000
   1
ハンドル棒
   7
STANDARD
   0
TEXT
   8
LEVEL003
  62
3
  10
 660.000
  20
 460.000
  30
0.0
  40
 16.0000
   1
オイルタンク
   7
STANDARD
   0
LINE
   8
LEVEL001
   6
DASHDOT
  62
1
  10
 357.349
  20
 333.356
  30
0.0
  11
 350.151
  21
 333.188
  31
0.0
   0
LINE
   8
LEVEL001
   6
DASHDOT
  62
1
  10
 353.666
  20
 336.871
  30
0.0
  11
 353.834
  21
 329.673
  31
0.0
   0
LINE
   8
LEVEL001
   6
DASHDOT
  62
1
  10
 377.343
  20
 333.823
  30
0.0
  11
 370.145
  21
 333.655
  31
0.0
   0
LINE
   8
LEVEL001
   6
DASHDOT
  62
1
  10
 373.660
  20
 337.338
  30
0.0
  11
 373.828
  21
 330.140
  31
0.0
   0
ARC
   8
LEVEL001
   6
CONTINUOUS
  62
7
  10
 382.411
  20
 390.999
  30
0.0
  40
 3.00000
  50
 181.336
  51
 271.336
   0
LINE
   8
LEVEL001
   6
CONTINUOUS
  62
7
  10
 382.481
  20
 388.000
  30
0.0
  11
 383.726
  21
 388.029
  31
0.0
   0
ARC
   8
LEVEL001
   6
CONTINUOUS
  62
7
  10
 383.772
  20
 386.029
  30
0.0
  40
 2.00000
  50
 1.33614
  51
 91.3361
   0
LINE
   8
LEVEL001
   6
DASHDOT
  62
1
  10
 372.744
  20
 333.715
  30
0.0
  11
 371.928
  21
 368.706
  31
0.0
   0
ARC
   8
LEVEL001
   6
CONTINUOUS
  62
7
  10
 337.052
  20
 405.903
  30
0.0
  40
 3.00000
  50
 181.336
  51
 271.336
   0
LINE
   8
LEVEL001
   6
CONTINUOUS
  62
7
  10
 334.052
  20
 405.833
  30
0.0
  11
 334.037
  21
 406.478
  31
0.0
   0
LINE
   8
LEVEL001
   6
CONTINUOUS
  62
7
  10
 337.121
  20
 402.903
  30
0.0
  11
 339.121
  21
 402.950
  31
0.0
   0
LINE
   8
LEVEL001
   6
CONTINUOUS
  62
7
  10
 379.110
  20
 403.883
  30
0.0
  11
 378.087
  21
 404.859
  31
0.0
   0
LINE
   8
LEVEL001
   6
CONTINUOUS
  62
7
  10
 340.097
  20
 403.973
  30
0.0
  11
 339.121
  21
 402.950
  31
0.0
   0
LINE
   8
LEVEL001
   6
CONTINUOUS
  62
7
  10
 379.412
  20
 390.929
  30
0.0
  11
 379.110
  21
 403.883
  31
0.0
   0
ARC
   8
LEVEL001
   6
CONTINUOUS
  62
7
  10
 345.061
  20
 405.589
  30
0.0
  40
 30.0000
  50
 149.893
  51
 213.724
   0
LINE
   8
LEVEL001
   6
DASHDOT
  62
1
  10
 339.194
  20
 356.939
  30
0.0
  11
 339.334
  21
 350.941
  31
0.0
   0
LINE
   8
LEVEL001
   6
DASHDOT
  62
1
  10
 309.272
  20
 353.241
  30
0.0
  11
 373.255
  21
 354.733
  31
0.0
   0
ARC
   8
LEVEL001
   6
CONTINUOUS
  62
7
  10
 307.633
  20
 380.606
  30
0.0
  40
 15.0000
  50
 1.33600
  51
 33.7235
   0
ARC
   8
LEVEL001
   6
CONTINUOUS
  62
7
  10
 307.633
  20
 380.606
  30
0.0
  40
 15.0000
  50
 1.33600
  51
 33.7235
   0
LINE
   8
LEVEL001
   6
CONTINUOUS
  62
7
  10
 313.328
  20
 372.340
  30
0.0
  11
 314.144
  21
 337.350
  31
0.0
   0
ARC
   8
LEVEL001
   6
CONTINUOUS
  62
7
  10
 335.273
  20
 334.842
  30
0.0
  40
 3.00000
  50
 75.3734
  51
 91.3361
   0
ARC
   8
LEVEL001
   6
CONTINUOUS
  62
7
  10
 340.264
  20
 353.963
  30
0.0
  40
 16.7620
  50
 255.373
  51
 260.745
   0
LINE
   8
LEVEL001
   6
CONTINUOUS
  62
7
  10
 314.144
  20
 337.350
  30
0.0
  11
 335.203
  21
 337.841
  31
0.0
   0
ARC
   8
LEVEL001
   6
CONTINUOUS
  62
7
  10
 336.763
  20
 332.485
  30
0.0
  40
 5.00000
  50
 1.33614
  51
 80.7446
   0
LINE
   8
LEVEL001
   6
CONTINUOUS
  62
7
  10
 342.406
  20
 305.000
  30
0.0
  11
 382.384
  21
 305.932
  31
0.0
   0
LINE
   8
LEVEL001
   6
CONTINUOUS
  62
7
  10
 342.406
  20
 305.000
  30
0.0
  11
 341.762
  21
 332.601
  31
0.0
   0
LINE
   8
LEVEL001
   6
DASHDOT
  62
1
  10
 339.665
  20
 317.439
  30
0.0
  11
 367.070
  21
 318.079
  31
0.0
   0
ARC
   8
LEVEL001
   6
CONTINUOUS
  62
7
  10
 390.900
  20
 380.651
  30
0.0
  40
 5.00000
  50
 181.336
  51
 222.839
   0
LINE
   8
LEVEL001
   6
CONTINUOUS
  62
7
  10
 385.772
  20
 386.076
  30
0.0
  11
 385.901
  21
 380.535
  31
0.0
   0
ARC
   8
LEVEL001
   6
CONTINUOUS
  62
7
  10
 385.353
  20
 305.502
  30
0.0
  40
 3.00000
  50
 91.3361
  51
 171.742
   0
LINE
   8
LEVEL001
   6
DASHDOT
  62
1
  10
 361.401
  20
 305.443
  30
0.0
  11
 358.389
  21
 434.572
  31
0.0
   0
LINE
   8
LEVEL001
   6
CONTINUOUS
  62
7
  10
 378.087
  20
 404.859
  30
0.0
  11
 340.097
  21
 403.973
  31
0.0
   0
LINE
   8
LEVEL001
   6
CONTINUOUS
  62
7
  10
 333.053
  20
 405.809
  30
0.0
  11
 332.843
  21
 414.807
  31
0.0
   0
LINE
   8
LEVEL001
   6
CONTINUOUS
  62
7
  10
 332.053
  20
 405.786
  30
0.0
  11
 331.823
  21
 415.621
  31
0.0
   0
ARC
   8
LEVEL001
   6
CONTINUOUS
  62
7
  10
 337.052
  20
 405.902
  30
0.0
  40
 4.00000
  50
 181.334
  51
 271.336
   0
ARC
   8
LEVEL001
   6
CONTINUOUS
  62
7
  10
 337.052
  20
 405.903
  30
0.0
  40
 5.00000
  50
 181.336
  51
 271.204
   0
ARC
   8
LEVEL001
   6
CONTINUOUS
  62
7
  10
 337.052
  20
 405.903
  30
0.0
  40
 11.0000
  50
 181.336
  51
 271.336
   0
ARC
   8
LEVEL001
   6
CONTINUOUS
  62
7
  10
 337.052
  20
 405.903
  30
0.0
  40
 10.0000
  50
 181.336
  51
 271.236
   0
LINE
   8
LEVEL001
   6
CONTINUOUS
  62
7
  10
 326.054
  20
 405.646
  30
0.0
  11
 325.834
  21
 415.107
  31
0.0
   0
LINE
   8
LEVEL001
   6
CONTINUOUS
  62
7
  10
 327.054
  20
 405.669
  30
0.0
  11
 326.832
  21
 415.192
  31
0.0
   0
ARC
   8
LEVEL001
   6
CONTINUOUS
  62
7
  10
 335.842
  20
 414.877
  30
0.0
  40
 3.00000
  50
 163.839
  51
 181.336
   0
ARC
   8
LEVEL001
   6
CONTINUOUS
  62
7
  10
 329.460
  20
 409.727
  30
0.0
  40
 2.50000
  50
 157.758
  51
 181.336
   0
LINE
   8
LEVEL001
   6
CONTINUOUS
  62
7
  10
 327.146
  20
 410.673
  30
0.0
  11
 331.727
  21
 410.780
  31
0.0
   0
LINE
   8
LEVEL001
   6
CONTINUOUS
  62
7
  10
 352.971
  20
 366.659
  30
0.0
  11
 372.965
  21
 367.125
  31
0.0
   0
ARC
   8
LEVEL003
   6
CONTINUOUS
  62
7
  10
 379.909
  20
 391.068
  30
0.0
  40
 3.00000
  50
 121.336
  51
 181.336
   0
LINE
   8
LEVEL003
   6
CONTINUOUS
  62
7
  10
 341.865
  20
 392.511
  30
0.0
  11
 376.856
  21
 393.327
  31
0.0
   0
ARC
   8
LEVEL003
   6
CONTINUOUS
  62
7
  10
 338.920
  20
 390.112
  30
0.0
  40
 3.00000
  50
 1.33614
  51
 61.3361
   0
ARC
   8
LEVEL003
   6
CONTINUOUS
  62
7
  10
 341.319
  20
 394.499
  30
0.0
  40
 2.00000
  50
 181.336
  51
 241.336
   0
LINE
   8
LEVEL003
   6
CONTINUOUS
  62
7
  10
 339.307
  20
 394.952
  30
0.0
  11
 339.319
  21
 394.452
  31
0.0
   0
ARC
   8
LEVEL003
   6
CONTINUOUS
  62
7
  10
 344.778
  20
 404.082
  30
0.0
  40
 2.00000
  50
 271.336
  51
 1.33614
   0
ARC
   8
LEVEL003
   6
CONTINUOUS
  62
7
  10
 344.802
  20
 403.083
  30
0.0
  40
 2.00000
  50
 271.336
  51
 1.33614
   0
ARC
   8
LEVEL003
   6
CONTINUOUS
  62
7
  10
 345.035
  20
 393.085
  30
0.0
  40
 2.00000
  50
 1.33614
  51
 91.3361
   0
ARC
   8
LEVEL003
   6
CONTINUOUS
  62
7
  10
 345.011
  20
 394.085
  30
0.0
  40
 2.00000
  50
 1.33614
  51
 91.3361
   0
LINE
   8
LEVEL001
   6
CONTINUOUS
  62
7
  10
 344.825
  20
 402.083
  30
0.0
  11
 337.145
  21
 401.904
  31
0.0
   0
LINE
   8
LEVEL001
   6
CONTINUOUS
  62
7
  10
 344.848
  20
 401.083
  30
0.0
  11
 337.157
  21
 400.904
  31
0.0
   0
LINE
   8
LEVEL001
   6
CONTINUOUS
  62
7
  10
 344.965
  20
 396.084
  30
0.0
  11
 337.267
  21
 395.905
  31
0.0
   0
LINE
   8
LEVEL001
   6
CONTINUOUS
  62
7
  10
 344.988
  20
 395.085
  30
0.0
  11
 337.308
  21
 394.906
  31
0.0
   0
LINE
   8
LEVEL003
   6
CONTINUOUS
  62
7
  10
 360.610
  20
 382.222
  30
0.0
  11
 360.540
  21
 382.561
  31
0.0
   0
LINE
   8
LEVEL003
   6
CONTINUOUS
  62
7
  10
 360.540
  20
 382.561
  30
0.0
  11
 360.346
  21
 382.893
  31
0.0
   0
LINE
   8
LEVEL003
   6
CONTINUOUS
  62
7
  10
 360.346
  20
 382.893
  30
0.0
  11
 360.031
  21
 383.211
  31
0.0
   0
LINE
   8
LEVEL003
   6
CONTINUOUS
  62
7
  10
 360.031
  20
 383.211
  30
0.0
  11
 359.600
  21
 383.510
  31
0.0
   0
LINE
   8
LEVEL003
   6
CONTINUOUS
  62
7
  10
 359.600
  20
 383.510
  30
0.0
  11
 359.061
  21
 383.787
  31
0.0
   0
LINE
   8
LEVEL003
   6
CONTINUOUS
  62
7
  10
 359.061
  20
 383.787
  30
0.0
  11
 358.421
  21
 384.036
  31
0.0
   0
LINE
   8
LEVEL003
   6
CONTINUOUS
  62
7
  10
 358.421
  20
 384.036
  30
0.0
  11
 357.690
  21
 384.254
  31
0.0
   0
LINE
   8
LEVEL003
   6
CONTINUOUS
  62
7
  10
 357.690
  20
 384.254
  30
0.0
  11
 356.880
  21
 384.438
  31
0.0
   0
LINE
   8
LEVEL003
   6
CONTINUOUS
  62
7
  10
 356.880
  20
 384.438
  30
0.0
  11
 356.003
  21
 384.584
  31
0.0
   0
LINE
   8
LEVEL003
   6
CONTINUOUS
  62
7
  10
 356.003
  20
 384.584
  30
0.0
  11
 355.074
  21
 384.690
  31
0.0
   0
LINE
   8
LEVEL003
   6
CONTINUOUS
  62
7
  10
 355.074
  20
 384.690
  30
0.0
  11
 354.106
  21
 384.755
  31
0.0
   0
LINE
   8
LEVEL003
   6
CONTINUOUS
  62
7
  10
 354.106
  20
 384.755
  30
0.0
  11
 353.114
  21
 384.777
  31
0.0
   0
LINE
   8
LEVEL003
   6
CONTINUOUS
  62
7
  10
 353.114
  20
 384.777
  30
0.0
  11
 352.115
  21
 384.757
  31
0.0
   0
LINE
   8
LEVEL003
   6
CONTINUOUS
  62
7
  10
 352.115
  20
 384.757
  30
0.0
  11
 351.124
  21
 384.694
  31
0.0
   0
LINE
   8
LEVEL003
   6
CONTINUOUS
  62
7
  10
 351.124
  20
 384.694
  30
0.0
  11
 350.156
  21
 384.589
  31
0.0
   0
LINE
   8
LEVEL003
   6
CONTINUOUS
  62
7
  10
 350.156
  20
 384.589
  30
0.0
  11
 349.226
  21
 384.445
  31
0.0
   0
LINE
   8
LEVEL003
   6
CONTINUOUS
  62
7
  10
 349.226
  20
 384.445
  30
0.0
  11
 348.349
  21
 384.263
  31
0.0
   0
LINE
   8
LEVEL003
   6
CONTINUOUS
  62
7
  10
 348.349
  20
 384.263
  30
0.0
  11
 347.539
  21
 384.046
  31
0.0
   0
LINE
   8
LEVEL003
   6
CONTINUOUS
  62
7
  10
 347.539
  20
 384.046
  30
0.0
  11
 346.807
  21
 383.798
  31
0.0
   0
LINE
   8
LEVEL003
   6
CONTINUOUS
  62
7
  10
 346.807
  20
 383.798
  30
0.0
  11
 346.167
  21
 383.523
  31
0.0
   0
LINE
   8
LEVEL003
   6
CONTINUOUS
  62
7
  10
 346.167
  20
 383.523
  30
0.0
  11
 345.627
  21
 383.224
  31
0.0
   0
LINE
   8
LEVEL003
   6
CONTINUOUS
  62
7
  10
 345.627
  20
 383.224
  30
0.0
  11
 345.196
  21
 382.907
  31
0.0
   0
LINE
   8
LEVEL003
   6
CONTINUOUS
  62
7
  10
 345.196
  20
 382.907
  30
0.0
  11
 344.880
  21
 382.576
  31
0.0
   0
LINE
   8
LEVEL003
   6
CONTINUOUS
  62
7
  10
 344.880
  20
 382.576
  30
0.0
  11
 344.685
  21
 382.237
  31
0.0
   0
LINE
   8
LEVEL003
   6
CONTINUOUS
  62
7
  10
 344.685
  20
 382.237
  30
0.0
  11
 344.614
  21
 381.894
  31
0.0
   0
LINE
   8
LEVEL003
   6
CONTINUOUS
  62
7
  10
 344.614
  20
 381.894
  30
0.0
  11
 344.668
  21
 381.554
  31
0.0
   0
LINE
   8
LEVEL003
   6
CONTINUOUS
  62
7
  10
 344.668
  20
 381.554
  30
0.0
  11
 344.846
  21
 381.221
  31
0.0
   0
LINE
   8
LEVEL003
   6
CONTINUOUS
  62
7
  10
 344.846
  20
 381.221
  30
0.0
  11
 345.145
  21
 380.901
  31
0.0
   0
LINE
   8
LEVEL003
   6
CONTINUOUS
  62
7
  10
 345.145
  20
 380.901
  30
0.0
  11
 345.561
  21
 380.599
  31
0.0
   0
LINE
   8
LEVEL003
   6
CONTINUOUS
  62
7
  10
 345.561
  20
 380.599
  30
0.0
  11
 346.086
  21
 380.319
  31
0.0
   0
LINE
   8
LEVEL003
   6
CONTINUOUS
  62
7
  10
 346.086
  20
 380.319
  30
0.0
  11
 346.713
  21
 380.066
  31
0.0
   0
LINE
   8
LEVEL003
   6
CONTINUOUS
  62
7
  10
 346.713
  20
 380.066
  30
0.0
  11
 347.433
  21
 379.843
  31
0.0
   0
LINE
   8
LEVEL003
   6
CONTINUOUS
  62
7
  10
 347.433
  20
 379.843
  30
0.0
  11
 348.233
  21
 379.655
  31
0.0
   0
LINE
   8
LEVEL003
   6
CONTINUOUS
  62
7
  10
 348.233
  20
 379.655
  30
0.0
  11
 349.102
  21
 379.504
  31
0.0
   0
LINE
   8
LEVEL003
   6
CONTINUOUS
  62
7
  10
 349.102
  20
 379.504
  30
0.0
  11
 350.025
  21
 379.392
  31
0.0
   0
LINE
   8
LEVEL003
   6
CONTINUOUS
  62
7
  10
 350.025
  20
 379.392
  30
0.0
  11
 350.989
  21
 379.322
  31
0.0
   0
LINE
   8
LEVEL003
   6
CONTINUOUS
  62
7
  10
 350.989
  20
 379.322
  30
0.0
  11
 351.978
  21
 379.294
  31
0.0
   0
LINE
   8
LEVEL003
   6
CONTINUOUS
  62
7
  10
 351.978
  20
 379.294
  30
0.0
  11
 352.977
  21
 379.309
  31
0.0
   0
LINE
   8
LEVEL003
   6
CONTINUOUS
  62
7
  10
 352.977
  20
 379.309
  30
0.0
  11
 353.970
  21
 379.366
  31
0.0
   0
LINE
   8
LEVEL003
   6
CONTINUOUS
  62
7
  10
 353.970
  20
 379.366
  30
0.0
  11
 354.942
  21
 379.465
  31
0.0
   0
LINE
   8
LEVEL003
   6
CONTINUOUS
  62
7
  10
 354.942
  20
 379.465
  30
0.0
  11
 355.878
  21
 379.604
  31
0.0
   0
LINE
   8
LEVEL003
   6
CONTINUOUS
  62
7
  10
 355.878
  20
 379.604
  30
0.0
  11
 356.763
  21
 379.781
  31
0.0
   0
LINE
   8
LEVEL003
   6
CONTINUOUS
  62
7
  10
 356.763
  20
 379.781
  30
0.0
  11
 357.583
  21
 379.993
  31
0.0
   0
LINE
   8
LEVEL003
   6
CONTINUOUS
  62
7
  10
 357.583
  20
 379.993
  30
0.0
  11
 358.325
  21
 380.238
  31
0.0
   0
LINE
   8
LEVEL003
   6
CONTINUOUS
  62
7
  10
 358.325
  20
 380.238
  30
0.0
  11
 358.978
  21
 380.510
  31
0.0
   0
LINE
   8
LEVEL003
   6
CONTINUOUS
  62
7
  10
 358.978
  20
 380.510
  30
0.0
  11
 359.532
  21
 380.806
  31
0.0
   0
LINE
   8
LEVEL003
   6
CONTINUOUS
  62
7
  10
 359.532
  20
 380.806
  30
0.0
  11
 359.978
  21
 381.121
  31
0.0
   0
LINE
   8
LEVEL003
   6
CONTINUOUS
  62
7
  10
 359.978
  20
 381.121
  30
0.0
  11
 360.309
  21
 381.450
  31
0.0
   0
LINE
   8
LEVEL003
   6
CONTINUOUS
  62
7
  10
 360.309
  20
 381.450
  30
0.0
  11
 360.520
  21
 381.789
  31
0.0
   0
LINE
   8
LEVEL003
   6
CONTINUOUS
  62
7
  10
 360.520
  20
 381.789
  30
0.0
  11
 360.608
  21
 382.131
  31
0.0
   0
LINE
   8
LEVEL003
   6
CONTINUOUS
  62
7
  10
 360.608
  20
 382.131
  30
0.0
  11
 360.610
  21
 382.222
  31
0.0
   0
LINE
   8
LEVEL003
   6
CONTINUOUS
  62
7
  10
 345.854
  20
 383.360
  30
0.0
  11
 345.168
  21
 383.041
  31
0.0
   0
LINE
   8
LEVEL003
   6
CONTINUOUS
  62
7
  10
 345.168
  20
 383.041
  30
0.0
  11
 344.599
  21
 382.698
  31
0.0
   0
LINE
   8
LEVEL003
   6
CONTINUOUS
  62
7
  10
 344.599
  20
 382.698
  30
0.0
  11
 344.154
  21
 382.335
  31
0.0
   0
LINE
   8
LEVEL003
   6
CONTINUOUS
  62
7
  10
 344.154
  20
 382.335
  30
0.0
  11
 343.842
  21
 381.959
  31
0.0
   0
LINE
   8
LEVEL003
   6
CONTINUOUS
  62
7
  10
 343.842
  20
 381.959
  30
0.0
  11
 343.667
  21
 381.576
  31
0.0
   0
LINE
   8
LEVEL003
   6
CONTINUOUS
  62
7
  10
 343.667
  20
 381.576
  30
0.0
  11
 343.632
  21
 381.191
  31
0.0
   0
LINE
   8
LEVEL003
   6
CONTINUOUS
  62
7
  10
 343.632
  20
 381.191
  30
0.0
  11
 343.737
  21
 380.810
  31
0.0
   0
LINE
   8
LEVEL003
   6
CONTINUOUS
  62
7
  10
 343.737
  20
 380.810
  30
0.0
  11
 343.981
  21
 380.439
  31
0.0
   0
LINE
   8
LEVEL003
   6
CONTINUOUS
  62
7
  10
 343.981
  20
 380.439
  30
0.0
  11
 344.359
  21
 380.085
  31
0.0
   0
LINE
   8
LEVEL003
   6
CONTINUOUS
  62
7
  10
 344.359
  20
 380.085
  30
0.0
  11
 344.867
  21
 379.752
  31
0.0
   0
LINE
   8
LEVEL003
   6
CONTINUOUS
  62
7
  10
 344.867
  20
 379.752
  30
0.0
  11
 345.496
  21
 379.446
  31
0.0
   0
LINE
   8
LEVEL003
   6
CONTINUOUS
  62
7
  10
 345.496
  20
 379.446
  30
0.0
  11
 346.236
  21
 379.172
  31
0.0
   0
LINE
   8
LEVEL003
   6
CONTINUOUS
  62
7
  10
 346.236
  20
 379.172
  30
0.0
  11
 347.076
  21
 378.934
  31
0.0
   0
LINE
   8
LEVEL003
   6
CONTINUOUS
  62
7
  10
 347.076
  20
 378.934
  30
0.0
  11
 348.002
  21
 378.735
  31
0.0
   0
LINE
   8
LEVEL003
   6
CONTINUOUS
  62
7
  10
 348.002
  20
 378.735
  30
0.0
  11
 349.000
  21
 378.579
  31
0.0
   0
LINE
   8
LEVEL003
   6
CONTINUOUS
  62
7
  10
 349.000
  20
 378.579
  30
0.0
  11
 350.055
  21
 378.468
  31
0.0
   0
LINE
   8
LEVEL003
   6
CONTINUOUS
  62
7
  10
 350.055
  20
 378.468
  30
0.0
  11
 351.150
  21
 378.404
  31
0.0
   0
LINE
   8
LEVEL003
   6
CONTINUOUS
  62
7
  10
 351.150
  20
 378.404
  30
0.0
  11
 352.269
  21
 378.388
  31
0.0
   0
LINE
   8
LEVEL003
   6
CONTINUOUS
  62
7
  10
 352.269
  20
 378.388
  30
0.0
  11
 353.392
  21
 378.420
  31
0.0
   0
LINE
   8
LEVEL003
   6
CONTINUOUS
  62
7
  10
 353.392
  20
 378.420
  30
0.0
  11
 354.504
  21
 378.499
  31
0.0
   0
LINE
   8
LEVEL003
   6
CONTINUOUS
  62
7
  10
 354.504
  20
 378.499
  30
0.0
  11
 355.586
  21
 378.625
  31
0.0
   0
LINE
   8
LEVEL003
   6
CONTINUOUS
  62
7
  10
 355.586
  20
 378.625
  30
0.0
  11
 356.623
  21
 378.796
  31
0.0
   0
LINE
   8
LEVEL003
   6
CONTINUOUS
  62
7
  10
 356.623
  20
 378.796
  30
0.0
  11
 357.597
  21
 379.008
  31
0.0
   0
LINE
   8
LEVEL003
   6
CONTINUOUS
  62
7
  10
 357.597
  20
 379.008
  30
0.0
  11
 358.493
  21
 379.258
  31
0.0
   0
LINE
   8
LEVEL003
   6
CONTINUOUS
  62
7
  10
 358.493
  20
 379.258
  30
0.0
  11
 359.297
  21
 379.543
  31
0.0
   0
LINE
   8
LEVEL003
   6
CONTINUOUS
  62
7
  10
 359.297
  20
 379.543
  30
0.0
  11
 359.998
  21
 379.858
  31
0.0
   0
LINE
   8
LEVEL003
   6
CONTINUOUS
  62
7
  10
 359.998
  20
 379.858
  30
0.0
  11
 360.584
  21
 380.199
  31
0.0
   0
LINE
   8
LEVEL003
   6
CONTINUOUS
  62
7
  10
 360.584
  20
 380.199
  30
0.0
  11
 361.045
  21
 380.559
  31
0.0
   0
LINE
   8
LEVEL003
   6
CONTINUOUS
  62
7
  10
 361.045
  20
 380.559
  30
0.0
  11
 361.375
  21
 380.934
  31
0.0
   0
LINE
   8
LEVEL003
   6
CONTINUOUS
  62
7
  10
 361.375
  20
 380.934
  30
0.0
  11
 361.568
  21
 381.316
  31
0.0
   0
LINE
   8
LEVEL003
   6
CONTINUOUS
  62
7
  10
 361.568
  20
 381.316
  30
0.0
  11
 361.622
  21
 381.702
  31
0.0
   0
LINE
   8
LEVEL003
   6
CONTINUOUS
  62
7
  10
 361.622
  20
 381.702
  30
0.0
  11
 361.536
  21
 382.083
  31
0.0
   0
LINE
   8
LEVEL003
   6
CONTINUOUS
  62
7
  10
 361.536
  20
 382.083
  30
0.0
  11
 361.310
  21
 382.455
  31
0.0
   0
LINE
   8
LEVEL003
   6
CONTINUOUS
  62
7
  10
 361.310
  20
 382.455
  30
0.0
  11
 360.949
  21
 382.812
  31
0.0
   0
LINE
   8
LEVEL003
   6
CONTINUOUS
  62
7
  10
 360.949
  20
 382.812
  30
0.0
  11
 360.458
  21
 383.148
  31
0.0
   0
LINE
   8
LEVEL003
   6
CONTINUOUS
  62
7
  10
 360.458
  20
 383.148
  30
0.0
  11
 359.845
  21
 383.458
  31
0.0
   0
LINE
   8
LEVEL003
   6
CONTINUOUS
  62
7
  10
 359.845
  20
 383.458
  30
0.0
  11
 359.301
  21
 383.673
  31
0.0
   0
LINE
   8
LEVEL003
   6
CONTINUOUS
  62
7
  10
 343.878
  20
 370.552
  30
0.0
  11
 343.957
  21
 370.170
  31
0.0
   0
LINE
   8
LEVEL003
   6
CONTINUOUS
  62
7
  10
 343.957
  20
 370.170
  30
0.0
  11
 344.175
  21
 369.797
  31
0.0
   0
LINE
   8
LEVEL003
   6
CONTINUOUS
  62
7
  10
 344.175
  20
 369.797
  30
0.0
  11
 344.529
  21
 369.440
  31
0.0
   0
LINE
   8
LEVEL003
   6
CONTINUOUS
  62
7
  10
 344.529
  20
 369.440
  30
0.0
  11
 345.014
  21
 369.102
  31
0.0
   0
LINE
   8
LEVEL003
   6
CONTINUOUS
  62
7
  10
 345.014
  20
 369.102
  30
0.0
  11
 345.621
  21
 368.791
  31
0.0
   0
LINE
   8
LEVEL003
   6
CONTINUOUS
  62
7
  10
 345.621
  20
 368.791
  30
0.0
  11
 346.341
  21
 368.511
  31
0.0
   0
LINE
   8
LEVEL003
   6
CONTINUOUS
  62
7
  10
 346.341
  20
 368.511
  30
0.0
  11
 347.163
  21
 368.265
  31
0.0
   0
LINE
   8
LEVEL003
   6
CONTINUOUS
  62
7
  10
 347.163
  20
 368.265
  30
0.0
  11
 348.074
  21
 368.059
  31
0.0
   0
LINE
   8
LEVEL003
   6
CONTINUOUS
  62
7
  10
 348.074
  20
 368.059
  30
0.0
  11
 349.060
  21
 367.895
  31
0.0
   0
LINE
   8
LEVEL003
   6
CONTINUOUS
  62
7
  10
 349.060
  20
 367.895
  30
0.0
  11
 350.106
  21
 367.775
  31
0.0
   0
LINE
   8
LEVEL003
   6
CONTINUOUS
  62
7
  10
 350.106
  20
 367.775
  30
0.0
  11
 351.195
  21
 367.703
  31
0.0
   0
LINE
   8
LEVEL003
   6
CONTINUOUS
  62
7
  10
 351.195
  20
 367.703
  30
0.0
  11
 352.310
  21
 367.678
  31
0.0
   0
LINE
   8
LEVEL003
   6
CONTINUOUS
  62
7
  10
 352.310
  20
 367.678
  30
0.0
  11
 353.434
  21
 367.701
  31
0.0
   0
LINE
   8
LEVEL003
   6
CONTINUOUS
  62
7
  10
 353.434
  20
 367.701
  30
0.0
  11
 354.550
  21
 367.771
  31
0.0
   0
LINE
   8
LEVEL003
   6
CONTINUOUS
  62
7
  10
 354.550
  20
 367.771
  30
0.0
  11
 355.639
  21
 367.889
  31
0.0
   0
LINE
   8
LEVEL003
   6
CONTINUOUS
  62
7
  10
 355.639
  20
 367.889
  30
0.0
  11
 356.685
  21
 368.051
  31
0.0
   0
LINE
   8
LEVEL003
   6
CONTINUOUS
  62
7
  10
 356.685
  20
 368.051
  30
0.0
  11
 357.671
  21
 368.256
  31
0.0
   0
LINE
   8
LEVEL003
   6
CONTINUOUS
  62
7
  10
 357.671
  20
 368.256
  30
0.0
  11
 358.583
  21
 368.499
  31
0.0
   0
LINE
   8
LEVEL003
   6
CONTINUOUS
  62
7
  10
 358.583
  20
 368.499
  30
0.0
  11
 359.406
  21
 368.778
  31
0.0
   0
LINE
   8
LEVEL003
   6
CONTINUOUS
  62
7
  10
 359.406
  20
 368.778
  30
0.0
  11
 360.127
  21
 369.088
  31
0.0
   0
LINE
   8
LEVEL003
   6
CONTINUOUS
  62
7
  10
 360.127
  20
 369.088
  30
0.0
  11
 360.734
  21
 369.425
  31
0.0
   0
LINE
   8
LEVEL003
   6
CONTINUOUS
  62
7
  10
 360.734
  20
 369.425
  30
0.0
  11
 361.219
  21
 369.781
  31
0.0
   0
LINE
   8
LEVEL003
   6
CONTINUOUS
  62
7
  10
 361.219
  20
 369.781
  30
0.0
  11
 361.574
  21
 370.154
  31
0.0
   0
LINE
   8
LEVEL003
   6
CONTINUOUS
  62
7
  10
 361.574
  20
 370.154
  30
0.0
  11
 361.793
  21
 370.535
  31
0.0
   0
LINE
   8
LEVEL003
   6
CONTINUOUS
  62
7
  10
 361.793
  20
 370.535
  30
0.0
  11
 361.873
  21
 370.921
  31
0.0
   0
LINE
   8
LEVEL003
   6
CONTINUOUS
  62
7
  10
 361.873
  20
 370.921
  30
0.0
  11
 361.873
  21
 370.972
  31
0.0
   0
LINE
   8
LEVEL003
   6
CONTINUOUS
  62
7
  10
 343.628
  20
 381.262
  30
0.0
  11
 343.878
  21
 370.552
  31
0.0
   0
LINE
   8
LEVEL003
   6
CONTINUOUS
  62
7
  10
 361.623
  20
 381.681
  30
0.0
  11
 361.873
  21
 370.972
  31
0.0
   0
LINE
   8
LEVEL003
   6
CONTINUOUS
  62
7
  10
 380.605
  20
 382.688
  30
0.0
  11
 380.534
  21
 383.028
  31
0.0
   0
LINE
   8
LEVEL003
   6
CONTINUOUS
  62
7
  10
 380.534
  20
 383.028
  30
0.0
  11
 380.340
  21
 383.359
  31
0.0
   0
LINE
   8
LEVEL003
   6
CONTINUOUS
  62
7
  10
 380.340
  20
 383.359
  30
0.0
  11
 380.026
  21
 383.677
  31
0.0
   0
LINE
   8
LEVEL003
   6
CONTINUOUS
  62
7
  10
 380.026
  20
 383.677
  30
0.0
  11
 379.595
  21
 383.977
  31
0.0
   0
LINE
   8
LEVEL003
   6
CONTINUOUS
  62
7
  10
 379.595
  20
 383.977
  30
0.0
  11
 379.055
  21
 384.253
  31
0.0
   0
LINE
   8
LEVEL003
   6
CONTINUOUS
  62
7
  10
 379.055
  20
 384.253
  30
0.0
  11
 378.415
  21
 384.503
  31
0.0
   0
LINE
   8
LEVEL003
   6
CONTINUOUS
  62
7
  10
 378.415
  20
 384.503
  30
0.0
  11
 377.684
  21
 384.721
  31
0.0
   0
LINE
   8
LEVEL003
   6
CONTINUOUS
  62
7
  10
 377.684
  20
 384.721
  30
0.0
  11
 376.874
  21
 384.904
  31
0.0
   0
LINE
   8
LEVEL003
   6
CONTINUOUS
  62
7
  10
 376.874
  20
 384.904
  30
0.0
  11
 375.998
  21
 385.050
  31
0.0
   0
LINE
   8
LEVEL003
   6
CONTINUOUS
  62
7
  10
 375.998
  20
 385.050
  30
0.0
  11
 375.068
  21
 385.156
  31
0.0
   0
LINE
   8
LEVEL003
   6
CONTINUOUS
  62
7
  10
 375.068
  20
 385.156
  30
0.0
  11
 374.100
  21
 385.221
  31
0.0
   0
LINE
   8
LEVEL003
   6
CONTINUOUS
  62
7
  10
 374.100
  20
 385.221
  30
0.0
  11
 373.109
  21
 385.243
  31
0.0
   0
LINE
   8
LEVEL003
   6
CONTINUOUS
  62
7
  10
 373.109
  20
 385.243
  30
0.0
  11
 372.110
  21
 385.223
  31
0.0
   0
LINE
   8
LEVEL003
   6
CONTINUOUS
  62
7
  10
 372.110
  20
 385.223
  30
0.0
  11
 371.118
  21
 385.160
  31
0.0
   0
LINE
   8
LEVEL003
   6
CONTINUOUS
  62
7
  10
 371.118
  20
 385.160
  30
0.0
  11
 370.150
  21
 385.056
  31
0.0
   0
LINE
   8
LEVEL003
   6
CONTINUOUS
  62
7
  10
 370.150
  20
 385.056
  30
0.0
  11
 369.221
  21
 384.911
  31
0.0
   0
LINE
   8
LEVEL003
   6
CONTINUOUS
  62
7
  10
 369.221
  20
 384.911
  30
0.0
  11
 368.344
  21
 384.729
  31
0.0
   0
LINE
   8
LEVEL003
   6
CONTINUOUS
  62
7
  10
 368.344
  20
 384.729
  30
0.0
  11
 367.533
  21
 384.513
  31
0.0
   0
LINE
   8
LEVEL003
   6
CONTINUOUS
  62
7
  10
 367.533
  20
 384.513
  30
0.0
  11
 366.802
  21
 384.265
  31
0.0
   0
LINE
   8
LEVEL003
   6
CONTINUOUS
  62
7
  10
 366.802
  20
 384.265
  30
0.0
  11
 366.161
  21
 383.989
  31
0.0
   0
LINE
   8
LEVEL003
   6
CONTINUOUS
  62
7
  10
 366.161
  20
 383.989
  30
0.0
  11
 365.621
  21
 383.690
  31
0.0
   0
LINE
   8
LEVEL003
   6
CONTINUOUS
  62
7
  10
 365.621
  20
 383.690
  30
0.0
  11
 365.190
  21
 383.373
  31
0.0
   0
LINE
   8
LEVEL003
   6
CONTINUOUS
  62
7
  10
 365.190
  20
 383.373
  30
0.0
  11
 364.875
  21
 383.042
  31
0.0
   0
LINE
   8
LEVEL003
   6
CONTINUOUS
  62
7
  10
 364.875
  20
 383.042
  30
0.0
  11
 364.680
  21
 382.703
  31
0.0
   0
LINE
   8
LEVEL003
   6
CONTINUOUS
  62
7
  10
 364.680
  20
 382.703
  30
0.0
  11
 364.609
  21
 382.360
  31
0.0
   0
LINE
   8
LEVEL003
   6
CONTINUOUS
  62
7
  10
 364.609
  20
 382.360
  30
0.0
  11
 364.663
  21
 382.020
  31
0.0
   0
LINE
   8
LEVEL003
   6
CONTINUOUS
  62
7
  10
 364.663
  20
 382.020
  30
0.0
  11
 364.841
  21
 381.687
  31
0.0
   0
LINE
   8
LEVEL003
   6
CONTINUOUS
  62
7
  10
 364.841
  20
 381.687
  30
0.0
  11
 365.140
  21
 381.367
  31
0.0
   0
LINE
   8
LEVEL003
   6
CONTINUOUS
  62
7
  10
 365.140
  20
 381.367
  30
0.0
  11
 365.555
  21
 381.065
  31
0.0
   0
LINE
   8
LEVEL003
   6
CONTINUOUS
  62
7
  10
 365.555
  20
 381.065
  30
0.0
  11
 366.081
  21
 380.785
  31
0.0
   0
LINE
   8
LEVEL003
   6
CONTINUOUS
  62
7
  10
 366.081
  20
 380.785
  30
0.0
  11
 366.708
  21
 380.532
  31
0.0
   0
LINE
   8
LEVEL003
   6
CONTINUOUS
  62
7
  10
 366.708
  20
 380.532
  30
0.0
  11
 367.427
  21
 380.310
  31
0.0
   0
LINE
   8
LEVEL003
   6
CONTINUOUS
  62
7
  10
 367.427
  20
 380.310
  30
0.0
  11
 368.228
  21
 380.121
  31
0.0
   0
LINE
   8
LEVEL003
   6
CONTINUOUS
  62
7
  10
 368.228
  20
 380.121
  30
0.0
  11
 369.096
  21
 379.970
  31
0.0
   0
LINE
   8
LEVEL003
   6
CONTINUOUS
  62
7
  10
 369.096
  20
 379.970
  30
0.0
  11
 370.020
  21
 379.859
  31
0.0
   0
LINE
   8
LEVEL003
   6
CONTINUOUS
  62
7
  10
 370.020
  20
 379.859
  30
0.0
  11
 370.983
  21
 379.788
  31
0.0
   0
LINE
   8
LEVEL003
   6
CONTINUOUS
  62
7
  10
 370.983
  20
 379.788
  30
0.0
  11
 371.972
  21
 379.760
  31
0.0
   0
LINE
   8
LEVEL003
   6
CONTINUOUS
  62
7
  10
 371.972
  20
 379.760
  30
0.0
  11
 372.971
  21
 379.775
  31
0.0
   0
LINE
   8
LEVEL003
   6
CONTINUOUS
  62
7
  10
 372.971
  20
 379.775
  30
0.0
  11
 373.965
  21
 379.832
  31
0.0
   0
LINE
   8
LEVEL003
   6
CONTINUOUS
  62
7
  10
 373.965
  20
 379.832
  30
0.0
  11
 374.937
  21
 379.931
  31
0.0
   0
LINE
   8
LEVEL003
   6
CONTINUOUS
  62
7
  10
 374.937
  20
 379.931
  30
0.0
  11
 375.872
  21
 380.071
  31
0.0
   0
LINE
   8
LEVEL003
   6
CONTINUOUS
  62
7
  10
 375.872
  20
 380.071
  30
0.0
  11
 376.757
  21
 380.248
  31
0.0
   0
LINE
   8
LEVEL003
   6
CONTINUOUS
  62
7
  10
 376.757
  20
 380.248
  30
0.0
  11
 377.577
  21
 380.460
  31
0.0
   0
LINE
   8
LEVEL003
   6
CONTINUOUS
  62
7
  10
 377.577
  20
 380.460
  30
0.0
  11
 378.320
  21
 380.704
  31
0.0
   0
LINE
   8
LEVEL003
   6
CONTINUOUS
  62
7
  10
 378.320
  20
 380.704
  30
0.0
  11
 378.973
  21
 380.976
  31
0.0
   0
LINE
   8
LEVEL003
   6
CONTINUOUS
  62
7
  10
 378.973
  20
 380.976
  30
0.0
  11
 379.527
  21
 381.272
  31
0.0
   0
LINE
   8
LEVEL003
   6
CONTINUOUS
  62
7
  10
 379.527
  20
 381.272
  30
0.0
  11
 379.973
  21
 381.587
  31
0.0
   0
LINE
   8
LEVEL003
   6
CONTINUOUS
  62
7
  10
 379.973
  20
 381.587
  30
0.0
  11
 380.304
  21
 381.916
  31
0.0
   0
LINE
   8
LEVEL003
   6
CONTINUOUS
  62
7
  10
 380.304
  20
 381.916
  30
0.0
  11
 380.515
  21
 382.255
  31
0.0
   0
LINE
   8
LEVEL003
   6
CONTINUOUS
  62
7
  10
 380.515
  20
 382.255
  30
0.0
  11
 380.602
  21
 382.597
  31
0.0
   0
LINE
   8
LEVEL003
   6
CONTINUOUS
  62
7
  10
 380.602
  20
 382.597
  30
0.0
  11
 380.605
  21
 382.688
  31
0.0
   0
LINE
   8
LEVEL003
   6
CONTINUOUS
  62
7
  10
 365.849
  20
 383.826
  30
0.0
  11
 365.163
  21
 383.507
  31
0.0
   0
LINE
   8
LEVEL003
   6
CONTINUOUS
  62
7
  10
 365.163
  20
 383.507
  30
0.0
  11
 364.593
  21
 383.164
  31
0.0
   0
LINE
   8
LEVEL003
   6
CONTINUOUS
  62
7
  10
 364.593
  20
 383.164
  30
0.0
  11
 364.149
  21
 382.802
  31
0.0
   0
LINE
   8
LEVEL003
   6
CONTINUOUS
  62
7
  10
 364.149
  20
 382.802
  30
0.0
  11
 363.837
  21
 382.426
  31
0.0
   0
LINE
   8
LEVEL003
   6
CONTINUOUS
  62
7
  10
 363.837
  20
 382.426
  30
0.0
  11
 363.662
  21
 382.042
  31
0.0
   0
LINE
   8
LEVEL003
   6
CONTINUOUS
  62
7
  10
 363.662
  20
 382.042
  30
0.0
  11
 363.626
  21
 381.657
  31
0.0
   0
LINE
   8
LEVEL003
   6
CONTINUOUS
  62
7
  10
 363.626
  20
 381.657
  30
0.0
  11
 363.732
  21
 381.276
  31
0.0
   0
LINE
   8
LEVEL003
   6
CONTINUOUS
  62
7
  10
 363.732
  20
 381.276
  30
0.0
  11
 363.975
  21
 380.906
  31
0.0
   0
LINE
   8
LEVEL003
   6
CONTINUOUS
  62
7
  10
 363.975
  20
 380.906
  30
0.0
  11
 364.354
  21
 380.551
  31
0.0
   0
LINE
   8
LEVEL003
   6
CONTINUOUS
  62
7
  10
 364.354
  20
 380.551
  30
0.0
  11
 364.862
  21
 380.219
  31
0.0
   0
LINE
   8
LEVEL003
   6
CONTINUOUS
  62
7
  10
 364.862
  20
 380.219
  30
0.0
  11
 365.490
  21
 379.913
  31
0.0
   0
LINE
   8
LEVEL003
   6
CONTINUOUS
  62
7
  10
 365.490
  20
 379.913
  30
0.0
  11
 366.230
  21
 379.639
  31
0.0
   0
LINE
   8
LEVEL003
   6
CONTINUOUS
  62
7
  10
 366.230
  20
 379.639
  30
0.0
  11
 367.070
  21
 379.400
  31
0.0
   0
LINE
   8
LEVEL003
   6
CONTINUOUS
  62
7
  10
 367.070
  20
 379.400
  30
0.0
  11
 367.996
  21
 379.201
  31
0.0
   0
LINE
   8
LEVEL003
   6
CONTINUOUS
  62
7
  10
 367.996
  20
 379.201
  30
0.0
  11
 368.995
  21
 379.045
  31
0.0
   0
LINE
   8
LEVEL003
   6
CONTINUOUS
  62
7
  10
 368.995
  20
 379.045
  30
0.0
  11
 370.050
  21
 378.934
  31
0.0
   0
LINE
   8
LEVEL003
   6
CONTINUOUS
  62
7
  10
 370.050
  20
 378.934
  30
0.0
  11
 371.145
  21
 378.870
  31
0.0
   0
LINE
   8
LEVEL003
   6
CONTINUOUS
  62
7
  10
 371.145
  20
 378.870
  30
0.0
  11
 372.263
  21
 378.854
  31
0.0
   0
LINE
   8
LEVEL003
   6
CONTINUOUS
  62
7
  10
 372.263
  20
 378.854
  30
0.0
  11
 373.387
  21
 378.886
  31
0.0
   0
LINE
   8
LEVEL003
   6
CONTINUOUS
  62
7
  10
 373.387
  20
 378.886
  30
0.0
  11
 374.499
  21
 378.966
  31
0.0
   0
LINE
   8
LEVEL003
   6
CONTINUOUS
  62
7
  10
 374.499
  20
 378.966
  30
0.0
  11
 375.581
  21
 379.092
  31
0.0
   0
LINE
   8
LEVEL003
   6
CONTINUOUS
  62
7
  10
 375.581
  20
 379.092
  30
0.0
  11
 376.617
  21
 379.262
  31
0.0
   0
LINE
   8
LEVEL003
   6
CONTINUOUS
  62
7
  10
 376.617
  20
 379.262
  30
0.0
  11
 377.591
  21
 379.474
  31
0.0
   0
LINE
   8
LEVEL003
   6
CONTINUOUS
  62
7
  10
 377.591
  20
 379.474
  30
0.0
  11
 378.487
  21
 379.725
  31
0.0
   0
LINE
   8
LEVEL003
   6
CONTINUOUS
  62
7
  10
 378.487
  20
 379.725
  30
0.0
  11
 379.292
  21
 380.010
  31
0.0
   0
LINE
   8
LEVEL003
   6
CONTINUOUS
  62
7
  10
 379.292
  20
 380.010
  30
0.0
  11
 379.993
  21
 380.325
  31
0.0
   0
LINE
   8
LEVEL003
   6
CONTINUOUS
  62
7
  10
 379.993
  20
 380.325
  30
0.0
  11
 380.578
  21
 380.665
  31
0.0
   0
LINE
   8
LEVEL003
   6
CONTINUOUS
  62
7
  10
 380.578
  20
 380.665
  30
0.0
  11
 381.040
  21
 381.025
  31
0.0
   0
LINE
   8
LEVEL003
   6
CONTINUOUS
  62
7
  10
 381.040
  20
 381.025
  30
0.0
  11
 381.370
  21
 381.400
  31
0.0
   0
LINE
   8
LEVEL003
   6
CONTINUOUS
  62
7
  10
 381.370
  20
 381.400
  30
0.0
  11
 381.563
  21
 381.783
  31
0.0
   0
LINE
   8
LEVEL003
   6
CONTINUOUS
  62
7
  10
 381.563
  20
 381.783
  30
0.0
  11
 381.617
  21
 382.168
  31
0.0
   0
LINE
   8
LEVEL003
   6
CONTINUOUS
  62
7
  10
 381.617
  20
 382.168
  30
0.0
  11
 381.530
  21
 382.550
  31
0.0
   0
LINE
   8
LEVEL003
   6
CONTINUOUS
  62
7
  10
 381.530
  20
 382.550
  30
0.0
  11
 381.305
  21
 382.922
  31
0.0
   0
LINE
   8
LEVEL003
   6
CONTINUOUS
  62
7
  10
 381.305
  20
 382.922
  30
0.0
  11
 380.944
  21
 383.279
  31
0.0
   0
LINE
   8
LEVEL003
   6
CONTINUOUS
  62
7
  10
 380.944
  20
 383.279
  30
0.0
  11
 380.453
  21
 383.615
  31
0.0
   0
LINE
   8
LEVEL003
   6
CONTINUOUS
  62
7
  10
 380.453
  20
 383.615
  30
0.0
  11
 379.840
  21
 383.924
  31
0.0
   0
LINE
   8
LEVEL003
   6
CONTINUOUS
  62
7
  10
 379.840
  20
 383.924
  30
0.0
  11
 379.296
  21
 384.140
  31
0.0
   0
LINE
   8
LEVEL003
   6
CONTINUOUS
  62
7
  10
 363.622
  20
 381.728
  30
0.0
  11
 363.872
  21
 371.019
  31
0.0
   0
LINE
   8
LEVEL003
   6
CONTINUOUS
  62
7
  10
 363.872
  20
 371.019
  30
0.0
  11
 363.951
  21
 370.636
  31
0.0
   0
LINE
   8
LEVEL003
   6
CONTINUOUS
  62
7
  10
 363.951
  20
 370.636
  30
0.0
  11
 364.170
  21
 370.264
  31
0.0
   0
LINE
   8
LEVEL003
   6
CONTINUOUS
  62
7
  10
 364.170
  20
 370.264
  30
0.0
  11
 364.524
  21
 369.906
  31
0.0
   0
LINE
   8
LEVEL003
   6
CONTINUOUS
  62
7
  10
 364.524
  20
 369.906
  30
0.0
  11
 365.008
  21
 369.569
  31
0.0
   0
LINE
   8
LEVEL003
   6
CONTINUOUS
  62
7
  10
 365.008
  20
 369.569
  30
0.0
  11
 365.615
  21
 369.258
  31
0.0
   0
LINE
   8
LEVEL003
   6
CONTINUOUS
  62
7
  10
 365.615
  20
 369.258
  30
0.0
  11
 366.335
  21
 368.977
  31
0.0
   0
LINE
   8
LEVEL003
   6
CONTINUOUS
  62
7
  10
 366.335
  20
 368.977
  30
0.0
  11
 367.157
  21
 368.732
  31
0.0
   0
LINE
   8
LEVEL003
   6
CONTINUOUS
  62
7
  10
 367.157
  20
 368.732
  30
0.0
  11
 368.069
  21
 368.525
  31
0.0
   0
LINE
   8
LEVEL003
   6
CONTINUOUS
  62
7
  10
 368.069
  20
 368.525
  30
0.0
  11
 369.055
  21
 368.361
  31
0.0
   0
LINE
   8
LEVEL003
   6
CONTINUOUS
  62
7
  10
 369.055
  20
 368.361
  30
0.0
  11
 370.101
  21
 368.242
  31
0.0
   0
LINE
   8
LEVEL003
   6
CONTINUOUS
  62
7
  10
 370.101
  20
 368.242
  30
0.0
  11
 371.190
  21
 368.169
  31
0.0
   0
LINE
   8
LEVEL003
   6
CONTINUOUS
  62
7
  10
 371.190
  20
 368.169
  30
0.0
  11
 372.305
  21
 368.144
  31
0.0
   0
LINE
   8
LEVEL003
   6
CONTINUOUS
  62
7
  10
 372.305
  20
 368.144
  30
0.0
  11
 373.429
  21
 368.167
  31
0.0
   0
LINE
   8
LEVEL003
   6
CONTINUOUS
  62
7
  10
 373.429
  20
 368.167
  30
0.0
  11
 374.544
  21
 368.238
  31
0.0
   0
LINE
   8
LEVEL003
   6
CONTINUOUS
  62
7
  10
 374.544
  20
 368.238
  30
0.0
  11
 375.633
  21
 368.355
  31
0.0
   0
LINE
   8
LEVEL003
   6
CONTINUOUS
  62
7
  10
 375.633
  20
 368.355
  30
0.0
  11
 376.679
  21
 368.517
  31
0.0
   0
LINE
   8
LEVEL003
   6
CONTINUOUS
  62
7
  10
 376.679
  20
 368.517
  30
0.0
  11
 377.666
  21
 368.722
  31
0.0
   0
LINE
   8
LEVEL003
   6
CONTINUOUS
  62
7
  10
 377.666
  20
 368.722
  30
0.0
  11
 378.578
  21
 368.966
  31
0.0
   0
LINE
   8
LEVEL003
   6
CONTINUOUS
  62
7
  10
 378.578
  20
 368.966
  30
0.0
  11
 379.400
  21
 369.245
  31
0.0
   0
LINE
   8
LEVEL003
   6
CONTINUOUS
  62
7
  10
 379.400
  20
 369.245
  30
0.0
  11
 380.121
  21
 369.555
  31
0.0
   0
LINE
   8
LEVEL003
   6
CONTINUOUS
  62
7
  10
 380.121
  20
 369.555
  30
0.0
  11
 380.729
  21
 369.891
  31
0.0
   0
LINE
   8
LEVEL003
   6
CONTINUOUS
  62
7
  10
 380.729
  20
 369.891
  30
0.0
  11
 381.214
  21
 370.248
  31
0.0
   0
LINE
   8
LEVEL003
   6
CONTINUOUS
  62
7
  10
 381.214
  20
 370.248
  30
0.0
  11
 381.568
  21
 370.620
  31
0.0
   0
LINE
   8
LEVEL003
   6
CONTINUOUS
  62
7
  10
 381.568
  20
 370.620
  30
0.0
  11
 381.787
  21
 371.002
  31
0.0
   0
LINE
   8
LEVEL003
   6
CONTINUOUS
  62
7
  10
 381.787
  20
 371.002
  30
0.0
  11
 381.867
  21
 371.387
  31
0.0
   0
LINE
   8
LEVEL003
   6
CONTINUOUS
  62
7
  10
 381.867
  20
 371.387
  30
0.0
  11
 381.867
  21
 371.438
  31
0.0
   0
ARC
   8
LEVEL001
   6
CONTINUOUS
  62
7
  10
 356.661
  20
 384.854
  30
0.0
  40
 3.00000
  50
 335.907
  51
 181.606
   0
LINE
   8
LEVEL001
   6
CONTINUOUS
  62
7
  10
 361.147
  20
 382.636
  30
0.0
  11
 364.094
  21
 388.028
  31
0.0
   0
LINE
   8
LEVEL001
   6
CONTINUOUS
  62
7
  10
 364.094
  20
 388.028
  30
0.0
  11
 369.866
  21
 388.163
  31
0.0
   0
LINE
   8
LEVEL001
   6
CONTINUOUS
  62
7
  10
 369.866
  20
 388.163
  30
0.0
  11
 367.933
  21
 384.626
  31
0.0
   0
LINE
   8
LEVEL001
   6
CONTINUOUS
  62
7
  10
 363.709
  20
 378.017
  30
0.0
  11
 361.710
  21
 377.970
  31
0.0
   0
LINE
   8
LEVEL003
   6
CONTINUOUS
  62
7
  10
 376.910
  20
 390.998
  30
0.0
  11
 377.053
  21
 384.868
  31
0.0
   0
ARC
   8
LEVEL003
   6
CONTINUOUS
  62
7
  10
 337.181
  20
 378.896
  30
0.0
  40
 5.00000
  50
 299.970
  51
 1.33614
   0
LINE
   8
LEVEL003
   6
CONTINUOUS
  62
7
  10
 340.175
  20
 372.683
  30
0.0
  11
 340.938
  21
 370.105
  31
0.0
   0
LINE
   8
LEVEL003
   6
CONTINUOUS
  62
7
  10
 372.965
  20
 367.125
  30
0.0
  11
 374.460
  21
 367.192
  31
0.0
   0
LINE
   8
LEVEL003
   6
CONTINUOUS
  62
7
  10
 374.460
  20
 367.192
  30
0.0
  11
 375.931
  21
 367.322
  31
0.0
   0
LINE
   8
LEVEL003
   6
CONTINUOUS
  62
7
  10
 375.931
  20
 367.322
  30
0.0
  11
 377.353
  21
 367.513
  31
0.0
   0
LINE
   8
LEVEL003
   6
CONTINUOUS
  62
7
  10
 377.353
  20
 367.513
  30
0.0
  11
 378.705
  21
 367.762
  31
0.0
   0
LINE
   8
LEVEL003
   6
CONTINUOUS
  62
7
  10
 378.705
  20
 367.762
  30
0.0
  11
 379.967
  21
 368.065
  31
0.0
   0
LINE
   8
LEVEL003
   6
CONTINUOUS
  62
7
  10
 379.967
  20
 368.065
  30
0.0
  11
 381.117
  21
 368.417
  31
0.0
   0
LINE
   8
LEVEL003
   6
CONTINUOUS
  62
7
  10
 381.117
  20
 368.417
  30
0.0
  11
 382.139
  21
 368.813
  31
0.0
   0
LINE
   8
LEVEL003
   6
CONTINUOUS
  62
7
  10
 382.139
  20
 368.813
  30
0.0
  11
 383.016
  21
 369.247
  31
0.0
   0
LINE
   8
LEVEL003
   6
CONTINUOUS
  62
7
  10
 383.016
  20
 369.247
  30
0.0
  11
 383.735
  21
 369.712
  31
0.0
   0
LINE
   8
LEVEL003
   6
CONTINUOUS
  62
7
  10
 383.735
  20
 369.712
  30
0.0
  11
 384.285
  21
 370.200
  31
0.0
   0
LINE
   8
LEVEL003
   6
CONTINUOUS
  62
7
  10
 384.285
  20
 370.200
  30
0.0
  11
 384.656
  21
 370.705
  31
0.0
   0
LINE
   8
LEVEL003
   6
CONTINUOUS
  62
7
  10
 384.656
  20
 370.705
  30
0.0
  11
 384.824
  21
 371.128
  31
0.0
   0
LINE
   8
LEVEL003
   6
CONTINUOUS
  62
7
  10
 361.784
  20
 374.793
  30
0.0
  11
 363.783
  21
 374.839
  31
0.0
   0
LINE
   8
LEVEL003
   6
CONTINUOUS
  62
7
  10
 340.711
  20
 374.786
  30
0.0
  11
 343.780
  21
 374.734
  31
0.0
   0
LINE
   8
LEVEL003
   6
CONTINUOUS
  62
7
  10
 341.919
  20
 390.182
  30
0.0
  11
 342.180
  21
 379.012
  31
0.0
   0
LINE
   8
LEVEL003
   6
CONTINUOUS
  62
7
  10
 340.938
  20
 370.105
  30
0.0
  11
 341.182
  21
 369.604
  31
0.0
   0
LINE
   8
LEVEL003
   6
CONTINUOUS
  62
7
  10
 341.182
  20
 369.604
  30
0.0
  11
 341.607
  21
 369.121
  31
0.0
   0
LINE
   8
LEVEL003
   6
CONTINUOUS
  62
7
  10
 341.607
  20
 369.121
  30
0.0
  11
 342.208
  21
 368.663
  31
0.0
   0
LINE
   8
LEVEL003
   6
CONTINUOUS
  62
7
  10
 342.208
  20
 368.663
  30
0.0
  11
 342.976
  21
 368.239
  31
0.0
   0
LINE
   8
LEVEL003
   6
CONTINUOUS
  62
7
  10
 342.976
  20
 368.239
  30
0.0
  11
 343.898
  21
 367.854
  31
0.0
   0
LINE
   8
LEVEL003
   6
CONTINUOUS
  62
7
  10
 343.898
  20
 367.854
  30
0.0
  11
 344.961
  21
 367.514
  31
0.0
   0
LINE
   8
LEVEL003
   6
CONTINUOUS
  62
7
  10
 344.961
  20
 367.514
  30
0.0
  11
 346.147
  21
 367.225
  31
0.0
   0
LINE
   8
LEVEL003
   6
CONTINUOUS
  62
7
  10
 346.147
  20
 367.225
  30
0.0
  11
 347.437
  21
 366.991
  31
0.0
   0
LINE
   8
LEVEL003
   6
CONTINUOUS
  62
7
  10
 347.437
  20
 366.991
  30
0.0
  11
 348.813
  21
 366.816
  31
0.0
   0
LINE
   8
LEVEL003
   6
CONTINUOUS
  62
7
  10
 348.813
  20
 366.816
  30
0.0
  11
 350.252
  21
 366.702
  31
0.0
   0
LINE
   8
LEVEL003
   6
CONTINUOUS
  62
7
  10
 350.252
  20
 366.702
  30
0.0
  11
 351.732
  21
 366.652
  31
0.0
   0
LINE
   8
LEVEL003
   6
CONTINUOUS
  62
7
  10
 351.732
  20
 366.652
  30
0.0
  11
 352.971
  21
 366.659
  31
0.0
   0
ARC
   8
LEVEL003
   6
CONTINUOUS
  62
7
  10
 377.309
  20
 395.338
  30
0.0
  40
 2.00000
  50
 301.336
  51
 1.33614
   0
LINE
   8
LEVEL003
   6
CONTINUOUS
  62
7
  10
 381.618
  20
 382.148
  30
0.0
  11
 381.867
  21
 371.438
  31
0.0
   0
LINE
   8
LEVEL003
   6
CONTINUOUS
  62
7
  10
 385.447
  20
 373.660
  30
0.0
  11
 384.824
  21
 371.128
  31
0.0
   0
LINE
   8
LEVEL003
   6
CONTINUOUS
  62
7
  10
 385.996
  20
 375.889
  30
0.0
  11
 381.770
  21
 375.620
  31
0.0
   0
ARC
   8
LEVEL003
   6
CONTINUOUS
  62
7
  10
 388.360
  20
 372.943
  30
0.0
  40
 3.00000
  50
 111.341
  51
 166.176
   0
LINE
   8
LEVEL003
   6
CONTINUOUS
  62
7
  10
 373.690
  20
 336.047
  30
0.0
  11
 375.717
  21
 334.940
  31
0.0
   0
LINE
   8
LEVEL003
   6
CONTINUOUS
  62
7
  10
 375.717
  20
 334.940
  30
0.0
  11
 375.771
  21
 332.631
  31
0.0
   0
LINE
   8
LEVEL003
   6
CONTINUOUS
  62
7
  10
 375.771
  20
 332.631
  30
0.0
  11
 373.798
  21
 331.430
  31
0.0
   0
LINE
   8
LEVEL003
   6
CONTINUOUS
  62
7
  10
 373.798
  20
 331.430
  30
0.0
  11
 371.772
  21
 332.538
  31
0.0
   0
LINE
   8
LEVEL003
   6
CONTINUOUS
  62
7
  10
 371.772
  20
 332.538
  30
0.0
  11
 371.718
  21
 334.846
  31
0.0
   0
LINE
   8
LEVEL003
   6
CONTINUOUS
  62
7
  10
 371.718
  20
 334.846
  30
0.0
  11
 373.690
  21
 336.047
  31
0.0
   0
CIRCLE
   8
LEVEL003
   6
CONTINUOUS
  62
7
  10
 373.744
  20
 333.739
  30
0.0
  40
 4.00000
   0
LINE
   8
LEVEL003
   6
CONTINUOUS
  62
7
  10
 353.696
  20
 335.581
  30
0.0
  11
 355.722
  21
 334.473
  31
0.0
   0
LINE
   8
LEVEL003
   6
CONTINUOUS
  62
7
  10
 355.722
  20
 334.473
  30
0.0
  11
 355.776
  21
 332.164
  31
0.0
   0
LINE
   8
LEVEL003
   6
CONTINUOUS
  62
7
  10
 355.776
  20
 332.164
  30
0.0
  11
 353.803
  21
 330.963
  31
0.0
   0
LINE
   8
LEVEL003
   6
CONTINUOUS
  62
7
  10
 353.803
  20
 330.963
  30
0.0
  11
 351.777
  21
 332.071
  31
0.0
   0
LINE
   8
LEVEL003
   6
CONTINUOUS
  62
7
  10
 351.777
  20
 332.071
  30
0.0
  11
 351.723
  21
 334.380
  31
0.0
   0
LINE
   8
LEVEL003
   6
CONTINUOUS
  62
7
  10
 351.723
  20
 334.380
  30
0.0
  11
 353.696
  21
 335.581
  31
0.0
   0
CIRCLE
   8
LEVEL003
   6
CONTINUOUS
  62
7
  10
 353.750
  20
 333.272
  30
0.0
  40
 4.00000
   0
CIRCLE
   8
LEVEL003
   6
CONTINUOUS
  62
3
  10
 353.750
  20
 333.272
  30
0.0
  40
 3.37500
   0
CIRCLE
   8
LEVEL003
   6
CONTINUOUS
  62
3
  10
 373.744
  20
 333.739
  30
0.0
  40
 3.37500
   0
ARC
   8
LEVEL003
   6
CONTINUOUS
  62
7
  10
 335.815
  20
 377.866
  30
0.0
  40
 5.00000
  50
 271.336
  51
 314.010
   0
LINE
   8
LEVEL003
   6
CONTINUOUS
  62
7
  10
 340.797
  20
 337.131
  30
0.0
  11
 351.548
  21
 349.514
  31
0.0
   0
ARC
   8
LEVEL003
   6
CONTINUOUS
  62
7
  10
 346.262
  20
 354.103
  30
0.0
  40
 7.00000
  50
 319.037
  51
 42.1186
   0
LINE
   8
LEVEL003
   6
CONTINUOUS
  62
7
  10
 353.913
  20
 326.274
  30
0.0
  11
 373.907
  21
 326.740
  31
0.0
   0
LINE
   8
LEVEL003
   6
CONTINUOUS
  62
7
  10
 353.586
  20
 340.270
  30
0.0
  11
 373.581
  21
 340.737
  31
0.0
   0
ARC
   8
LEVEL003
   6
CONTINUOUS
  62
7
  10
 373.744
  20
 333.739
  30
0.0
  40
 7.00000
  50
 271.336
  51
 91.3360
   0
ARC
   8
LEVEL003
   6
CONTINUOUS
  62
7
  10
 353.750
  20
 333.272
  30
0.0
  40
 7.00000
  50
 91.3360
  51
 271.336
   0
LINE
   8
LEVEL003
   6
CONTINUOUS
  62
7
  10
 346.142
  20
 364.674
  30
0.0
  11
 351.454
  21
 358.798
  31
0.0
   0
LINE
   8
LEVEL001
   6
CONTINUOUS
  62
7
  10
 322.708
  20
 377.560
  30
0.0
  11
 322.629
  21
 380.956
  31
0.0
   0
ARC
   8
LEVEL001
   6
CONTINUOUS
  62
7
  10
 317.710
  20
 377.444
  30
0.0
  40
 5.00000
  50
 271.336
  51
 1.33614
   0
LINE
   8
LEVEL001
   6
CONTINUOUS
  62
7
  10
 313.328
  20
 372.340
  30
0.0
  11
 335.931
  21
 372.867
  31
0.0
   0
LINE
   8
LEVEL001
   6
CONTINUOUS
  62
7
  10
 338.823
  20
 373.872
  30
0.0
  11
 340.190
  21
 374.902
  31
0.0
   0
ARC
   8
LEVEL001
   6
CONTINUOUS
  62
7
  10
 348.856
  20
 309.152
  30
0.0
  40
 2.00000
  50
 91.3361
  51
 181.336
   0
LINE
   8
LEVEL001
   6
CONTINUOUS
  62
7
  10
 346.856
  20
 309.105
  30
0.0
  11
 346.938
  21
 305.606
  31
0.0
   0
LINE
   8
LEVEL003
   6
CONTINUOUS
  62
7
  10
 348.809
  20
 311.151
  30
0.0
  11
 375.707
  21
 311.778
  31
0.0
   0
LINE
   8
LEVEL001
   6
CONTINUOUS
  62
7
  10
 348.747
  20
 313.800
  30
0.0
  11
 375.646
  21
 314.427
  31
0.0
   0
LINE
   8
LEVEL001
   6
CONTINUOUS
  62
7
  10
 343.355
  20
 309.078
  30
0.0
  11
 344.893
  21
 311.584
  31
0.0
   0
ARC
   8
LEVEL001
   6
CONTINUOUS
  62
7
  10
 348.856
  20
 309.152
  30
0.0
  40
 4.64950
  50
 91.3361
  51
 148.459
   0
ARC
   8
LEVEL003
   6
CONTINUOUS
  62
7
  10
 375.754
  20
 309.779
  30
0.0
  40
 2.00000
  50
 1.33614
  51
 91.3361
   0
LINE
   8
LEVEL001
   6
CONTINUOUS
  62
7
  10
 377.753
  20
 309.826
  30
0.0
  11
 377.835
  21
 306.327
  31
0.0
   0
LINE
   8
LEVEL001
   6
CONTINUOUS
  62
7
  10
 381.252
  20
 309.962
  30
0.0
  11
 379.599
  21
 312.393
  31
0.0
   0
ARC
   8
LEVEL001
   6
CONTINUOUS
  62
7
  10
 375.754
  20
 309.779
  30
0.0
  40
 4.64950
  50
 34.2128
  51
 91.3361
   0
ARC
   8
LEVEL001
   6
CONTINUOUS
  62
7
  10
 348.937
  20
 305.652
  30
0.0
  40
 2.00000
  50
 181.336
  51
 195.814
   0
ARC
   8
LEVEL001
   6
CONTINUOUS
  62
7
  10
 375.836
  20
 306.280
  30
0.0
  40
 2.00000
  50
 346.859
  51
 1.33614
   0
ARC
   8
LEVEL001
   6
CONTINUOUS
  62
7
  10
 325.969
  20
 332.768
  30
0.0
  40
 4.00000
  50
 237.873
  51
 316.336
   0
LINE
   8
LEVEL001
   6
CONTINUOUS
  62
7
  10
 332.514
  20
 333.832
  30
0.0
  11
 328.862
  21
 330.007
  31
0.0
   0
ARC
   8
LEVEL001
   6
CONTINUOUS
  62
7
  10
 338.301
  20
 328.309
  30
0.0
  40
 8.00000
  50
 98.8069
  51
 136.336
   0
ARC
   8
LEVEL001
   6
CONTINUOUS
  62
7
  10
 339.264
  20
 353.940
  30
0.0
  40
 29.0000
  50
 214.799
  51
 237.873
   0
ARC
   8
LEVEL001
   6
CONTINUOUS
  62
7
  10
 340.138
  20
 316.450
  30
0.0
  40
 20.0000
  50
 90.9339
  51
 98.8069
   0
ARC
   8
LEVEL001
   6
CONTINUOUS
  62
7
  10
 339.264
  20
 353.940
  30
0.0
  40
 29.0000
  50
 124.799
  51
 140.403
   0
LINE
   8
LEVEL001
   6
CONTINUOUS
  62
7
  10
 385.283
  20
 308.501
  30
0.0
  11
 388.335
  21
 308.572
  31
0.0
   0
LINE
   8
LEVEL001
   6
CONTINUOUS
  62
7
  10
 388.335
  20
 308.572
  30
0.0
  11
 388.823
  21
 309.083
  31
0.0
   0
LINE
   8
LEVEL001
   6
CONTINUOUS
  62
7
  10
 388.823
  20
 309.083
  30
0.0
  11
 388.054
  21
 342.074
  31
0.0
   0
LINE
   8
LEVEL001
   6
CONTINUOUS
  62
7
  10
 388.054
  20
 342.074
  30
0.0
  11
 387.233
  21
 377.252
  31
0.0
   0
LINE
   8
LEVEL003
   6
CONTINUOUS
  62
7
  10
 384.915
  20
 369.442
  30
0.0
  11
 385.065
  21
 363.004
  31
0.0
   0
LINE
   8
LEVEL003
   6
CONTINUOUS
  62
7
  10
 385.392
  20
 348.989
  30
0.0
  11
 386.289
  21
 310.525
  31
0.0
   0
ARC
   8
LEVEL003
   6
CONTINUOUS
  62
7
  10
 388.064
  20
 363.074
  30
0.0
  40
 3.00000
  50
 181.336
  51
 261.742
   0
ARC
   8
LEVEL003
   6
CONTINUOUS
  62
7
  10
 388.391
  20
 349.059
  30
0.0
  40
 3.00000
  50
 100.930
  51
 181.336
   0
POINT
   8
LEVEL001
  62
7
  10
 342.406
  20
 305.000
  30
0.0
   0
LINE
   8
LEVEL003
   6
CONTINUOUS
  62
3
  10
 681.735
  20
 370.917
  30
0.0
  11
 683.492
  21
 382.975
  31
0.0
   0
LINE
   8
LEVEL003
   6
CONTINUOUS
  62
3
  10
 683.492
  20
 382.975
  30
0.0
  11
 685.965
  21
 371.043
  31
0.0
   0
LINE
   8
LEVEL003
   6
CONTINUOUS
  62
3
  10
 687.277
  20
 327.061
  30
0.0
  11
 685.520
  21
 315.003
  31
0.0
   0
LINE
   8
LEVEL003
   6
CONTINUOUS
  62
3
  10
 685.520
  20
 315.003
  30
0.0
  11
 683.047
  21
 326.935
  31
0.0
   0
LINE
   8
LEVEL003
   6
CONTINUOUS
  62
3
  10
 683.492
  20
 382.975
  30
0.0
  11
 685.520
  21
 315.003
  31
0.0
   0
TEXT
   8
LEVEL003
  62
3
  10
 682.033
  20
 324.595
  30
0.0
  40
 16.0000
   1
%%c６８
  50
 91.7095
   7
STANDARD
  72
1
  11
 681.317
  21
 348.584
  31
0.0
   0
LINE
   8
LEVEL001
   6
CONTINUOUS
  62
7
  10
 388.812
  20
 309.583
  30
0.0
  11
 405.307
  21
 309.968
  31
0.0
   0
LINE
   8
LEVEL001
   6
CONTINUOUS
  62
7
  10
 403.791
  20
 374.950
  30
0.0
  11
 387.296
  21
 374.566
  31
0.0
   0
LINE
   8
LEVEL001
   6
CONTINUOUS
  62
7
  10
 403.791
  20
 374.950
  30
0.0
  11
 404.814
  21
 373.974
  31
0.0
   0
LINE
   8
LEVEL001
   6
CONTINUOUS
  62
7
  10
 404.814
  20
 373.974
  30
0.0
  11
 405.549
  21
 342.483
  31
0.0
   0
LINE
   8
LEVEL001
   6
CONTINUOUS
  62
7
  10
 405.307
  20
 309.968
  30
0.0
  11
 406.283
  21
 310.991
  31
0.0
   0
LINE
   8
LEVEL001
   6
CONTINUOUS
  62
7
  10
 406.283
  20
 310.991
  30
0.0
  11
 405.549
  21
 342.483
  31
0.0
   0
LINE
   8
LEVEL001
   6
CONTINUOUS
  62
7
  10
 403.791
  20
 374.950
  30
0.0
  11
 405.307
  21
 309.968
  31
0.0
   0
LINE
   8
LEVEL050
   6
DASHDOT
  62
1
  10
 905.314
  20
 401.251
  30
0.0
  11
 906.648
  21
 344.071
  31
0.0
   0
ARC
   8
LEVEL003
   6
CONTINUOUS
  62
7
  10
 899.405
  20
 311.529
  30
0.0
  40
 8.00000
  50
 1.33614
  51
 89.2306
   0
ARC
   8
LEVEL001
   6
CONTINUOUS
  62
7
  10
 909.323
  20
 315.164
  30
0.0
  40
 2.00000
  50
 89.6996
  51
 181.336
   0
LINE
   8
LEVEL001
   6
CONTINUOUS
  62
7
  10
 909.333
  20
 317.164
  30
0.0
  11
 940.346
  21
 317.002
  31
0.0
   0
LINE
   8
LEVEL001
   6
CONTINUOUS
  62
7
  10
 907.323
  20
 315.118
  30
0.0
  11
 907.533
  21
 306.150
  31
0.0
   0
LINE
   8
LEVEL001
   6
CONTINUOUS
  62
7
  10
 893.209
  20
 384.199
  30
0.0
  11
 894.114
  21
 345.376
  31
0.0
   0
LINE
   8
LEVEL001
   6
CONTINUOUS
  62
7
  10
 925.690
  20
 339.557
  30
0.0
  11
 925.759
  21
 339.561
  31
0.0
   0
ARC
   8
LEVEL001
   6
CONTINUOUS
  62
7
  10
 943.830
  20
 336.722
  30
0.0
  40
 20.0000
  50
 181.336
  51
 260.860
   0
ARC
   8
LEVEL001
   6
CONTINUOUS
  62
7
  10
 940.335
  20
 315.002
  30
0.0
  40
 2.00000
  50
 1.33614
  51
 80.8605
   0
LINE
   8
LEVEL001
   6
CONTINUOUS
  62
7
  10
 942.545
  20
 306.023
  30
0.0
  11
 942.335
  21
 315.048
  31
0.0
   0
ARC
   8
LEVEL001
   6
CONTINUOUS
  62
7
  10
 924.740
  20
 340.365
  30
0.0
  40
 1.00000
  50
 290.807
  51
 1.33614
   0
ARC
   8
LEVEL001
   6
CONTINUOUS
  62
7
  10
 925.805
  20
 337.560
  30
0.0
  40
 2.00000
  50
 110.807
  51
 181.336
   0
LINE
   8
LEVEL003
   6
CONTINUOUS
  62
7
  10
 925.092
  20
 368.140
  30
0.0
  11
 925.739
  21
 340.388
  31
0.0
   0
ARC
   8
LEVEL001
   6
CONTINUOUS
  62
7
  10
 908.532
  20
 306.173
  30
0.0
  40
 1.00000
  50
 181.336
  51
 269.700
   0
LINE
   8
LEVEL001
   6
CONTINUOUS
  62
7
  10
 908.527
  20
 305.173
  30
0.0
  11
 941.540
  21
 305.000
  31
0.0
   0
ARC
   8
LEVEL001
   6
CONTINUOUS
  62
7
  10
 941.545
  20
 306.000
  30
0.0
  40
 1.00000
  50
 269.700
  51
 1.33614
   0
ARC
   8
LEVEL003
   6
CONTINUOUS
  62
7
  10
 916.180
  20
 385.713
  30
0.0
  40
 2.00000
  50
 1.33614
  51
 89.2306
   0
LINE
   8
LEVEL003
   6
CONTINUOUS
  62
7
  10
 915.633
  20
 387.721
  30
0.0
  11
 916.207
  21
 387.713
  31
0.0
   0
LINE
   8
LEVEL001
   6
CONTINUOUS
  62
7
  10
 893.725
  20
 383.309
  30
0.0
  11
 894.261
  21
 382.941
  31
0.0
   0
LINE
   8
LEVEL001
   6
CONTINUOUS
  62
7
  10
 894.261
  20
 382.941
  30
0.0
  11
 894.976
  21
 382.598
  31
0.0
   0
LINE
   8
LEVEL001
   6
CONTINUOUS
  62
7
  10
 894.976
  20
 382.598
  30
0.0
  11
 895.859
  21
 382.283
  31
0.0
   0
LINE
   8
LEVEL001
   6
CONTINUOUS
  62
7
  10
 895.859
  20
 382.283
  30
0.0
  11
 896.895
  21
 382.004
  31
0.0
   0
LINE
   8
LEVEL001
   6
CONTINUOUS
  62
7
  10
 896.895
  20
 382.004
  30
0.0
  11
 898.069
  21
 381.763
  31
0.0
   0
LINE
   8
LEVEL001
   6
CONTINUOUS
  62
7
  10
 898.069
  20
 381.763
  30
0.0
  11
 899.362
  21
 381.564
  31
0.0
   0
LINE
   8
LEVEL001
   6
CONTINUOUS
  62
7
  10
 899.362
  20
 381.564
  30
0.0
  11
 900.754
  21
 381.411
  31
0.0
   0
LINE
   8
LEVEL001
   6
CONTINUOUS
  62
7
  10
 900.754
  20
 381.411
  30
0.0
  11
 902.223
  21
 381.307
  31
0.0
   0
LINE
   8
LEVEL001
   6
CONTINUOUS
  62
7
  10
 902.223
  20
 381.307
  30
0.0
  11
 903.746
  21
 381.252
  31
0.0
   0
LINE
   8
LEVEL001
   6
CONTINUOUS
  62
7
  10
 903.746
  20
 381.252
  30
0.0
  11
 905.300
  21
 381.247
  31
0.0
   0
LINE
   8
LEVEL001
   6
CONTINUOUS
  62
7
  10
 905.300
  20
 381.247
  30
0.0
  11
 906.861
  21
 381.293
  31
0.0
   0
LINE
   8
LEVEL001
   6
CONTINUOUS
  62
7
  10
 906.861
  20
 381.293
  30
0.0
  11
 908.403
  21
 381.389
  31
0.0
   0
LINE
   8
LEVEL001
   6
CONTINUOUS
  62
7
  10
 908.403
  20
 381.389
  30
0.0
  11
 909.903
  21
 381.534
  31
0.0
   0
LINE
   8
LEVEL001
   6
CONTINUOUS
  62
7
  10
 909.903
  20
 381.534
  30
0.0
  11
 911.338
  21
 381.724
  31
0.0
   0
LINE
   8
LEVEL001
   6
CONTINUOUS
  62
7
  10
 911.338
  20
 381.724
  30
0.0
  11
 912.685
  21
 381.958
  31
0.0
   0
LINE
   8
LEVEL001
   6
CONTINUOUS
  62
7
  10
 912.685
  20
 381.958
  30
0.0
  11
 913.923
  21
 382.231
  31
0.0
   0
LINE
   8
LEVEL001
   6
CONTINUOUS
  62
7
  10
 913.923
  20
 382.231
  30
0.0
  11
 915.033
  21
 382.540
  31
0.0
   0
LINE
   8
LEVEL001
   6
CONTINUOUS
  62
7
  10
 915.033
  20
 382.540
  30
0.0
  11
 915.997
  21
 382.879
  31
0.0
   0
LINE
   8
LEVEL001
   6
CONTINUOUS
  62
7
  10
 915.997
  20
 382.879
  30
0.0
  11
 916.800
  21
 383.243
  31
0.0
   0
LINE
   8
LEVEL001
   6
CONTINUOUS
  62
7
  10
 916.800
  20
 383.243
  30
0.0
  11
 917.431
  21
 383.626
  31
0.0
   0
LINE
   8
LEVEL001
   6
CONTINUOUS
  62
7
  10
 917.431
  20
 383.626
  30
0.0
  11
 917.774
  21
 383.913
  31
0.0
   0
LINE
   8
LEVEL001
   6
CONTINUOUS
  62
7
  10
 896.008
  20
 387.010
  30
0.0
  11
 897.730
  21
 385.475
  31
0.0
   0
LINE
   8
LEVEL001
   6
CONTINUOUS
  62
7
  10
 897.730
  20
 385.475
  30
0.0
  11
 898.073
  21
 385.231
  31
0.0
   0
LINE
   8
LEVEL001
   6
CONTINUOUS
  62
7
  10
 898.073
  20
 385.231
  30
0.0
  11
 898.534
  21
 385.003
  31
0.0
   0
LINE
   8
LEVEL001
   6
CONTINUOUS
  62
7
  10
 898.534
  20
 385.003
  30
0.0
  11
 899.107
  21
 384.793
  31
0.0
   0
LINE
   8
LEVEL001
   6
CONTINUOUS
  62
7
  10
 899.107
  20
 384.793
  30
0.0
  11
 899.781
  21
 384.606
  31
0.0
   0
LINE
   8
LEVEL001
   6
CONTINUOUS
  62
7
  10
 899.781
  20
 384.606
  30
0.0
  11
 900.548
  21
 384.445
  31
0.0
   0
LINE
   8
LEVEL001
   6
CONTINUOUS
  62
7
  10
 900.548
  20
 384.445
  30
0.0
  11
 901.394
  21
 384.311
  31
0.0
   0
LINE
   8
LEVEL001
   6
CONTINUOUS
  62
7
  10
 901.394
  20
 384.311
  30
0.0
  11
 902.307
  21
 384.207
  31
0.0
   0
LINE
   8
LEVEL001
   6
CONTINUOUS
  62
7
  10
 902.307
  20
 384.207
  30
0.0
  11
 903.273
  21
 384.135
  31
0.0
   0
LINE
   8
LEVEL001
   6
CONTINUOUS
  62
7
  10
 903.273
  20
 384.135
  30
0.0
  11
 904.276
  21
 384.096
  31
0.0
   0
LINE
   8
LEVEL001
   6
CONTINUOUS
  62
7
  10
 904.276
  20
 384.096
  30
0.0
  11
 905.300
  21
 384.090
  31
0.0
   0
LINE
   8
LEVEL001
   6
CONTINUOUS
  62
7
  10
 905.300
  20
 384.090
  30
0.0
  11
 906.330
  21
 384.117
  31
0.0
   0
LINE
   8
LEVEL001
   6
CONTINUOUS
  62
7
  10
 906.330
  20
 384.117
  30
0.0
  11
 907.350
  21
 384.177
  31
0.0
   0
LINE
   8
LEVEL001
   6
CONTINUOUS
  62
7
  10
 907.350
  20
 384.177
  30
0.0
  11
 908.343
  21
 384.269
  31
0.0
   0
LINE
   8
LEVEL001
   6
CONTINUOUS
  62
7
  10
 908.343
  20
 384.269
  30
0.0
  11
 909.295
  21
 384.392
  31
0.0
   0
LINE
   8
LEVEL001
   6
CONTINUOUS
  62
7
  10
 909.295
  20
 384.392
  30
0.0
  11
 910.190
  21
 384.544
  31
0.0
   0
LINE
   8
LEVEL001
   6
CONTINUOUS
  62
7
  10
 910.190
  20
 384.544
  30
0.0
  11
 911.014
  21
 384.722
  31
0.0
   0
LINE
   8
LEVEL001
   6
CONTINUOUS
  62
7
  10
 911.014
  20
 384.722
  30
0.0
  11
 911.755
  21
 384.924
  31
0.0
   0
LINE
   8
LEVEL001
   6
CONTINUOUS
  62
7
  10
 911.755
  20
 384.924
  30
0.0
  11
 912.401
  21
 385.145
  31
0.0
   0
LINE
   8
LEVEL001
   6
CONTINUOUS
  62
7
  10
 912.401
  20
 385.145
  30
0.0
  11
 912.942
  21
 385.384
  31
0.0
   0
LINE
   8
LEVEL001
   6
CONTINUOUS
  62
7
  10
 912.942
  20
 385.384
  30
0.0
  11
 913.369
  21
 385.636
  31
0.0
   0
LINE
   8
LEVEL001
   6
CONTINUOUS
  62
7
  10
 913.369
  20
 385.636
  30
0.0
  11
 913.626
  21
 385.846
  31
0.0
   0
LINE
   8
LEVEL001
   6
CONTINUOUS
  62
7
  10
 895.628
  20
 387.693
  30
0.0
  11
 895.714
  21
 387.372
  31
0.0
   0
LINE
   8
LEVEL001
   6
CONTINUOUS
  62
7
  10
 895.714
  20
 387.372
  30
0.0
  11
 895.954
  21
 387.060
  31
0.0
   0
LINE
   8
LEVEL001
   6
CONTINUOUS
  62
7
  10
 895.954
  20
 387.060
  30
0.0
  11
 896.345
  21
 386.761
  31
0.0
   0
LINE
   8
LEVEL001
   6
CONTINUOUS
  62
7
  10
 896.345
  20
 386.761
  30
0.0
  11
 896.881
  21
 386.481
  31
0.0
   0
LINE
   8
LEVEL001
   6
CONTINUOUS
  62
7
  10
 896.881
  20
 386.481
  30
0.0
  11
 897.553
  21
 386.223
  31
0.0
   0
LINE
   8
LEVEL001
   6
CONTINUOUS
  62
7
  10
 897.553
  20
 386.223
  30
0.0
  11
 898.352
  21
 385.991
  31
0.0
   0
LINE
   8
LEVEL001
   6
CONTINUOUS
  62
7
  10
 898.352
  20
 385.991
  30
0.0
  11
 899.263
  21
 385.790
  31
0.0
   0
LINE
   8
LEVEL001
   6
CONTINUOUS
  62
7
  10
 899.263
  20
 385.790
  30
0.0
  11
 900.275
  21
 385.622
  31
0.0
   0
LINE
   8
LEVEL001
   6
CONTINUOUS
  62
7
  10
 900.275
  20
 385.622
  30
0.0
  11
 901.369
  21
 385.491
  31
0.0
   0
LINE
   8
LEVEL001
   6
CONTINUOUS
  62
7
  10
 901.369
  20
 385.491
  30
0.0
  11
 902.530
  21
 385.397
  31
0.0
   0
LINE
   8
LEVEL001
   6
CONTINUOUS
  62
7
  10
 902.530
  20
 385.397
  30
0.0
  11
 903.740
  21
 385.342
  31
0.0
   0
LINE
   8
LEVEL001
   6
CONTINUOUS
  62
7
  10
 903.740
  20
 385.342
  30
0.0
  11
 904.978
  21
 385.328
  31
0.0
   0
LINE
   8
LEVEL001
   6
CONTINUOUS
  62
7
  10
 904.978
  20
 385.328
  30
0.0
  11
 906.227
  21
 385.355
  31
0.0
   0
LINE
   8
LEVEL001
   6
CONTINUOUS
  62
7
  10
 906.227
  20
 385.355
  30
0.0
  11
 907.467
  21
 385.421
  31
0.0
   0
LINE
   8
LEVEL001
   6
CONTINUOUS
  62
7
  10
 907.467
  20
 385.421
  30
0.0
  11
 908.677
  21
 385.527
  31
0.0
   0
LINE
   8
LEVEL001
   6
CONTINUOUS
  62
7
  10
 908.677
  20
 385.527
  30
0.0
  11
 909.840
  21
 385.670
  31
0.0
   0
LINE
   8
LEVEL001
   6
CONTINUOUS
  62
7
  10
 909.840
  20
 385.670
  30
0.0
  11
 910.938
  21
 385.848
  31
0.0
   0
LINE
   8
LEVEL001
   6
CONTINUOUS
  62
7
  10
 910.938
  20
 385.848
  30
0.0
  11
 911.952
  21
 386.059
  31
0.0
   0
LINE
   8
LEVEL001
   6
CONTINUOUS
  62
7
  10
 911.952
  20
 386.059
  30
0.0
  11
 912.868
  21
 386.299
  31
0.0
   0
LINE
   8
LEVEL001
   6
CONTINUOUS
  62
7
  10
 912.868
  20
 386.299
  30
0.0
  11
 913.671
  21
 386.564
  31
0.0
   0
LINE
   8
LEVEL001
   6
CONTINUOUS
  62
7
  10
 913.671
  20
 386.564
  30
0.0
  11
 914.348
  21
 386.850
  31
0.0
   0
LINE
   8
LEVEL001
   6
CONTINUOUS
  62
7
  10
 914.348
  20
 386.850
  30
0.0
  11
 914.889
  21
 387.154
  31
0.0
   0
LINE
   8
LEVEL001
   6
CONTINUOUS
  62
7
  10
 914.889
  20
 387.154
  30
0.0
  11
 915.285
  21
 387.469
  31
0.0
   0
LINE
   8
LEVEL001
   6
CONTINUOUS
  62
7
  10
 915.285
  20
 387.469
  30
0.0
  11
 915.531
  21
 387.791
  31
0.0
   0
LINE
   8
LEVEL001
   6
CONTINUOUS
  62
7
  10
 915.531
  20
 387.791
  30
0.0
  11
 915.622
  21
 388.116
  31
0.0
   0
LINE
   8
LEVEL001
   6
CONTINUOUS
  62
7
  10
 915.622
  20
 388.116
  30
0.0
  11
 915.623
  21
 388.159
  31
0.0
   0
LINE
   8
LEVEL001
   6
CONTINUOUS
  62
7
  10
 915.275
  20
 387.459
  30
0.0
  11
 913.626
  21
 385.846
  31
0.0
   0
LINE
   8
LEVEL001
   6
CONTINUOUS
  62
7
  10
 913.626
  20
 385.846
  30
0.0
  11
 913.136
  21
 384.818
  31
0.0
   0
LINE
   8
LEVEL001
   6
CONTINUOUS
  62
7
  10
 897.730
  20
 385.475
  30
0.0
  11
 898.267
  21
 384.472
  31
0.0
   0
LINE
   8
LEVEL001
   6
CONTINUOUS
  62
7
  10
 898.267
  20
 384.472
  30
0.0
  11
 898.452
  21
 384.238
  31
0.0
   0
LINE
   8
LEVEL001
   6
CONTINUOUS
  62
7
  10
 898.452
  20
 384.238
  30
0.0
  11
 898.750
  21
 384.014
  31
0.0
   0
LINE
   8
LEVEL001
   6
CONTINUOUS
  62
7
  10
 898.750
  20
 384.014
  30
0.0
  11
 899.156
  21
 383.805
  31
0.0
   0
LINE
   8
LEVEL001
   6
CONTINUOUS
  62
7
  10
 899.156
  20
 383.805
  30
0.0
  11
 899.664
  21
 383.612
  31
0.0
   0
LINE
   8
LEVEL001
   6
CONTINUOUS
  62
7
  10
 899.664
  20
 383.612
  30
0.0
  11
 900.266
  21
 383.439
  31
0.0
   0
LINE
   8
LEVEL001
   6
CONTINUOUS
  62
7
  10
 900.266
  20
 383.439
  30
0.0
  11
 900.953
  21
 383.289
  31
0.0
   0
LINE
   8
LEVEL001
   6
CONTINUOUS
  62
7
  10
 900.953
  20
 383.289
  30
0.0
  11
 901.715
  21
 383.165
  31
0.0
   0
LINE
   8
LEVEL001
   6
CONTINUOUS
  62
7
  10
 901.715
  20
 383.165
  30
0.0
  11
 902.538
  21
 383.067
  31
0.0
   0
LINE
   8
LEVEL001
   6
CONTINUOUS
  62
7
  10
 902.538
  20
 383.067
  30
0.0
  11
 903.410
  21
 382.998
  31
0.0
   0
LINE
   8
LEVEL001
   6
CONTINUOUS
  62
7
  10
 903.410
  20
 382.998
  30
0.0
  11
 904.318
  21
 382.958
  31
0.0
   0
LINE
   8
LEVEL001
   6
CONTINUOUS
  62
7
  10
 904.318
  20
 382.958
  30
0.0
  11
 905.248
  21
 382.949
  31
0.0
   0
LINE
   8
LEVEL001
   6
CONTINUOUS
  62
7
  10
 905.248
  20
 382.949
  30
0.0
  11
 906.185
  21
 382.970
  31
0.0
   0
LINE
   8
LEVEL001
   6
CONTINUOUS
  62
7
  10
 906.185
  20
 382.970
  30
0.0
  11
 907.114
  21
 383.021
  31
0.0
   0
LINE
   8
LEVEL001
   6
CONTINUOUS
  62
7
  10
 907.114
  20
 383.021
  30
0.0
  11
 908.021
  21
 383.101
  31
0.0
   0
LINE
   8
LEVEL001
   6
CONTINUOUS
  62
7
  10
 908.021
  20
 383.101
  30
0.0
  11
 908.891
  21
 383.210
  31
0.0
   0
LINE
   8
LEVEL001
   6
CONTINUOUS
  62
7
  10
 908.891
  20
 383.210
  30
0.0
  11
 909.712
  21
 383.344
  31
0.0
   0
LINE
   8
LEVEL001
   6
CONTINUOUS
  62
7
  10
 909.712
  20
 383.344
  30
0.0
  11
 910.470
  21
 383.503
  31
0.0
   0
LINE
   8
LEVEL001
   6
CONTINUOUS
  62
7
  10
 910.470
  20
 383.503
  30
0.0
  11
 911.154
  21
 383.684
  31
0.0
   0
LINE
   8
LEVEL001
   6
CONTINUOUS
  62
7
  10
 911.154
  20
 383.684
  30
0.0
  11
 911.752
  21
 383.884
  31
0.0
   0
LINE
   8
LEVEL001
   6
CONTINUOUS
  62
7
  10
 911.752
  20
 383.884
  30
0.0
  11
 912.256
  21
 384.099
  31
0.0
   0
LINE
   8
LEVEL001
   6
CONTINUOUS
  62
7
  10
 912.256
  20
 384.099
  30
0.0
  11
 912.658
  21
 384.327
  31
0.0
   0
LINE
   8
LEVEL001
   6
CONTINUOUS
  62
7
  10
 912.658
  20
 384.327
  30
0.0
  11
 912.951
  21
 384.564
  31
0.0
   0
LINE
   8
LEVEL001
   6
CONTINUOUS
  62
7
  10
 912.951
  20
 384.564
  30
0.0
  11
 913.130
  21
 384.806
  31
0.0
   0
LINE
   8
LEVEL001
   6
CONTINUOUS
  62
7
  10
 913.130
  20
 384.806
  30
0.0
  11
 913.136
  21
 384.818
  31
0.0
   0
ARC
   8
LEVEL003
   6
CONTINUOUS
  62
7
  10
 900.501
  20
 394.814
  30
0.0
  40
 5.00000
  50
 101.852
  51
 182.335
   0
LINE
   8
LEVEL001
   6
CONTINUOUS
  62
7
  10
 896.481
  20
 393.986
  30
0.0
  11
 896.654
  21
 386.588
  31
0.0
   0
LINE
   8
LEVEL001
   6
CONTINUOUS
  62
7
  10
 897.995
  20
 393.437
  30
0.0
  11
 898.167
  21
 386.039
  31
0.0
   0
LINE
   8
LEVEL001
   6
CONTINUOUS
  62
7
  10
 899.503
  20
 393.114
  30
0.0
  11
 899.675
  21
 385.716
  31
0.0
   0
LINE
   8
LEVEL001
   6
CONTINUOUS
  62
7
  10
 901.008
  20
 392.908
  30
0.0
  11
 901.180
  21
 385.510
  31
0.0
   0
LINE
   8
LEVEL001
   6
CONTINUOUS
  62
7
  10
 902.511
  20
 392.785
  30
0.0
  11
 902.684
  21
 385.387
  31
0.0
   0
LINE
   8
LEVEL001
   6
CONTINUOUS
  62
7
  10
 904.013
  20
 392.730
  30
0.0
  11
 904.185
  21
 385.333
  31
0.0
   0
LINE
   8
LEVEL001
   6
CONTINUOUS
  62
7
  10
 907.012
  20
 392.800
  30
0.0
  11
 907.185
  21
 385.402
  31
0.0
   0
LINE
   8
LEVEL001
   6
CONTINUOUS
  62
7
  10
 908.509
  20
 392.925
  30
0.0
  11
 908.682
  21
 385.527
  31
0.0
   0
LINE
   8
LEVEL001
   6
CONTINUOUS
  62
7
  10
 910.005
  20
 393.118
  30
0.0
  11
 910.178
  21
 385.720
  31
0.0
   0
LINE
   8
LEVEL001
   6
CONTINUOUS
  62
7
  10
 911.499
  20
 393.394
  30
0.0
  11
 911.672
  21
 385.996
  31
0.0
   0
LINE
   8
LEVEL001
   6
CONTINUOUS
  62
7
  10
 912.991
  20
 393.787
  30
0.0
  11
 913.163
  21
 386.389
  31
0.0
   0
LINE
   8
LEVEL001
   6
CONTINUOUS
  62
7
  10
 914.477
  20
 394.406
  30
0.0
  11
 914.649
  21
 387.008
  31
0.0
   0
ARC
   8
LEVEL003
   6
CONTINUOUS
  62
7
  10
 910.423
  20
 395.046
  30
0.0
  40
 5.00000
  50
 0.336900
  51
 80.8201
   0
LINE
   8
LEVEL001
   6
CONTINUOUS
  62
7
  10
 897.903
  20
 395.946
  30
0.0
  11
 898.787
  21
 395.736
  31
0.0
   0
LINE
   8
LEVEL001
   6
CONTINUOUS
  62
7
  10
 898.787
  20
 395.736
  30
0.0
  11
 899.774
  21
 395.560
  31
0.0
   0
LINE
   8
LEVEL001
   6
CONTINUOUS
  62
7
  10
 899.774
  20
 395.560
  30
0.0
  11
 900.849
  21
 395.418
  31
0.0
   0
LINE
   8
LEVEL001
   6
CONTINUOUS
  62
7
  10
 900.849
  20
 395.418
  30
0.0
  11
 901.995
  21
 395.314
  31
0.0
   0
LINE
   8
LEVEL001
   6
CONTINUOUS
  62
7
  10
 901.995
  20
 395.314
  30
0.0
  11
 903.193
  21
 395.250
  31
0.0
   0
LINE
   8
LEVEL001
   6
CONTINUOUS
  62
7
  10
 903.193
  20
 395.250
  30
0.0
  11
 904.426
  21
 395.225
  31
0.0
   0
LINE
   8
LEVEL001
   6
CONTINUOUS
  62
7
  10
 904.426
  20
 395.225
  30
0.0
  11
 905.674
  21
 395.241
  31
0.0
   0
LINE
   8
LEVEL001
   6
CONTINUOUS
  62
7
  10
 905.674
  20
 395.241
  30
0.0
  11
 906.918
  21
 395.298
  31
0.0
   0
LINE
   8
LEVEL001
   6
CONTINUOUS
  62
7
  10
 906.918
  20
 395.298
  30
0.0
  11
 908.138
  21
 395.393
  31
0.0
   0
LINE
   8
LEVEL001
   6
CONTINUOUS
  62
7
  10
 908.138
  20
 395.393
  30
0.0
  11
 909.315
  21
 395.527
  31
0.0
   0
LINE
   8
LEVEL001
   6
CONTINUOUS
  62
7
  10
 909.315
  20
 395.527
  30
0.0
  11
 910.431
  21
 395.696
  31
0.0
   0
LINE
   8
LEVEL001
   6
CONTINUOUS
  62
7
  10
 910.431
  20
 395.696
  30
0.0
  11
 911.469
  21
 395.899
  31
0.0
   0
LINE
   8
LEVEL001
   6
CONTINUOUS
  62
7
  10
 911.469
  20
 395.899
  30
0.0
  11
 912.411
  21
 396.132
  31
0.0
   0
LINE
   8
LEVEL001
   6
CONTINUOUS
  62
7
  10
 912.411
  20
 396.132
  30
0.0
  11
 912.532
  21
 396.166
  31
0.0
   0
LINE
   8
LEVEL050
   6
CONTINUOUS
  62
7
  10
 915.623
  20
 388.159
  30
0.0
  11
 915.461
  21
 395.076
  31
0.0
   0
LINE
   8
LEVEL001
   6
CONTINUOUS
  62
7
  10
 911.354
  20
 400.031
  30
0.0
  11
 910.307
  21
 400.185
  31
0.0
   0
LINE
   8
LEVEL001
   6
CONTINUOUS
  62
7
  10
 910.307
  20
 400.185
  30
0.0
  11
 909.183
  21
 400.301
  31
0.0
   0
LINE
   8
LEVEL001
   6
CONTINUOUS
  62
7
  10
 909.183
  20
 400.301
  30
0.0
  11
 908.000
  21
 400.379
  31
0.0
   0
LINE
   8
LEVEL001
   6
CONTINUOUS
  62
7
  10
 908.000
  20
 400.379
  30
0.0
  11
 906.776
  21
 400.417
  31
0.0
   0
LINE
   8
LEVEL001
   6
CONTINUOUS
  62
7
  10
 906.776
  20
 400.417
  30
0.0
  11
 905.531
  21
 400.415
  31
0.0
   0
LINE
   8
LEVEL001
   6
CONTINUOUS
  62
7
  10
 905.531
  20
 400.415
  30
0.0
  11
 904.284
  21
 400.372
  31
0.0
   0
LINE
   8
LEVEL001
   6
CONTINUOUS
  62
7
  10
 904.284
  20
 400.372
  30
0.0
  11
 903.054
  21
 400.289
  31
0.0
   0
LINE
   8
LEVEL001
   6
CONTINUOUS
  62
7
  10
 903.054
  20
 400.289
  30
0.0
  11
 901.860
  21
 400.168
  31
0.0
   0
LINE
   8
LEVEL001
   6
CONTINUOUS
  62
7
  10
 901.860
  20
 400.168
  30
0.0
  11
 900.722
  21
 400.010
  31
0.0
   0
LINE
   8
LEVEL001
   6
CONTINUOUS
  62
7
  10
 900.722
  20
 400.010
  30
0.0
  11
 899.656
  21
 399.818
  31
0.0
   0
LINE
   8
LEVEL001
   6
CONTINUOUS
  62
7
  10
 899.656
  20
 399.818
  30
0.0
  11
 899.338
  21
 399.751
  31
0.0
   0
LINE
   8
LEVEL050
   6
CONTINUOUS
  62
7
  10
 895.628
  20
 387.693
  30
0.0
  11
 895.467
  21
 394.610
  31
0.0
   0
ARC
   8
LEVEL001
   6
CONTINUOUS
  62
7
  10
 905.999
  20
 371.910
  30
0.0
  40
 17.0000
  50
 1.33614
  51
 44.0041
   0
ARC
   8
LEVEL001
   6
CONTINUOUS
  62
7
  10
 924.092
  20
 368.117
  30
0.0
  40
 1.00000
  50
 1.33614
  51
 61.3361
   0
ARC
   8
LEVEL001
   6
CONTINUOUS
  62
7
  10
 926.011
  20
 371.627
  30
0.0
  40
 3.00000
  50
 181.336
  51
 241.336
   0
LINE
   8
LEVEL001
   6
CONTINUOUS
  62
7
  10
 922.994
  20
 372.306
  30
0.0
  11
 923.012
  21
 371.557
  31
0.0
   0
LINE
   8
LEVEL003
   6
CONTINUOUS
  62
7
  10
 925.151
  20
 365.605
  30
0.0
  11
 925.651
  21
 365.617
  31
0.0
   0
ARC
   8
LEVEL003
   6
CONTINUOUS
  62
7
  10
 921.851
  20
 354.069
  30
0.0
  40
 12.5000
  50
 110.127
  51
 249.161
   0
ARC
   8
LEVEL003
   6
CONTINUOUS
  62
7
  10
 916.517
  20
 368.622
  30
0.0
  40
 3.00000
  50
 290.127
  51
 359.644
   0
LINE
   8
LEVEL003
   6
CONTINUOUS
  62
7
  10
 922.074
  20
 366.302
  30
0.0
  11
 921.682
  21
 365.889
  31
0.0
   0
LINE
   8
LEVEL003
   6
CONTINUOUS
  62
7
  10
 921.682
  20
 365.889
  30
0.0
  11
 921.305
  21
 365.291
  31
0.0
   0
LINE
   8
LEVEL003
   6
CONTINUOUS
  62
7
  10
 921.305
  20
 365.291
  30
0.0
  11
 920.950
  21
 364.519
  31
0.0
   0
LINE
   8
LEVEL003
   6
CONTINUOUS
  62
7
  10
 920.950
  20
 364.519
  30
0.0
  11
 920.621
  21
 363.583
  31
0.0
   0
LINE
   8
LEVEL003
   6
CONTINUOUS
  62
7
  10
 920.621
  20
 363.583
  30
0.0
  11
 920.324
  21
 362.499
  31
0.0
   0
LINE
   8
LEVEL003
   6
CONTINUOUS
  62
7
  10
 920.324
  20
 362.499
  30
0.0
  11
 920.063
  21
 361.283
  31
0.0
   0
LINE
   8
LEVEL003
   6
CONTINUOUS
  62
7
  10
 920.063
  20
 361.283
  30
0.0
  11
 919.843
  21
 359.954
  31
0.0
   0
LINE
   8
LEVEL003
   6
CONTINUOUS
  62
7
  10
 919.843
  20
 359.954
  30
0.0
  11
 919.667
  21
 358.534
  31
0.0
   0
LINE
   8
LEVEL003
   6
CONTINUOUS
  62
7
  10
 919.667
  20
 358.534
  30
0.0
  11
 919.538
  21
 357.044
  31
0.0
   0
LINE
   8
LEVEL003
   6
CONTINUOUS
  62
7
  10
 919.538
  20
 357.044
  30
0.0
  11
 919.457
  21
 355.507
  31
0.0
   0
LINE
   8
LEVEL003
   6
CONTINUOUS
  62
7
  10
 919.457
  20
 355.507
  30
0.0
  11
 919.427
  21
 353.948
  31
0.0
   0
LINE
   8
LEVEL003
   6
CONTINUOUS
  62
7
  10
 919.427
  20
 353.948
  30
0.0
  11
 919.447
  21
 352.390
  31
0.0
   0
LINE
   8
LEVEL003
   6
CONTINUOUS
  62
7
  10
 919.447
  20
 352.390
  30
0.0
  11
 919.517
  21
 350.859
  31
0.0
   0
LINE
   8
LEVEL003
   6
CONTINUOUS
  62
7
  10
 919.517
  20
 350.859
  30
0.0
  11
 919.636
  21
 349.378
  31
0.0
   0
LINE
   8
LEVEL003
   6
CONTINUOUS
  62
7
  10
 919.636
  20
 349.378
  30
0.0
  11
 919.802
  21
 347.969
  31
0.0
   0
LINE
   8
LEVEL003
   6
CONTINUOUS
  62
7
  10
 919.802
  20
 347.969
  30
0.0
  11
 920.014
  21
 346.656
  31
0.0
   0
LINE
   8
LEVEL003
   6
CONTINUOUS
  62
7
  10
 920.014
  20
 346.656
  30
0.0
  11
 920.266
  21
 345.459
  31
0.0
   0
LINE
   8
LEVEL003
   6
CONTINUOUS
  62
7
  10
 920.266
  20
 345.459
  30
0.0
  11
 920.556
  21
 344.396
  31
0.0
   0
LINE
   8
LEVEL003
   6
CONTINUOUS
  62
7
  10
 920.556
  20
 344.396
  30
0.0
  11
 920.878
  21
 343.483
  31
0.0
   0
LINE
   8
LEVEL003
   6
CONTINUOUS
  62
7
  10
 920.878
  20
 343.483
  30
0.0
  11
 921.229
  21
 342.736
  31
0.0
   0
LINE
   8
LEVEL003
   6
CONTINUOUS
  62
7
  10
 921.229
  20
 342.736
  30
0.0
  11
 921.602
  21
 342.166
  31
0.0
   0
LINE
   8
LEVEL003
   6
CONTINUOUS
  62
7
  10
 921.602
  20
 342.166
  30
0.0
  11
 921.962
  21
 341.803
  31
0.0
   0
LINE
   8
LEVEL003
   6
CONTINUOUS
  62
7
  10
 924.179
  20
 367.985
  30
0.0
  11
 922.074
  21
 366.302
  31
0.0
   0
LINE
   8
LEVEL003
   6
CONTINUOUS
  62
7
  10
 924.400
  20
 339.928
  30
0.0
  11
 921.962
  21
 341.803
  31
0.0
   0
ARC
   8
LEVEL003
   6
CONTINUOUS
  62
7
  10
 916.337
  20
 339.583
  30
0.0
  40
 3.00000
  50
 359.644
  51
 69.1612
   0
LINE
   8
LEVEL001
   6
CONTINUOUS
  62
7
  10
 923.738
  20
 340.437
  30
0.0
  11
 923.835
  21
 336.256
  31
0.0
   0
LINE
   8
LEVEL001
   6
CONTINUOUS
  62
7
  10
 918.179
  20
 385.760
  30
0.0
  11
 918.629
  21
 366.491
  31
0.0
   0
ARC
   8
LEVEL001
   6
CONTINUOUS
  62
7
  10
 906.611
  20
 345.667
  30
0.0
  40
 12.5000
  50
 181.336
  51
 341.489
   0
LINE
   8
LEVEL001
   6
CONTINUOUS
  62
7
  10
 416.881
  20
 371.255
  30
0.0
  11
 436.747
  21
 377.219
  31
0.0
   0
LINE
   8
LEVEL003
   6
CONTINUOUS
  62
7
  10
 413.882
  20
 371.185
  30
0.0
  11
 416.881
  21
 371.255
  31
0.0
   0
LINE
   8
LEVEL001
   6
CONTINUOUS
  62
7
  10
 436.747
  20
 377.219
  30
0.0
  11
 891.624
  21
 387.829
  31
0.0
   0
LINE
   8
LEVEL001
   6
CONTINUOUS
  62
7
  10
 404.896
  20
 370.475
  30
0.0
  11
 413.894
  21
 370.685
  31
0.0
   0
LINE
   8
LEVEL001
   6
CONTINUOUS
  62
7
  10
 416.881
  20
 371.255
  30
0.0
  11
 418.210
  21
 314.270
  31
0.0
   0
LINE
   8
LEVEL001
   6
CONTINUOUS
  62
7
  10
 438.333
  20
 309.238
  30
0.0
  11
 436.747
  21
 377.219
  31
0.0
   0
LINE
   8
LEVEL001
   6
CONTINUOUS
  62
7
  10
 418.210
  20
 314.270
  30
0.0
  11
 438.333
  21
 309.238
  31
0.0
   0
LINE
   8
LEVEL003
   6
CONTINUOUS
  62
7
  10
 415.211
  20
 314.200
  30
0.0
  11
 418.210
  21
 314.270
  31
0.0
   0
LINE
   8
LEVEL001
   6
CONTINUOUS
  62
7
  10
 438.333
  20
 309.238
  30
0.0
  11
 893.209
  21
 319.848
  31
0.0
   0
LINE
   8
LEVEL001
   6
CONTINUOUS
  62
7
  10
 406.202
  20
 314.490
  30
0.0
  11
 415.199
  21
 314.700
  31
0.0
   0
LINE
   8
LEVEL003
   6
CONTINUOUS
  62
7
  10
 895.614
  20
 388.305
  30
0.0
  11
 891.618
  21
 388.064
  31
0.0
   0
ARC
   8
LEVEL003
   6
CONTINUOUS
  62
7
  10
 890.212
  20
 384.035
  30
0.0
  40
 3.00000
  50
 1.33614
  51
 61.3361
   0
LINE
   8
LEVEL003
   6
CONTINUOUS
  62
7
  10
 891.618
  20
 388.064
  30
0.0
  11
 893.215
  21
 319.612
  31
0.0
   0
LINE
   8
LEVEL003
   6
CONTINUOUS
  62
7
  10
 899.512
  20
 319.528
  30
0.0
  11
 893.215
  21
 319.612
  31
0.0
   0
LINE
   8
LEVEL001
   6
DASHDOT
  62
1
  10
 375.557
  20
 341.783
  30
0.0
  11
 660.805
  21
 348.436
  31
0.0
   0
LINE
   8
LEVEL001
   6
DASHDOT
  62
1
  10
 689.544
  20
 349.107
  30
0.0
  11
 947.895
  21
 355.132
  31
0.0
   0
LINE
   8
LEVEL003
   6
CONTINUOUS
  62
7
  10
 415.211
  20
 314.200
  30
0.0
  11
 413.882
  21
 371.185
  31
0.0
   0
LINE
   8
LEVEL003
   6
CONTINUOUS
  62
3
  10
 566.784
  20
 432.303
  30
0.0
  11
 596.050
  21
 499.832
  31
0.0
   0
LINE
   8
LEVEL003
   6
CONTINUOUS
  62
3
  10
 596.050
  20
 499.832
  30
0.0
  11
 680.000
  21
 499.832
  31
0.0
   0
LINE
   8
LEVEL003
   6
CONTINUOUS
  62
3
  10
 566.784
  20
 432.303
  30
0.0
  11
 573.497
  21
 442.472
  31
0.0
   0
LINE
   8
LEVEL003
   6
CONTINUOUS
  62
3
  10
 566.784
  20
 432.303
  30
0.0
  11
 569.615
  21
 444.154
  31
0.0
   0
LINE
   8
LEVEL003
   6
CONTINUOUS
  62
3
  10
 633.751
  20
 381.089
  30
0.0
  11
 659.078
  21
 458.749
  31
0.0
   0
LINE
   8
LEVEL003
   6
CONTINUOUS
  62
3
  10
 659.078
  20
 458.749
  30
0.0
  11
 760.000
  21
 458.749
  31
0.0
   0
LINE
   8
LEVEL003
   6
CONTINUOUS
  62
3
  10
 633.751
  20
 381.089
  30
0.0
  11
 639.483
  21
 391.841
  31
0.0
   0
LINE
   8
LEVEL003
   6
CONTINUOUS
  62
3
  10
 633.751
  20
 381.089
  30
0.0
  11
 635.460
  21
 393.154
  31
0.0
   0
LINE
   8
LEVEL003
   6
CONTINUOUS
  62
3
  10
 942.545
  20
 302.023
  30
0.0
  11
 942.545
  21
 212.000
  31
0.0
   0
LINE
   8
LEVEL003
   6
CONTINUOUS
  62
3
  10
 342.406
  20
 301.000
  30
0.0
  11
 342.406
  21
 212.000
  31
0.0
   0
LINE
   8
LEVEL003
   6
CONTINUOUS
  62
3
  10
 942.545
  20
 220.000
  30
0.0
  11
 342.406
  21
 220.000
  31
0.0
   0
LINE
   8
LEVEL003
   6
CONTINUOUS
  62
3
  10
 942.545
  20
 220.000
  30
0.0
  11
 930.545
  21
 222.116
  31
0.0
   0
LINE
   8
LEVEL003
   6
CONTINUOUS
  62
3
  10
 942.545
  20
 220.000
  30
0.0
  11
 930.545
  21
 217.884
  31
0.0
   0
LINE
   8
LEVEL003
   6
CONTINUOUS
  62
3
  10
 342.406
  20
 220.000
  30
0.0
  11
 354.406
  21
 217.884
  31
0.0
   0
LINE
   8
LEVEL003
   6
CONTINUOUS
  62
3
  10
 342.406
  20
 220.000
  30
0.0
  11
 354.406
  21
 222.116
  31
0.0
   0
TEXT
   8
LEVEL003
  62
3
  10
 622.475
  20
 223.200
  30
0.0
  40
 16.0000
   1
約600
   7
STANDARD
  72
1
  11
 642.475
  21
 223.200
  31
0.0
   0
LINE
   8
LEVEL003
   6
CONTINUOUS
  62
3
  10
 342.406
  20
 301.000
  30
0.0
  11
 342.406
  21
 252.000
  31
0.0
   0
LINE
   8
LEVEL003
   6
CONTINUOUS
  62
3
  10
 382.384
  20
 301.932
  30
0.0
  11
 382.384
  21
 252.000
  31
0.0
   0
LINE
   8
LEVEL003
   6
CONTINUOUS
  62
3
  10
 342.406
  20
 260.000
  30
0.0
  11
 382.384
  21
 260.000
  31
0.0
   0
LINE
   8
LEVEL003
   6
CONTINUOUS
  62
3
  10
 342.406
  20
 260.000
  30
0.0
  11
 354.406
  21
 257.884
  31
0.0
   0
LINE
   8
LEVEL003
   6
CONTINUOUS
  62
3
  10
 342.406
  20
 260.000
  30
0.0
  11
 354.406
  21
 262.116
  31
0.0
   0
LINE
   8
LEVEL003
   6
CONTINUOUS
  62
3
  10
 382.384
  20
 260.000
  30
0.0
  11
 370.384
  21
 262.116
  31
0.0
   0
LINE
   8
LEVEL003
   6
CONTINUOUS
  62
3
  10
 382.384
  20
 260.000
  30
0.0
  11
 370.384
  21
 257.884
  31
0.0
   0
TEXT
   8
LEVEL003
  62
3
  10
 354.395
  20
 263.200
  30
0.0
  40
 16.0000
   1
40
  41
 0.500000
   7
STANDARD
  72
1
  11
 362.395
  21
 263.200
  31
0.0
   0
LINE
   8
LEVEL003
   6
CONTINUOUS
  62
3
  10
 907.533
  20
 302.150
  30
0.0
  11
 907.533
  21
 252.000
  31
0.0
   0
LINE
   8
LEVEL003
   6
CONTINUOUS
  62
3
  10
 942.545
  20
 302.023
  30
0.0
  11
 942.545
  21
 252.000
  31
0.0
   0
LINE
   8
LEVEL003
   6
CONTINUOUS
  62
3
  10
 907.533
  20
 260.000
  30
0.0
  11
 942.545
  21
 260.000
  31
0.0
   0
LINE
   8
LEVEL003
   6
CONTINUOUS
  62
3
  10
 907.533
  20
 260.000
  30
0.0
  11
 919.533
  21
 257.884
  31
0.0
   0
LINE
   8
LEVEL003
   6
CONTINUOUS
  62
3
  10
 907.533
  20
 260.000
  30
0.0
  11
 919.533
  21
 262.116
  31
0.0
   0
LINE
   8
LEVEL003
   6
CONTINUOUS
  62
3
  10
 942.545
  20
 260.000
  30
0.0
  11
 930.545
  21
 262.116
  31
0.0
   0
LINE
   8
LEVEL003
   6
CONTINUOUS
  62
3
  10
 942.545
  20
 260.000
  30
0.0
  11
 930.545
  21
 257.884
  31
0.0
   0
TEXT
   8
LEVEL003
  62
3
  10
 917.039
  20
 263.200
  30
0.0
  40
 16.0000
   1
35
  41
 0.500000
   7
STANDARD
  72
1
  11
 925.039
  21
 263.200
  31
0.0
   0
LINE
   8
LEVEL003
   6
CONTINUOUS
  62
7
  10
 923.101
  20
 453.519
  30
0.0
  11
 923.341
  21
 443.216
  31
0.0
   0
LINE
   8
LEVEL003
   6
CONTINUOUS
  62
7
  10
 923.341
  20
 443.216
  30
0.0
  11
 926.540
  21
 443.291
  31
0.0
   0
LINE
   8
LEVEL003
   6
CONTINUOUS
  62
7
  10
 926.540
  20
 443.291
  30
0.0
  11
 926.300
  21
 453.593
  31
0.0
   0
LINE
   8
LEVEL003
   6
CONTINUOUS
  62
7
  10
 926.300
  20
 453.593
  30
0.0
  11
 923.101
  21
 453.519
  31
0.0
   0
ARC
   8
LEVEL001
   6
CONTINUOUS
  62
7
  10
 922.472
  20
 394.675
  30
0.0
  40
 2.00000
  50
 1.33614
  51
 90.0725
   0
LINE
   8
LEVEL001
   6
CONTINUOUS
  62
7
  10
 915.177
  20
 396.666
  30
0.0
  11
 922.470
  21
 396.675
  31
0.0
   0
ARC
   8
LEVEL001
   6
CONTINUOUS
  62
7
  10
 922.805
  20
 380.430
  30
0.0
  40
 2.00000
  50
 308.206
  51
 1.33614
   0
ARC
   8
LEVEL001
   6
CONTINUOUS
  62
7
  10
 925.897
  20
 376.501
  30
0.0
  40
 3.00000
  50
 128.206
  51
 181.336
   0
LINE
   8
LEVEL003
   6
CONTINUOUS
  62
7
  10
 924.860
  20
 378.102
  30
0.0
  11
 928.059
  21
 378.176
  31
0.0
   0
LINE
   8
LEVEL003
   6
CONTINUOUS
  62
7
  10
 926.832
  20
 430.780
  30
0.0
  11
 928.059
  21
 378.176
  31
0.0
   0
LINE
   8
LEVEL001
   6
CONTINUOUS
  62
7
  10
 923.636
  20
 430.582
  30
0.0
  11
 924.860
  21
 378.102
  31
0.0
   0
LINE
   8
LEVEL003
   6
DASHDOT
  62
1
  10
 937.762
  20
 387.905
  30
0.0
  11
 906.362
  21
 387.173
  31
0.0
   0
LINE
   8
LEVEL001
   6
CONTINUOUS
  62
7
  10
 922.898
  20
 376.431
  30
0.0
  11
 923.115
  21
 367.134
  31
0.0
   0
ARC
   8
LEVEL003
   6
CONTINUOUS
  62
7
  10
 927.091
  20
 366.650
  30
0.0
  40
 12.5359
  50
 337.471
  51
 1.33612
   0
LINE
   8
LEVEL003
   6
CONTINUOUS
  62
7
  10
 928.650
  20
 365.687
  30
0.0
  11
 928.603
  21
 367.686
  31
0.0
   0
LINE
   8
LEVEL003
   6
CONTINUOUS
  62
7
  10
 925.151
  20
 365.605
  30
0.0
  11
 928.650
  21
 365.687
  31
0.0
   0
LINE
   8
LEVEL003
   6
CONTINUOUS
  62
7
  10
 928.584
  20
 368.542
  30
0.0
  11
 938.509
  21
 368.774
  31
0.0
   0
LINE
   8
LEVEL003
   6
CONTINUOUS
  62
7
  10
 938.509
  20
 368.774
  30
0.0
  11
 939.624
  21
 366.943
  31
0.0
   0
LINE
   8
LEVEL003
   6
CONTINUOUS
  62
7
  10
 928.907
  20
 354.690
  30
0.0
  11
 928.584
  21
 368.542
  31
0.0
   0
LINE
   8
LEVEL003
   6
CONTINUOUS
  62
7
  10
 928.745
  20
 361.616
  30
0.0
  11
 938.671
  21
 361.847
  31
0.0
   0
ARC
   8
LEVEL003
   6
CONTINUOUS
  62
7
  10
 927.651
  20
 342.657
  30
0.0
  40
 12.5359
  50
 1.33616
  51
 25.2010
   0
ARC
   8
LEVEL003
   6
CONTINUOUS
  62
7
  10
 916.982
  20
 354.411
  30
0.0
  40
 22.9282
  50
 343.748
  51
 18.9241
   0
LINE
   8
LEVEL003
   6
CONTINUOUS
  62
7
  10
 925.664
  20
 343.611
  30
0.0
  11
 929.163
  21
 343.693
  31
0.0
   0
LINE
   8
LEVEL003
   6
CONTINUOUS
  62
7
  10
 940.183
  20
 342.949
  30
0.0
  11
 939.155
  21
 341.068
  31
0.0
   0
LINE
   8
LEVEL003
   6
CONTINUOUS
  62
7
  10
 939.155
  20
 341.068
  30
0.0
  11
 929.230
  21
 340.837
  31
0.0
   0
LINE
   8
LEVEL003
   6
CONTINUOUS
  62
7
  10
 929.230
  20
 340.837
  30
0.0
  11
 928.907
  21
 354.690
  31
0.0
   0
LINE
   8
LEVEL003
   6
CONTINUOUS
  62
7
  10
 929.068
  20
 347.763
  30
0.0
  11
 938.994
  21
 347.995
  31
0.0
   0
LINE
   8
LEVEL003
   6
CONTINUOUS
  62
7
  10
 939.624
  20
 366.943
  30
0.0
  11
 940.183
  21
 342.949
  31
0.0
   0
ARC
   8
LEVEL001
   6
CONTINUOUS
  62
7
  10
 348.799
  20
 406.680
  30
0.0
  40
 15.0000
  50
 141.314
  51
 180.701
   0
ARC
   8
LEVEL011
   6
CONTINUOUS
  62
7
  10
 314.526
  20
 428.891
  30
0.0
  40
 2.00000
  50
 121.758
  51
 222.424
   0
LINE
   8
LEVEL011
   6
CONTINUOUS
  62
7
  10
 324.196
  20
 415.345
  30
0.0
  11
 313.050
  21
 427.542
  31
0.0
   0
ARC
   8
LEVEL011
   6
CONTINUOUS
  62
7
  10
 352.949
  20
 366.821
  30
0.0
  40
 75.0000
  50
 105.693
  51
 121.758
   0
LINE
   8
LEVEL011
   6
CONTINUOUS
  62
7
  10
 323.347
  20
 416.274
  30
0.0
  11
 324.547
  21
 424.153
  31
0.0
   0
LINE
   8
LEVEL011
   6
CONTINUOUS
  62
7
  10
 324.196
  20
 415.345
  30
0.0
  11
 341.967
  21
 416.302
  31
0.0
   0
ARC
   8
LEVEL011
   6
CONTINUOUS
  62
7
  10
 335.062
  20
 426.946
  30
0.0
  40
 10.0000
  50
 69.5832
  51
 149.818
   0
CIRCLE
   8
LEVEL011
   6
CONTINUOUS
  62
7
  10
 335.538
  20
 427.873
  30
0.0
  40
 4.00000
   0
ARC
   8
LEVEL011
   6
CONTINUOUS
  62
7
  10
 335.538
  20
 427.873
  30
0.0
  40
 5.00000
  50
 191.179
  51
 138.783
   0
CIRCLE
   8
LEVEL011
   6
CONTINUOUS
  62
7
  10
 335.538
  20
 427.873
  30
0.0
  40
 5.00000
   0
LINE
   8
LEVEL011
   6
DASHDOT
  62
1
  10
 336.078
  20
 417.858
  30
0.0
  11
 335.013
  21
 437.631
  31
0.0
   0
ARC
   8
LEVEL011
   6
CONTINUOUS
  62
7
  10
 330.097
  20
 424.776
  30
0.0
  40
 2.00000
  50
 93.0819
  51
 146.212
   0
ARC
   8
LEVEL011
   6
CONTINUOUS
  62
7
  10
 328.619
  20
 432.980
  30
0.0
  40
 2.00000
  50
 234.213
  51
 323.570
   0
ARC
   8
LEVEL011
   6
CONTINUOUS
  62
7
  10
 330.097
  20
 424.776
  30
0.0
  40
 3.60000
  50
 93.0819
  51
 146.212
   0
ARC
   8
LEVEL011
   6
CONTINUOUS
  62
7
  10
 328.619
  20
 432.980
  30
0.0
  40
 3.60000
  50
 234.213
  51
 323.569
   0
ARC
   8
LEVEL011
   6
CONTINUOUS
  62
7
  10
 335.538
  20
 427.873
  30
0.0
  40
 6.59982
  50
 42.5934
  51
 143.570
   0
LINE
   8
LEVEL011
   6
CONTINUOUS
  62
7
  10
 329.903
  20
 428.371
  30
0.0
  11
 330.567
  21
 428.407
  31
0.0
   0
LINE
   8
LEVEL011
   6
CONTINUOUS
  62
7
  10
 329.990
  20
 426.774
  30
0.0
  11
 330.653
  21
 426.809
  31
0.0
   0
LINE
   8
LEVEL011
   6
DASHDOT
  62
1
  10
 325.553
  20
 427.336
  30
0.0
  11
 352.061
  21
 428.763
  31
0.0
   0
ARC
   8
LEVEL011
   6
CONTINUOUS
  62
7
  10
 325.110
  20
 428.113
  30
0.0
  40
 4.00000
  50
 54.2127
  51
 326.212
   0
ARC
   8
LEVEL011
   6
CONTINUOUS
  62
7
  10
 325.110
  20
 428.113
  30
0.0
  40
 2.40000
  50
 54.2133
  51
 326.212
   0
ARC
   8
LEVEL011
   6
CONTINUOUS
  62
7
  10
 335.062
  20
 426.946
  30
0.0
  40
 10.0000
  50
 159.544
  51
 171.340
   0
LINE
   8
LEVEL011
   6
CONTINUOUS
  62
7
  10
 324.788
  20
 425.735
  30
0.0
  11
 325.202
  21
 428.453
  31
0.0
   0
ARC
   8
LEVEL011
   6
CONTINUOUS
  62
7
  10
 331.851
  20
 441.914
  30
0.0
  40
 3.00000
  50
 285.693
  51
 3.08172
   0
LINE
   8
LEVEL011
   6
CONTINUOUS
  62
7
  10
 336.689
  20
 445.060
  30
0.0
  11
 377.058
  21
 447.234
  31
0.0
   0
LINE
   8
LEVEL011
   6
CONTINUOUS
  62
7
  10
 334.778
  20
 443.355
  30
0.0
  11
 334.847
  21
 442.075
  31
0.0
   0
ARC
   8
LEVEL011
   6
CONTINUOUS
  62
7
  10
 336.796
  20
 443.063
  30
0.0
  40
 2.00000
  50
 93.0819
  51
 183.082
   0
LINE
   8
LEVEL011
   6
DASHDOT
  62
1
  10
 350.485
  20
 417.762
  30
0.0
  11
 368.578
  21
 418.736
  31
0.0
   0
LINE
   8
LEVEL011
   6
DASHDOT
  62
1
  10
 359.267
  20
 405.669
  30
0.0
  11
 358.055
  21
 428.184
  31
0.0
   0
ARC
   8
LEVEL011
   6
CONTINUOUS
  62
7
  10
 379.639
  20
 399.303
  30
0.0
  40
 10.0000
  50
 3.08164
  51
 93.0819
   0
ARC
   8
LEVEL011
   6
CONTINUOUS
  62
7
  10
 379.639
  20
 399.303
  30
0.0
  40
 48.0000
  50
 46.2249
  51
 93.0819
   0
ARC
   8
LEVEL011
   6
CONTINUOUS
  62
7
  10
 426.683
  20
 448.403
  30
0.0
  40
 20.0000
  50
 226.225
  51
 273.082
   0
LINE
   8
LEVEL011
   6
CONTINUOUS
  62
7
  10
 427.758
  20
 428.432
  30
0.0
  11
 462.165
  21
 430.285
  31
0.0
   0
ARC
   8
LEVEL011
   6
CONTINUOUS
  62
7
  10
 411.212
  20
 389.486
  30
0.0
  40
 5.00000
  50
 93.0818
  51
 183.082
   0
ARC
   8
LEVEL011
   6
CONTINUOUS
  62
7
  10
 463.163
  20
 430.338
  30
0.0
  40
 1.00000
  50
 93.0824
  51
 183.081
   0
LINE
   8
LEVEL011
   6
CONTINUOUS
  62
7
  10
 470.652
  20
 430.742
  30
0.0
  11
 469.600
  21
 431.686
  31
0.0
   0
LINE
   8
LEVEL011
   6
CONTINUOUS
  62
7
  10
 463.109
  20
 431.337
  30
0.0
  11
 469.600
  21
 431.686
  31
0.0
   0
ARC
   8
LEVEL011
   6
CONTINUOUS
  62
7
  10
 464.937
  20
 397.386
  30
0.0
  40
 1.00000
  50
 183.082
  51
 273.081
   0
LINE
   8
LEVEL011
   6
CONTINUOUS
  62
7
  10
 472.426
  20
 397.789
  30
0.0
  11
 471.482
  21
 396.737
  31
0.0
   0
LINE
   8
LEVEL011
   6
CONTINUOUS
  62
7
  10
 464.991
  20
 396.388
  30
0.0
  11
 471.482
  21
 396.737
  31
0.0
   0
LINE
   8
LEVEL011
   6
DASHDOT
  62
1
  10
 389.118
  20
 409.828
  30
0.0
  11
 471.539
  21
 414.265
  31
0.0
   0
ARC
   8
LEVEL011
   6
CONTINUOUS
  62
7
  10
 342.504
  20
 406.317
  30
0.0
  40
 10.0000
  50
 36.4489
  51
 93.0819
   0
LINE
   8
LEVEL011
   6
CONTINUOUS
  62
7
  10
 347.253
  20
 434.172
  30
0.0
  11
 344.496
  21
 431.231
  31
0.0
   0
LINE
   8
LEVEL011
   6
CONTINUOUS
  62
7
  10
 346.085
  20
 435.266
  30
0.0
  11
 347.253
  21
 434.172
  31
0.0
   0
LINE
   8
LEVEL011
   6
CONTINUOUS
  62
7
  10
 346.085
  20
 435.266
  30
0.0
  11
 343.328
  21
 432.326
  31
0.0
   0
LINE
   8
LEVEL011
   6
CONTINUOUS
  62
7
  10
 348.776
  20
 429.387
  30
0.0
  11
 348.862
  21
 427.790
  31
0.0
   0
ARC
   8
LEVEL011
   6
CONTINUOUS
  62
7
  10
 341.869
  20
 433.694
  30
0.0
  40
 2.00000
  50
 222.593
  51
 316.844
   0
ARC
   8
LEVEL011
   6
CONTINUOUS
  62
7
  10
 341.869
  20
 433.694
  30
0.0
  40
 3.60000
  50
 222.594
  51
 316.842
   0
LINE
   8
LEVEL011
   6
CONTINUOUS
  62
7
  10
 340.424
  20
 428.938
  30
0.0
  11
 348.776
  21
 429.387
  31
0.0
   0
LINE
   8
LEVEL011
   6
CONTINUOUS
  62
7
  10
 340.510
  20
 427.340
  30
0.0
  11
 348.862
  21
 427.790
  31
0.0
   0
LINE
   8
LEVEL011
   6
CONTINUOUS
  62
7
  10
 338.576
  20
 436.320
  30
0.0
  11
 344.875
  21
 433.975
  31
0.0
   0
LINE
   8
LEVEL011
   6
CONTINUOUS
  62
7
  10
 346.501
  20
 433.370
  30
0.0
  11
 362.081
  21
 427.571
  31
0.0
   0
LINE
   8
LEVEL011
   6
CONTINUOUS
  62
7
  10
 359.130
  20
 408.213
  30
0.0
  11
 379.101
  21
 409.289
  31
0.0
   0
ARC
   8
LEVEL011
   6
CONTINUOUS
  62
7
  10
 358.592
  20
 418.199
  30
0.0
  40
 10.0000
  50
 216.449
  51
 273.082
   0
CIRCLE
   8
LEVEL001
   6
CONTINUOUS
  62
7
  10
 358.592
  20
 418.199
  30
0.0
  40
 5.00000
   0
ARC
   8
LEVEL011
   6
CONTINUOUS
  62
7
  10
 358.592
  20
 418.199
  30
0.0
  40
 10.0000
  50
 8.53449
  51
 69.5833
   0
LINE
   8
LEVEL011
   6
CONTINUOUS
  62
7
  10
 370.114
  20
 408.805
  30
0.0
  11
 368.481
  21
 419.683
  31
0.0
   0
LINE
   8
LEVEL011
   6
CONTINUOUS
  62
7
  10
 470.652
  20
 430.742
  30
0.0
  11
 471.539
  21
 414.265
  31
0.0
   0
LINE
   8
LEVEL011
   6
CONTINUOUS
  62
7
  10
 471.539
  20
 414.265
  30
0.0
  11
 472.426
  21
 397.789
  31
0.0
   0
ARC
   8
LEVEL011
   6
CONTINUOUS
  62
7
  10
 399.113
  20
 403.857
  30
0.0
  40
 10.0000
  50
 218.725
  51
 273.082
   0
ARC
   8
LEVEL011
   6
CONTINUOUS
  62
7
  10
 427.481
  20
 397.372
  30
0.0
  40
 2.00000
  50
 273.082
  51
 1.08190
   0
LINE
   8
LEVEL011
   6
CONTINUOUS
  62
7
  10
 429.317
  20
 406.088
  30
0.0
  11
 429.481
  21
 397.410
  31
0.0
   0
ARC
   8
LEVEL011
   6
CONTINUOUS
  62
7
  10
 425.922
  20
 426.330
  30
0.0
  40
 2.00000
  50
 5.08190
  51
 93.0819
   0
LINE
   8
LEVEL011
   6
CONTINUOUS
  62
7
  10
 427.914
  20
 426.508
  30
0.0
  11
 428.683
  21
 417.862
  31
0.0
   0
ARC
   8
LEVEL011
   6
CONTINUOUS
  62
7
  10
 431.671
  20
 418.128
  30
0.0
  40
 3.00000
  50
 185.082
  51
 273.082
   0
ARC
   8
LEVEL011
   6
CONTINUOUS
  62
7
  10
 432.316
  20
 406.145
  30
0.0
  40
 3.00000
  50
 93.0819
  51
 181.082
   0
LINE
   8
LEVEL011
   6
CONTINUOUS
  62
7
  10
 399.651
  20
 393.871
  30
0.0
  11
 463.939
  21
 397.332
  31
0.0
   0
LINE
   8
LEVEL001
   6
CONTINUOUS
  62
7
  10
 462.165
  20
 430.285
  30
0.0
  11
 463.939
  21
 397.332
  31
0.0
   0
ARC
   8
LEVEL011
   6
CONTINUOUS
  62
7
  10
 391.692
  20
 380.024
  30
0.0
  40
 3.00000
  50
 3.08194
  51
 81.5446
   0
ARC
   8
LEVEL011
   6
CONTINUOUS
  62
7
  10
 405.674
  20
 380.747
  30
0.0
  40
 3.00000
  50
 102.723
  51
 183.082
   0
ARC
   8
LEVEL011
   6
CONTINUOUS
  62
7
  10
 404.573
  20
 385.624
  30
0.0
  40
 2.00000
  50
 282.723
  51
 350.708
   0
LINE
   8
LEVEL011
   6
CONTINUOUS
  62
7
  10
 406.430
  20
 385.295
  30
0.0
  11
 406.219
  21
 389.217
  31
0.0
   0
ARC
   8
LEVEL011
   6
CONTINUOUS
  62
7
  10
 392.428
  20
 384.970
  30
0.0
  40
 2.00000
  50
 183.082
  51
 261.545
   0
LINE
   8
LEVEL011
   6
CONTINUOUS
  62
7
  10
 390.431
  20
 384.862
  30
0.0
  11
 389.624
  21
 399.841
  31
0.0
   0
LINE
   8
LEVEL011
   6
CONTINUOUS
  62
7
  10
 392.535
  20
 382.973
  30
0.0
  11
 404.680
  21
 383.627
  31
0.0
   0
LINE
   8
LEVEL012
   6
DASHDOT
  62
1
  10
 471.539
  20
 414.265
  30
0.0
  11
 1027.46
  21
 444.197
  31
0.0
   0
LINE
   8
LEVEL012
   6
CONTINUOUS
  62
7
  10
 938.590
  20
 425.892
  30
0.0
  11
 937.138
  21
 452.853
  31
0.0
   0
LINE
   8
LEVEL012
   6
CONTINUOUS
  62
7
  10
 937.138
  20
 452.853
  30
0.0
  11
 947.177
  21
 452.392
  31
0.0
   0
LINE
   8
LEVEL012
   6
CONTINUOUS
  62
7
  10
 947.177
  20
 452.392
  30
0.0
  11
 948.522
  21
 427.428
  31
0.0
   0
LINE
   8
LEVEL012
   6
CONTINUOUS
  62
7
  10
 948.522
  20
 427.428
  30
0.0
  11
 938.590
  21
 425.892
  31
0.0
   0
LINE
   8
LEVEL012
   6
CONTINUOUS
  62
7
  10
 1010.43
  20
 430.762
  30
0.0
  11
 1009.09
  21
 455.725
  31
0.0
   0
LINE
   8
LEVEL012
   6
CONTINUOUS
  62
7
  10
 1009.09
  20
 455.725
  30
0.0
  11
 1019.02
  21
 457.262
  31
0.0
   0
LINE
   8
LEVEL012
   6
CONTINUOUS
  62
7
  10
 1019.02
  20
 457.262
  30
0.0
  11
 1020.47
  21
 430.301
  31
0.0
   0
LINE
   8
LEVEL012
   6
CONTINUOUS
  62
7
  10
 1020.47
  20
 430.301
  30
0.0
  11
 1010.43
  21
 430.762
  31
0.0
   0
ARC
   8
LEVEL012
   6
CONTINUOUS
  62
7
  10
 990.912
  20
 442.229
  30
0.0
  40
 31.8750
  50
 338.024
  51
 28.1395
   0
LINE
   8
LEVEL012
   6
CONTINUOUS
  62
3
  10
 950.527
  20
 427.382
  30
0.0
  11
 949.166
  21
 452.653
  31
0.0
   0
LINE
   8
LEVEL012
   6
CONTINUOUS
  62
3
  10
 949.166
  20
 452.653
  30
0.0
  11
 951.155
  21
 452.915
  31
0.0
   0
LINE
   8
LEVEL012
   6
CONTINUOUS
  62
3
  10
 951.155
  20
 452.915
  30
0.0
  11
 952.532
  21
 427.336
  31
0.0
   0
LINE
   8
LEVEL012
   6
CONTINUOUS
  62
3
  10
 952.532
  20
 427.336
  30
0.0
  11
 950.527
  21
 427.382
  31
0.0
   0
LINE
   8
LEVEL012
   6
CONTINUOUS
  62
3
  10
 954.538
  20
 427.290
  30
0.0
  11
 953.144
  21
 453.176
  31
0.0
   0
LINE
   8
LEVEL012
   6
CONTINUOUS
  62
3
  10
 953.144
  20
 453.176
  30
0.0
  11
 955.133
  21
 453.437
  31
0.0
   0
LINE
   8
LEVEL012
   6
CONTINUOUS
  62
3
  10
 955.133
  20
 453.437
  30
0.0
  11
 956.543
  21
 427.244
  31
0.0
   0
LINE
   8
LEVEL012
   6
CONTINUOUS
  62
3
  10
 956.543
  20
 427.244
  30
0.0
  11
 954.538
  21
 427.290
  31
0.0
   0
LINE
   8
LEVEL012
   6
CONTINUOUS
  62
3
  10
 958.548
  20
 427.198
  30
0.0
  11
 957.122
  21
 453.698
  31
0.0
   0
LINE
   8
LEVEL012
   6
CONTINUOUS
  62
3
  10
 957.122
  20
 453.698
  30
0.0
  11
 959.110
  21
 453.959
  31
0.0
   0
LINE
   8
LEVEL012
   6
CONTINUOUS
  62
3
  10
 959.110
  20
 453.959
  30
0.0
  11
 960.554
  21
 427.152
  31
0.0
   0
LINE
   8
LEVEL012
   6
CONTINUOUS
  62
3
  10
 960.554
  20
 427.152
  30
0.0
  11
 958.548
  21
 427.198
  31
0.0
   0
LINE
   8
LEVEL012
   6
CONTINUOUS
  62
3
  10
 962.559
  20
 427.106
  30
0.0
  11
 961.099
  21
 454.220
  31
0.0
   0
LINE
   8
LEVEL012
   6
CONTINUOUS
  62
3
  10
 961.099
  20
 454.220
  30
0.0
  11
 963.088
  21
 454.481
  31
0.0
   0
LINE
   8
LEVEL012
   6
CONTINUOUS
  62
3
  10
 963.088
  20
 454.481
  30
0.0
  11
 964.565
  21
 427.060
  31
0.0
   0
LINE
   8
LEVEL012
   6
CONTINUOUS
  62
3
  10
 964.565
  20
 427.060
  30
0.0
  11
 962.559
  21
 427.106
  31
0.0
   0
LINE
   8
LEVEL012
   6
CONTINUOUS
  62
3
  10
 966.570
  20
 427.013
  30
0.0
  11
 965.077
  21
 454.743
  31
0.0
   0
LINE
   8
LEVEL012
   6
CONTINUOUS
  62
3
  10
 965.077
  20
 454.743
  30
0.0
  11
 967.066
  21
 455.004
  31
0.0
   0
LINE
   8
LEVEL012
   6
CONTINUOUS
  62
3
  10
 967.066
  20
 455.004
  30
0.0
  11
 968.575
  21
 426.967
  31
0.0
   0
LINE
   8
LEVEL012
   6
CONTINUOUS
  62
3
  10
 968.575
  20
 426.967
  30
0.0
  11
 966.570
  21
 427.013
  31
0.0
   0
LINE
   8
LEVEL012
   6
CONTINUOUS
  62
3
  10
 970.581
  20
 426.921
  30
0.0
  11
 969.055
  21
 455.265
  31
0.0
   0
LINE
   8
LEVEL012
   6
CONTINUOUS
  62
3
  10
 969.055
  20
 455.265
  30
0.0
  11
 971.043
  21
 455.526
  31
0.0
   0
LINE
   8
LEVEL012
   6
CONTINUOUS
  62
3
  10
 971.043
  20
 455.526
  30
0.0
  11
 972.586
  21
 426.875
  31
0.0
   0
LINE
   8
LEVEL012
   6
CONTINUOUS
  62
3
  10
 972.586
  20
 426.875
  30
0.0
  11
 970.581
  21
 426.921
  31
0.0
   0
LINE
   8
LEVEL012
   6
CONTINUOUS
  62
3
  10
 974.591
  20
 426.829
  30
0.0
  11
 973.032
  21
 455.787
  31
0.0
   0
LINE
   8
LEVEL012
   6
CONTINUOUS
  62
3
  10
 973.032
  20
 455.787
  30
0.0
  11
 975.021
  21
 456.048
  31
0.0
   0
LINE
   8
LEVEL012
   6
CONTINUOUS
  62
3
  10
 975.021
  20
 456.048
  30
0.0
  11
 976.597
  21
 426.783
  31
0.0
   0
LINE
   8
LEVEL012
   6
CONTINUOUS
  62
3
  10
 976.597
  20
 426.783
  30
0.0
  11
 974.591
  21
 426.829
  31
0.0
   0
LINE
   8
LEVEL012
   6
CONTINUOUS
  62
3
  10
 948.441
  20
 428.931
  30
0.0
  11
 950.446
  21
 428.885
  31
0.0
   0
LINE
   8
LEVEL012
   6
CONTINUOUS
  62
3
  10
 952.451
  20
 428.838
  30
0.0
  11
 954.457
  21
 428.792
  31
0.0
   0
LINE
   8
LEVEL012
   6
CONTINUOUS
  62
3
  10
 956.462
  20
 428.746
  30
0.0
  11
 958.468
  21
 428.700
  31
0.0
   0
LINE
   8
LEVEL012
   6
CONTINUOUS
  62
3
  10
 960.473
  20
 428.654
  30
0.0
  11
 962.478
  21
 428.608
  31
0.0
   0
LINE
   8
LEVEL012
   6
CONTINUOUS
  62
3
  10
 964.484
  20
 428.562
  30
0.0
  11
 966.489
  21
 428.516
  31
0.0
   0
LINE
   8
LEVEL012
   6
CONTINUOUS
  62
3
  10
 968.494
  20
 428.470
  30
0.0
  11
 970.500
  21
 428.424
  31
0.0
   0
LINE
   8
LEVEL012
   6
CONTINUOUS
  62
3
  10
 972.505
  20
 428.377
  30
0.0
  11
 974.511
  21
 428.331
  31
0.0
   0
LINE
   8
LEVEL012
   6
CONTINUOUS
  62
3
  10
 986.576
  20
 427.440
  30
0.0
  11
 985.013
  21
 456.466
  31
0.0
   0
LINE
   8
LEVEL012
   6
CONTINUOUS
  62
3
  10
 985.013
  20
 456.466
  30
0.0
  11
 987.019
  21
 456.404
  31
0.0
   0
LINE
   8
LEVEL012
   6
CONTINUOUS
  62
3
  10
 987.019
  20
 456.404
  30
0.0
  11
 988.564
  21
 427.717
  31
0.0
   0
LINE
   8
LEVEL012
   6
CONTINUOUS
  62
3
  10
 988.564
  20
 427.717
  30
0.0
  11
 986.576
  21
 427.440
  31
0.0
   0
LINE
   8
LEVEL012
   6
CONTINUOUS
  62
3
  10
 990.552
  20
 427.994
  30
0.0
  11
 989.026
  21
 456.343
  31
0.0
   0
LINE
   8
LEVEL012
   6
CONTINUOUS
  62
3
  10
 989.026
  20
 456.343
  30
0.0
  11
 991.032
  21
 456.281
  31
0.0
   0
LINE
   8
LEVEL012
   6
CONTINUOUS
  62
3
  10
 991.032
  20
 456.281
  30
0.0
  11
 992.540
  21
 428.271
  31
0.0
   0
LINE
   8
LEVEL012
   6
CONTINUOUS
  62
3
  10
 992.540
  20
 428.271
  30
0.0
  11
 990.552
  21
 427.994
  31
0.0
   0
LINE
   8
LEVEL012
   6
CONTINUOUS
  62
3
  10
 994.528
  20
 428.547
  30
0.0
  11
 993.038
  21
 456.219
  31
0.0
   0
LINE
   8
LEVEL012
   6
CONTINUOUS
  62
3
  10
 993.038
  20
 456.219
  30
0.0
  11
 995.044
  21
 456.157
  31
0.0
   0
LINE
   8
LEVEL012
   6
CONTINUOUS
  62
3
  10
 995.044
  20
 456.157
  30
0.0
  11
 996.516
  21
 428.824
  31
0.0
   0
LINE
   8
LEVEL012
   6
CONTINUOUS
  62
3
  10
 996.516
  20
 428.824
  30
0.0
  11
 994.528
  21
 428.547
  31
0.0
   0
LINE
   8
LEVEL012
   6
CONTINUOUS
  62
3
  10
 998.504
  20
 429.101
  30
0.0
  11
 997.050
  21
 456.096
  31
0.0
   0
LINE
   8
LEVEL012
   6
CONTINUOUS
  62
3
  10
 997.050
  20
 456.096
  30
0.0
  11
 999.057
  21
 456.034
  31
0.0
   0
LINE
   8
LEVEL012
   6
CONTINUOUS
  62
3
  10
 999.057
  20
 456.034
  30
0.0
  11
 1000.49
  21
 429.378
  31
0.0
   0
LINE
   8
LEVEL012
   6
CONTINUOUS
  62
3
  10
 1000.49
  20
 429.378
  30
0.0
  11
 998.504
  21
 429.101
  31
0.0
   0
LINE
   8
LEVEL012
   6
CONTINUOUS
  62
3
  10
 1002.48
  20
 429.655
  30
0.0
  11
 1001.06
  21
 455.972
  31
0.0
   0
LINE
   8
LEVEL012
   6
CONTINUOUS
  62
3
  10
 1001.06
  20
 455.972
  30
0.0
  11
 1003.07
  21
 455.911
  31
0.0
   0
LINE
   8
LEVEL012
   6
CONTINUOUS
  62
3
  10
 1003.07
  20
 455.911
  30
0.0
  11
 1004.47
  21
 429.931
  31
0.0
   0
LINE
   8
LEVEL012
   6
CONTINUOUS
  62
3
  10
 1004.47
  20
 429.931
  30
0.0
  11
 1002.48
  21
 429.655
  31
0.0
   0
LINE
   8
LEVEL012
   6
CONTINUOUS
  62
3
  10
 1006.46
  20
 430.208
  30
0.0
  11
 1005.08
  21
 455.849
  31
0.0
   0
LINE
   8
LEVEL012
   6
CONTINUOUS
  62
3
  10
 1005.08
  20
 455.849
  30
0.0
  11
 1007.08
  21
 455.787
  31
0.0
   0
LINE
   8
LEVEL012
   6
CONTINUOUS
  62
3
  10
 1007.08
  20
 455.787
  30
0.0
  11
 1008.44
  21
 430.485
  31
0.0
   0
LINE
   8
LEVEL012
   6
CONTINUOUS
  62
3
  10
 1008.44
  20
 430.485
  30
0.0
  11
 1006.46
  21
 430.208
  31
0.0
   0
LINE
   8
LEVEL012
   6
CONTINUOUS
  62
3
  10
 996.435
  20
 430.327
  30
0.0
  11
 998.423
  21
 430.604
  31
0.0
   0
LINE
   8
LEVEL012
   6
CONTINUOUS
  62
3
  10
 1000.41
  20
 430.881
  30
0.0
  11
 1002.40
  21
 431.158
  31
0.0
   0
LINE
   8
LEVEL012
   6
CONTINUOUS
  62
3
  10
 1004.39
  20
 431.435
  30
0.0
  11
 1006.37
  21
 431.711
  31
0.0
   0
LINE
   8
LEVEL012
   6
CONTINUOUS
  62
3
  10
 1008.36
  20
 431.988
  30
0.0
  11
 1010.35
  21
 432.265
  31
0.0
   0
LINE
   8
LEVEL012
   6
CONTINUOUS
  62
3
  10
 976.516
  20
 428.285
  30
0.0
  11
 978.521
  21
 428.239
  31
0.0
   0
LINE
   8
LEVEL012
   6
CONTINUOUS
  62
3
  10
 980.531
  20
 428.113
  30
0.0
  11
 982.519
  21
 428.390
  31
0.0
   0
LINE
   8
LEVEL012
   6
CONTINUOUS
  62
3
  10
 984.507
  20
 428.667
  30
0.0
  11
 986.495
  21
 428.944
  31
0.0
   0
LINE
   8
LEVEL012
   6
CONTINUOUS
  62
3
  10
 988.483
  20
 429.220
  30
0.0
  11
 990.471
  21
 429.497
  31
0.0
   0
LINE
   8
LEVEL012
   6
CONTINUOUS
  62
3
  10
 992.459
  20
 429.774
  30
0.0
  11
 994.447
  21
 430.051
  31
0.0
   0
LINE
   8
LEVEL012
   6
CONTINUOUS
  62
3
  10
 977.806
  20
 441.523
  30
0.0
  11
 977.010
  21
 456.309
  31
0.0
   0
LINE
   8
LEVEL012
   6
CONTINUOUS
  62
3
  10
 977.010
  20
 456.309
  30
0.0
  11
 978.999
  21
 456.571
  31
0.0
   0
LINE
   8
LEVEL012
   6
CONTINUOUS
  62
3
  10
 978.999
  20
 456.571
  30
0.0
  11
 979.803
  21
 441.631
  31
0.0
   0
LINE
   8
LEVEL012
   6
CONTINUOUS
  62
3
  10
 981.800
  20
 441.738
  30
0.0
  11
 981.001
  21
 456.590
  31
0.0
   0
LINE
   8
LEVEL012
   6
CONTINUOUS
  62
3
  10
 981.001
  20
 456.590
  30
0.0
  11
 983.007
  21
 456.528
  31
0.0
   0
LINE
   8
LEVEL012
   6
CONTINUOUS
  62
3
  10
 983.007
  20
 456.528
  30
0.0
  11
 983.797
  21
 441.846
  31
0.0
   0
LINE
   8
LEVEL012
   6
CONTINUOUS
  62
3
  10
 977.806
  20
 441.523
  30
0.0
  11
 978.602
  21
 426.737
  31
0.0
   0
LINE
   8
LEVEL012
   6
CONTINUOUS
  62
3
  10
 978.602
  20
 426.737
  30
0.0
  11
 980.608
  21
 426.691
  31
0.0
   0
LINE
   8
LEVEL012
   6
CONTINUOUS
  62
3
  10
 980.608
  20
 426.691
  30
0.0
  11
 979.803
  21
 441.631
  31
0.0
   0
LINE
   8
LEVEL012
   6
CONTINUOUS
  62
3
  10
 981.800
  20
 441.738
  30
0.0
  11
 982.600
  21
 426.887
  31
0.0
   0
LINE
   8
LEVEL012
   6
CONTINUOUS
  62
3
  10
 982.600
  20
 426.887
  30
0.0
  11
 984.588
  21
 427.164
  31
0.0
   0
LINE
   8
LEVEL012
   6
CONTINUOUS
  62
3
  10
 984.588
  20
 427.164
  30
0.0
  11
 983.797
  21
 441.846
  31
0.0
   0
LINE
   8
LEVEL012
   6
CONTINUOUS
  62
7
  10
 913.728
  20
 427.308
  30
0.0
  11
 912.572
  21
 448.776
  31
0.0
   0
LINE
   8
LEVEL012
   6
CONTINUOUS
  62
7
  10
 916.326
  20
 430.201
  30
0.0
  11
 915.466
  21
 446.178
  31
0.0
   0
LINE
   8
LEVEL012
   6
CONTINUOUS
  62
7
  10
 470.957
  20
 425.000
  30
0.0
  11
 912.572
  21
 448.776
  31
0.0
   0
LINE
   8
LEVEL012
   6
CONTINUOUS
  62
7
  10
 472.121
  20
 403.531
  30
0.0
  11
 913.728
  21
 427.308
  31
0.0
   0
LINE
   8
LEVEL011
   6
DASHDOT
  62
1
  10
 397.761
  20
 397.515
  30
0.0
  11
 399.095
  21
 372.728
  31
0.0
   0
LINE
   8
LEVEL011
   6
DASHDOT
  62
1
  10
 324.199
  20
 440.840
  30
0.0
  11
 351.207
  21
 470.922
  31
0.0
   0
LINE
   8
LEVEL011
   6
DASHDOT
  62
1
  10
 404.916
  20
 449.165
  30
0.0
  11
 447.927
  21
 497.070
  31
0.0
   0
LINE
   8
LEVEL012
   6
CONTINUOUS
  62
7
  10
 913.728
  20
 427.308
  30
0.0
  11
 916.326
  21
 430.201
  31
0.0
   0
LINE
   8
LEVEL012
   6
CONTINUOUS
  62
7
  10
 916.326
  20
 430.201
  30
0.0
  11
 938.294
  21
 431.384
  31
0.0
   0
ARC
   8
LEVEL003
   6
CONTINUOUS
  62
3
  10
 345.307
  20
 407.469
  30
0.0
  40
 163.124
  50
 3.08187
  51
 48.0819
   0
LINE
   8
LEVEL003
   6
CONTINUOUS
  62
3
  10
 508.195
  20
 416.239
  30
0.0
  11
 509.366
  21
 428.368
  31
0.0
   0
LINE
   8
LEVEL003
   6
CONTINUOUS
  62
3
  10
 508.195
  20
 416.239
  30
0.0
  11
 505.147
  21
 428.037
  31
0.0
   0
LINE
   8
LEVEL003
   6
CONTINUOUS
  62
3
  10
 454.285
  20
 528.850
  30
0.0
  11
 461.563
  21
 519.077
  31
0.0
   0
LINE
   8
LEVEL003
   6
CONTINUOUS
  62
3
  10
 454.285
  20
 528.850
  30
0.0
  11
 464.467
  21
 522.156
  31
0.0
   0
TEXT
   8
LEVEL003
  62
3
  10
 444.532
  20
 455.277
  30
0.0
  40
 16.0000
   1
約45%%d
   7
STANDARD
  72
2
  11
 492.532
  21
 465.944
  31
0.0
  73
2
   0
LINE
   8
LEVEL012
   6
CONTINUOUS
  62
3
  10
 947.258
  20
 450.890
  30
0.0
  11
 949.247
  21
 451.151
  31
0.0
   0
LINE
   8
LEVEL012
   6
CONTINUOUS
  62
3
  10
 951.236
  20
 451.412
  30
0.0
  11
 953.225
  21
 451.673
  31
0.0
   0
LINE
   8
LEVEL012
   6
CONTINUOUS
  62
3
  10
 955.214
  20
 451.935
  30
0.0
  11
 957.203
  21
 452.196
  31
0.0
   0
LINE
   8
LEVEL012
   6
CONTINUOUS
  62
3
  10
 959.191
  20
 452.457
  30
0.0
  11
 961.180
  21
 452.718
  31
0.0
   0
LINE
   8
LEVEL012
   6
CONTINUOUS
  62
3
  10
 963.169
  20
 452.979
  30
0.0
  11
 965.158
  21
 453.240
  31
0.0
   0
LINE
   8
LEVEL012
   6
CONTINUOUS
  62
3
  10
 967.147
  20
 453.501
  30
0.0
  11
 969.136
  21
 453.763
  31
0.0
   0
LINE
   8
LEVEL012
   6
CONTINUOUS
  62
3
  10
 971.124
  20
 454.024
  30
0.0
  11
 973.113
  21
 454.285
  31
0.0
   0
LINE
   8
LEVEL012
   6
CONTINUOUS
  62
3
  10
 975.102
  20
 454.546
  30
0.0
  11
 977.091
  21
 454.807
  31
0.0
   0
LINE
   8
LEVEL012
   6
CONTINUOUS
  62
3
  10
 979.075
  20
 455.148
  30
0.0
  11
 981.082
  21
 455.086
  31
0.0
   0
LINE
   8
LEVEL012
   6
CONTINUOUS
  62
3
  10
 983.088
  20
 455.025
  30
0.0
  11
 985.094
  21
 454.963
  31
0.0
   0
LINE
   8
LEVEL012
   6
CONTINUOUS
  62
3
  10
 987.100
  20
 454.901
  30
0.0
  11
 989.107
  21
 454.839
  31
0.0
   0
LINE
   8
LEVEL012
   6
CONTINUOUS
  62
3
  10
 991.113
  20
 454.778
  30
0.0
  11
 993.119
  21
 454.716
  31
0.0
   0
LINE
   8
LEVEL012
   6
CONTINUOUS
  62
3
  10
 995.125
  20
 454.654
  30
0.0
  11
 997.131
  21
 454.593
  31
0.0
   0
LINE
   8
LEVEL012
   6
CONTINUOUS
  62
3
  10
 999.138
  20
 454.531
  30
0.0
  11
 1001.14
  21
 454.469
  31
0.0
   0
LINE
   8
LEVEL012
   6
CONTINUOUS
  62
3
  10
 1003.15
  20
 454.407
  30
0.0
  11
 1005.16
  21
 454.346
  31
0.0
   0
LINE
   8
LEVEL012
   6
CONTINUOUS
  62
3
  10
 1007.16
  20
 454.284
  30
0.0
  11
 1009.17
  21
 454.222
  31
0.0
   0
ARC
   8
LEVEL011
   6
DASHDOT
  62
1
  10
 386.924
  20
 438.855
  30
0.0
  40
 48.0000
  50
 91.2249
  51
 138.082
   0
ARC
   8
LEVEL011
   6
DASHDOT
  62
1
  10
 385.471
  20
 506.839
  30
0.0
  40
 20.0000
  50
 271.225
  51
 318.082
   0
ARC
   8
LEVEL011
   6
DASHDOT
  62
1
  10
 424.040
  20
 519.861
  30
0.0
  40
 1.00000
  50
 138.082
  51
 228.081
   0
ARC
   8
LEVEL011
   6
DASHDOT
  62
1
  10
 448.595
  20
 497.814
  30
0.0
  40
 1.00000
  50
 228.082
  51
 318.081
   0
ARC
   8
LEVEL011
   6
DASHDOT
  62
1
  10
 422.119
  20
 471.319
  30
0.0
  40
 2.00000
  50
 318.082
  51
 46.0819
   0
ARC
   8
LEVEL011
   6
DASHDOT
  62
1
  10
 400.540
  20
 490.693
  30
0.0
  40
 2.00000
  50
 50.0819
  51
 138.082
   0
ARC
   8
LEVEL011
   6
DASHDOT
  62
1
  10
 410.406
  20
 488.958
  30
0.0
  40
 3.00000
  50
 230.082
  51
 318.082
   0
ARC
   8
LEVEL011
   6
DASHDOT
  62
1
  10
 419.335
  20
 480.941
  30
0.0
  40
 3.00000
  50
 138.082
  51
 226.082
   0
LINE
   8
LEVEL011
   6
DASHDOT
  62
1
  10
 400.353
  20
 493.478
  30
0.0
  11
 423.372
  21
 519.117
  31
0.0
   0
LINE
   8
LEVEL011
   6
DASHDOT
  62
1
  10
 429.050
  20
 525.441
  30
0.0
  11
 427.638
  21
 525.365
  31
0.0
   0
LINE
   8
LEVEL011
   6
DASHDOT
  62
1
  10
 423.296
  20
 520.529
  30
0.0
  11
 427.638
  21
 525.365
  31
0.0
   0
LINE
   8
LEVEL011
   6
DASHDOT
  62
1
  10
 453.606
  20
 503.395
  30
0.0
  11
 453.682
  21
 501.983
  31
0.0
   0
LINE
   8
LEVEL011
   6
DASHDOT
  62
1
  10
 449.339
  20
 497.146
  30
0.0
  11
 453.682
  21
 501.983
  31
0.0
   0
LINE
   8
LEVEL011
   6
DASHDOT
  62
1
  10
 386.185
  20
 453.000
  30
0.0
  11
 441.328
  21
 514.418
  31
0.0
   0
LINE
   8
LEVEL011
   6
DASHDOT
  62
1
  10
 429.050
  20
 525.441
  30
0.0
  11
 441.328
  21
 514.418
  31
0.0
   0
LINE
   8
LEVEL011
   6
DASHDOT
  62
1
  10
 441.328
  20
 514.418
  30
0.0
  11
 453.606
  21
 503.395
  31
0.0
   0
LINE
   8
LEVEL011
   6
DASHDOT
  62
1
  10
 417.254
  20
 478.780
  30
0.0
  11
 423.506
  21
 472.760
  31
0.0
   0
LINE
   8
LEVEL011
   6
DASHDOT
  62
1
  10
 401.824
  20
 492.227
  30
0.0
  11
 408.481
  21
 486.657
  31
0.0
   0
LINE
   8
LEVEL001
   6
DASHDOT
  62
1
  10
 423.372
  20
 519.117
  30
0.0
  11
 447.927
  21
 497.070
  31
0.0
   0
LINE
   8
LEVEL012
   6
DASHDOT
  62
1
  10
 433.326
  20
 521.597
  30
0.0
  11
 453.157
  21
 543.684
  31
0.0
   0
LINE
   8
LEVEL012
   6
DASHDOT
  62
1
  10
 441.328
  20
 514.418
  30
0.0
  11
 461.156
  21
 536.503
  31
0.0
   0
LINE
   8
LEVEL012
   6
DASHDOT
  62
1
  10
 449.330
  20
 507.240
  30
0.0
  11
 469.155
  21
 529.321
  31
0.0
   0
LINE
   8
LEVEL012
   6
CONTINUOUS
  62
7
  10
 912.572
  20
 448.776
  30
0.0
  11
 915.466
  21
 446.178
  31
0.0
   0
LINE
   8
LEVEL012
   6
CONTINUOUS
  62
7
  10
 915.466
  20
 446.178
  30
0.0
  11
 923.262
  21
 446.598
  31
0.0
   0
LINE
   8
LEVEL012
   6
CONTINUOUS
  62
7
  10
 926.459
  20
 446.770
  30
0.0
  11
 937.434
  21
 447.361
  31
0.0
   0
TEXT
   8
LEVEL003
  62
3
  10
 845.610
  20
 500.550
  30
0.0
  40
 16.0000
   1
フック
   7
STANDARD
   0
LINE
   8
LEVEL003
   6
CONTINUOUS
  62
3
  10
 923.101
  20
 453.519
  30
0.0
  11
 901.016
  21
 498.385
  31
0.0
   0
LINE
   8
LEVEL003
   6
CONTINUOUS
  62
3
  10
 901.016
  20
 498.385
  30
0.0
  11
 842.682
  21
 498.385
  31
0.0
   0
LINE
   8
LEVEL003
   6
CONTINUOUS
  62
3
  10
 923.101
  20
 453.519
  30
0.0
  11
 919.699
  21
 465.219
  31
0.0
   0
LINE
   8
LEVEL003
   6
CONTINUOUS
  62
3
  10
 923.101
  20
 453.519
  30
0.0
  11
 915.903
  21
 463.351
  31
0.0
   0
LINE
   8
LEVEL003
   6
CONTINUOUS
  62
3
  10
 1023.02
  20
 457.262
  30
0.0
  11
 1088.00
  21
 457.262
  31
0.0
   0
LINE
   8
LEVEL003
   6
CONTINUOUS
  62
3
  10
 945.540
  20
 305.000
  30
0.0
  11
 1088.00
  21
 305.000
  31
0.0
   0
LINE
   8
LEVEL003
   6
CONTINUOUS
  62
3
  10
 1080.00
  20
 457.262
  30
0.0
  11
 1080.00
  21
 305.000
  31
0.0
   0
LINE
   8
LEVEL003
   6
CONTINUOUS
  62
3
  10
 1080.00
  20
 457.262
  30
0.0
  11
 1077.88
  21
 445.262
  31
0.0
   0
LINE
   8
LEVEL003
   6
CONTINUOUS
  62
3
  10
 1080.00
  20
 457.262
  30
0.0
  11
 1082.12
  21
 445.262
  31
0.0
   0
LINE
   8
LEVEL003
   6
CONTINUOUS
  62
3
  10
 1080.00
  20
 305.000
  30
0.0
  11
 1082.12
  21
 317.000
  31
0.0
   0
LINE
   8
LEVEL003
   6
CONTINUOUS
  62
3
  10
 1080.00
  20
 305.000
  30
0.0
  11
 1077.88
  21
 317.000
  31
0.0
   0
TEXT
   8
LEVEL003
  62
3
  10
 1076.80
  20
 361.131
  30
0.0
  40
 16.0000
   1
約150
  50
 90.0000
   7
STANDARD
  72
1
  11
 1076.80
  21
 381.131
  31
0.0
   0
LINE
   8
LEVEL003
   6
CONTINUOUS
  62
3
  10
 312.516
  20
 424.658
  30
0.0
  11
 312.516
  21
 172.000
  31
0.0
   0
LINE
   8
LEVEL003
   6
CONTINUOUS
  62
3
  10
 1022.74
  20
 439.942
  30
0.0
  11
 1022.74
  21
 172.000
  31
0.0
   0
LINE
   8
LEVEL003
   6
CONTINUOUS
  62
3
  10
 312.516
  20
 180.000
  30
0.0
  11
 1022.74
  21
 180.000
  31
0.0
   0
LINE
   8
LEVEL003
   6
CONTINUOUS
  62
3
  10
 312.516
  20
 180.000
  30
0.0
  11
 324.516
  21
 177.884
  31
0.0
   0
LINE
   8
LEVEL003
   6
CONTINUOUS
  62
3
  10
 312.516
  20
 180.000
  30
0.0
  11
 324.516
  21
 182.116
  31
0.0
   0
LINE
   8
LEVEL003
   6
CONTINUOUS
  62
3
  10
 1022.74
  20
 180.000
  30
0.0
  11
 1010.74
  21
 182.116
  31
0.0
   0
LINE
   8
LEVEL003
   6
CONTINUOUS
  62
3
  10
 1022.74
  20
 180.000
  30
0.0
  11
 1010.74
  21
 177.884
  31
0.0
   0
TEXT
   8
LEVEL003
  62
3
  10
 647.629
  20
 183.200
  30
0.0
  40
 16.0000
   1
約710
   7
STANDARD
  72
1
  11
 667.629
  21
 183.200
  31
0.0
   0
ARC
   8
LEVEL001
   6
CONTINUOUS
  62
7
  10
 348.565
  20
 405.462
  30
0.0
  40
 1.00000
  50
 271.336
  51
 1.33614
   0
LINE
   8
LEVEL001
   6
CONTINUOUS
  62
7
  10
 349.565
  20
 405.485
  30
0.0
  11
 349.374
  21
 413.668
  31
0.0
   0
LINE
   8
LEVEL001
   6
CONTINUOUS
  62
7
  10
 372.082
  20
 405.010
  30
0.0
  11
 346.089
  21
 404.404
  31
0.0
   0
ARC
   8
LEVEL001
   6
CONTINUOUS
  62
7
  10
 369.559
  20
 405.951
  30
0.0
  40
 1.00000
  50
 181.336
  51
 271.336
   0
LINE
   8
LEVEL001
   6
CONTINUOUS
  62
7
  10
 368.559
  20
 405.928
  30
0.0
  11
 368.490
  21
 408.912
  31
0.0
   0
LINE
   8
LEVEL001
   6
CONTINUOUS
  62
7
  10
 372.379
  20
 404.726
  30
0.0
  11
 372.082
  21
 405.010
  31
0.0
   0
LINE
   8
LEVEL001
   6
CONTINUOUS
  62
7
  10
 345.805
  20
 404.106
  30
0.0
  11
 346.089
  21
 404.404
  31
0.0
   0
ARC
   8
LEVEL011
   6
CONTINUOUS
  62
7
  10
 395.927
  20
 375.767
  30
0.0
  40
 1.00000
  50
 183.082
  51
 273.082
   0
LINE
   8
LEVEL011
   6
CONTINUOUS
  62
7
  10
 395.981
  20
 374.768
  30
0.0
  11
 401.973
  21
 375.091
  31
0.0
   0
ARC
   8
LEVEL011
   6
CONTINUOUS
  62
7
  10
 401.919
  20
 376.089
  30
0.0
  40
 1.00000
  50
 273.082
  51
 3.08132
   0
LINE
   8
LEVEL011
   6
CONTINUOUS
  62
7
  10
 394.929
  20
 375.713
  30
0.0
  11
 394.688
  21
 380.185
  31
0.0
   0
LINE
   8
LEVEL011
   6
CONTINUOUS
  62
7
  10
 402.917
  20
 376.143
  30
0.0
  11
 402.678
  21
 380.585
  31
0.0
   0
LINE
   8
LEVEL003
   6
CONTINUOUS
  62
7
  10
 927.715
  20
 392.922
  30
0.0
  11
 928.515
  21
 392.941
  31
0.0
   0
LINE
   8
LEVEL001
   6
CONTINUOUS
  62
7
  10
 928.474
  20
 394.690
  30
0.0
  11
 930.717
  21
 394.547
  31
0.0
   0
ARC
   8
LEVEL001
   6
CONTINUOUS
  62
7
  10
 930.550
  20
 391.952
  30
0.0
  40
 2.60000
  50
 17.2170
  51
 86.3361
   0
LINE
   8
LEVEL001
   6
CONTINUOUS
  62
7
  10
 928.474
  20
 394.690
  30
0.0
  11
 928.800
  21
 380.694
  31
0.0
   0
ARC
   8
LEVEL001
   6
CONTINUOUS
  62
7
  10
 915.840
  20
 387.394
  30
0.0
  40
 18.0000
  50
 345.455
  51
 17.2170
   0
LINE
   8
LEVEL003
   6
CONTINUOUS
  62
7
  10
 927.960
  20
 382.425
  30
0.0
  11
 928.759
  21
 382.444
  31
0.0
   0
LINE
   8
LEVEL001
   6
CONTINUOUS
  62
7
  10
 928.800
  20
 380.694
  30
0.0
  11
 931.034
  21
 380.942
  31
0.0
   0
ARC
   8
LEVEL001
   6
CONTINUOUS
  62
7
  10
 930.747
  20
 383.526
  30
0.0
  40
 2.60000
  50
 276.336
  51
 345.455
   0
LINE
   8
LEVEL003
   6
DOT
  62
3
  10
 314.760
  20
 343.116
  30
0.0
  11
 314.281
  21
 363.610
  31
0.0
   0
LINE
   8
LEVEL003
   6
DOT
  62
3
  10
 324.705
  20
 364.603
  30
0.0
  11
 313.514
  21
 364.342
  31
0.0
   0
LINE
   8
LEVEL003
   6
DOT
  62
3
  10
 324.723
  20
 363.854
  30
0.0
  11
 314.281
  21
 363.610
  31
0.0
   0
LINE
   8
LEVEL003
   6
DOT
  62
3
  10
 314.281
  20
 363.610
  30
0.0
  11
 313.514
  21
 364.342
  31
0.0
   0
LINE
   8
LEVEL003
   6
DOT
  62
3
  10
 314.027
  20
 342.348
  30
0.0
  11
 325.218
  21
 342.609
  31
0.0
   0
LINE
   8
LEVEL003
   6
DOT
  62
3
  10
 314.027
  20
 342.348
  30
0.0
  11
 314.760
  21
 343.116
  31
0.0
   0
LINE
   8
LEVEL003
   6
DOT
  62
3
  10
 314.760
  20
 343.116
  30
0.0
  11
 325.201
  21
 343.359
  31
0.0
   0
CIRCLE
   8
LEVEL003
   6
CONTINUOUS
  62
7
  10
 1255.42
  20
 88.2826
  30
0.0
  40
 9.00000
   0
LINE
   8
LEVEL003
   6
CONTINUOUS
  62
7
  10
 1273.08
  20
 97.2826
  30
0.0
  11
 1261.65
  21
 77.4826
  31
0.0
   0
LINE
   8
LEVEL003
   6
CONTINUOUS
  62
7
  10
 1261.65
  20
 77.4826
  30
0.0
  11
 1238.79
  21
 77.4826
  31
0.0
   0
LINE
   8
LEVEL003
   6
CONTINUOUS
  62
7
  10
 1236.19
  20
 72.9826
  30
0.0
  11
 1277.05
  21
 72.9826
  31
0.0
   0
LINE
   8
LEVEL003
   6
CONTINUOUS
  62
7
  10
 1277.05
  20
 72.9826
  30
0.0
  11
 1291.08
  21
 97.2826
  31
0.0
   0
LINE
   8
LEVEL003
   6
CONTINUOUS
  62
7
  10
 1291.08
  20
 97.2826
  30
0.0
  11
 1273.08
  21
 97.2826
  31
0.0
   0
LINE
   8
LEVEL003
   6
CONTINUOUS
  62
7
  10
 1238.79
  20
 77.4826
  30
0.0
  11
 1236.19
  21
 72.9826
  31
0.0
   0
TEXT
   8
LEVEL003
  62
7
  10
 1298.23
  20
 66.9626
  30
0.0
  40
 22.5000
   1
ＯＳＡＫＡ ＪＡＣＫ
   7
STANDARD
   0
TEXT
   8
LEVEL003
  62
7
  10
 1302.97
  20
 112.512
  30
0.0
  40
 15.0000
   1
Model : ＴＷＡＺ－１．３
   7
STANDARD
   0
ENDSEC
   0
EOF
