   0
SECTION
   2
HEADER
   9
$LIMMIN
  10
-46.0000
  20
0.0
   9
$LIMMAX
  10
 1680.00
  20
 1188.00
   9
$EXTMIN
  10
-46.0000
  20
0.0
   9
$EXTMAX
  10
 1680.00
  20
 1188.00
   9
$LTSCALE
  40
 34.5200
   0
ENDSEC
   0
SECTION
   2
TABLES
  0
TABLE
  2
LTYPE
 70
    25
  0
LTYPE
  2
CONTINUOUS
 70
    64
  3
Solid line
 72
    65
 73
     0
 40
0.0
  0
LTYPE
  2
BORDER
 70
    64
  3
__ __ . __ __ . __ __ . __ __ . __ __ . __ __ .
 72
    65
 73
     6
 40
1.75
 49
0.5
 49
-0.25
 49
0.5
 49
-0.25
 49
0.0
 49
-0.25
  0
LTYPE
  2
BORDER2
 70
    64
  3
__.__.__.__.__.__.__.__.__.__.__.__.__.__.__.__
 72
    65
 73
     6
 40
0.875
 49
0.25
 49
-0.125
 49
0.25
 49
-0.125
 49
0.0
 49
-0.125
  0
LTYPE
  2
BORDERX2
 70
    64
  3
____  ____  .  ____  ____  .  ____  ____  .  __
 72
    65
 73
     6
 40
3.5
 49
1.0
 49
-0.5
 49
1.0
 49
-0.5
 49
0.0
 49
-0.5
  0
LTYPE
  2
CENTER
 70
    64
  3
____ _ ____ _ ____ _ ____ _ ____ _ ____ _ ____ 
 72
    65
 73
     4
 40
2.0
 49
1.25
 49
-0.25
 49
0.25
 49
-0.25
  0
LTYPE
  2
CENTER2
 70
    64
  3
___ _ ___ _ ___ _ ___ _ ___ _ ___ _ ___ _ ___ _
 72
    65
 73
     4
 40
1.125
 49
0.75
 49
-0.125
 49
0.125
 49
-0.125
  0
LTYPE
  2
CENTERX2
 70
    64
  3
________  __  ________  __  ________  __  _____
 72
    65
 73
     4
 40
4.0
 49
2.5
 49
-0.5
 49
0.5
 49
-0.5
  0
LTYPE
  2
DASHDOT
 70
    64
  3
__ . __ . __ . __ . __ . __ . __ . __ . __ . __
 72
    65
 73
     4
 40
1.0
 49
0.5
 49
-0.25
 49
0.0
 49
-0.25
  0
LTYPE
  2
DASHDOT2
 70
    64
  3
_._._._._._._._._._._._._._._._._._._._._._._._
 72
    65
 73
     4
 40
0.5
 49
0.25
 49
-0.125
 49
0.0
 49
-0.125
  0
LTYPE
  2
DASHDOTX2
 70
    64
  3
____  .  ____  .  ____  .  ____  .  ____  .  __
 72
    65
 73
     4
 40
2.0
 49
1.0
 49
-0.5
 49
0.0
 49
-0.5
  0
LTYPE
  2
DASHED
 70
    64
  3
__ __ __ __ __ __ __ __ __ __ __ __ __ __ __ __
 72
    65
 73
     2
 40
0.75
 49
0.5
 49
-0.25
  0
LTYPE
  2
DASHED2
 70
    64
  3
_ _ _ _ _ _ _ _ _ _ _ _ _ _ _ _ _ _ _ _ _ _ _ _
 72
    65
 73
     2
 40
0.375
 49
0.25
 49
-0.125
  0
LTYPE
  2
DASHEDX2
 70
    64
  3
____  ____  ____  ____  ____  ____  ____  ____ 
 72
    65
 73
     2
 40
1.5
 49
1.0
 49
-0.5
  0
LTYPE
  2
DIVIDE
 70
    64
  3
____ . . ____ . . ____ . . ____ . . ____ . . __
 72
    65
 73
     6
 40
1.25
 49
0.5
 49
-0.25
 49
0.0
 49
-0.25
 49
0.0
 49
-0.25
  0
LTYPE
  2
DIVIDE2
 70
    64
  3
__..__..__..__..__..__..__..__..__..__..__..__.
 72
    65
 73
     6
 40
0.625
 49
0.25
 49
-0.125
 49
0.0
 49
-0.125
 49
0.0
 49
-0.125
  0
LTYPE
  2
DIVIDEX2
 70
    64
  3
________  .  .  ________  .  .  ________  .  . 
 72
    65
 73
     6
 40
2.5
 49
1.0
 49
-0.5
 49
0.0
 49
-0.5
 49
0.0
 49
-0.5
  0
LTYPE
  2
DOT
 70
    64
  3
. . . . . . . . . . . . . . . . . . . . . . . .
 72
    65
 73
     2
 40
0.25
 49
0.0
 49
-0.25
  0
LTYPE
  2
DOT2
 70
    64
  3
...............................................
 72
    65
 73
     2
 40
0.125
 49
0.0
 49
-0.125
  0
LTYPE
  2
DOTX2
 70
    64
  3
.  .  .  .  .  .  .  .  .  .  .  .  .  .  .  . 
 72
    65
 73
     2
 40
0.5
 49
0.0
 49
-0.5
  0
LTYPE
  2
HIDDEN
 70
    64
  3
__ __ __ __ __ __ __ __ __ __ __ __ __ __ __ __
 72
    65
 73
     2
 40
0.375
 49
0.25
 49
-0.125
  0
LTYPE
  2
HIDDEN2
 70
    64
  3
_ _ _ _ _ _ _ _ _ _ _ _ _ _ _ _ _ _ _ _ _ _ _ _
 72
    65
 73
     2
 40
0.1875
 49
0.125
 49
-0.0625
  0
LTYPE
  2
HIDDENX2
 70
    64
  3
____ ____ ____ ____ ____ ____ ____ ____ ____ __
 72
    65
 73
     2
 40
0.75
 49
0.5
 49
-0.25
  0
LTYPE
  2
PHANTOM
 70
    64
  3
______  __  __  ______  __  __  ______  __  __ 
 72
    65
 73
     6
 40
2.5
 49
1.25
 49
-0.25
 49
0.25
 49
-0.25
 49
0.25
 49
-0.25
  0
LTYPE
  2
PHANTOM2
 70
    64
  3
___ _ _ ___ _ _ ___ _ _ ___ _ _ ___ _ _ ___ _ _
 72
    65
 73
     6
 40
1.25
 49
0.625
 49
-0.125
 49
0.125
 49
-0.125
 49
0.125
 49
-0.125
  0
LTYPE
  2
PHANTOMX2
 70
    64
  3
____________    ____    ____    ____________   
 72
    65
 73
     6
 40
5.0
 49
2.5
 49
-0.5
 49
0.5
 49
-0.5
 49
0.5
 49
-0.5
  0
ENDTAB
  0
TABLE
  2
STYLE
 70
     2
  0
STYLE
  2
STANDARD
 70
0
 40
0.0
 41
1.0
 50
0.0
 71
0
 42
0.2
  3
TXT
  4
BIGFONT
  0
STYLE
  2
STANDARD1
 70
     4
 40
0.0
 41
1.0
 50
0.0
 71
     0
 42
0.2
  3
TXT
  4
BIGFONT
  0
ENDTAB
   0
TABLE
   2
LAYER
  70
11
   0
LAYER
   2
0
  70
0
  62
7
   6
CONTINUOUS
   0
LAYER
   2
LEVEL001
  70
0
  62
7
   6
CONTINUOUS
   0
LAYER
   2
LEVEL003
  70
0
  62
7
   6
CONTINUOUS
   0
LAYER
   2
LEVEL010
  70
0
  62
7
   6
CONTINUOUS
   0
LAYER
   2
LEVEL011
  70
0
  62
7
   6
CONTINUOUS
   0
LAYER
   2
LEVEL012
  70
0
  62
7
   6
CONTINUOUS
   0
LAYER
   2
LEVEL014
  70
0
  62
7
   6
CONTINUOUS
   0
LAYER
   2
LEVEL020
  70
0
  62
7
   6
CONTINUOUS
   0
LAYER
   2
LEVEL030
  70
0
  62
7
   6
CONTINUOUS
   0
LAYER
   2
LEVEL050
  70
0
  62
7
   6
CONTINUOUS
   0
LAYER
   2
LEVEL100
  70
0
  62
-7
   6
CONTINUOUS
   0
ENDTAB
   0
ENDSEC
   0
SECTION
   2
ENTITIES
   0
LINE
   8
LEVEL100
   6
CONTINUOUS
  62
7
  10
 1145.00
  20
 216.000
  30
0.0
  11
 1145.00
  21
 188.000
  31
0.0
   0
LINE
   8
LEVEL100
   6
CONTINUOUS
  62
7
  10
 1265.00
  20
 216.000
  30
0.0
  11
 1265.00
  21
 124.000
  31
0.0
   0
LINE
   8
LEVEL100
   6
CONTINUOUS
  62
7
  10
 1345.00
  20
 216.000
  30
0.0
  11
 1345.00
  21
 188.000
  31
0.0
   0
LINE
   8
LEVEL100
   6
CONTINUOUS
  62
7
  10
 1377.00
  20
 216.000
  30
0.0
  11
 1377.00
  21
 188.000
  31
0.0
   0
LINE
   8
LEVEL100
   6
CONTINUOUS
  62
7
  10
 1423.00
  20
 216.000
  30
0.0
  11
 1423.00
  21
 188.000
  31
0.0
   0
LINE
   8
LEVEL100
   6
CONTINUOUS
  62
7
  10
 1227.00
  20
 188.000
  30
0.0
  11
 1227.00
  21
 124.000
  31
0.0
   0
LINE
   8
LEVEL100
   6
CONTINUOUS
  62
7
  10
 1161.00
  20
 66.0000
  30
0.0
  11
 1181.00
  21
 86.0000
  31
0.0
   0
CIRCLE
   8
LEVEL100
   6
CONTINUOUS
  62
7
  10
 1133.00
  20
 6.00000
  30
0.0
  40
 1.60000
   0
CIRCLE
   8
LEVEL100
   6
CONTINUOUS
  62
7
  10
 1161.00
  20
 6.00000
  30
0.0
  40
 1.60000
   0
CIRCLE
   8
LEVEL100
   6
CONTINUOUS
  62
7
  10
 1133.00
  20
 6.00000
  30
0.0
  40
 1.00000
   0
CIRCLE
   8
LEVEL100
   6
CONTINUOUS
  62
7
  10
 1161.00
  20
 6.00000
  30
0.0
  40
 1.00000
   0
LINE
   8
LEVEL100
   6
CONTINUOUS
  62
7
  10
 1284.00
  20
 22.0000
  30
0.0
  11
 1284.00
  21
 26.0000
  31
0.0
   0
LINE
   8
LEVEL100
   6
CONTINUOUS
  62
7
  10
 1284.00
  20
 26.0000
  30
0.0
  11
 1296.00
  21
 26.0000
  31
0.0
   0
LINE
   8
LEVEL100
   6
CONTINUOUS
  62
7
  10
 1296.00
  20
 26.0000
  30
0.0
  11
 1296.00
  21
 22.0000
  31
0.0
   0
LINE
   8
LEVEL100
   6
CONTINUOUS
  62
7
  10
 1296.00
  20
 22.0000
  30
0.0
  11
 1284.00
  21
 22.0000
  31
0.0
   0
LINE
   8
LEVEL100
   6
CONTINUOUS
  62
7
  10
 1105.00
  20
0.0
  30
0.0
  11
 1105.00
  21
 216.000
  31
0.0
   0
LINE
   8
LEVEL100
   6
CONTINUOUS
  62
7
  10
 1189.00
  20
 188.000
  30
0.0
  11
 1189.00
  21
0.0
  31
0.0
   0
LINE
   8
LEVEL100
   6
CONTINUOUS
  62
7
  10
 1105.00
  20
 92.0000
  30
0.0
  11
 1189.00
  21
 92.0000
  31
0.0
   0
TEXT
   8
LEVEL100
  62
7
  10
 1203.00
  20
 14.0000
  30
0.0
  40
 20.0000
   1
ＯＪ
  41
 0.700000
   7
STANDARD
   0
LINE
   8
LEVEL100
   6
CONTINUOUS
  62
7
  10
 1105.00
  20
 188.000
  30
0.0
  11
 1532.60
  21
 188.000
  31
0.0
   0
LINE
   8
LEVEL100
   6
CONTINUOUS
  62
7
  10
 1105.00
  20
 172.000
  30
0.0
  11
 1532.60
  21
 172.000
  31
0.0
   0
LINE
   8
LEVEL100
   6
CONTINUOUS
  62
7
  10
 1105.00
  20
 216.000
  30
0.0
  11
 1532.60
  21
 216.000
  31
0.0
   0
LINE
   8
LEVEL100
   6
CONTINUOUS
  62
7
  10
 1208.60
  20
 1012.00
  30
0.0
  11
 1208.60
  21
 1112.00
  31
0.0
   0
LINE
   8
LEVEL100
   6
CONTINUOUS
  62
7
  10
 1208.60
  20
 1092.00
  30
0.0
  11
 1532.60
  21
 1092.00
  31
0.0
   0
LINE
   8
LEVEL100
   6
CONTINUOUS
  62
7
  10
 1208.60
  20
 1072.00
  30
0.0
  11
 1532.60
  21
 1072.00
  31
0.0
   0
LINE
   8
LEVEL100
   6
CONTINUOUS
  62
7
  10
 1244.60
  20
 1092.00
  30
0.0
  11
 1244.60
  21
 1072.00
  31
0.0
   0
LINE
   8
LEVEL100
   6
CONTINUOUS
  62
7
  10
 1452.60
  20
 1092.00
  30
0.0
  11
 1452.60
  21
 1072.00
  31
0.0
   0
LINE
   8
LEVEL100
   6
CONTINUOUS
  62
7
  10
 1500.60
  20
 1092.00
  30
0.0
  11
 1500.60
  21
 1072.00
  31
0.0
   0
LINE
   8
LEVEL100
   6
CONTINUOUS
  62
7
  10
 1105.00
  20
 124.000
  30
0.0
  11
 1532.60
  21
 124.000
  31
0.0
   0
LINE
   8
LEVEL100
   6
CONTINUOUS
  62
7
  10
 1105.00
  20
 60.0000
  30
0.0
  11
 1532.60
  21
 60.0000
  31
0.0
   0
LINE
   8
LEVEL100
   6
CONTINUOUS
  62
7
  10
 1420.60
  20
 60.0000
  30
0.0
  11
 1420.60
  21
0.0
  31
0.0
   0
LINE
   8
LEVEL100
   6
CONTINUOUS
  62
7
  10
 1436.60
  20
0.0
  30
0.0
  11
 1504.60
  21
 40.0000
  31
0.0
   0
LINE
   8
LEVEL100
   6
CONTINUOUS
  62
7
  10
0.0
  20
 1112.00
  30
0.0
  11
 1532.60
  21
 1112.00
  31
0.0
   0
LINE
   8
LEVEL100
   6
CONTINUOUS
  62
7
  10
 1532.60
  20
 1112.00
  30
0.0
  11
 1532.60
  21
0.0
  31
0.0
   0
LINE
   8
LEVEL100
   6
CONTINUOUS
  62
7
  10
 1532.60
  20
0.0
  30
0.0
  11
0.0
  21
0.0
  31
0.0
   0
LINE
   8
LEVEL100
   6
CONTINUOUS
  62
7
  10
0.0
  20
 1076.80
  30
0.0
  11
 200.600
  21
 1076.80
  31
0.0
   0
LINE
   8
LEVEL100
   6
CONTINUOUS
  62
7
  10
 200.600
  20
 1076.80
  30
0.0
  11
 200.600
  21
 1112.00
  31
0.0
   0
TEXT
   8
LEVEL100
  62
7
  10
 196.600
  20
 1104.40
  30
0.0
  40
 20.0000
   1
ＯＪ．
  50
 180.000
  41
 0.900000
   7
STANDARD
   0
LINE
   8
LEVEL100
   6
CONTINUOUS
  62
7
  10
 128.600
  20
 1096.40
  30
0.0
  11
 116.600
  21
 1096.40
  31
0.0
   0
LINE
   8
LEVEL100
   6
CONTINUOUS
  62
7
  10
 116.600
  20
 1096.40
  30
0.0
  11
 116.600
  21
 1092.40
  31
0.0
   0
LINE
   8
LEVEL100
   6
CONTINUOUS
  62
7
  10
 116.600
  20
 1092.40
  30
0.0
  11
 128.600
  21
 1092.40
  31
0.0
   0
LINE
   8
LEVEL100
   6
CONTINUOUS
  62
7
  10
 128.600
  20
 1092.40
  30
0.0
  11
 128.600
  21
 1096.40
  31
0.0
   0
TEXT
   8
LEVEL100
  62
7
  10
 1149.00
  20
 192.000
  30
0.0
  40
 16.0000
   1
Ｓ．ＩＭＡＮＩＳＨＩ
  41
 0.625000
   7
STANDARD
   0
LINE
   8
LEVEL001
   6
DASHDOT
  62
1
  10
 307.438
  20
 843.571
  30
0.0
  11
 307.438
  21
 784.219
  31
0.0
   0
LINE
   8
LEVEL001
   6
DASHDOT
  62
1
  10
 300.438
  20
 867.913
  30
0.0
  11
 300.438
  21
 821.459
  31
0.0
   0
LINE
   8
LEVEL001
   6
DASHDOT
  62
1
  10
 300.438
  20
 811.894
  30
0.0
  11
 300.438
  21
 763.159
  31
0.0
   0
LINE
   8
LEVEL001
   6
DASHDOT
  62
1
  10
 324.438
  20
 869.828
  30
0.0
  11
 324.438
  21
 763.159
  31
0.0
   0
LINE
   8
LEVEL001
   6
DASHDOT
  62
1
  10
 282.438
  20
 784.437
  30
0.0
  11
 282.438
  21
 909.238
  31
0.0
   0
LINE
   8
LEVEL001
   6
DASHDOT
  62
1
  10
 347.764
  20
 836.438
  30
0.0
  11
 248.738
  21
 836.437
  31
0.0
   0
LINE
   8
LEVEL001
   6
DOT
  62
3
  10
 267.438
  20
 862.438
  30
0.0
  11
 267.438
  21
 865.938
  31
0.0
   0
LINE
   8
LEVEL001
   6
DOT
  62
3
  10
 297.438
  20
 862.438
  30
0.0
  11
 297.438
  21
 865.938
  31
0.0
   0
LINE
   8
LEVEL001
   6
DOT
  62
3
  10
 267.438
  20
 862.438
  30
0.0
  11
 297.438
  21
 862.438
  31
0.0
   0
ARC
   8
LEVEL003
   6
CONTINUOUS
  62
7
  10
 288.188
  20
 856.829
  30
0.0
  40
 16.6080
  50
 69.7438
  51
 110.256
   0
ARC
   8
LEVEL003
   6
CONTINUOUS
  62
7
  10
 276.688
  20
 856.829
  30
0.0
  40
 16.6080
  50
 69.7438
  51
 110.256
   0
LINE
   8
LEVEL001
   6
CONTINUOUS
  62
7
  10
 270.229
  20
 882.030
  30
0.0
  11
 277.438
  21
 882.030
  31
0.0
   0
LINE
   8
LEVEL001
   6
CONTINUOUS
  62
7
  10
 287.438
  20
 882.030
  30
0.0
  11
 294.646
  21
 882.030
  31
0.0
   0
ARC
   8
LEVEL001
   6
CONTINUOUS
  62
7
  10
 264.853
  20
 889.030
  30
0.0
  40
 3.00000
  50
 8.53108
  51
 89.9986
   0
LINE
   8
LEVEL001
   6
CONTINUOUS
  62
7
  10
 257.580
  20
 893.030
  30
0.0
  11
 257.580
  21
 901.254
  31
0.0
   0
ARC
   8
LEVEL001
   6
CONTINUOUS
  62
7
  10
 258.580
  20
 893.030
  30
0.0
  40
 1.00000
  50
 180.000
  51
 270.000
   0
LINE
   8
LEVEL001
   6
CONTINUOUS
  62
7
  10
 258.580
  20
 892.030
  30
0.0
  11
 282.438
  21
 892.030
  31
0.0
   0
ARC
   8
LEVEL010
   6
CONTINUOUS
  62
7
  10
 269.964
  20
 893.030
  30
0.0
  40
 1.00000
  50
 180.000
  51
 270.000
   0
ARC
   8
LEVEL010
   6
CONTINUOUS
  62
7
  10
 270.964
  20
 901.230
  30
0.0
  40
 2.00000
  50
 90.0000
  51
 180.000
   0
ARC
   8
LEVEL010
   6
CONTINUOUS
  62
7
  10
 267.964
  20
 893.030
  30
0.0
  40
 1.00000
  50
 270.000
  51
 0.261854E-8
   0
ARC
   8
LEVEL010
   6
CONTINUOUS
  62
7
  10
 266.964
  20
 901.230
  30
0.0
  40
 2.00000
  50
0.0
  51
 90.0000
   0
LINE
   8
LEVEL010
   6
CONTINUOUS
  62
7
  10
 268.964
  20
 893.030
  30
0.0
  11
 268.964
  21
 901.230
  31
0.0
   0
LINE
   8
LEVEL010
   6
CONTINUOUS
  62
7
  10
 278.938
  20
 893.030
  30
0.0
  11
 278.938
  21
 901.230
  31
0.0
   0
ARC
   8
LEVEL001
   6
CONTINUOUS
  62
7
  10
 300.020
  20
 889.030
  30
0.0
  40
 3.00000
  50
 89.9990
  51
 171.469
   0
ARC
   8
LEVEL001
   6
CONTINUOUS
  62
7
  10
 306.292
  20
 893.030
  30
0.0
  40
 1.00000
  50
 270.000
  51
 0.820736E-9
   0
LINE
   8
LEVEL001
   6
CONTINUOUS
  62
7
  10
 307.292
  20
 893.030
  30
0.0
  11
 307.292
  21
 901.254
  31
0.0
   0
LINE
   8
LEVEL001
   6
CONTINUOUS
  62
7
  10
 282.438
  20
 892.030
  30
0.0
  11
 306.292
  21
 892.030
  31
0.0
   0
ARC
   8
LEVEL010
   6
CONTINUOUS
  62
7
  10
 294.911
  20
 893.030
  30
0.0
  40
 1.00000
  50
 270.000
  51
 0.104220E-9
   0
ARC
   8
LEVEL010
   6
CONTINUOUS
  62
7
  10
 293.911
  20
 901.230
  30
0.0
  40
 2.00000
  50
0.0
  51
 90.0000
   0
ARC
   8
LEVEL010
   6
CONTINUOUS
  62
7
  10
 296.911
  20
 893.030
  30
0.0
  40
 1.00000
  50
 180.000
  51
 270.000
   0
ARC
   8
LEVEL010
   6
CONTINUOUS
  62
7
  10
 297.911
  20
 901.230
  30
0.0
  40
 2.00000
  50
 90.0000
  51
 180.000
   0
LINE
   8
LEVEL010
   6
CONTINUOUS
  62
7
  10
 295.911
  20
 893.030
  30
0.0
  11
 295.911
  21
 901.230
  31
0.0
   0
LINE
   8
LEVEL010
   6
CONTINUOUS
  62
7
  10
 285.938
  20
 893.030
  30
0.0
  11
 285.938
  21
 901.230
  31
0.0
   0
ARC
   8
LEVEL001
   6
CONTINUOUS
  62
7
  10
 294.214
  20
 884.030
  30
0.0
  40
 2.00000
  50
 270.001
  51
 351.469
   0
LINE
   8
LEVEL001
   6
CONTINUOUS
  62
7
  10
 296.192
  20
 883.733
  30
0.0
  11
 297.053
  21
 889.475
  31
0.0
   0
LINE
   8
LEVEL001
   6
CONTINUOUS
  62
7
  10
 282.438
  20
 882.030
  30
0.0
  11
 294.214
  21
 882.030
  31
0.0
   0
ARC
   8
LEVEL001
   6
CONTINUOUS
  62
7
  10
 270.659
  20
 884.030
  30
0.0
  40
 2.00000
  50
 188.531
  51
 270.001
   0
LINE
   8
LEVEL001
   6
CONTINUOUS
  62
7
  10
 268.681
  20
 883.733
  30
0.0
  11
 267.819
  21
 889.475
  31
0.0
   0
LINE
   8
LEVEL001
   6
CONTINUOUS
  62
7
  10
 270.659
  20
 882.030
  30
0.0
  11
 282.438
  21
 882.030
  31
0.0
   0
LINE
   8
LEVEL001
   6
CONTINUOUS
  62
7
  10
 276.086
  20
 882.030
  30
0.0
  11
 276.086
  21
 873.438
  31
0.0
   0
LINE
   8
LEVEL001
   6
CONTINUOUS
  62
7
  10
 288.786
  20
 882.030
  30
0.0
  11
 288.786
  21
 873.438
  31
0.0
   0
LINE
   8
LEVEL003
   6
CONTINUOUS
  62
7
  10
 282.438
  20
 865.938
  30
0.0
  11
 282.438
  21
 872.410
  31
0.0
   0
LINE
   8
LEVEL003
   6
CONTINUOUS
  62
7
  10
 293.938
  20
 865.938
  30
0.0
  11
 293.938
  21
 873.438
  31
0.0
   0
LINE
   8
LEVEL003
   6
CONTINUOUS
  62
7
  10
 293.938
  20
 873.438
  30
0.0
  11
 270.938
  21
 873.438
  31
0.0
   0
LINE
   8
LEVEL003
   6
CONTINUOUS
  62
7
  10
 270.938
  20
 873.438
  30
0.0
  11
 270.938
  21
 865.938
  31
0.0
   0
LINE
   8
LEVEL001
   6
CONTINUOUS
  62
7
  10
 250.437
  20
 774.937
  30
0.0
  11
 250.437
  21
 840.937
  31
0.0
   0
ARC
   8
LEVEL001
   6
CONTINUOUS
  62
7
  10
 255.437
  20
 815.937
  30
0.0
  40
 2.00000
  50
 90.0000
  51
 180.000
   0
LINE
   8
LEVEL001
   6
CONTINUOUS
  62
7
  10
 253.437
  20
 815.937
  30
0.0
  11
 253.437
  21
 812.937
  31
0.0
   0
ARC
   8
LEVEL001
   6
CONTINUOUS
  62
7
  10
 255.437
  20
 812.937
  30
0.0
  40
 2.00000
  50
 180.000
  51
 270.000
   0
LINE
   8
LEVEL001
   6
CONTINUOUS
  62
7
  10
 253.492
  20
 865.647
  30
0.0
  11
 251.765
  21
 840.937
  31
0.0
   0
ARC
   8
LEVEL001
   6
CONTINUOUS
  62
7
  10
 305.605
  20
 767.437
  30
0.0
  40
 2.00000
  50
 270.000
  51
 355.000
   0
ARC
   8
LEVEL001
   6
CONTINUOUS
  62
7
  10
 276.223
  20
 767.437
  30
0.0
  40
 2.00000
  50
 185.000
  51
 270.000
   0
LINE
   8
LEVEL001
   6
CONTINUOUS
  62
7
  10
 250.437
  20
 774.937
  30
0.0
  11
 273.559
  21
 774.937
  31
0.0
   0
ARC
   8
LEVEL001
   6
CONTINUOUS
  62
7
  10
 270.373
  20
 776.937
  30
0.0
  40
 3.00000
  50
 5.00000
  51
 90.0000
   0
LINE
   8
LEVEL001
   6
CONTINUOUS
  62
7
  10
 274.230
  20
 767.263
  30
0.0
  11
 273.361
  21
 777.199
  31
0.0
   0
LINE
   8
LEVEL001
   6
CONTINUOUS
  62
7
  10
 250.437
  20
 840.937
  30
0.0
  11
 253.979
  21
 840.937
  31
0.0
   0
ARC
   8
LEVEL001
   6
CONTINUOUS
  62
7
  10
 253.979
  20
 843.937
  30
0.0
  40
 3.00000
  50
 270.000
  51
 356.000
   0
LINE
   8
LEVEL001
   6
CONTINUOUS
  62
7
  10
 310.399
  20
 857.009
  30
0.0
  11
 311.829
  21
 840.667
  31
0.0
   0
ARC
   8
LEVEL001
   6
CONTINUOUS
  62
7
  10
 259.762
  20
 822.937
  30
0.0
  40
 5.00000
  50
 270.000
  51
 355.000
   0
ARC
   8
LEVEL001
   6
CONTINUOUS
  62
7
  10
 259.762
  20
 805.937
  30
0.0
  40
 5.00000
  50
 5.00000
  51
 90.0000
   0
ARC
   8
LEVEL001
   6
CONTINUOUS
  62
7
  10
 263.690
  20
 805.937
  30
0.0
  40
 5.00000
  50
 5.19443
  51
 90.0000
   0
ARC
   8
LEVEL001
   6
CONTINUOUS
  62
7
  10
 263.690
  20
 822.937
  30
0.0
  40
 5.00000
  50
 270.000
  51
 354.806
   0
ARC
   8
LEVEL001
   6
CONTINUOUS
  62
7
  10
 312.335
  20
 764.898
  30
0.0
  40
 5.00000
  50
 43.1339
  51
 136.375
   0
ARC
   8
LEVEL001
   6
CONTINUOUS
  62
7
  10
 318.270
  20
 768.437
  30
0.0
  40
 2.00000
  50
 192.063
  51
 270.000
   0
LINE
   8
LEVEL001
   6
CONTINUOUS
  62
7
  10
 318.688
  20
 766.437
  30
0.0
  11
 318.270
  21
 766.437
  31
0.0
   0
LINE
   8
LEVEL001
   6
CONTINUOUS
  62
7
  10
 331.335
  20
 765.123
  30
0.0
  11
 331.811
  21
 764.651
  31
0.0
   0
LINE
   8
LEVEL001
   6
CONTINUOUS
  62
7
  10
 331.811
  20
 764.651
  30
0.0
  11
 332.374
  21
 764.221
  31
0.0
   0
LINE
   8
LEVEL001
   6
CONTINUOUS
  62
7
  10
 332.374
  20
 764.221
  30
0.0
  11
 333.016
  21
 763.839
  31
0.0
   0
LINE
   8
LEVEL001
   6
CONTINUOUS
  62
7
  10
 333.016
  20
 763.839
  30
0.0
  11
 333.727
  21
 763.512
  31
0.0
   0
LINE
   8
LEVEL001
   6
CONTINUOUS
  62
7
  10
 333.727
  20
 763.512
  30
0.0
  11
 334.496
  21
 763.245
  31
0.0
   0
LINE
   8
LEVEL001
   6
CONTINUOUS
  62
7
  10
 334.496
  20
 763.245
  30
0.0
  11
 335.311
  21
 763.041
  31
0.0
   0
LINE
   8
LEVEL001
   6
CONTINUOUS
  62
7
  10
 335.311
  20
 763.041
  30
0.0
  11
 336.159
  21
 762.904
  31
0.0
   0
LINE
   8
LEVEL001
   6
CONTINUOUS
  62
7
  10
 336.159
  20
 762.904
  30
0.0
  11
 337.027
  21
 762.836
  31
0.0
   0
LINE
   8
LEVEL001
   6
CONTINUOUS
  62
7
  10
 337.027
  20
 762.836
  30
0.0
  11
 337.901
  21
 762.838
  31
0.0
   0
LINE
   8
LEVEL001
   6
CONTINUOUS
  62
7
  10
 337.901
  20
 762.838
  30
0.0
  11
 338.768
  21
 762.910
  31
0.0
   0
LINE
   8
LEVEL001
   6
CONTINUOUS
  62
7
  10
 338.768
  20
 762.910
  30
0.0
  11
 339.615
  21
 763.051
  31
0.0
   0
LINE
   8
LEVEL001
   6
CONTINUOUS
  62
7
  10
 339.615
  20
 763.051
  30
0.0
  11
 340.427
  21
 763.259
  31
0.0
   0
LINE
   8
LEVEL001
   6
CONTINUOUS
  62
7
  10
 340.427
  20
 763.259
  30
0.0
  11
 341.193
  21
 763.530
  31
0.0
   0
LINE
   8
LEVEL001
   6
CONTINUOUS
  62
7
  10
 341.193
  20
 763.530
  30
0.0
  11
 341.900
  21
 763.861
  31
0.0
   0
LINE
   8
LEVEL001
   6
CONTINUOUS
  62
7
  10
 341.900
  20
 763.861
  30
0.0
  11
 342.538
  21
 764.246
  31
0.0
   0
LINE
   8
LEVEL001
   6
CONTINUOUS
  62
7
  10
 342.538
  20
 764.246
  30
0.0
  11
 343.096
  21
 764.678
  31
0.0
   0
LINE
   8
LEVEL001
   6
CONTINUOUS
  62
7
  10
 343.096
  20
 764.678
  30
0.0
  11
 343.565
  21
 765.152
  31
0.0
   0
LINE
   8
LEVEL001
   6
CONTINUOUS
  62
7
  10
 343.565
  20
 765.152
  30
0.0
  11
 343.939
  21
 765.661
  31
0.0
   0
LINE
   8
LEVEL001
   6
CONTINUOUS
  62
7
  10
 343.939
  20
 765.661
  30
0.0
  11
 344.212
  21
 766.195
  31
0.0
   0
LINE
   8
LEVEL001
   6
CONTINUOUS
  62
7
  10
 344.212
  20
 766.195
  30
0.0
  11
 344.374
  21
 766.721
  31
0.0
   0
ARC
   8
LEVEL001
   6
CONTINUOUS
  62
7
  10
 329.301
  20
 762.822
  30
0.0
  40
 3.00000
  50
 48.5191
  51
 108.435
   0
LINE
   8
LEVEL001
   6
CONTINUOUS
  62
7
  10
 255.437
  20
 817.937
  30
0.0
  11
 263.690
  21
 817.937
  31
0.0
   0
LINE
   8
LEVEL001
   6
CONTINUOUS
  62
7
  10
 255.437
  20
 810.937
  30
0.0
  11
 263.690
  21
 810.937
  31
0.0
   0
ARC
   8
LEVEL001
   6
CONTINUOUS
  62
7
  10
 256.485
  20
 865.437
  30
0.0
  40
 3.00000
  50
 170.406
  51
 176.000
   0
ARC
   8
LEVEL001
   6
CONTINUOUS
  62
7
  10
 308.390
  20
 865.437
  30
0.0
  40
 3.00000
  50
 4.00000
  51
 9.59407
   0
LINE
   8
LEVEL001
   6
CONTINUOUS
  62
7
  10
 311.383
  20
 865.647
  30
0.0
  11
 311.907
  21
 858.145
  31
0.0
   0
ARC
   8
LEVEL001
   6
CONTINUOUS
  62
7
  10
 339.561
  20
 860.792
  30
0.0
  40
 5.00000
  50
 213.690
  51
 270.000
   0
LINE
   8
LEVEL001
   6
CONTINUOUS
  62
7
  10
 339.561
  20
 855.937
  30
0.0
  11
 344.437
  21
 855.937
  31
0.0
   0
LINE
   8
LEVEL001
   6
CONTINUOUS
  62
7
  10
 268.801
  20
 823.937
  30
0.0
  11
 268.669
  21
 822.485
  31
0.0
   0
LINE
   8
LEVEL001
   6
CONTINUOUS
  62
7
  10
 268.669
  20
 806.390
  30
0.0
  11
 268.801
  21
 804.937
  31
0.0
   0
LINE
   8
LEVEL001
   6
DASHDOT
  62
1
  10
 309.489
  20
 851.437
  30
0.0
  11
 340.277
  21
 851.437
  31
0.0
   0
LINE
   8
LEVEL001
   6
CONTINUOUS
  62
7
  10
 342.399
  20
 767.994
  30
0.0
  11
 342.323
  21
 768.307
  31
0.0
   0
LINE
   8
LEVEL001
   6
CONTINUOUS
  62
7
  10
 342.323
  20
 768.307
  30
0.0
  11
 342.187
  21
 768.607
  31
0.0
   0
LINE
   8
LEVEL001
   6
CONTINUOUS
  62
7
  10
 342.187
  20
 768.607
  30
0.0
  11
 341.992
  21
 768.888
  31
0.0
   0
LINE
   8
LEVEL001
   6
CONTINUOUS
  62
7
  10
 341.992
  20
 768.888
  30
0.0
  11
 341.742
  21
 769.147
  31
0.0
   0
LINE
   8
LEVEL001
   6
CONTINUOUS
  62
7
  10
 341.742
  20
 769.147
  30
0.0
  11
 341.440
  21
 769.379
  31
0.0
   0
LINE
   8
LEVEL001
   6
CONTINUOUS
  62
7
  10
 341.440
  20
 769.379
  30
0.0
  11
 341.092
  21
 769.580
  31
0.0
   0
LINE
   8
LEVEL001
   6
CONTINUOUS
  62
7
  10
 341.092
  20
 769.580
  30
0.0
  11
 340.702
  21
 769.749
  31
0.0
   0
LINE
   8
LEVEL001
   6
CONTINUOUS
  62
7
  10
 340.702
  20
 769.749
  30
0.0
  11
 340.277
  21
 769.881
  31
0.0
   0
LINE
   8
LEVEL001
   6
CONTINUOUS
  62
7
  10
 340.277
  20
 769.881
  30
0.0
  11
 339.823
  21
 769.975
  31
0.0
   0
LINE
   8
LEVEL001
   6
CONTINUOUS
  62
7
  10
 339.823
  20
 769.975
  30
0.0
  11
 339.347
  21
 770.029
  31
0.0
   0
LINE
   8
LEVEL001
   6
CONTINUOUS
  62
7
  10
 339.347
  20
 770.029
  30
0.0
  11
 338.857
  21
 770.043
  31
0.0
   0
LINE
   8
LEVEL001
   6
CONTINUOUS
  62
7
  10
 338.857
  20
 770.043
  30
0.0
  11
 338.361
  21
 770.017
  31
0.0
   0
LINE
   8
LEVEL001
   6
CONTINUOUS
  62
7
  10
 338.361
  20
 770.017
  30
0.0
  11
 337.866
  21
 769.950
  31
0.0
   0
LINE
   8
LEVEL001
   6
CONTINUOUS
  62
7
  10
 337.866
  20
 769.950
  30
0.0
  11
 337.379
  21
 769.844
  31
0.0
   0
LINE
   8
LEVEL001
   6
CONTINUOUS
  62
7
  10
 337.379
  20
 769.844
  30
0.0
  11
 336.910
  21
 769.700
  31
0.0
   0
LINE
   8
LEVEL001
   6
CONTINUOUS
  62
7
  10
 336.910
  20
 769.700
  30
0.0
  11
 336.464
  21
 769.521
  31
0.0
   0
LINE
   8
LEVEL001
   6
CONTINUOUS
  62
7
  10
 336.464
  20
 769.521
  30
0.0
  11
 336.049
  21
 769.310
  31
0.0
   0
LINE
   8
LEVEL001
   6
CONTINUOUS
  62
7
  10
 336.049
  20
 769.310
  30
0.0
  11
 335.671
  21
 769.069
  31
0.0
   0
LINE
   8
LEVEL001
   6
CONTINUOUS
  62
7
  10
 335.671
  20
 769.069
  30
0.0
  11
 335.336
  21
 768.803
  31
0.0
   0
LINE
   8
LEVEL001
   6
CONTINUOUS
  62
7
  10
 335.336
  20
 768.803
  30
0.0
  11
 335.050
  21
 768.515
  31
0.0
   0
LINE
   8
LEVEL001
   6
CONTINUOUS
  62
7
  10
 335.050
  20
 768.515
  30
0.0
  11
 334.817
  21
 768.211
  31
0.0
   0
LINE
   8
LEVEL001
   6
CONTINUOUS
  62
7
  10
 334.817
  20
 768.211
  30
0.0
  11
 334.640
  21
 767.895
  31
0.0
   0
LINE
   8
LEVEL001
   6
CONTINUOUS
  62
7
  10
 334.640
  20
 767.895
  30
0.0
  11
 334.522
  21
 767.571
  31
0.0
   0
LINE
   8
LEVEL001
   6
CONTINUOUS
  62
7
  10
 334.522
  20
 767.571
  30
0.0
  11
 334.466
  21
 767.246
  31
0.0
   0
LINE
   8
LEVEL001
   6
CONTINUOUS
  62
7
  10
 334.466
  20
 767.246
  30
0.0
  11
 334.471
  21
 766.923
  31
0.0
   0
LINE
   8
LEVEL001
   6
CONTINUOUS
  62
7
  10
 334.471
  20
 766.923
  30
0.0
  11
 334.538
  21
 766.609
  31
0.0
   0
LINE
   8
LEVEL001
   6
CONTINUOUS
  62
7
  10
 334.538
  20
 766.609
  30
0.0
  11
 334.667
  21
 766.307
  31
0.0
   0
LINE
   8
LEVEL001
   6
CONTINUOUS
  62
7
  10
 334.667
  20
 766.307
  30
0.0
  11
 334.854
  21
 766.023
  31
0.0
   0
LINE
   8
LEVEL001
   6
CONTINUOUS
  62
7
  10
 334.854
  20
 766.023
  30
0.0
  11
 335.097
  21
 765.761
  31
0.0
   0
LINE
   8
LEVEL001
   6
CONTINUOUS
  62
7
  10
 335.097
  20
 765.761
  30
0.0
  11
 335.392
  21
 765.525
  31
0.0
   0
LINE
   8
LEVEL001
   6
CONTINUOUS
  62
7
  10
 335.392
  20
 765.525
  30
0.0
  11
 335.734
  21
 765.320
  31
0.0
   0
LINE
   8
LEVEL001
   6
CONTINUOUS
  62
7
  10
 335.734
  20
 765.320
  30
0.0
  11
 336.119
  21
 765.147
  31
0.0
   0
LINE
   8
LEVEL001
   6
CONTINUOUS
  62
7
  10
 336.119
  20
 765.147
  30
0.0
  11
 336.540
  21
 765.010
  31
0.0
   0
LINE
   8
LEVEL001
   6
CONTINUOUS
  62
7
  10
 336.540
  20
 765.010
  30
0.0
  11
 336.991
  21
 764.910
  31
0.0
   0
LINE
   8
LEVEL001
   6
CONTINUOUS
  62
7
  10
 336.991
  20
 764.910
  30
0.0
  11
 337.464
  21
 764.851
  31
0.0
   0
LINE
   8
LEVEL001
   6
CONTINUOUS
  62
7
  10
 337.464
  20
 764.851
  30
0.0
  11
 337.952
  21
 764.831
  31
0.0
   0
LINE
   8
LEVEL001
   6
CONTINUOUS
  62
7
  10
 337.952
  20
 764.831
  30
0.0
  11
 338.448
  21
 764.853
  31
0.0
   0
LINE
   8
LEVEL001
   6
CONTINUOUS
  62
7
  10
 338.448
  20
 764.853
  30
0.0
  11
 338.944
  21
 764.914
  31
0.0
   0
LINE
   8
LEVEL001
   6
CONTINUOUS
  62
7
  10
 338.944
  20
 764.914
  30
0.0
  11
 339.432
  21
 765.015
  31
0.0
   0
LINE
   8
LEVEL001
   6
CONTINUOUS
  62
7
  10
 339.432
  20
 765.015
  30
0.0
  11
 339.904
  21
 765.154
  31
0.0
   0
LINE
   8
LEVEL001
   6
CONTINUOUS
  62
7
  10
 339.904
  20
 765.154
  30
0.0
  11
 340.354
  21
 765.328
  31
0.0
   0
LINE
   8
LEVEL001
   6
CONTINUOUS
  62
7
  10
 340.354
  20
 765.328
  30
0.0
  11
 340.773
  21
 765.536
  31
0.0
   0
LINE
   8
LEVEL001
   6
CONTINUOUS
  62
7
  10
 340.773
  20
 765.536
  30
0.0
  11
 341.156
  21
 765.773
  31
0.0
   0
LINE
   8
LEVEL001
   6
CONTINUOUS
  62
7
  10
 341.156
  20
 765.773
  30
0.0
  11
 341.497
  21
 766.036
  31
0.0
   0
LINE
   8
LEVEL001
   6
CONTINUOUS
  62
7
  10
 341.497
  20
 766.036
  30
0.0
  11
 341.790
  21
 766.320
  31
0.0
   0
LINE
   8
LEVEL001
   6
CONTINUOUS
  62
7
  10
 341.790
  20
 766.320
  30
0.0
  11
 342.031
  21
 766.623
  31
0.0
   0
LINE
   8
LEVEL001
   6
CONTINUOUS
  62
7
  10
 342.031
  20
 766.623
  30
0.0
  11
 342.215
  21
 766.938
  31
0.0
   0
LINE
   8
LEVEL001
   6
CONTINUOUS
  62
7
  10
 342.215
  20
 766.938
  30
0.0
  11
 342.341
  21
 767.261
  31
0.0
   0
LINE
   8
LEVEL001
   6
CONTINUOUS
  62
7
  10
 342.341
  20
 767.261
  30
0.0
  11
 342.405
  21
 767.586
  31
0.0
   0
LINE
   8
LEVEL001
   6
CONTINUOUS
  62
7
  10
 342.405
  20
 767.586
  30
0.0
  11
 342.408
  21
 767.909
  31
0.0
   0
LINE
   8
LEVEL001
   6
CONTINUOUS
  62
7
  10
 342.408
  20
 767.909
  30
0.0
  11
 342.399
  21
 767.994
  31
0.0
   0
LINE
   8
LEVEL001
   6
CONTINUOUS
  62
3
  10
 341.780
  20
 767.907
  30
0.0
  11
 341.716
  21
 768.171
  31
0.0
   0
LINE
   8
LEVEL001
   6
CONTINUOUS
  62
3
  10
 341.716
  20
 768.171
  30
0.0
  11
 341.601
  21
 768.424
  31
0.0
   0
LINE
   8
LEVEL001
   6
CONTINUOUS
  62
3
  10
 341.601
  20
 768.424
  30
0.0
  11
 341.437
  21
 768.661
  31
0.0
   0
LINE
   8
LEVEL001
   6
CONTINUOUS
  62
3
  10
 341.437
  20
 768.661
  30
0.0
  11
 341.226
  21
 768.880
  31
0.0
   0
LINE
   8
LEVEL001
   6
CONTINUOUS
  62
3
  10
 341.226
  20
 768.880
  30
0.0
  11
 340.971
  21
 769.075
  31
0.0
   0
LINE
   8
LEVEL001
   6
CONTINUOUS
  62
3
  10
 340.971
  20
 769.075
  30
0.0
  11
 340.677
  21
 769.246
  31
0.0
   0
LINE
   8
LEVEL001
   6
CONTINUOUS
  62
3
  10
 340.677
  20
 769.246
  30
0.0
  11
 340.348
  21
 769.387
  31
0.0
   0
LINE
   8
LEVEL001
   6
CONTINUOUS
  62
3
  10
 340.348
  20
 769.387
  30
0.0
  11
 339.989
  21
 769.499
  31
0.0
   0
LINE
   8
LEVEL001
   6
CONTINUOUS
  62
3
  10
 339.989
  20
 769.499
  30
0.0
  11
 339.606
  21
 769.578
  31
0.0
   0
LINE
   8
LEVEL001
   6
CONTINUOUS
  62
3
  10
 339.606
  20
 769.578
  30
0.0
  11
 339.205
  21
 769.624
  31
0.0
   0
LINE
   8
LEVEL001
   6
CONTINUOUS
  62
3
  10
 339.205
  20
 769.624
  30
0.0
  11
 338.792
  21
 769.636
  31
0.0
   0
LINE
   8
LEVEL001
   6
CONTINUOUS
  62
3
  10
 338.792
  20
 769.636
  30
0.0
  11
 338.373
  21
 769.614
  31
0.0
   0
LINE
   8
LEVEL001
   6
CONTINUOUS
  62
3
  10
 338.373
  20
 769.614
  30
0.0
  11
 337.955
  21
 769.557
  31
0.0
   0
LINE
   8
LEVEL001
   6
CONTINUOUS
  62
3
  10
 337.955
  20
 769.557
  30
0.0
  11
 337.545
  21
 769.468
  31
0.0
   0
LINE
   8
LEVEL001
   6
CONTINUOUS
  62
3
  10
 337.545
  20
 769.468
  30
0.0
  11
 337.148
  21
 769.346
  31
0.0
   0
LINE
   8
LEVEL001
   6
CONTINUOUS
  62
3
  10
 337.148
  20
 769.346
  30
0.0
  11
 336.772
  21
 769.195
  31
0.0
   0
LINE
   8
LEVEL001
   6
CONTINUOUS
  62
3
  10
 336.772
  20
 769.195
  30
0.0
  11
 336.422
  21
 769.017
  31
0.0
   0
LINE
   8
LEVEL001
   6
CONTINUOUS
  62
3
  10
 336.422
  20
 769.017
  30
0.0
  11
 336.103
  21
 768.814
  31
0.0
   0
LINE
   8
LEVEL001
   6
CONTINUOUS
  62
3
  10
 336.103
  20
 768.814
  30
0.0
  11
 335.821
  21
 768.589
  31
0.0
   0
LINE
   8
LEVEL001
   6
CONTINUOUS
  62
3
  10
 335.821
  20
 768.589
  30
0.0
  11
 335.579
  21
 768.347
  31
0.0
   0
LINE
   8
LEVEL001
   6
CONTINUOUS
  62
3
  10
 335.579
  20
 768.347
  30
0.0
  11
 335.382
  21
 768.090
  31
0.0
   0
LINE
   8
LEVEL001
   6
CONTINUOUS
  62
3
  10
 335.382
  20
 768.090
  30
0.0
  11
 335.233
  21
 767.823
  31
0.0
   0
LINE
   8
LEVEL001
   6
CONTINUOUS
  62
3
  10
 335.233
  20
 767.823
  30
0.0
  11
 335.134
  21
 767.550
  31
0.0
   0
LINE
   8
LEVEL001
   6
CONTINUOUS
  62
3
  10
 335.134
  20
 767.550
  30
0.0
  11
 335.086
  21
 767.276
  31
0.0
   0
LINE
   8
LEVEL001
   6
CONTINUOUS
  62
3
  10
 335.086
  20
 767.276
  30
0.0
  11
 335.091
  21
 767.003
  31
0.0
   0
LINE
   8
LEVEL001
   6
CONTINUOUS
  62
3
  10
 335.091
  20
 767.003
  30
0.0
  11
 335.148
  21
 766.738
  31
0.0
   0
LINE
   8
LEVEL001
   6
CONTINUOUS
  62
3
  10
 335.148
  20
 766.738
  30
0.0
  11
 335.256
  21
 766.484
  31
0.0
   0
LINE
   8
LEVEL001
   6
CONTINUOUS
  62
3
  10
 335.256
  20
 766.484
  30
0.0
  11
 335.414
  21
 766.244
  31
0.0
   0
LINE
   8
LEVEL001
   6
CONTINUOUS
  62
3
  10
 335.414
  20
 766.244
  30
0.0
  11
 335.619
  21
 766.023
  31
0.0
   0
LINE
   8
LEVEL001
   6
CONTINUOUS
  62
3
  10
 335.619
  20
 766.023
  30
0.0
  11
 335.868
  21
 765.824
  31
0.0
   0
LINE
   8
LEVEL001
   6
CONTINUOUS
  62
3
  10
 335.868
  20
 765.824
  30
0.0
  11
 336.157
  21
 765.650
  31
0.0
   0
LINE
   8
LEVEL001
   6
CONTINUOUS
  62
3
  10
 336.157
  20
 765.650
  30
0.0
  11
 336.481
  21
 765.505
  31
0.0
   0
LINE
   8
LEVEL001
   6
CONTINUOUS
  62
3
  10
 336.481
  20
 765.505
  30
0.0
  11
 336.837
  21
 765.389
  31
0.0
   0
LINE
   8
LEVEL001
   6
CONTINUOUS
  62
3
  10
 336.837
  20
 765.389
  30
0.0
  11
 337.217
  21
 765.305
  31
0.0
   0
LINE
   8
LEVEL001
   6
CONTINUOUS
  62
3
  10
 337.217
  20
 765.305
  30
0.0
  11
 337.616
  21
 765.255
  31
0.0
   0
LINE
   8
LEVEL001
   6
CONTINUOUS
  62
3
  10
 337.616
  20
 765.255
  30
0.0
  11
 338.028
  21
 765.238
  31
0.0
   0
LINE
   8
LEVEL001
   6
CONTINUOUS
  62
3
  10
 338.028
  20
 765.238
  30
0.0
  11
 338.447
  21
 765.256
  31
0.0
   0
LINE
   8
LEVEL001
   6
CONTINUOUS
  62
3
  10
 338.447
  20
 765.256
  30
0.0
  11
 338.865
  21
 765.308
  31
0.0
   0
LINE
   8
LEVEL001
   6
CONTINUOUS
  62
3
  10
 338.865
  20
 765.308
  30
0.0
  11
 339.277
  21
 765.394
  31
0.0
   0
LINE
   8
LEVEL001
   6
CONTINUOUS
  62
3
  10
 339.277
  20
 765.394
  30
0.0
  11
 339.675
  21
 765.511
  31
0.0
   0
LINE
   8
LEVEL001
   6
CONTINUOUS
  62
3
  10
 339.675
  20
 765.511
  30
0.0
  11
 340.054
  21
 765.658
  31
0.0
   0
LINE
   8
LEVEL001
   6
CONTINUOUS
  62
3
  10
 340.054
  20
 765.658
  30
0.0
  11
 340.408
  21
 765.833
  31
0.0
   0
LINE
   8
LEVEL001
   6
CONTINUOUS
  62
3
  10
 340.408
  20
 765.833
  30
0.0
  11
 340.732
  21
 766.033
  31
0.0
   0
LINE
   8
LEVEL001
   6
CONTINUOUS
  62
3
  10
 340.732
  20
 766.033
  30
0.0
  11
 341.019
  21
 766.255
  31
0.0
   0
LINE
   8
LEVEL001
   6
CONTINUOUS
  62
3
  10
 341.019
  20
 766.255
  30
0.0
  11
 341.266
  21
 766.495
  31
0.0
   0
LINE
   8
LEVEL001
   6
CONTINUOUS
  62
3
  10
 341.266
  20
 766.495
  30
0.0
  11
 341.469
  21
 766.750
  31
0.0
   0
LINE
   8
LEVEL001
   6
CONTINUOUS
  62
3
  10
 341.469
  20
 766.750
  30
0.0
  11
 341.625
  21
 767.016
  31
0.0
   0
LINE
   8
LEVEL001
   6
CONTINUOUS
  62
3
  10
 341.625
  20
 767.016
  30
0.0
  11
 341.731
  21
 767.288
  31
0.0
   0
LINE
   8
LEVEL001
   6
CONTINUOUS
  62
3
  10
 341.731
  20
 767.288
  30
0.0
  11
 341.785
  21
 767.563
  31
0.0
   0
LINE
   8
LEVEL001
   6
CONTINUOUS
  62
3
  10
 341.785
  20
 767.563
  30
0.0
  11
 341.788
  21
 767.836
  31
0.0
   0
LINE
   8
LEVEL001
   6
CONTINUOUS
  62
3
  10
 341.788
  20
 767.836
  30
0.0
  11
 341.780
  21
 767.907
  31
0.0
   0
LINE
   8
LEVEL001
   6
DASHDOT
  62
1
  10
 332.863
  20
 766.654
  30
0.0
  11
 343.872
  21
 768.201
  31
0.0
   0
LINE
   8
LEVEL003
   6
CONTINUOUS
  62
7
  10
 336.151
  20
 767.116
  30
0.0
  11
 337.113
  21
 768.568
  31
0.0
   0
LINE
   8
LEVEL003
   6
CONTINUOUS
  62
7
  10
 337.113
  20
 768.568
  30
0.0
  11
 339.400
  21
 768.889
  31
0.0
   0
LINE
   8
LEVEL003
   6
CONTINUOUS
  62
7
  10
 339.400
  20
 768.889
  30
0.0
  11
 340.724
  21
 767.759
  31
0.0
   0
LINE
   8
LEVEL003
   6
CONTINUOUS
  62
7
  10
 340.724
  20
 767.759
  30
0.0
  11
 339.762
  21
 766.307
  31
0.0
   0
LINE
   8
LEVEL003
   6
CONTINUOUS
  62
7
  10
 339.762
  20
 766.307
  30
0.0
  11
 337.475
  21
 765.986
  31
0.0
   0
LINE
   8
LEVEL003
   6
CONTINUOUS
  62
7
  10
 337.475
  20
 765.986
  30
0.0
  11
 336.151
  21
 767.116
  31
0.0
   0
LINE
   8
LEVEL001
   6
DASHDOT
  62
1
  10
 337.766
  20
 772.216
  30
0.0
  11
 339.062
  21
 762.994
  31
0.0
   0
ARC
   8
LEVEL001
   6
CONTINUOUS
  62
7
  10
 259.580
  20
 901.254
  30
0.0
  40
 2.00000
  50
 98.8840
  51
 180.000
   0
LINE
   8
LEVEL001
   6
CONTINUOUS
  62
7
  10
 265.144
  20
 904.030
  30
0.0
  11
 299.728
  21
 904.030
  31
0.0
   0
ARC
   8
LEVEL001
   6
CONTINUOUS
  62
7
  10
 282.436
  20
 755.030
  30
0.0
  40
 150.000
  50
 96.6196
  51
 98.8839
   0
LINE
   8
LEVEL010
   6
CONTINUOUS
  62
7
  10
 278.938
  20
 904.030
  30
0.0
  11
 270.767
  21
 903.221
  31
0.0
   0
LINE
   8
LEVEL010
   6
CONTINUOUS
  62
7
  10
 266.964
  20
 903.230
  30
0.0
  11
 261.462
  21
 903.230
  31
0.0
   0
ARC
   8
LEVEL001
   6
CONTINUOUS
  62
7
  10
 282.437
  20
 755.030
  30
0.0
  40
 150.000
  50
 80.9510
  51
 99.0490
   0
ARC
   8
LEVEL001
   6
CONTINUOUS
  62
7
  10
 282.436
  20
 755.030
  30
0.0
  40
 150.000
  50
 81.1161
  51
 83.3804
   0
LINE
   8
LEVEL010
   6
CONTINUOUS
  62
7
  10
 297.911
  20
 903.230
  30
0.0
  11
 303.413
  21
 903.230
  31
0.0
   0
LINE
   8
LEVEL010
   6
CONTINUOUS
  62
7
  10
 285.938
  20
 904.030
  30
0.0
  11
 294.108
  21
 903.221
  31
0.0
   0
ARC
   8
LEVEL001
   6
CONTINUOUS
  62
7
  10
 305.292
  20
 901.254
  30
0.0
  40
 2.00000
  50
 0.651378E-10
  51
 81.1169
   0
LINE
   8
LEVEL001
   6
CONTINUOUS
  62
7
  10
 302.437
  20
 833.188
  30
0.0
  11
 303.437
  21
 834.188
  31
0.0
   0
LINE
   8
LEVEL001
   6
CONTINUOUS
  62
7
  10
 303.437
  20
 834.188
  30
0.0
  11
 311.437
  21
 834.188
  31
0.0
   0
LINE
   8
LEVEL001
   6
CONTINUOUS
  62
7
  10
 302.437
  20
 833.188
  30
0.0
  11
 312.437
  21
 833.188
  31
0.0
   0
LINE
   8
LEVEL001
   6
CONTINUOUS
  62
7
  10
 312.437
  20
 833.188
  30
0.0
  11
 311.437
  21
 834.188
  31
0.0
   0
LINE
   8
LEVEL001
   6
CONTINUOUS
  62
7
  10
 302.437
  20
 795.687
  30
0.0
  11
 303.437
  21
 794.687
  31
0.0
   0
LINE
   8
LEVEL001
   6
CONTINUOUS
  62
7
  10
 303.437
  20
 794.687
  30
0.0
  11
 311.437
  21
 794.688
  31
0.0
   0
LINE
   8
LEVEL001
   6
CONTINUOUS
  62
7
  10
 302.437
  20
 795.687
  30
0.0
  11
 312.437
  21
 795.688
  31
0.0
   0
LINE
   8
LEVEL001
   6
CONTINUOUS
  62
7
  10
 312.437
  20
 795.688
  30
0.0
  11
 312.437
  21
 795.937
  31
0.0
   0
LINE
   8
LEVEL001
   6
CONTINUOUS
  62
7
  10
 312.437
  20
 795.688
  30
0.0
  11
 311.437
  21
 794.688
  31
0.0
   0
LINE
   8
LEVEL001
   6
CONTINUOUS
  62
7
  10
 302.437
  20
 795.687
  30
0.0
  11
 302.437
  21
 795.938
  31
0.0
   0
LINE
   8
LEVEL001
   6
CONTINUOUS
  62
7
  10
 290.476
  20
 857.009
  30
0.0
  11
 288.658
  21
 836.237
  31
0.0
   0
LINE
   8
LEVEL001
   6
CONTINUOUS
  62
7
  10
 288.518
  20
 834.637
  30
0.0
  11
 288.360
  21
 832.831
  31
0.0
   0
LINE
   8
LEVEL001
   6
CONTINUOUS
  62
7
  10
 288.483
  20
 775.192
  30
0.0
  11
 287.132
  21
 790.632
  31
0.0
   0
LINE
   8
LEVEL001
   6
CONTINUOUS
  62
7
  10
 302.437
  20
 833.188
  30
0.0
  11
 302.437
  21
 832.937
  31
0.0
   0
LINE
   8
LEVEL001
   6
CONTINUOUS
  62
7
  10
 312.437
  20
 833.187
  30
0.0
  11
 312.437
  21
 832.938
  31
0.0
   0
ARC
   8
LEVEL001
   6
CONTINUOUS
  62
7
  10
 307.437
  20
 814.437
  30
0.0
  40
 20.0000
  50
 260.931
  51
 279.069
   0
ARC
   8
LEVEL001
   6
CONTINUOUS
  62
7
  10
 307.437
  20
 814.437
  30
0.0
  40
 20.0000
  50
 80.9313
  51
 99.0687
   0
ARC
   8
LEVEL001
   6
CONTINUOUS
  62
7
  10
 307.438
  20
 814.437
  30
0.0
  40
 26.5000
  50
 224.276
  51
 229.664
   0
LINE
   8
LEVEL001
   6
CONTINUOUS
  62
7
  10
 264.743
  20
 806.373
  30
0.0
  11
 264.869
  21
 804.937
  31
0.0
   0
LINE
   8
LEVEL001
   6
CONTINUOUS
  62
7
  10
 264.743
  20
 822.502
  30
0.0
  11
 264.869
  21
 823.937
  31
0.0
   0
ARC
   8
LEVEL001
   6
CONTINUOUS
  62
7
  10
 307.437
  20
 814.437
  30
0.0
  40
 20.0000
  50
 102.108
  51
 112.332
   0
ARC
   8
LEVEL001
   6
CONTINUOUS
  62
7
  10
 307.437
  20
 814.437
  30
0.0
  40
 20.0000
  50
 247.668
  51
 257.892
   0
ARC
   8
LEVEL001
   6
CONTINUOUS
  62
7
  10
 307.438
  20
 814.438
  30
0.0
  40
 26.5000
  50
 130.336
  51
 135.724
   0
LINE
   8
LEVEL001
   6
CONTINUOUS
  62
7
  10
 338.437
  20
 846.947
  30
0.0
  11
 338.437
  21
 830.938
  31
0.0
   0
LINE
   8
LEVEL001
   6
CONTINUOUS
  62
7
  10
 338.328
  20
 797.938
  30
0.0
  11
 336.400
  21
 775.354
  31
0.0
   0
ARC
   8
LEVEL001
   6
CONTINUOUS
  62
7
  10
 307.437
  20
 814.437
  30
0.0
  40
 20.0000
  50
 282.107
  51
 292.332
   0
ARC
   8
LEVEL001
   6
CONTINUOUS
  62
7
  10
 307.437
  20
 814.437
  30
0.0
  40
 20.0000
  50
 67.6684
  51
 77.8932
   0
LINE
   8
LEVEL001
   6
CONTINUOUS
  62
7
  10
 344.438
  20
 830.938
  30
0.0
  11
 344.438
  21
 855.938
  31
0.0
   0
LINE
   8
LEVEL001
   6
CONTINUOUS
  62
7
  10
 344.438
  20
 797.938
  30
0.0
  11
 344.438
  21
 766.721
  31
0.0
   0
ARC
   8
LEVEL001
   6
CONTINUOUS
  62
7
  10
 264.822
  20
 835.438
  30
0.0
  40
 0.800000
  50
 90.0000
  51
 270.000
   0
LINE
   8
LEVEL001
   6
CONTINUOUS
  62
7
  10
 264.822
  20
 834.637
  30
0.0
  11
 291.734
  21
 834.637
  31
0.0
   0
LINE
   8
LEVEL001
   6
DASHDOT
  62
1
  10
 263.279
  20
 835.438
  30
0.0
  11
 292.652
  21
 835.438
  31
0.0
   0
LINE
   8
LEVEL001
   6
CONTINUOUS
  62
7
  10
 273.438
  20
 834.637
  30
0.0
  11
 273.438
  21
 832.938
  31
0.0
   0
LINE
   8
LEVEL010
   6
CONTINUOUS
  62
7
  10
 263.210
  20
 832.938
  30
0.0
  11
 317.438
  21
 832.938
  31
0.0
   0
ARC
   8
LEVEL010
   6
CONTINUOUS
  62
7
  10
 261.210
  20
 832.937
  30
0.0
  40
 2.00000
  50
 270.000
  51
0.0
   0
ARC
   8
LEVEL010
   6
CONTINUOUS
  62
7
  10
 260.247
  20
 828.937
  30
0.0
  40
 2.00000
  50
 90.0000
  51
 180.000
   0
LINE
   8
LEVEL010
   6
CONTINUOUS
  62
7
  10
 437.438
  20
 830.938
  30
0.0
  11
 260.247
  21
 830.938
  31
0.0
   0
LINE
   8
LEVEL010
   6
CONTINUOUS
  62
7
  10
 258.247
  20
 828.938
  30
0.0
  11
 258.247
  21
 823.937
  31
0.0
   0
LINE
   8
LEVEL001
   6
CONTINUOUS
  62
7
  10
 273.438
  20
 837.938
  30
0.0
  11
 274.438
  21
 838.938
  31
0.0
   0
LINE
   8
LEVEL001
   6
CONTINUOUS
  62
7
  10
 274.438
  20
 838.938
  30
0.0
  11
 282.438
  21
 838.938
  31
0.0
   0
LINE
   8
LEVEL001
   6
CONTINUOUS
  62
7
  10
 273.438
  20
 837.938
  30
0.0
  11
 283.438
  21
 837.938
  31
0.0
   0
LINE
   8
LEVEL001
   6
CONTINUOUS
  62
7
  10
 264.822
  20
 836.237
  30
0.0
  11
 291.734
  21
 836.237
  31
0.0
   0
LINE
   8
LEVEL001
   6
CONTINUOUS
  62
7
  10
 273.438
  20
 837.938
  30
0.0
  11
 273.438
  21
 836.237
  31
0.0
   0
LINE
   8
LEVEL001
   6
CONTINUOUS
  62
7
  10
 283.438
  20
 836.237
  30
0.0
  11
 283.438
  21
 837.938
  31
0.0
   0
LINE
   8
LEVEL001
   6
CONTINUOUS
  62
7
  10
 283.438
  20
 832.937
  30
0.0
  11
 283.438
  21
 834.637
  31
0.0
   0
LINE
   8
LEVEL001
   6
CONTINUOUS
  62
7
  10
 282.438
  20
 838.938
  30
0.0
  11
 283.438
  21
 837.938
  31
0.0
   0
LINE
   8
LEVEL001
   6
CONTINUOUS
  62
7
  10
 291.734
  20
 836.237
  30
0.0
  11
 291.734
  21
 834.637
  31
0.0
   0
ARC
   8
LEVEL001
   6
CONTINUOUS
  62
7
  10
 289.552
  20
 835.438
  30
0.0
  40
 0.800000
  50
 270.000
  51
 90.0000
   0
LINE
   8
LEVEL001
   6
CONTINUOUS
  62
7
  10
 273.438
  20
 790.938
  30
0.0
  11
 274.438
  21
 789.938
  31
0.0
   0
LINE
   8
LEVEL001
   6
CONTINUOUS
  62
7
  10
 274.438
  20
 789.938
  30
0.0
  11
 282.438
  21
 789.938
  31
0.0
   0
LINE
   8
LEVEL001
   6
CONTINUOUS
  62
7
  10
 273.438
  20
 790.938
  30
0.0
  11
 283.438
  21
 790.938
  31
0.0
   0
LINE
   8
LEVEL001
   6
CONTINUOUS
  62
7
  10
 264.822
  20
 792.638
  30
0.0
  11
 291.734
  21
 792.638
  31
0.0
   0
LINE
   8
LEVEL001
   6
CONTINUOUS
  62
7
  10
 264.822
  20
 794.238
  30
0.0
  11
 291.734
  21
 794.238
  31
0.0
   0
LINE
   8
LEVEL001
   6
CONTINUOUS
  62
7
  10
 273.438
  20
 790.938
  30
0.0
  11
 273.438
  21
 792.638
  31
0.0
   0
LINE
   8
LEVEL001
   6
CONTINUOUS
  62
7
  10
 273.438
  20
 794.238
  30
0.0
  11
 273.438
  21
 795.938
  31
0.0
   0
LINE
   8
LEVEL001
   6
CONTINUOUS
  62
7
  10
 282.438
  20
 789.938
  30
0.0
  11
 283.438
  21
 790.938
  31
0.0
   0
LINE
   8
LEVEL010
   6
CONTINUOUS
  62
7
  10
 263.210
  20
 795.938
  30
0.0
  11
 317.438
  21
 795.938
  31
0.0
   0
LINE
   8
LEVEL010
   6
CONTINUOUS
  62
7
  10
 437.438
  20
 797.938
  30
0.0
  11
 260.247
  21
 797.938
  31
0.0
   0
ARC
   8
LEVEL010
   6
CONTINUOUS
  62
7
  10
 276.438
  20
 821.937
  30
0.0
  40
 2.00000
  50
 0.553671E-9
  51
 90.0000
   0
LINE
   8
LEVEL001
   6
CONTINUOUS
  62
7
  10
 258.247
  20
 823.937
  30
0.0
  11
 276.438
  21
 823.937
  31
0.0
   0
ARC
   8
LEVEL010
   6
CONTINUOUS
  62
7
  10
 276.438
  20
 806.937
  30
0.0
  40
 2.00000
  50
 270.000
  51
 0.188900E-9
   0
LINE
   8
LEVEL010
   6
CONTINUOUS
  62
7
  10
 278.438
  20
 806.937
  30
0.0
  11
 278.438
  21
 821.937
  31
0.0
   0
LINE
   8
LEVEL001
   6
CONTINUOUS
  62
7
  10
 258.247
  20
 804.937
  30
0.0
  11
 276.438
  21
 804.937
  31
0.0
   0
LINE
   8
LEVEL001
   6
DASHDOT
  62
1
  10
 263.279
  20
 793.438
  30
0.0
  11
 292.652
  21
 793.438
  31
0.0
   0
ARC
   8
LEVEL001
   6
CONTINUOUS
  62
7
  10
 264.822
  20
 793.438
  30
0.0
  40
 0.800000
  50
 90.0000
  51
 270.000
   0
ARC
   8
LEVEL010
   6
CONTINUOUS
  62
7
  10
 261.210
  20
 795.938
  30
0.0
  40
 2.00000
  50
0.0
  51
 90.0000
   0
ARC
   8
LEVEL010
   6
CONTINUOUS
  62
7
  10
 260.247
  20
 799.938
  30
0.0
  40
 2.00000
  50
 180.000
  51
 270.000
   0
LINE
   8
LEVEL010
   6
CONTINUOUS
  62
7
  10
 258.247
  20
 804.937
  30
0.0
  11
 258.247
  21
 799.938
  31
0.0
   0
LINE
   8
LEVEL001
   6
CONTINUOUS
  62
7
  10
 283.438
  20
 792.638
  30
0.0
  11
 283.438
  21
 790.938
  31
0.0
   0
LINE
   8
LEVEL001
   6
CONTINUOUS
  62
7
  10
 283.438
  20
 795.938
  30
0.0
  11
 283.438
  21
 794.238
  31
0.0
   0
LINE
   8
LEVEL001
   6
CONTINUOUS
  62
7
  10
 291.734
  20
 792.638
  30
0.0
  11
 291.734
  21
 794.238
  31
0.0
   0
ARC
   8
LEVEL001
   6
CONTINUOUS
  62
7
  10
 289.552
  20
 793.438
  30
0.0
  40
 0.800000
  50
 270.000
  51
 90.0000
   0
ARC
   8
LEVEL010
   6
CONTINUOUS
  62
7
  10
 319.438
  20
 832.938
  30
0.0
  40
 2.00000
  50
 180.000
  51
 270.000
   0
LINE
   8
LEVEL001
   6
CONTINUOUS
  62
7
  10
 328.839
  20
 824.437
  30
0.0
  11
 329.437
  21
 824.437
  31
0.0
   0
LINE
   8
LEVEL001
   6
CONTINUOUS
  62
7
  10
 328.839
  20
 804.437
  30
0.0
  11
 329.437
  21
 804.437
  31
0.0
   0
LINE
   8
LEVEL010
   6
CONTINUOUS
  62
7
  10
 306.396
  20
 808.529
  30
0.0
  11
 345.389
  21
 801.653
  31
0.0
   0
LINE
   8
LEVEL010
   6
CONTINUOUS
  62
7
  10
 306.396
  20
 820.346
  30
0.0
  11
 345.389
  21
 827.222
  31
0.0
   0
ARC
   8
LEVEL010
   6
CONTINUOUS
  62
7
  10
 307.438
  20
 814.438
  30
0.0
  40
 6.00000
  50
 100.002
  51
 259.998
   0
CIRCLE
   8
LEVEL010
   6
CONTINUOUS
  62
7
  10
 357.438
  20
 814.438
  30
0.0
  40
 11.0000
   0
ARC
   8
LEVEL010
   6
CONTINUOUS
  62
7
  10
 343.653
  20
 837.070
  30
0.0
  40
 10.0000
  50
 279.999
  51
 301.343
   0
ARC
   8
LEVEL010
   6
CONTINUOUS
  62
7
  10
 343.653
  20
 791.805
  30
0.0
  40
 10.0000
  50
 58.6556
  51
 79.9993
   0
ARC
   8
LEVEL010
   6
CONTINUOUS
  62
7
  10
 379.937
  20
 800.438
  30
0.0
  40
 10.0000
  50
 89.9998
  51
 148.109
   0
ARC
   8
LEVEL010
   6
CONTINUOUS
  62
7
  10
 379.937
  20
 828.437
  30
0.0
  40
 10.0000
  50
 211.891
  51
 270.000
   0
ARC
   8
LEVEL010
   6
CONTINUOUS
  62
7
  10
 357.437
  20
 814.437
  30
0.0
  40
 16.5000
  50
 238.656
  51
 328.109
   0
ARC
   8
LEVEL010
   6
CONTINUOUS
  62
7
  10
 357.437
  20
 814.437
  30
0.0
  40
 16.5000
  50
 31.8909
  51
 121.344
   0
ARC
   8
LEVEL010
   6
CONTINUOUS
  62
7
  10
 319.437
  20
 795.938
  30
0.0
  40
 2.00000
  50
 90.0000
  51
 180.000
   0
LINE
   8
LEVEL010
   6
CONTINUOUS
  62
7
  10
 379.938
  20
 818.438
  30
0.0
  11
 442.438
  21
 818.438
  31
0.0
   0
LINE
   8
LEVEL010
   6
CONTINUOUS
  62
7
  10
 379.938
  20
 810.438
  30
0.0
  11
 442.438
  21
 810.438
  31
0.0
   0
ARC
   8
LEVEL010
   6
CONTINUOUS
  62
7
  10
 445.438
  20
 829.938
  30
0.0
  40
 2.00000
  50
0.0
  51
 90.0000
   0
LINE
   8
LEVEL010
   6
CONTINUOUS
  62
7
  10
 445.438
  20
 831.938
  30
0.0
  11
 437.438
  21
 831.938
  31
0.0
   0
LINE
   8
LEVEL010
   6
CONTINUOUS
  62
7
  10
 437.438
  20
 831.938
  30
0.0
  11
 437.438
  21
 818.438
  31
0.0
   0
ARC
   8
LEVEL010
   6
CONTINUOUS
  62
7
  10
 445.438
  20
 798.937
  30
0.0
  40
 2.00000
  50
 270.000
  51
 0.208441E-9
   0
LINE
   8
LEVEL010
   6
CONTINUOUS
  62
7
  10
 437.438
  20
 810.438
  30
0.0
  11
 437.438
  21
 796.938
  31
0.0
   0
LINE
   8
LEVEL010
   6
CONTINUOUS
  62
7
  10
 437.438
  20
 796.938
  30
0.0
  11
 445.438
  21
 796.938
  31
0.0
   0
LINE
   8
LEVEL010
   6
CONTINUOUS
  62
7
  10
 447.438
  20
 798.938
  30
0.0
  11
 447.438
  21
 829.938
  31
0.0
   0
LINE
   8
LEVEL010
   6
DASHDOT
  62
1
  10
 357.437
  20
 799.437
  30
0.0
  11
 357.437
  21
 829.437
  31
0.0
   0
LINE
   8
LEVEL001
   6
DASHDOT
  62
1
  10
 278.437
  20
 843.571
  30
0.0
  11
 278.437
  21
 784.219
  31
0.0
   0
ARC
   8
LEVEL001
   6
CONTINUOUS
  62
7
  10
 307.437
  20
 814.438
  30
0.0
  40
 26.5000
  50
 38.5093
  51
 126.341
   0
ARC
   8
LEVEL001
   6
CONTINUOUS
  62
7
  10
 307.438
  20
 814.438
  30
0.0
  40
 25.5000
  50
 40.3202
  51
 133.490
   0
ARC
   8
LEVEL001
   6
CONTINUOUS
  62
7
  10
 307.438
  20
 814.438
  30
0.0
  40
 25.5000
  50
 226.510
  51
 319.680
   0
ARC
   8
LEVEL001
   6
CONTINUOUS
  62
7
  10
 307.438
  20
 814.438
  30
0.0
  40
 26.5000
  50
 233.659
  51
 321.491
   0
LINE
   8
LEVEL003
   6
CONTINUOUS
  62
7
  10
 308.438
  20
 772.515
  30
0.0
  11
 308.375
  21
 773.443
  31
0.0
   0
LINE
   8
LEVEL003
   6
CONTINUOUS
  62
7
  10
 308.375
  20
 773.443
  30
0.0
  11
 308.189
  21
 774.357
  31
0.0
   0
LINE
   8
LEVEL003
   6
CONTINUOUS
  62
7
  10
 308.189
  20
 774.357
  30
0.0
  11
 307.882
  21
 775.242
  31
0.0
   0
LINE
   8
LEVEL003
   6
CONTINUOUS
  62
7
  10
 307.882
  20
 775.242
  30
0.0
  11
 307.458
  21
 776.084
  31
0.0
   0
LINE
   8
LEVEL003
   6
CONTINUOUS
  62
7
  10
 307.458
  20
 776.084
  30
0.0
  11
 306.925
  21
 776.870
  31
0.0
   0
LINE
   8
LEVEL003
   6
CONTINUOUS
  62
7
  10
 306.925
  20
 776.870
  30
0.0
  11
 306.291
  21
 777.589
  31
0.0
   0
LINE
   8
LEVEL003
   6
CONTINUOUS
  62
7
  10
 306.291
  20
 777.589
  30
0.0
  11
 305.565
  21
 778.228
  31
0.0
   0
LINE
   8
LEVEL003
   6
CONTINUOUS
  62
7
  10
 305.565
  20
 778.228
  30
0.0
  11
 304.760
  21
 778.779
  31
0.0
   0
LINE
   8
LEVEL003
   6
CONTINUOUS
  62
7
  10
 304.760
  20
 778.779
  30
0.0
  11
 303.887
  21
 779.231
  31
0.0
   0
LINE
   8
LEVEL003
   6
CONTINUOUS
  62
7
  10
 303.887
  20
 779.231
  30
0.0
  11
 302.960
  21
 779.579
  31
0.0
   0
LINE
   8
LEVEL003
   6
CONTINUOUS
  62
7
  10
 302.960
  20
 779.579
  30
0.0
  11
 301.994
  21
 779.816
  31
0.0
   0
LINE
   8
LEVEL003
   6
CONTINUOUS
  62
7
  10
 301.994
  20
 779.816
  30
0.0
  11
 301.003
  21
 779.940
  31
0.0
   0
LINE
   8
LEVEL003
   6
CONTINUOUS
  62
7
  10
 301.003
  20
 779.940
  30
0.0
  11
 300.004
  21
 779.948
  31
0.0
   0
LINE
   8
LEVEL003
   6
CONTINUOUS
  62
7
  10
 300.004
  20
 779.948
  30
0.0
  11
 299.012
  21
 779.839
  31
0.0
   0
LINE
   8
LEVEL003
   6
CONTINUOUS
  62
7
  10
 299.012
  20
 779.839
  30
0.0
  11
 298.041
  21
 779.617
  31
0.0
   0
LINE
   8
LEVEL003
   6
CONTINUOUS
  62
7
  10
 298.041
  20
 779.617
  30
0.0
  11
 297.108
  21
 779.284
  31
0.0
   0
LINE
   8
LEVEL003
   6
CONTINUOUS
  62
7
  10
 297.108
  20
 779.284
  30
0.0
  11
 296.227
  21
 778.845
  31
0.0
   0
LINE
   8
LEVEL003
   6
CONTINUOUS
  62
7
  10
 296.227
  20
 778.845
  30
0.0
  11
 295.412
  21
 778.307
  31
0.0
   0
LINE
   8
LEVEL003
   6
CONTINUOUS
  62
7
  10
 295.412
  20
 778.307
  30
0.0
  11
 294.675
  21
 777.679
  31
0.0
   0
LINE
   8
LEVEL003
   6
CONTINUOUS
  62
7
  10
 294.675
  20
 777.679
  30
0.0
  11
 294.028
  21
 776.970
  31
0.0
   0
LINE
   8
LEVEL003
   6
CONTINUOUS
  62
7
  10
 294.028
  20
 776.970
  30
0.0
  11
 293.481
  21
 776.192
  31
0.0
   0
LINE
   8
LEVEL003
   6
CONTINUOUS
  62
7
  10
 293.481
  20
 776.192
  30
0.0
  11
 293.043
  21
 775.356
  31
0.0
   0
LINE
   8
LEVEL003
   6
CONTINUOUS
  62
7
  10
 293.043
  20
 775.356
  30
0.0
  11
 292.720
  21
 774.476
  31
0.0
   0
LINE
   8
LEVEL003
   6
CONTINUOUS
  62
7
  10
 292.720
  20
 774.476
  30
0.0
  11
 292.518
  21
 773.566
  31
0.0
   0
LINE
   8
LEVEL003
   6
CONTINUOUS
  62
7
  10
 292.518
  20
 773.566
  30
0.0
  11
 292.439
  21
 772.639
  31
0.0
   0
LINE
   8
LEVEL003
   6
CONTINUOUS
  62
7
  10
 292.439
  20
 772.639
  30
0.0
  11
 292.484
  21
 771.710
  31
0.0
   0
LINE
   8
LEVEL003
   6
CONTINUOUS
  62
7
  10
 292.484
  20
 771.710
  30
0.0
  11
 292.654
  21
 770.794
  31
0.0
   0
LINE
   8
LEVEL003
   6
CONTINUOUS
  62
7
  10
 292.654
  20
 770.794
  30
0.0
  11
 292.946
  21
 769.904
  31
0.0
   0
LINE
   8
LEVEL003
   6
CONTINUOUS
  62
7
  10
 292.946
  20
 769.904
  30
0.0
  11
 293.354
  21
 769.056
  31
0.0
   0
LINE
   8
LEVEL003
   6
CONTINUOUS
  62
7
  10
 293.354
  20
 769.056
  30
0.0
  11
 293.873
  21
 768.261
  31
0.0
   0
LINE
   8
LEVEL003
   6
CONTINUOUS
  62
7
  10
 293.873
  20
 768.261
  30
0.0
  11
 294.494
  21
 767.533
  31
0.0
   0
LINE
   8
LEVEL003
   6
CONTINUOUS
  62
7
  10
 294.494
  20
 767.533
  30
0.0
  11
 295.208
  21
 766.882
  31
0.0
   0
LINE
   8
LEVEL003
   6
CONTINUOUS
  62
7
  10
 295.208
  20
 766.882
  30
0.0
  11
 296.004
  21
 766.320
  31
0.0
   0
LINE
   8
LEVEL003
   6
CONTINUOUS
  62
7
  10
 296.004
  20
 766.320
  30
0.0
  11
 296.869
  21
 765.854
  31
0.0
   0
LINE
   8
LEVEL003
   6
CONTINUOUS
  62
7
  10
 296.869
  20
 765.854
  30
0.0
  11
 297.789
  21
 765.492
  31
0.0
   0
LINE
   8
LEVEL003
   6
CONTINUOUS
  62
7
  10
 297.789
  20
 765.492
  30
0.0
  11
 298.751
  21
 765.239
  31
0.0
   0
LINE
   8
LEVEL003
   6
CONTINUOUS
  62
7
  10
 298.751
  20
 765.239
  30
0.0
  11
 299.739
  21
 765.100
  31
0.0
   0
LINE
   8
LEVEL003
   6
CONTINUOUS
  62
7
  10
 299.739
  20
 765.100
  30
0.0
  11
 300.738
  21
 765.077
  31
0.0
   0
LINE
   8
LEVEL003
   6
CONTINUOUS
  62
7
  10
 300.738
  20
 765.077
  30
0.0
  11
 301.733
  21
 765.170
  31
0.0
   0
LINE
   8
LEVEL003
   6
CONTINUOUS
  62
7
  10
 301.733
  20
 765.170
  30
0.0
  11
 302.707
  21
 765.378
  31
0.0
   0
LINE
   8
LEVEL003
   6
CONTINUOUS
  62
7
  10
 302.707
  20
 765.378
  30
0.0
  11
 303.646
  21
 765.697
  31
0.0
   0
LINE
   8
LEVEL003
   6
CONTINUOUS
  62
7
  10
 303.646
  20
 765.697
  30
0.0
  11
 304.534
  21
 766.122
  31
0.0
   0
LINE
   8
LEVEL003
   6
CONTINUOUS
  62
7
  10
 304.534
  20
 766.122
  30
0.0
  11
 305.359
  21
 766.647
  31
0.0
   0
LINE
   8
LEVEL003
   6
CONTINUOUS
  62
7
  10
 305.359
  20
 766.647
  30
0.0
  11
 306.107
  21
 767.264
  31
0.0
   0
LINE
   8
LEVEL003
   6
CONTINUOUS
  62
7
  10
 306.107
  20
 767.264
  30
0.0
  11
 306.766
  21
 767.962
  31
0.0
   0
LINE
   8
LEVEL003
   6
CONTINUOUS
  62
7
  10
 306.766
  20
 767.962
  30
0.0
  11
 307.327
  21
 768.732
  31
0.0
   0
LINE
   8
LEVEL003
   6
CONTINUOUS
  62
7
  10
 307.327
  20
 768.732
  30
0.0
  11
 307.780
  21
 769.561
  31
0.0
   0
LINE
   8
LEVEL003
   6
CONTINUOUS
  62
7
  10
 307.780
  20
 769.561
  30
0.0
  11
 308.119
  21
 770.436
  31
0.0
   0
LINE
   8
LEVEL003
   6
CONTINUOUS
  62
7
  10
 308.119
  20
 770.436
  30
0.0
  11
 308.338
  21
 771.343
  31
0.0
   0
LINE
   8
LEVEL003
   6
CONTINUOUS
  62
7
  10
 308.338
  20
 771.343
  30
0.0
  11
 308.433
  21
 772.268
  31
0.0
   0
LINE
   8
LEVEL003
   6
CONTINUOUS
  62
7
  10
 308.433
  20
 772.268
  30
0.0
  11
 308.438
  21
 772.515
  31
0.0
   0
LINE
   8
LEVEL003
   6
CONTINUOUS
  62
7
  10
 308.938
  20
 772.735
  30
0.0
  11
 308.871
  21
 773.721
  31
0.0
   0
LINE
   8
LEVEL003
   6
CONTINUOUS
  62
7
  10
 308.871
  20
 773.721
  30
0.0
  11
 308.673
  21
 774.692
  31
0.0
   0
LINE
   8
LEVEL003
   6
CONTINUOUS
  62
7
  10
 308.673
  20
 774.692
  30
0.0
  11
 308.347
  21
 775.632
  31
0.0
   0
LINE
   8
LEVEL003
   6
CONTINUOUS
  62
7
  10
 308.347
  20
 775.632
  30
0.0
  11
 307.897
  21
 776.527
  31
0.0
   0
LINE
   8
LEVEL003
   6
CONTINUOUS
  62
7
  10
 307.897
  20
 776.527
  30
0.0
  11
 307.331
  21
 777.362
  31
0.0
   0
LINE
   8
LEVEL003
   6
CONTINUOUS
  62
7
  10
 307.331
  20
 777.362
  30
0.0
  11
 306.657
  21
 778.126
  31
0.0
   0
LINE
   8
LEVEL003
   6
CONTINUOUS
  62
7
  10
 306.657
  20
 778.126
  30
0.0
  11
 305.886
  21
 778.805
  31
0.0
   0
LINE
   8
LEVEL003
   6
CONTINUOUS
  62
7
  10
 305.886
  20
 778.805
  30
0.0
  11
 305.030
  21
 779.390
  31
0.0
   0
LINE
   8
LEVEL003
   6
CONTINUOUS
  62
7
  10
 305.030
  20
 779.390
  30
0.0
  11
 304.103
  21
 779.871
  31
0.0
   0
LINE
   8
LEVEL003
   6
CONTINUOUS
  62
7
  10
 304.103
  20
 779.871
  30
0.0
  11
 303.118
  21
 780.240
  31
0.0
   0
LINE
   8
LEVEL003
   6
CONTINUOUS
  62
7
  10
 303.118
  20
 780.240
  30
0.0
  11
 302.091
  21
 780.493
  31
0.0
   0
LINE
   8
LEVEL003
   6
CONTINUOUS
  62
7
  10
 302.091
  20
 780.493
  30
0.0
  11
 301.039
  21
 780.624
  31
0.0
   0
LINE
   8
LEVEL003
   6
CONTINUOUS
  62
7
  10
 301.039
  20
 780.624
  30
0.0
  11
 299.977
  21
 780.632
  31
0.0
   0
LINE
   8
LEVEL003
   6
CONTINUOUS
  62
7
  10
 299.977
  20
 780.632
  30
0.0
  11
 298.922
  21
 780.517
  31
0.0
   0
LINE
   8
LEVEL003
   6
CONTINUOUS
  62
7
  10
 298.922
  20
 780.517
  30
0.0
  11
 297.891
  21
 780.281
  31
0.0
   0
LINE
   8
LEVEL003
   6
CONTINUOUS
  62
7
  10
 297.891
  20
 780.281
  30
0.0
  11
 296.900
  21
 779.926
  31
0.0
   0
LINE
   8
LEVEL003
   6
CONTINUOUS
  62
7
  10
 296.900
  20
 779.926
  30
0.0
  11
 295.964
  21
 779.460
  31
0.0
   0
LINE
   8
LEVEL003
   6
CONTINUOUS
  62
7
  10
 295.964
  20
 779.460
  30
0.0
  11
 295.098
  21
 778.889
  31
0.0
   0
LINE
   8
LEVEL003
   6
CONTINUOUS
  62
7
  10
 295.098
  20
 778.889
  30
0.0
  11
 294.315
  21
 778.221
  31
0.0
   0
LINE
   8
LEVEL003
   6
CONTINUOUS
  62
7
  10
 294.315
  20
 778.221
  30
0.0
  11
 293.628
  21
 777.468
  31
0.0
   0
LINE
   8
LEVEL003
   6
CONTINUOUS
  62
7
  10
 293.628
  20
 777.468
  30
0.0
  11
 293.047
  21
 776.641
  31
0.0
   0
LINE
   8
LEVEL003
   6
CONTINUOUS
  62
7
  10
 293.047
  20
 776.641
  30
0.0
  11
 292.581
  21
 775.754
  31
0.0
   0
LINE
   8
LEVEL003
   6
CONTINUOUS
  62
7
  10
 292.581
  20
 775.754
  30
0.0
  11
 292.238
  21
 774.819
  31
0.0
   0
LINE
   8
LEVEL003
   6
CONTINUOUS
  62
7
  10
 292.238
  20
 774.819
  30
0.0
  11
 292.023
  21
 773.851
  31
0.0
   0
LINE
   8
LEVEL003
   6
CONTINUOUS
  62
7
  10
 292.023
  20
 773.851
  30
0.0
  11
 291.939
  21
 772.866
  31
0.0
   0
LINE
   8
LEVEL003
   6
CONTINUOUS
  62
7
  10
 291.939
  20
 772.866
  30
0.0
  11
 291.987
  21
 771.880
  31
0.0
   0
LINE
   8
LEVEL003
   6
CONTINUOUS
  62
7
  10
 291.987
  20
 771.880
  30
0.0
  11
 292.168
  21
 770.906
  31
0.0
   0
LINE
   8
LEVEL003
   6
CONTINUOUS
  62
7
  10
 292.168
  20
 770.906
  30
0.0
  11
 292.478
  21
 769.961
  31
0.0
   0
LINE
   8
LEVEL003
   6
CONTINUOUS
  62
7
  10
 292.478
  20
 769.961
  30
0.0
  11
 292.911
  21
 769.059
  31
0.0
   0
LINE
   8
LEVEL003
   6
CONTINUOUS
  62
7
  10
 292.911
  20
 769.059
  30
0.0
  11
 293.463
  21
 768.215
  31
0.0
   0
LINE
   8
LEVEL003
   6
CONTINUOUS
  62
7
  10
 293.463
  20
 768.215
  30
0.0
  11
 294.123
  21
 767.441
  31
0.0
   0
LINE
   8
LEVEL003
   6
CONTINUOUS
  62
7
  10
 294.123
  20
 767.441
  30
0.0
  11
 294.882
  21
 766.750
  31
0.0
   0
LINE
   8
LEVEL003
   6
CONTINUOUS
  62
7
  10
 294.882
  20
 766.750
  30
0.0
  11
 295.727
  21
 766.152
  31
0.0
   0
LINE
   8
LEVEL003
   6
CONTINUOUS
  62
7
  10
 295.727
  20
 766.152
  30
0.0
  11
 296.646
  21
 765.657
  31
0.0
   0
LINE
   8
LEVEL003
   6
CONTINUOUS
  62
7
  10
 296.646
  20
 765.657
  30
0.0
  11
 297.624
  21
 765.273
  31
0.0
   0
LINE
   8
LEVEL003
   6
CONTINUOUS
  62
7
  10
 297.624
  20
 765.273
  30
0.0
  11
 298.646
  21
 765.004
  31
0.0
   0
LINE
   8
LEVEL003
   6
CONTINUOUS
  62
7
  10
 298.646
  20
 765.004
  30
0.0
  11
 299.696
  21
 764.857
  31
0.0
   0
LINE
   8
LEVEL003
   6
CONTINUOUS
  62
7
  10
 299.696
  20
 764.857
  30
0.0
  11
 300.757
  21
 764.832
  31
0.0
   0
LINE
   8
LEVEL003
   6
CONTINUOUS
  62
7
  10
 300.757
  20
 764.832
  30
0.0
  11
 301.814
  21
 764.931
  31
0.0
   0
LINE
   8
LEVEL003
   6
CONTINUOUS
  62
7
  10
 301.814
  20
 764.931
  30
0.0
  11
 302.849
  21
 765.152
  31
0.0
   0
LINE
   8
LEVEL003
   6
CONTINUOUS
  62
7
  10
 302.849
  20
 765.152
  30
0.0
  11
 303.846
  21
 765.490
  31
0.0
   0
LINE
   8
LEVEL003
   6
CONTINUOUS
  62
7
  10
 303.846
  20
 765.490
  30
0.0
  11
 304.790
  21
 765.942
  31
0.0
   0
LINE
   8
LEVEL003
   6
CONTINUOUS
  62
7
  10
 304.790
  20
 765.942
  30
0.0
  11
 305.667
  21
 766.500
  31
0.0
   0
LINE
   8
LEVEL003
   6
CONTINUOUS
  62
7
  10
 305.667
  20
 766.500
  30
0.0
  11
 306.461
  21
 767.155
  31
0.0
   0
LINE
   8
LEVEL003
   6
CONTINUOUS
  62
7
  10
 306.461
  20
 767.155
  30
0.0
  11
 307.162
  21
 767.898
  31
0.0
   0
LINE
   8
LEVEL003
   6
CONTINUOUS
  62
7
  10
 307.162
  20
 767.898
  30
0.0
  11
 307.758
  21
 768.715
  31
0.0
   0
LINE
   8
LEVEL003
   6
CONTINUOUS
  62
7
  10
 307.758
  20
 768.715
  30
0.0
  11
 308.239
  21
 769.596
  31
0.0
   0
LINE
   8
LEVEL003
   6
CONTINUOUS
  62
7
  10
 308.239
  20
 769.596
  30
0.0
  11
 308.599
  21
 770.525
  31
0.0
   0
LINE
   8
LEVEL003
   6
CONTINUOUS
  62
7
  10
 308.599
  20
 770.525
  30
0.0
  11
 308.831
  21
 771.489
  31
0.0
   0
LINE
   8
LEVEL003
   6
CONTINUOUS
  62
7
  10
 308.831
  20
 771.489
  30
0.0
  11
 308.933
  21
 772.473
  31
0.0
   0
LINE
   8
LEVEL003
   6
CONTINUOUS
  62
7
  10
 308.933
  20
 772.473
  30
0.0
  11
 308.938
  21
 772.735
  31
0.0
   0
LINE
   8
LEVEL003
   6
CONTINUOUS
  62
7
  10
 291.938
  20
 776.913
  30
0.0
  11
 291.938
  21
 772.735
  31
0.0
   0
LINE
   8
LEVEL003
   6
CONTINUOUS
  62
7
  10
 308.938
  20
 776.913
  30
0.0
  11
 308.938
  21
 772.735
  31
0.0
   0
LINE
   8
LEVEL003
   6
CONTINUOUS
  62
7
  10
 308.938
  20
 776.913
  30
0.0
  11
 308.871
  21
 777.899
  31
0.0
   0
LINE
   8
LEVEL003
   6
CONTINUOUS
  62
7
  10
 308.871
  20
 777.899
  30
0.0
  11
 308.673
  21
 778.870
  31
0.0
   0
LINE
   8
LEVEL003
   6
CONTINUOUS
  62
7
  10
 308.673
  20
 778.870
  30
0.0
  11
 308.347
  21
 779.810
  31
0.0
   0
LINE
   8
LEVEL003
   6
CONTINUOUS
  62
7
  10
 308.347
  20
 779.810
  30
0.0
  11
 307.897
  21
 780.705
  31
0.0
   0
LINE
   8
LEVEL003
   6
CONTINUOUS
  62
7
  10
 307.897
  20
 780.705
  30
0.0
  11
 307.331
  21
 781.541
  31
0.0
   0
LINE
   8
LEVEL003
   6
CONTINUOUS
  62
7
  10
 307.331
  20
 781.541
  30
0.0
  11
 306.657
  21
 782.304
  31
0.0
   0
LINE
   8
LEVEL003
   6
CONTINUOUS
  62
7
  10
 306.657
  20
 782.304
  30
0.0
  11
 305.886
  21
 782.983
  31
0.0
   0
LINE
   8
LEVEL003
   6
CONTINUOUS
  62
7
  10
 305.886
  20
 782.983
  30
0.0
  11
 305.030
  21
 783.568
  31
0.0
   0
LINE
   8
LEVEL003
   6
CONTINUOUS
  62
7
  10
 305.030
  20
 783.568
  30
0.0
  11
 304.103
  21
 784.049
  31
0.0
   0
LINE
   8
LEVEL003
   6
CONTINUOUS
  62
7
  10
 304.103
  20
 784.049
  30
0.0
  11
 303.118
  21
 784.418
  31
0.0
   0
LINE
   8
LEVEL003
   6
CONTINUOUS
  62
7
  10
 303.118
  20
 784.418
  30
0.0
  11
 302.091
  21
 784.671
  31
0.0
   0
LINE
   8
LEVEL003
   6
CONTINUOUS
  62
7
  10
 302.091
  20
 784.671
  30
0.0
  11
 301.039
  21
 784.802
  31
0.0
   0
LINE
   8
LEVEL003
   6
CONTINUOUS
  62
7
  10
 301.039
  20
 784.802
  30
0.0
  11
 299.977
  21
 784.810
  31
0.0
   0
LINE
   8
LEVEL003
   6
CONTINUOUS
  62
7
  10
 299.977
  20
 784.810
  30
0.0
  11
 298.922
  21
 784.695
  31
0.0
   0
LINE
   8
LEVEL003
   6
CONTINUOUS
  62
7
  10
 298.922
  20
 784.695
  30
0.0
  11
 297.891
  21
 784.459
  31
0.0
   0
LINE
   8
LEVEL003
   6
CONTINUOUS
  62
7
  10
 297.891
  20
 784.459
  30
0.0
  11
 296.900
  21
 784.105
  31
0.0
   0
LINE
   8
LEVEL003
   6
CONTINUOUS
  62
7
  10
 296.900
  20
 784.105
  30
0.0
  11
 295.964
  21
 783.638
  31
0.0
   0
LINE
   8
LEVEL003
   6
CONTINUOUS
  62
7
  10
 295.964
  20
 783.638
  30
0.0
  11
 295.098
  21
 783.067
  31
0.0
   0
LINE
   8
LEVEL003
   6
CONTINUOUS
  62
7
  10
 295.098
  20
 783.067
  30
0.0
  11
 294.315
  21
 782.399
  31
0.0
   0
LINE
   8
LEVEL003
   6
CONTINUOUS
  62
7
  10
 294.315
  20
 782.399
  30
0.0
  11
 293.628
  21
 781.646
  31
0.0
   0
LINE
   8
LEVEL003
   6
CONTINUOUS
  62
7
  10
 293.628
  20
 781.646
  30
0.0
  11
 293.047
  21
 780.820
  31
0.0
   0
LINE
   8
LEVEL003
   6
CONTINUOUS
  62
7
  10
 293.047
  20
 780.820
  30
0.0
  11
 292.581
  21
 779.932
  31
0.0
   0
LINE
   8
LEVEL003
   6
CONTINUOUS
  62
7
  10
 292.581
  20
 779.932
  30
0.0
  11
 292.238
  21
 778.997
  31
0.0
   0
LINE
   8
LEVEL003
   6
CONTINUOUS
  62
7
  10
 292.238
  20
 778.997
  30
0.0
  11
 292.023
  21
 778.029
  31
0.0
   0
LINE
   8
LEVEL003
   6
CONTINUOUS
  62
7
  10
 292.023
  20
 778.029
  30
0.0
  11
 291.939
  21
 777.045
  31
0.0
   0
LINE
   8
LEVEL003
   6
CONTINUOUS
  62
7
  10
 291.939
  20
 777.045
  30
0.0
  11
 291.938
  21
 776.913
  31
0.0
   0
LINE
   8
LEVEL001
   6
CONTINUOUS
  62
7
  10
 308.938
  20
 772.843
  30
0.0
  11
 309.326
  21
 773.855
  31
0.0
   0
LINE
   8
LEVEL001
   6
CONTINUOUS
  62
7
  10
 309.326
  20
 773.855
  30
0.0
  11
 309.576
  21
 774.905
  31
0.0
   0
LINE
   8
LEVEL001
   6
CONTINUOUS
  62
7
  10
 309.576
  20
 774.905
  30
0.0
  11
 309.683
  21
 775.975
  31
0.0
   0
LINE
   8
LEVEL001
   6
CONTINUOUS
  62
7
  10
 309.683
  20
 775.975
  30
0.0
  11
 309.646
  21
 777.050
  31
0.0
   0
LINE
   8
LEVEL001
   6
CONTINUOUS
  62
7
  10
 309.646
  20
 777.050
  30
0.0
  11
 309.465
  21
 778.112
  31
0.0
   0
LINE
   8
LEVEL001
   6
CONTINUOUS
  62
7
  10
 309.465
  20
 778.112
  30
0.0
  11
 309.144
  21
 779.144
  31
0.0
   0
LINE
   8
LEVEL001
   6
CONTINUOUS
  62
7
  10
 309.144
  20
 779.144
  30
0.0
  11
 308.686
  21
 780.132
  31
0.0
   0
LINE
   8
LEVEL001
   6
CONTINUOUS
  62
7
  10
 308.686
  20
 780.132
  30
0.0
  11
 308.100
  21
 781.058
  31
0.0
   0
LINE
   8
LEVEL001
   6
CONTINUOUS
  62
7
  10
 308.100
  20
 781.058
  30
0.0
  11
 307.395
  21
 781.909
  31
0.0
   0
LINE
   8
LEVEL001
   6
CONTINUOUS
  62
7
  10
 307.395
  20
 781.909
  30
0.0
  11
 306.580
  21
 782.672
  31
0.0
   0
LINE
   8
LEVEL001
   6
CONTINUOUS
  62
7
  10
 306.580
  20
 782.672
  30
0.0
  11
 305.670
  21
 783.335
  31
0.0
   0
LINE
   8
LEVEL001
   6
CONTINUOUS
  62
7
  10
 305.670
  20
 783.335
  30
0.0
  11
 304.678
  21
 783.886
  31
0.0
   0
LINE
   8
LEVEL001
   6
CONTINUOUS
  62
7
  10
 304.678
  20
 783.886
  30
0.0
  11
 303.620
  21
 784.318
  31
0.0
   0
LINE
   8
LEVEL001
   6
CONTINUOUS
  62
7
  10
 303.620
  20
 784.318
  30
0.0
  11
 302.513
  21
 784.625
  31
0.0
   0
LINE
   8
LEVEL001
   6
CONTINUOUS
  62
7
  10
 302.513
  20
 784.625
  30
0.0
  11
 301.373
  21
 784.800
  31
0.0
   0
LINE
   8
LEVEL001
   6
CONTINUOUS
  62
7
  10
 301.373
  20
 784.800
  30
0.0
  11
 300.218
  21
 784.841
  31
0.0
   0
LINE
   8
LEVEL001
   6
CONTINUOUS
  62
7
  10
 300.218
  20
 784.841
  30
0.0
  11
 299.067
  21
 784.749
  31
0.0
   0
LINE
   8
LEVEL001
   6
CONTINUOUS
  62
7
  10
 299.067
  20
 784.749
  30
0.0
  11
 297.937
  21
 784.523
  31
0.0
   0
LINE
   8
LEVEL001
   6
CONTINUOUS
  62
7
  10
 297.937
  20
 784.523
  30
0.0
  11
 296.846
  21
 784.169
  31
0.0
   0
LINE
   8
LEVEL001
   6
CONTINUOUS
  62
7
  10
 296.846
  20
 784.169
  30
0.0
  11
 295.811
  21
 783.690
  31
0.0
   0
LINE
   8
LEVEL001
   6
CONTINUOUS
  62
7
  10
 295.811
  20
 783.690
  30
0.0
  11
 294.849
  21
 783.095
  31
0.0
   0
LINE
   8
LEVEL001
   6
CONTINUOUS
  62
7
  10
 294.849
  20
 783.095
  30
0.0
  11
 293.973
  21
 782.394
  31
0.0
   0
LINE
   8
LEVEL001
   6
CONTINUOUS
  62
7
  10
 293.973
  20
 782.394
  30
0.0
  11
 293.199
  21
 781.596
  31
0.0
   0
LINE
   8
LEVEL001
   6
CONTINUOUS
  62
7
  10
 293.199
  20
 781.596
  30
0.0
  11
 292.537
  21
 780.714
  31
0.0
   0
LINE
   8
LEVEL001
   6
CONTINUOUS
  62
7
  10
 292.537
  20
 780.714
  30
0.0
  11
 291.999
  21
 779.763
  31
0.0
   0
LINE
   8
LEVEL001
   6
CONTINUOUS
  62
7
  10
 291.999
  20
 779.763
  30
0.0
  11
 291.593
  21
 778.757
  31
0.0
   0
LINE
   8
LEVEL001
   6
CONTINUOUS
  62
7
  10
 291.593
  20
 778.757
  30
0.0
  11
 291.324
  21
 777.711
  31
0.0
   0
LINE
   8
LEVEL001
   6
CONTINUOUS
  62
7
  10
 291.324
  20
 777.711
  30
0.0
  11
 291.198
  21
 776.642
  31
0.0
   0
LINE
   8
LEVEL001
   6
CONTINUOUS
  62
7
  10
 291.198
  20
 776.642
  30
0.0
  11
 291.216
  21
 775.567
  31
0.0
   0
LINE
   8
LEVEL001
   6
CONTINUOUS
  62
7
  10
 291.216
  20
 775.567
  30
0.0
  11
 291.377
  21
 774.503
  31
0.0
   0
LINE
   8
LEVEL001
   6
CONTINUOUS
  62
7
  10
 291.377
  20
 774.503
  30
0.0
  11
 291.680
  21
 773.465
  31
0.0
   0
LINE
   8
LEVEL001
   6
CONTINUOUS
  62
7
  10
 291.680
  20
 773.465
  30
0.0
  11
 291.938
  21
 772.843
  31
0.0
   0
LINE
   8
LEVEL001
   6
CONTINUOUS
  62
7
  10
 288.490
  20
 775.192
  30
0.0
  11
 288.723
  21
 773.815
  31
0.0
   0
LINE
   8
LEVEL001
   6
CONTINUOUS
  62
7
  10
 288.723
  20
 773.815
  30
0.0
  11
 289.140
  21
 772.475
  31
0.0
   0
LINE
   8
LEVEL001
   6
CONTINUOUS
  62
7
  10
 289.140
  20
 772.475
  30
0.0
  11
 289.732
  21
 771.193
  31
0.0
   0
LINE
   8
LEVEL001
   6
CONTINUOUS
  62
7
  10
 289.732
  20
 771.193
  30
0.0
  11
 290.491
  21
 769.991
  31
0.0
   0
LINE
   8
LEVEL001
   6
CONTINUOUS
  62
7
  10
 290.491
  20
 769.991
  30
0.0
  11
 291.406
  21
 768.886
  31
0.0
   0
LINE
   8
LEVEL001
   6
CONTINUOUS
  62
7
  10
 291.406
  20
 768.886
  30
0.0
  11
 292.462
  21
 767.896
  31
0.0
   0
LINE
   8
LEVEL001
   6
CONTINUOUS
  62
7
  10
 292.462
  20
 767.896
  30
0.0
  11
 293.642
  21
 767.036
  31
0.0
   0
LINE
   8
LEVEL001
   6
CONTINUOUS
  62
7
  10
 293.642
  20
 767.036
  30
0.0
  11
 294.928
  21
 766.319
  31
0.0
   0
LINE
   8
LEVEL001
   6
CONTINUOUS
  62
7
  10
 294.928
  20
 766.319
  30
0.0
  11
 296.300
  21
 765.757
  31
0.0
   0
LINE
   8
LEVEL001
   6
CONTINUOUS
  62
7
  10
 296.300
  20
 765.757
  30
0.0
  11
 296.729
  21
 765.619
  31
0.0
   0
LINE
   8
LEVEL001
   6
CONTINUOUS
  62
7
  10
 304.146
  20
 765.619
  30
0.0
  11
 305.540
  21
 766.132
  31
0.0
   0
LINE
   8
LEVEL001
   6
CONTINUOUS
  62
7
  10
 305.540
  20
 766.132
  30
0.0
  11
 306.854
  21
 766.803
  31
0.0
   0
LINE
   8
LEVEL001
   6
CONTINUOUS
  62
7
  10
 306.854
  20
 766.803
  30
0.0
  11
 308.068
  21
 767.621
  31
0.0
   0
LINE
   8
LEVEL001
   6
CONTINUOUS
  62
7
  10
 308.068
  20
 767.621
  30
0.0
  11
 308.820
  21
 768.248
  31
0.0
   0
LINE
   8
LEVEL001
   6
CONTINUOUS
  62
7
  10
 305.605
  20
 765.437
  30
0.0
  11
 303.713
  21
 765.437
  31
0.0
   0
LINE
   8
LEVEL001
   6
CONTINUOUS
  62
7
  10
 297.162
  20
 765.437
  30
0.0
  11
 276.223
  21
 765.437
  31
0.0
   0
LINE
   8
LEVEL003
   6
CONTINUOUS
  62
7
  10
 332.438
  20
 772.515
  30
0.0
  11
 332.375
  21
 773.443
  31
0.0
   0
LINE
   8
LEVEL003
   6
CONTINUOUS
  62
7
  10
 332.375
  20
 773.443
  30
0.0
  11
 332.189
  21
 774.357
  31
0.0
   0
LINE
   8
LEVEL003
   6
CONTINUOUS
  62
7
  10
 332.189
  20
 774.357
  30
0.0
  11
 331.882
  21
 775.242
  31
0.0
   0
LINE
   8
LEVEL003
   6
CONTINUOUS
  62
7
  10
 331.882
  20
 775.242
  30
0.0
  11
 331.458
  21
 776.084
  31
0.0
   0
LINE
   8
LEVEL003
   6
CONTINUOUS
  62
7
  10
 331.458
  20
 776.084
  30
0.0
  11
 330.925
  21
 776.870
  31
0.0
   0
LINE
   8
LEVEL003
   6
CONTINUOUS
  62
7
  10
 330.925
  20
 776.870
  30
0.0
  11
 330.291
  21
 777.589
  31
0.0
   0
LINE
   8
LEVEL003
   6
CONTINUOUS
  62
7
  10
 330.291
  20
 777.589
  30
0.0
  11
 329.565
  21
 778.228
  31
0.0
   0
LINE
   8
LEVEL003
   6
CONTINUOUS
  62
7
  10
 329.565
  20
 778.228
  30
0.0
  11
 328.760
  21
 778.779
  31
0.0
   0
LINE
   8
LEVEL003
   6
CONTINUOUS
  62
7
  10
 328.760
  20
 778.779
  30
0.0
  11
 327.887
  21
 779.231
  31
0.0
   0
LINE
   8
LEVEL003
   6
CONTINUOUS
  62
7
  10
 327.887
  20
 779.231
  30
0.0
  11
 326.960
  21
 779.579
  31
0.0
   0
LINE
   8
LEVEL003
   6
CONTINUOUS
  62
7
  10
 326.960
  20
 779.579
  30
0.0
  11
 325.994
  21
 779.816
  31
0.0
   0
LINE
   8
LEVEL003
   6
CONTINUOUS
  62
7
  10
 325.994
  20
 779.816
  30
0.0
  11
 325.003
  21
 779.940
  31
0.0
   0
LINE
   8
LEVEL003
   6
CONTINUOUS
  62
7
  10
 325.003
  20
 779.940
  30
0.0
  11
 324.004
  21
 779.948
  31
0.0
   0
LINE
   8
LEVEL003
   6
CONTINUOUS
  62
7
  10
 324.004
  20
 779.948
  30
0.0
  11
 323.012
  21
 779.839
  31
0.0
   0
LINE
   8
LEVEL003
   6
CONTINUOUS
  62
7
  10
 323.012
  20
 779.839
  30
0.0
  11
 322.041
  21
 779.617
  31
0.0
   0
LINE
   8
LEVEL003
   6
CONTINUOUS
  62
7
  10
 322.041
  20
 779.617
  30
0.0
  11
 321.108
  21
 779.284
  31
0.0
   0
LINE
   8
LEVEL003
   6
CONTINUOUS
  62
7
  10
 321.108
  20
 779.284
  30
0.0
  11
 320.227
  21
 778.845
  31
0.0
   0
LINE
   8
LEVEL003
   6
CONTINUOUS
  62
7
  10
 320.227
  20
 778.845
  30
0.0
  11
 319.412
  21
 778.307
  31
0.0
   0
LINE
   8
LEVEL003
   6
CONTINUOUS
  62
7
  10
 319.412
  20
 778.307
  30
0.0
  11
 318.675
  21
 777.679
  31
0.0
   0
LINE
   8
LEVEL003
   6
CONTINUOUS
  62
7
  10
 318.675
  20
 777.679
  30
0.0
  11
 318.028
  21
 776.970
  31
0.0
   0
LINE
   8
LEVEL003
   6
CONTINUOUS
  62
7
  10
 318.028
  20
 776.970
  30
0.0
  11
 317.481
  21
 776.192
  31
0.0
   0
LINE
   8
LEVEL003
   6
CONTINUOUS
  62
7
  10
 317.481
  20
 776.192
  30
0.0
  11
 317.043
  21
 775.356
  31
0.0
   0
LINE
   8
LEVEL003
   6
CONTINUOUS
  62
7
  10
 317.043
  20
 775.356
  30
0.0
  11
 316.720
  21
 774.476
  31
0.0
   0
LINE
   8
LEVEL003
   6
CONTINUOUS
  62
7
  10
 316.720
  20
 774.476
  30
0.0
  11
 316.518
  21
 773.566
  31
0.0
   0
LINE
   8
LEVEL003
   6
CONTINUOUS
  62
7
  10
 316.518
  20
 773.566
  30
0.0
  11
 316.439
  21
 772.639
  31
0.0
   0
LINE
   8
LEVEL003
   6
CONTINUOUS
  62
7
  10
 316.439
  20
 772.639
  30
0.0
  11
 316.484
  21
 771.710
  31
0.0
   0
LINE
   8
LEVEL003
   6
CONTINUOUS
  62
7
  10
 316.484
  20
 771.710
  30
0.0
  11
 316.654
  21
 770.794
  31
0.0
   0
LINE
   8
LEVEL003
   6
CONTINUOUS
  62
7
  10
 316.654
  20
 770.794
  30
0.0
  11
 316.946
  21
 769.904
  31
0.0
   0
LINE
   8
LEVEL003
   6
CONTINUOUS
  62
7
  10
 316.946
  20
 769.904
  30
0.0
  11
 317.354
  21
 769.056
  31
0.0
   0
LINE
   8
LEVEL003
   6
CONTINUOUS
  62
7
  10
 317.354
  20
 769.056
  30
0.0
  11
 317.873
  21
 768.261
  31
0.0
   0
LINE
   8
LEVEL003
   6
CONTINUOUS
  62
7
  10
 317.873
  20
 768.261
  30
0.0
  11
 318.494
  21
 767.533
  31
0.0
   0
LINE
   8
LEVEL003
   6
CONTINUOUS
  62
7
  10
 318.494
  20
 767.533
  30
0.0
  11
 319.208
  21
 766.882
  31
0.0
   0
LINE
   8
LEVEL003
   6
CONTINUOUS
  62
7
  10
 319.208
  20
 766.882
  30
0.0
  11
 320.004
  21
 766.320
  31
0.0
   0
LINE
   8
LEVEL003
   6
CONTINUOUS
  62
7
  10
 320.004
  20
 766.320
  30
0.0
  11
 320.869
  21
 765.854
  31
0.0
   0
LINE
   8
LEVEL003
   6
CONTINUOUS
  62
7
  10
 320.869
  20
 765.854
  30
0.0
  11
 321.789
  21
 765.492
  31
0.0
   0
LINE
   8
LEVEL003
   6
CONTINUOUS
  62
7
  10
 321.789
  20
 765.492
  30
0.0
  11
 322.751
  21
 765.239
  31
0.0
   0
LINE
   8
LEVEL003
   6
CONTINUOUS
  62
7
  10
 322.751
  20
 765.239
  30
0.0
  11
 323.739
  21
 765.100
  31
0.0
   0
LINE
   8
LEVEL003
   6
CONTINUOUS
  62
7
  10
 323.739
  20
 765.100
  30
0.0
  11
 324.738
  21
 765.077
  31
0.0
   0
LINE
   8
LEVEL003
   6
CONTINUOUS
  62
7
  10
 324.738
  20
 765.077
  30
0.0
  11
 325.733
  21
 765.170
  31
0.0
   0
LINE
   8
LEVEL003
   6
CONTINUOUS
  62
7
  10
 325.733
  20
 765.170
  30
0.0
  11
 326.707
  21
 765.378
  31
0.0
   0
LINE
   8
LEVEL003
   6
CONTINUOUS
  62
7
  10
 326.707
  20
 765.378
  30
0.0
  11
 327.646
  21
 765.697
  31
0.0
   0
LINE
   8
LEVEL003
   6
CONTINUOUS
  62
7
  10
 327.646
  20
 765.697
  30
0.0
  11
 328.534
  21
 766.122
  31
0.0
   0
LINE
   8
LEVEL003
   6
CONTINUOUS
  62
7
  10
 328.534
  20
 766.122
  30
0.0
  11
 329.359
  21
 766.647
  31
0.0
   0
LINE
   8
LEVEL003
   6
CONTINUOUS
  62
7
  10
 329.359
  20
 766.647
  30
0.0
  11
 330.107
  21
 767.264
  31
0.0
   0
LINE
   8
LEVEL003
   6
CONTINUOUS
  62
7
  10
 330.107
  20
 767.264
  30
0.0
  11
 330.766
  21
 767.962
  31
0.0
   0
LINE
   8
LEVEL003
   6
CONTINUOUS
  62
7
  10
 330.766
  20
 767.962
  30
0.0
  11
 331.327
  21
 768.732
  31
0.0
   0
LINE
   8
LEVEL003
   6
CONTINUOUS
  62
7
  10
 331.327
  20
 768.732
  30
0.0
  11
 331.780
  21
 769.561
  31
0.0
   0
LINE
   8
LEVEL003
   6
CONTINUOUS
  62
7
  10
 331.780
  20
 769.561
  30
0.0
  11
 332.119
  21
 770.436
  31
0.0
   0
LINE
   8
LEVEL003
   6
CONTINUOUS
  62
7
  10
 332.119
  20
 770.436
  30
0.0
  11
 332.338
  21
 771.343
  31
0.0
   0
LINE
   8
LEVEL003
   6
CONTINUOUS
  62
7
  10
 332.338
  20
 771.343
  30
0.0
  11
 332.433
  21
 772.268
  31
0.0
   0
LINE
   8
LEVEL003
   6
CONTINUOUS
  62
7
  10
 332.433
  20
 772.268
  30
0.0
  11
 332.438
  21
 772.515
  31
0.0
   0
LINE
   8
LEVEL003
   6
CONTINUOUS
  62
7
  10
 332.938
  20
 772.735
  30
0.0
  11
 332.871
  21
 773.721
  31
0.0
   0
LINE
   8
LEVEL003
   6
CONTINUOUS
  62
7
  10
 332.871
  20
 773.721
  30
0.0
  11
 332.673
  21
 774.692
  31
0.0
   0
LINE
   8
LEVEL003
   6
CONTINUOUS
  62
7
  10
 332.673
  20
 774.692
  30
0.0
  11
 332.347
  21
 775.632
  31
0.0
   0
LINE
   8
LEVEL003
   6
CONTINUOUS
  62
7
  10
 332.347
  20
 775.632
  30
0.0
  11
 331.897
  21
 776.527
  31
0.0
   0
LINE
   8
LEVEL003
   6
CONTINUOUS
  62
7
  10
 331.897
  20
 776.527
  30
0.0
  11
 331.331
  21
 777.362
  31
0.0
   0
LINE
   8
LEVEL003
   6
CONTINUOUS
  62
7
  10
 331.331
  20
 777.362
  30
0.0
  11
 330.657
  21
 778.126
  31
0.0
   0
LINE
   8
LEVEL003
   6
CONTINUOUS
  62
7
  10
 330.657
  20
 778.126
  30
0.0
  11
 329.886
  21
 778.805
  31
0.0
   0
LINE
   8
LEVEL003
   6
CONTINUOUS
  62
7
  10
 329.886
  20
 778.805
  30
0.0
  11
 329.030
  21
 779.390
  31
0.0
   0
LINE
   8
LEVEL003
   6
CONTINUOUS
  62
7
  10
 329.030
  20
 779.390
  30
0.0
  11
 328.103
  21
 779.871
  31
0.0
   0
LINE
   8
LEVEL003
   6
CONTINUOUS
  62
7
  10
 328.103
  20
 779.871
  30
0.0
  11
 327.118
  21
 780.240
  31
0.0
   0
LINE
   8
LEVEL003
   6
CONTINUOUS
  62
7
  10
 327.118
  20
 780.240
  30
0.0
  11
 326.091
  21
 780.493
  31
0.0
   0
LINE
   8
LEVEL003
   6
CONTINUOUS
  62
7
  10
 326.091
  20
 780.493
  30
0.0
  11
 325.039
  21
 780.624
  31
0.0
   0
LINE
   8
LEVEL003
   6
CONTINUOUS
  62
7
  10
 325.039
  20
 780.624
  30
0.0
  11
 323.977
  21
 780.632
  31
0.0
   0
LINE
   8
LEVEL003
   6
CONTINUOUS
  62
7
  10
 323.977
  20
 780.632
  30
0.0
  11
 322.922
  21
 780.517
  31
0.0
   0
LINE
   8
LEVEL003
   6
CONTINUOUS
  62
7
  10
 322.922
  20
 780.517
  30
0.0
  11
 321.891
  21
 780.281
  31
0.0
   0
LINE
   8
LEVEL003
   6
CONTINUOUS
  62
7
  10
 321.891
  20
 780.281
  30
0.0
  11
 320.900
  21
 779.926
  31
0.0
   0
LINE
   8
LEVEL003
   6
CONTINUOUS
  62
7
  10
 320.900
  20
 779.926
  30
0.0
  11
 319.964
  21
 779.460
  31
0.0
   0
LINE
   8
LEVEL003
   6
CONTINUOUS
  62
7
  10
 319.964
  20
 779.460
  30
0.0
  11
 319.098
  21
 778.889
  31
0.0
   0
LINE
   8
LEVEL003
   6
CONTINUOUS
  62
7
  10
 319.098
  20
 778.889
  30
0.0
  11
 318.315
  21
 778.221
  31
0.0
   0
LINE
   8
LEVEL003
   6
CONTINUOUS
  62
7
  10
 318.315
  20
 778.221
  30
0.0
  11
 317.628
  21
 777.468
  31
0.0
   0
LINE
   8
LEVEL003
   6
CONTINUOUS
  62
7
  10
 317.628
  20
 777.468
  30
0.0
  11
 317.047
  21
 776.641
  31
0.0
   0
LINE
   8
LEVEL003
   6
CONTINUOUS
  62
7
  10
 317.047
  20
 776.641
  30
0.0
  11
 316.581
  21
 775.754
  31
0.0
   0
LINE
   8
LEVEL003
   6
CONTINUOUS
  62
7
  10
 316.581
  20
 775.754
  30
0.0
  11
 316.238
  21
 774.819
  31
0.0
   0
LINE
   8
LEVEL003
   6
CONTINUOUS
  62
7
  10
 316.238
  20
 774.819
  30
0.0
  11
 316.023
  21
 773.851
  31
0.0
   0
LINE
   8
LEVEL003
   6
CONTINUOUS
  62
7
  10
 316.023
  20
 773.851
  30
0.0
  11
 315.939
  21
 772.866
  31
0.0
   0
LINE
   8
LEVEL003
   6
CONTINUOUS
  62
7
  10
 315.939
  20
 772.866
  30
0.0
  11
 315.987
  21
 771.880
  31
0.0
   0
LINE
   8
LEVEL003
   6
CONTINUOUS
  62
7
  10
 315.987
  20
 771.880
  30
0.0
  11
 316.168
  21
 770.906
  31
0.0
   0
LINE
   8
LEVEL003
   6
CONTINUOUS
  62
7
  10
 316.168
  20
 770.906
  30
0.0
  11
 316.478
  21
 769.961
  31
0.0
   0
LINE
   8
LEVEL003
   6
CONTINUOUS
  62
7
  10
 316.478
  20
 769.961
  30
0.0
  11
 316.911
  21
 769.059
  31
0.0
   0
LINE
   8
LEVEL003
   6
CONTINUOUS
  62
7
  10
 316.911
  20
 769.059
  30
0.0
  11
 317.463
  21
 768.215
  31
0.0
   0
LINE
   8
LEVEL003
   6
CONTINUOUS
  62
7
  10
 317.463
  20
 768.215
  30
0.0
  11
 318.123
  21
 767.441
  31
0.0
   0
LINE
   8
LEVEL003
   6
CONTINUOUS
  62
7
  10
 318.123
  20
 767.441
  30
0.0
  11
 318.882
  21
 766.750
  31
0.0
   0
LINE
   8
LEVEL003
   6
CONTINUOUS
  62
7
  10
 318.882
  20
 766.750
  30
0.0
  11
 319.727
  21
 766.152
  31
0.0
   0
LINE
   8
LEVEL003
   6
CONTINUOUS
  62
7
  10
 319.727
  20
 766.152
  30
0.0
  11
 320.646
  21
 765.657
  31
0.0
   0
LINE
   8
LEVEL003
   6
CONTINUOUS
  62
7
  10
 320.646
  20
 765.657
  30
0.0
  11
 321.624
  21
 765.273
  31
0.0
   0
LINE
   8
LEVEL003
   6
CONTINUOUS
  62
7
  10
 321.624
  20
 765.273
  30
0.0
  11
 322.646
  21
 765.004
  31
0.0
   0
LINE
   8
LEVEL003
   6
CONTINUOUS
  62
7
  10
 322.646
  20
 765.004
  30
0.0
  11
 323.696
  21
 764.857
  31
0.0
   0
LINE
   8
LEVEL003
   6
CONTINUOUS
  62
7
  10
 323.696
  20
 764.857
  30
0.0
  11
 324.757
  21
 764.832
  31
0.0
   0
LINE
   8
LEVEL003
   6
CONTINUOUS
  62
7
  10
 324.757
  20
 764.832
  30
0.0
  11
 325.814
  21
 764.931
  31
0.0
   0
LINE
   8
LEVEL003
   6
CONTINUOUS
  62
7
  10
 325.814
  20
 764.931
  30
0.0
  11
 326.849
  21
 765.152
  31
0.0
   0
LINE
   8
LEVEL003
   6
CONTINUOUS
  62
7
  10
 326.849
  20
 765.152
  30
0.0
  11
 327.846
  21
 765.490
  31
0.0
   0
LINE
   8
LEVEL003
   6
CONTINUOUS
  62
7
  10
 327.846
  20
 765.490
  30
0.0
  11
 328.790
  21
 765.942
  31
0.0
   0
LINE
   8
LEVEL003
   6
CONTINUOUS
  62
7
  10
 328.790
  20
 765.942
  30
0.0
  11
 329.667
  21
 766.500
  31
0.0
   0
LINE
   8
LEVEL003
   6
CONTINUOUS
  62
7
  10
 329.667
  20
 766.500
  30
0.0
  11
 330.461
  21
 767.155
  31
0.0
   0
LINE
   8
LEVEL003
   6
CONTINUOUS
  62
7
  10
 330.461
  20
 767.155
  30
0.0
  11
 331.162
  21
 767.898
  31
0.0
   0
LINE
   8
LEVEL003
   6
CONTINUOUS
  62
7
  10
 331.162
  20
 767.898
  30
0.0
  11
 331.758
  21
 768.715
  31
0.0
   0
LINE
   8
LEVEL003
   6
CONTINUOUS
  62
7
  10
 331.758
  20
 768.715
  30
0.0
  11
 332.239
  21
 769.596
  31
0.0
   0
LINE
   8
LEVEL003
   6
CONTINUOUS
  62
7
  10
 332.239
  20
 769.596
  30
0.0
  11
 332.599
  21
 770.525
  31
0.0
   0
LINE
   8
LEVEL003
   6
CONTINUOUS
  62
7
  10
 332.599
  20
 770.525
  30
0.0
  11
 332.831
  21
 771.489
  31
0.0
   0
LINE
   8
LEVEL003
   6
CONTINUOUS
  62
7
  10
 332.831
  20
 771.489
  30
0.0
  11
 332.933
  21
 772.473
  31
0.0
   0
LINE
   8
LEVEL003
   6
CONTINUOUS
  62
7
  10
 332.933
  20
 772.473
  30
0.0
  11
 332.938
  21
 772.735
  31
0.0
   0
LINE
   8
LEVEL003
   6
CONTINUOUS
  62
7
  10
 332.938
  20
 776.913
  30
0.0
  11
 332.871
  21
 777.899
  31
0.0
   0
LINE
   8
LEVEL003
   6
CONTINUOUS
  62
7
  10
 332.871
  20
 777.899
  30
0.0
  11
 332.673
  21
 778.870
  31
0.0
   0
LINE
   8
LEVEL003
   6
CONTINUOUS
  62
7
  10
 332.673
  20
 778.870
  30
0.0
  11
 332.347
  21
 779.810
  31
0.0
   0
LINE
   8
LEVEL003
   6
CONTINUOUS
  62
7
  10
 332.347
  20
 779.810
  30
0.0
  11
 331.897
  21
 780.705
  31
0.0
   0
LINE
   8
LEVEL003
   6
CONTINUOUS
  62
7
  10
 331.897
  20
 780.705
  30
0.0
  11
 331.331
  21
 781.541
  31
0.0
   0
LINE
   8
LEVEL003
   6
CONTINUOUS
  62
7
  10
 331.331
  20
 781.541
  30
0.0
  11
 330.657
  21
 782.304
  31
0.0
   0
LINE
   8
LEVEL003
   6
CONTINUOUS
  62
7
  10
 330.657
  20
 782.304
  30
0.0
  11
 329.886
  21
 782.983
  31
0.0
   0
LINE
   8
LEVEL003
   6
CONTINUOUS
  62
7
  10
 329.886
  20
 782.983
  30
0.0
  11
 329.030
  21
 783.568
  31
0.0
   0
LINE
   8
LEVEL003
   6
CONTINUOUS
  62
7
  10
 329.030
  20
 783.568
  30
0.0
  11
 328.103
  21
 784.049
  31
0.0
   0
LINE
   8
LEVEL003
   6
CONTINUOUS
  62
7
  10
 328.103
  20
 784.049
  30
0.0
  11
 327.118
  21
 784.418
  31
0.0
   0
LINE
   8
LEVEL003
   6
CONTINUOUS
  62
7
  10
 327.118
  20
 784.418
  30
0.0
  11
 326.091
  21
 784.671
  31
0.0
   0
LINE
   8
LEVEL003
   6
CONTINUOUS
  62
7
  10
 326.091
  20
 784.671
  30
0.0
  11
 325.039
  21
 784.802
  31
0.0
   0
LINE
   8
LEVEL003
   6
CONTINUOUS
  62
7
  10
 325.039
  20
 784.802
  30
0.0
  11
 323.977
  21
 784.810
  31
0.0
   0
LINE
   8
LEVEL003
   6
CONTINUOUS
  62
7
  10
 323.977
  20
 784.810
  30
0.0
  11
 322.922
  21
 784.695
  31
0.0
   0
LINE
   8
LEVEL003
   6
CONTINUOUS
  62
7
  10
 322.922
  20
 784.695
  30
0.0
  11
 321.891
  21
 784.459
  31
0.0
   0
LINE
   8
LEVEL003
   6
CONTINUOUS
  62
7
  10
 321.891
  20
 784.459
  30
0.0
  11
 320.900
  21
 784.105
  31
0.0
   0
LINE
   8
LEVEL003
   6
CONTINUOUS
  62
7
  10
 320.900
  20
 784.105
  30
0.0
  11
 319.964
  21
 783.638
  31
0.0
   0
LINE
   8
LEVEL003
   6
CONTINUOUS
  62
7
  10
 319.964
  20
 783.638
  30
0.0
  11
 319.098
  21
 783.067
  31
0.0
   0
LINE
   8
LEVEL003
   6
CONTINUOUS
  62
7
  10
 319.098
  20
 783.067
  30
0.0
  11
 318.315
  21
 782.399
  31
0.0
   0
LINE
   8
LEVEL003
   6
CONTINUOUS
  62
7
  10
 318.315
  20
 782.399
  30
0.0
  11
 317.628
  21
 781.646
  31
0.0
   0
LINE
   8
LEVEL003
   6
CONTINUOUS
  62
7
  10
 317.628
  20
 781.646
  30
0.0
  11
 317.047
  21
 780.820
  31
0.0
   0
LINE
   8
LEVEL003
   6
CONTINUOUS
  62
7
  10
 317.047
  20
 780.820
  30
0.0
  11
 316.581
  21
 779.932
  31
0.0
   0
LINE
   8
LEVEL003
   6
CONTINUOUS
  62
7
  10
 316.581
  20
 779.932
  30
0.0
  11
 316.238
  21
 778.997
  31
0.0
   0
LINE
   8
LEVEL003
   6
CONTINUOUS
  62
7
  10
 316.238
  20
 778.997
  30
0.0
  11
 316.023
  21
 778.029
  31
0.0
   0
LINE
   8
LEVEL003
   6
CONTINUOUS
  62
7
  10
 316.023
  20
 778.029
  30
0.0
  11
 315.939
  21
 777.045
  31
0.0
   0
LINE
   8
LEVEL003
   6
CONTINUOUS
  62
7
  10
 315.939
  20
 777.045
  30
0.0
  11
 315.938
  21
 776.913
  31
0.0
   0
LINE
   8
LEVEL001
   6
CONTINUOUS
  62
7
  10
 332.938
  20
 772.843
  30
0.0
  11
 333.326
  21
 773.855
  31
0.0
   0
LINE
   8
LEVEL001
   6
CONTINUOUS
  62
7
  10
 333.326
  20
 773.855
  30
0.0
  11
 333.576
  21
 774.905
  31
0.0
   0
LINE
   8
LEVEL001
   6
CONTINUOUS
  62
7
  10
 333.576
  20
 774.905
  30
0.0
  11
 333.683
  21
 775.975
  31
0.0
   0
LINE
   8
LEVEL001
   6
CONTINUOUS
  62
7
  10
 333.683
  20
 775.975
  30
0.0
  11
 333.646
  21
 777.050
  31
0.0
   0
LINE
   8
LEVEL001
   6
CONTINUOUS
  62
7
  10
 333.646
  20
 777.050
  30
0.0
  11
 333.465
  21
 778.112
  31
0.0
   0
LINE
   8
LEVEL001
   6
CONTINUOUS
  62
7
  10
 333.465
  20
 778.112
  30
0.0
  11
 333.144
  21
 779.144
  31
0.0
   0
LINE
   8
LEVEL001
   6
CONTINUOUS
  62
7
  10
 333.144
  20
 779.144
  30
0.0
  11
 332.686
  21
 780.132
  31
0.0
   0
LINE
   8
LEVEL001
   6
CONTINUOUS
  62
7
  10
 332.686
  20
 780.132
  30
0.0
  11
 332.100
  21
 781.058
  31
0.0
   0
LINE
   8
LEVEL001
   6
CONTINUOUS
  62
7
  10
 332.100
  20
 781.058
  30
0.0
  11
 331.395
  21
 781.909
  31
0.0
   0
LINE
   8
LEVEL001
   6
CONTINUOUS
  62
7
  10
 331.395
  20
 781.909
  30
0.0
  11
 330.580
  21
 782.672
  31
0.0
   0
LINE
   8
LEVEL001
   6
CONTINUOUS
  62
7
  10
 330.580
  20
 782.672
  30
0.0
  11
 329.670
  21
 783.335
  31
0.0
   0
LINE
   8
LEVEL001
   6
CONTINUOUS
  62
7
  10
 329.670
  20
 783.335
  30
0.0
  11
 328.678
  21
 783.886
  31
0.0
   0
LINE
   8
LEVEL001
   6
CONTINUOUS
  62
7
  10
 328.678
  20
 783.886
  30
0.0
  11
 327.620
  21
 784.318
  31
0.0
   0
LINE
   8
LEVEL001
   6
CONTINUOUS
  62
7
  10
 327.620
  20
 784.318
  30
0.0
  11
 326.513
  21
 784.625
  31
0.0
   0
LINE
   8
LEVEL001
   6
CONTINUOUS
  62
7
  10
 326.513
  20
 784.625
  30
0.0
  11
 325.373
  21
 784.800
  31
0.0
   0
LINE
   8
LEVEL001
   6
CONTINUOUS
  62
7
  10
 325.373
  20
 784.800
  30
0.0
  11
 324.218
  21
 784.841
  31
0.0
   0
LINE
   8
LEVEL001
   6
CONTINUOUS
  62
7
  10
 324.218
  20
 784.841
  30
0.0
  11
 323.067
  21
 784.749
  31
0.0
   0
LINE
   8
LEVEL001
   6
CONTINUOUS
  62
7
  10
 323.067
  20
 784.749
  30
0.0
  11
 321.937
  21
 784.523
  31
0.0
   0
LINE
   8
LEVEL001
   6
CONTINUOUS
  62
7
  10
 321.937
  20
 784.523
  30
0.0
  11
 320.846
  21
 784.169
  31
0.0
   0
LINE
   8
LEVEL001
   6
CONTINUOUS
  62
7
  10
 320.846
  20
 784.169
  30
0.0
  11
 319.811
  21
 783.690
  31
0.0
   0
LINE
   8
LEVEL001
   6
CONTINUOUS
  62
7
  10
 319.811
  20
 783.690
  30
0.0
  11
 318.849
  21
 783.095
  31
0.0
   0
LINE
   8
LEVEL001
   6
CONTINUOUS
  62
7
  10
 318.849
  20
 783.095
  30
0.0
  11
 317.973
  21
 782.394
  31
0.0
   0
LINE
   8
LEVEL001
   6
CONTINUOUS
  62
7
  10
 317.973
  20
 782.394
  30
0.0
  11
 317.199
  21
 781.596
  31
0.0
   0
LINE
   8
LEVEL001
   6
CONTINUOUS
  62
7
  10
 317.199
  20
 781.596
  30
0.0
  11
 316.537
  21
 780.714
  31
0.0
   0
LINE
   8
LEVEL001
   6
CONTINUOUS
  62
7
  10
 316.537
  20
 780.714
  30
0.0
  11
 315.999
  21
 779.763
  31
0.0
   0
LINE
   8
LEVEL001
   6
CONTINUOUS
  62
7
  10
 315.999
  20
 779.763
  30
0.0
  11
 315.593
  21
 778.757
  31
0.0
   0
LINE
   8
LEVEL001
   6
CONTINUOUS
  62
7
  10
 315.593
  20
 778.757
  30
0.0
  11
 315.324
  21
 777.711
  31
0.0
   0
LINE
   8
LEVEL001
   6
CONTINUOUS
  62
7
  10
 315.324
  20
 777.711
  30
0.0
  11
 315.198
  21
 776.642
  31
0.0
   0
LINE
   8
LEVEL001
   6
CONTINUOUS
  62
7
  10
 315.198
  20
 776.642
  30
0.0
  11
 315.216
  21
 775.567
  31
0.0
   0
LINE
   8
LEVEL001
   6
CONTINUOUS
  62
7
  10
 315.216
  20
 775.567
  30
0.0
  11
 315.377
  21
 774.503
  31
0.0
   0
LINE
   8
LEVEL001
   6
CONTINUOUS
  62
7
  10
 315.377
  20
 774.503
  30
0.0
  11
 315.680
  21
 773.465
  31
0.0
   0
LINE
   8
LEVEL001
   6
CONTINUOUS
  62
7
  10
 315.680
  20
 773.465
  30
0.0
  11
 315.938
  21
 772.843
  31
0.0
   0
LINE
   8
LEVEL003
   6
CONTINUOUS
  62
7
  10
 315.938
  20
 776.913
  30
0.0
  11
 315.938
  21
 772.735
  31
0.0
   0
LINE
   8
LEVEL003
   6
CONTINUOUS
  62
7
  10
 332.938
  20
 776.913
  30
0.0
  11
 332.938
  21
 772.735
  31
0.0
   0
LINE
   8
LEVEL001
   6
CONTINUOUS
  62
7
  10
 315.982
  20
 768.315
  30
0.0
  11
 317.109
  21
 767.396
  31
0.0
   0
LINE
   8
LEVEL001
   6
CONTINUOUS
  62
7
  10
 317.109
  20
 767.396
  30
0.0
  11
 318.351
  21
 766.615
  31
0.0
   0
LINE
   8
LEVEL001
   6
CONTINUOUS
  62
7
  10
 318.351
  20
 766.615
  30
0.0
  11
 319.688
  21
 765.984
  31
0.0
   0
LINE
   8
LEVEL001
   6
CONTINUOUS
  62
7
  10
 319.688
  20
 765.984
  30
0.0
  11
 320.729
  21
 765.619
  31
0.0
   0
LINE
   8
LEVEL001
   6
CONTINUOUS
  62
7
  10
 328.146
  20
 765.619
  30
0.0
  11
 329.540
  21
 766.132
  31
0.0
   0
LINE
   8
LEVEL001
   6
CONTINUOUS
  62
7
  10
 329.540
  20
 766.132
  30
0.0
  11
 330.854
  21
 766.803
  31
0.0
   0
LINE
   8
LEVEL001
   6
CONTINUOUS
  62
7
  10
 330.854
  20
 766.803
  30
0.0
  11
 332.068
  21
 767.621
  31
0.0
   0
LINE
   8
LEVEL001
   6
CONTINUOUS
  62
7
  10
 332.068
  20
 767.621
  30
0.0
  11
 333.163
  21
 768.573
  31
0.0
   0
LINE
   8
LEVEL001
   6
CONTINUOUS
  62
7
  10
 333.163
  20
 768.573
  30
0.0
  11
 334.122
  21
 769.645
  31
0.0
   0
LINE
   8
LEVEL001
   6
CONTINUOUS
  62
7
  10
 334.122
  20
 769.645
  30
0.0
  11
 334.930
  21
 770.820
  31
0.0
   0
LINE
   8
LEVEL001
   6
CONTINUOUS
  62
7
  10
 334.930
  20
 770.820
  30
0.0
  11
 335.574
  21
 772.079
  31
0.0
   0
LINE
   8
LEVEL001
   6
CONTINUOUS
  62
7
  10
 335.574
  20
 772.079
  30
0.0
  11
 336.045
  21
 773.404
  31
0.0
   0
LINE
   8
LEVEL001
   6
CONTINUOUS
  62
7
  10
 336.045
  20
 773.404
  30
0.0
  11
 336.334
  21
 774.772
  31
0.0
   0
LINE
   8
LEVEL001
   6
CONTINUOUS
  62
7
  10
 336.334
  20
 774.772
  30
0.0
  11
 336.385
  21
 775.192
  31
0.0
   0
LINE
   8
LEVEL001
   6
DASHDOT
  62
1
  10
 286.928
  20
 772.515
  30
0.0
  11
 339.716
  21
 772.515
  31
0.0
   0
LINE
   8
LEVEL003
   6
CONTINUOUS
  62
7
  10
 318.664
  20
 772.515
  30
0.0
  11
 321.551
  21
 777.167
  31
0.0
   0
LINE
   8
LEVEL003
   6
CONTINUOUS
  62
7
  10
 321.551
  20
 777.167
  30
0.0
  11
 327.324
  21
 777.167
  31
0.0
   0
LINE
   8
LEVEL003
   6
CONTINUOUS
  62
7
  10
 327.324
  20
 777.167
  30
0.0
  11
 330.211
  21
 772.515
  31
0.0
   0
LINE
   8
LEVEL003
   6
CONTINUOUS
  62
7
  10
 330.211
  20
 772.515
  30
0.0
  11
 327.324
  21
 767.863
  31
0.0
   0
LINE
   8
LEVEL003
   6
CONTINUOUS
  62
7
  10
 327.324
  20
 767.863
  30
0.0
  11
 321.551
  21
 767.863
  31
0.0
   0
LINE
   8
LEVEL003
   6
CONTINUOUS
  62
7
  10
 321.551
  20
 767.863
  30
0.0
  11
 318.664
  21
 772.515
  31
0.0
   0
LINE
   8
LEVEL003
   6
CONTINUOUS
  62
7
  10
 294.664
  20
 772.515
  30
0.0
  11
 297.551
  21
 777.167
  31
0.0
   0
LINE
   8
LEVEL003
   6
CONTINUOUS
  62
7
  10
 297.551
  20
 777.167
  30
0.0
  11
 303.324
  21
 777.167
  31
0.0
   0
LINE
   8
LEVEL003
   6
CONTINUOUS
  62
7
  10
 303.324
  20
 777.167
  30
0.0
  11
 306.211
  21
 772.515
  31
0.0
   0
LINE
   8
LEVEL003
   6
CONTINUOUS
  62
7
  10
 306.211
  20
 772.515
  30
0.0
  11
 303.324
  21
 767.863
  31
0.0
   0
LINE
   8
LEVEL003
   6
CONTINUOUS
  62
7
  10
 303.324
  20
 767.863
  30
0.0
  11
 297.551
  21
 767.863
  31
0.0
   0
LINE
   8
LEVEL003
   6
CONTINUOUS
  62
7
  10
 297.551
  20
 767.863
  30
0.0
  11
 294.664
  21
 772.515
  31
0.0
   0
ARC
   8
LEVEL001
   6
CONTINUOUS
  62
7
  10
 311.182
  20
 863.092
  30
0.0
  40
 5.00000
  50
 258.631
  51
 303.304
   0
TEXT
   8
LEVEL003
  62
3
  10
 128.438
  20
 934.438
  30
0.0
  40
 16.0000
   1
レリースバルブ
   7
STANDARD
   0
TEXT
   8
LEVEL003
  62
3
  10
 368.438
  20
 934.438
  30
0.0
  40
 16.0000
   1
高圧安全弁
   7
STANDARD
   0
TEXT
   8
LEVEL003
  62
3
  10
 388.438
  20
 734.438
  30
0.0
  40
 16.0000
   1
サクション＆デリベリ（低圧）
   7
STANDARD
   0
TEXT
   8
LEVEL003
  62
3
  10
 388.438
  20
 694.438
  30
0.0
  40
 16.0000
   1
サクション＆デリベリ（高圧）
   7
STANDARD
   0
LINE
   8
LEVEL003
   6
CONTINUOUS
  62
3
  10
 261.617
  20
 903.468
  30
0.0
  11
 248.384
  21
 933.243
  31
0.0
   0
LINE
   8
LEVEL003
   6
CONTINUOUS
  62
3
  10
 248.384
  20
 933.243
  30
0.0
  11
 127.298
  21
 933.243
  31
0.0
   0
LINE
   8
LEVEL003
   6
CONTINUOUS
  62
3
  10
 261.617
  20
 903.468
  30
0.0
  11
 258.677
  21
 915.293
  31
0.0
   0
LINE
   8
LEVEL003
   6
CONTINUOUS
  62
3
  10
 261.617
  20
 903.468
  30
0.0
  11
 254.810
  21
 913.574
  31
0.0
   0
TEXT
   8
LEVEL003
  62
3
  10
 368.438
  20
 894.438
  30
0.0
  40
 16.0000
   1
アンロ－ドバルブ
   7
STANDARD
   0
LINE
   8
LEVEL003
   6
CONTINUOUS
  62
3
  10
 302.641
  20
 862.444
  30
0.0
  11
 362.192
  21
 934.567
  31
0.0
   0
LINE
   8
LEVEL003
   6
CONTINUOUS
  62
3
  10
 362.192
  20
 934.567
  30
0.0
  11
 454.826
  21
 934.567
  31
0.0
   0
LINE
   8
LEVEL003
   6
CONTINUOUS
  62
3
  10
 302.641
  20
 862.444
  30
0.0
  11
 311.913
  21
 870.350
  31
0.0
   0
LINE
   8
LEVEL003
   6
CONTINUOUS
  62
3
  10
 302.641
  20
 862.444
  30
0.0
  11
 308.650
  21
 873.045
  31
0.0
   0
LINE
   8
LEVEL003
   6
CONTINUOUS
  62
3
  10
 331.755
  20
 861.783
  30
0.0
  11
 366.823
  21
 892.881
  31
0.0
   0
LINE
   8
LEVEL003
   6
CONTINUOUS
  62
3
  10
 366.823
  20
 892.881
  30
0.0
  11
 502.466
  21
 892.881
  31
0.0
   0
LINE
   8
LEVEL003
   6
CONTINUOUS
  62
3
  10
 331.755
  20
 861.783
  30
0.0
  11
 342.137
  21
 868.161
  31
0.0
   0
LINE
   8
LEVEL003
   6
CONTINUOUS
  62
3
  10
 331.755
  20
 861.783
  30
0.0
  11
 339.329
  21
 871.327
  31
0.0
   0
LINE
   8
LEVEL003
   6
CONTINUOUS
  62
3
  10
 328.446
  20
 769.148
  30
0.0
  11
 383.365
  21
 733.418
  31
0.0
   0
LINE
   8
LEVEL003
   6
CONTINUOUS
  62
3
  10
 383.365
  20
 733.418
  30
0.0
  11
 607.011
  21
 733.418
  31
0.0
   0
LINE
   8
LEVEL003
   6
CONTINUOUS
  62
3
  10
 328.446
  20
 769.148
  30
0.0
  11
 337.351
  21
 760.831
  31
0.0
   0
LINE
   8
LEVEL003
   6
CONTINUOUS
  62
3
  10
 328.446
  20
 769.148
  30
0.0
  11
 339.659
  21
 764.378
  31
0.0
   0
LINE
   8
LEVEL003
   6
CONTINUOUS
  62
3
  10
 303.964
  20
 769.148
  30
0.0
  11
 386.674
  21
 692.394
  31
0.0
   0
LINE
   8
LEVEL003
   6
CONTINUOUS
  62
3
  10
 386.674
  20
 692.394
  30
0.0
  11
 606.349
  21
 692.394
  31
0.0
   0
LINE
   8
LEVEL003
   6
CONTINUOUS
  62
3
  10
 303.964
  20
 769.148
  30
0.0
  11
 311.321
  21
 759.435
  31
0.0
   0
LINE
   8
LEVEL003
   6
CONTINUOUS
  62
3
  10
 303.964
  20
 769.148
  30
0.0
  11
 314.200
  21
 762.537
  31
0.0
   0
POINT
   8
LEVEL001
  62
7
  10
 288.438
  20
 814.438
  30
0.0
   0
LINE
   8
LEVEL001
   6
DASHDOT
  62
1
  10
 336.938
  20
 857.388
  30
0.0
  11
 311.938
  21
 857.388
  31
0.0
   0
LINE
   8
LEVEL001
   6
CONTINUOUS
  62
7
  10
 333.938
  20
 851.903
  30
0.0
  11
 333.938
  21
 846.773
  31
0.0
   0
LINE
   8
LEVEL001
   6
CONTINUOUS
  62
7
  10
 333.938
  20
 846.773
  30
0.0
  11
 324.438
  21
 842.240
  31
0.0
   0
LINE
   8
LEVEL001
   6
CONTINUOUS
  62
7
  10
 324.438
  20
 842.240
  30
0.0
  11
 314.938
  21
 846.773
  31
0.0
   0
LINE
   8
LEVEL001
   6
CONTINUOUS
  62
7
  10
 314.938
  20
 846.773
  30
0.0
  11
 314.938
  21
 851.903
  31
0.0
   0
CIRCLE
   8
LEVEL001
   6
CONTINUOUS
  62
7
  10
 324.487
  20
 861.246
  30
0.0
  40
 7.50000
   0
LINE
   8
LEVEL001
   6
CONTINUOUS
  62
7
  10
 324.487
  20
 851.785
  30
0.0
  11
 315.987
  21
 856.339
  31
0.0
   0
LINE
   8
LEVEL001
   6
CONTINUOUS
  62
7
  10
 315.987
  20
 856.339
  30
0.0
  11
 315.987
  21
 865.620
  31
0.0
   0
LINE
   8
LEVEL001
   6
CONTINUOUS
  62
7
  10
 315.987
  20
 865.620
  30
0.0
  11
 324.487
  21
 870.231
  31
0.0
   0
LINE
   8
LEVEL001
   6
CONTINUOUS
  62
7
  10
 324.487
  20
 870.231
  30
0.0
  11
 332.987
  21
 865.620
  31
0.0
   0
LINE
   8
LEVEL001
   6
CONTINUOUS
  62
7
  10
 332.987
  20
 865.620
  30
0.0
  11
 332.987
  21
 856.339
  31
0.0
   0
LINE
   8
LEVEL001
   6
CONTINUOUS
  62
7
  10
 332.987
  20
 856.339
  30
0.0
  11
 324.487
  21
 851.785
  31
0.0
   0
LINE
   8
LEVEL001
   6
CONTINUOUS
  62
7
  10
 315.987
  20
 860.982
  30
0.0
  11
 316.054
  21
 859.986
  31
0.0
   0
LINE
   8
LEVEL001
   6
CONTINUOUS
  62
7
  10
 316.054
  20
 859.986
  30
0.0
  11
 316.252
  21
 859.006
  31
0.0
   0
LINE
   8
LEVEL001
   6
CONTINUOUS
  62
7
  10
 316.252
  20
 859.006
  30
0.0
  11
 316.578
  21
 858.056
  31
0.0
   0
LINE
   8
LEVEL001
   6
CONTINUOUS
  62
7
  10
 316.578
  20
 858.056
  30
0.0
  11
 317.028
  21
 857.152
  31
0.0
   0
LINE
   8
LEVEL001
   6
CONTINUOUS
  62
7
  10
 317.028
  20
 857.152
  30
0.0
  11
 317.594
  21
 856.308
  31
0.0
   0
LINE
   8
LEVEL001
   6
CONTINUOUS
  62
7
  10
 317.594
  20
 856.308
  30
0.0
  11
 318.268
  21
 855.537
  31
0.0
   0
LINE
   8
LEVEL001
   6
CONTINUOUS
  62
7
  10
 318.268
  20
 855.537
  30
0.0
  11
 319.039
  21
 854.851
  31
0.0
   0
LINE
   8
LEVEL001
   6
CONTINUOUS
  62
7
  10
 319.039
  20
 854.851
  30
0.0
  11
 319.895
  21
 854.261
  31
0.0
   0
LINE
   8
LEVEL001
   6
CONTINUOUS
  62
7
  10
 319.895
  20
 854.261
  30
0.0
  11
 320.822
  21
 853.775
  31
0.0
   0
LINE
   8
LEVEL001
   6
CONTINUOUS
  62
7
  10
 320.822
  20
 853.775
  30
0.0
  11
 321.807
  21
 853.402
  31
0.0
   0
LINE
   8
LEVEL001
   6
CONTINUOUS
  62
7
  10
 321.807
  20
 853.402
  30
0.0
  11
 322.834
  21
 853.147
  31
0.0
   0
LINE
   8
LEVEL001
   6
CONTINUOUS
  62
7
  10
 322.834
  20
 853.147
  30
0.0
  11
 323.886
  21
 853.014
  31
0.0
   0
LINE
   8
LEVEL001
   6
CONTINUOUS
  62
7
  10
 323.886
  20
 853.014
  30
0.0
  11
 324.948
  21
 853.006
  31
0.0
   0
LINE
   8
LEVEL001
   6
CONTINUOUS
  62
7
  10
 324.948
  20
 853.006
  30
0.0
  11
 326.002
  21
 853.122
  31
0.0
   0
LINE
   8
LEVEL001
   6
CONTINUOUS
  62
7
  10
 326.002
  20
 853.122
  30
0.0
  11
 327.033
  21
 853.361
  31
0.0
   0
LINE
   8
LEVEL001
   6
CONTINUOUS
  62
7
  10
 327.033
  20
 853.361
  30
0.0
  11
 328.025
  21
 853.719
  31
0.0
   0
LINE
   8
LEVEL001
   6
CONTINUOUS
  62
7
  10
 328.025
  20
 853.719
  30
0.0
  11
 328.961
  21
 854.190
  31
0.0
   0
LINE
   8
LEVEL001
   6
CONTINUOUS
  62
7
  10
 328.961
  20
 854.190
  30
0.0
  11
 329.827
  21
 854.767
  31
0.0
   0
LINE
   8
LEVEL001
   6
CONTINUOUS
  62
7
  10
 329.827
  20
 854.767
  30
0.0
  11
 330.610
  21
 855.441
  31
0.0
   0
LINE
   8
LEVEL001
   6
CONTINUOUS
  62
7
  10
 330.610
  20
 855.441
  30
0.0
  11
 331.297
  21
 856.202
  31
0.0
   0
LINE
   8
LEVEL001
   6
CONTINUOUS
  62
7
  10
 331.297
  20
 856.202
  30
0.0
  11
 331.878
  21
 857.037
  31
0.0
   0
LINE
   8
LEVEL001
   6
CONTINUOUS
  62
7
  10
 331.878
  20
 857.037
  30
0.0
  11
 332.344
  21
 857.933
  31
0.0
   0
LINE
   8
LEVEL001
   6
CONTINUOUS
  62
7
  10
 332.344
  20
 857.933
  30
0.0
  11
 332.687
  21
 858.878
  31
0.0
   0
LINE
   8
LEVEL001
   6
CONTINUOUS
  62
7
  10
 332.687
  20
 858.878
  30
0.0
  11
 332.902
  21
 859.855
  31
0.0
   0
LINE
   8
LEVEL001
   6
CONTINUOUS
  62
7
  10
 332.902
  20
 859.855
  30
0.0
  11
 332.986
  21
 860.849
  31
0.0
   0
LINE
   8
LEVEL001
   6
CONTINUOUS
  62
7
  10
 332.986
  20
 860.849
  30
0.0
  11
 332.937
  21
 861.846
  31
0.0
   0
LINE
   8
LEVEL001
   6
CONTINUOUS
  62
7
  10
 332.937
  20
 861.846
  30
0.0
  11
 332.757
  21
 862.829
  31
0.0
   0
LINE
   8
LEVEL001
   6
CONTINUOUS
  62
7
  10
 332.757
  20
 862.829
  30
0.0
  11
 332.447
  21
 863.784
  31
0.0
   0
LINE
   8
LEVEL001
   6
CONTINUOUS
  62
7
  10
 332.447
  20
 863.784
  30
0.0
  11
 332.013
  21
 864.694
  31
0.0
   0
LINE
   8
LEVEL001
   6
CONTINUOUS
  62
7
  10
 332.013
  20
 864.694
  30
0.0
  11
 331.462
  21
 865.547
  31
0.0
   0
LINE
   8
LEVEL001
   6
CONTINUOUS
  62
7
  10
 331.462
  20
 865.547
  30
0.0
  11
 330.802
  21
 866.329
  31
0.0
   0
LINE
   8
LEVEL001
   6
CONTINUOUS
  62
7
  10
 330.802
  20
 866.329
  30
0.0
  11
 330.043
  21
 867.027
  31
0.0
   0
LINE
   8
LEVEL001
   6
CONTINUOUS
  62
7
  10
 330.043
  20
 867.027
  30
0.0
  11
 329.198
  21
 867.630
  31
0.0
   0
LINE
   8
LEVEL001
   6
CONTINUOUS
  62
7
  10
 329.198
  20
 867.630
  30
0.0
  11
 328.279
  21
 868.130
  31
0.0
   0
LINE
   8
LEVEL001
   6
CONTINUOUS
  62
7
  10
 328.279
  20
 868.130
  30
0.0
  11
 327.301
  21
 868.519
  31
0.0
   0
LINE
   8
LEVEL001
   6
CONTINUOUS
  62
7
  10
 327.301
  20
 868.519
  30
0.0
  11
 326.279
  21
 868.790
  31
0.0
   0
LINE
   8
LEVEL001
   6
CONTINUOUS
  62
7
  10
 326.279
  20
 868.790
  30
0.0
  11
 325.229
  21
 868.939
  31
0.0
   0
LINE
   8
LEVEL001
   6
CONTINUOUS
  62
7
  10
 325.229
  20
 868.939
  30
0.0
  11
 324.168
  21
 868.964
  31
0.0
   0
LINE
   8
LEVEL001
   6
CONTINUOUS
  62
7
  10
 324.168
  20
 868.964
  30
0.0
  11
 323.111
  21
 868.864
  31
0.0
   0
LINE
   8
LEVEL001
   6
CONTINUOUS
  62
7
  10
 323.111
  20
 868.864
  30
0.0
  11
 322.076
  21
 868.641
  31
0.0
   0
LINE
   8
LEVEL001
   6
CONTINUOUS
  62
7
  10
 322.076
  20
 868.641
  30
0.0
  11
 321.079
  21
 868.299
  31
0.0
   0
LINE
   8
LEVEL001
   6
CONTINUOUS
  62
7
  10
 321.079
  20
 868.299
  30
0.0
  11
 320.135
  21
 867.842
  31
0.0
   0
LINE
   8
LEVEL001
   6
CONTINUOUS
  62
7
  10
 320.135
  20
 867.842
  30
0.0
  11
 319.258
  21
 867.279
  31
0.0
   0
LINE
   8
LEVEL001
   6
CONTINUOUS
  62
7
  10
 319.258
  20
 867.279
  30
0.0
  11
 318.464
  21
 866.617
  31
0.0
   0
LINE
   8
LEVEL001
   6
CONTINUOUS
  62
7
  10
 318.464
  20
 866.617
  30
0.0
  11
 317.763
  21
 865.868
  31
0.0
   0
LINE
   8
LEVEL001
   6
CONTINUOUS
  62
7
  10
 317.763
  20
 865.868
  30
0.0
  11
 317.167
  21
 865.042
  31
0.0
   0
LINE
   8
LEVEL001
   6
CONTINUOUS
  62
7
  10
 317.167
  20
 865.042
  30
0.0
  11
 316.686
  21
 864.152
  31
0.0
   0
LINE
   8
LEVEL001
   6
CONTINUOUS
  62
7
  10
 316.686
  20
 864.152
  30
0.0
  11
 316.326
  21
 863.214
  31
0.0
   0
LINE
   8
LEVEL001
   6
CONTINUOUS
  62
7
  10
 316.326
  20
 863.214
  30
0.0
  11
 316.093
  21
 862.240
  31
0.0
   0
LINE
   8
LEVEL001
   6
CONTINUOUS
  62
7
  10
 316.093
  20
 862.240
  30
0.0
  11
 315.992
  21
 861.247
  31
0.0
   0
LINE
   8
LEVEL001
   6
CONTINUOUS
  62
7
  10
 315.992
  20
 861.247
  30
0.0
  11
 315.987
  21
 860.982
  31
0.0
   0
LINE
   8
LEVEL001
   6
DASHDOT
  62
1
  10
 334.220
  20
 861.246
  30
0.0
  11
 314.979
  21
 861.246
  31
0.0
   0
LINE
   8
LEVEL001
   6
CONTINUOUS
  62
7
  10
 332.987
  20
 856.339
  30
0.0
  11
 332.987
  21
 853.496
  31
0.0
   0
LINE
   8
LEVEL001
   6
CONTINUOUS
  62
7
  10
 332.987
  20
 853.496
  30
0.0
  11
 324.487
  21
 848.884
  31
0.0
   0
LINE
   8
LEVEL001
   6
CONTINUOUS
  62
7
  10
 324.487
  20
 848.884
  30
0.0
  11
 315.987
  21
 853.496
  31
0.0
   0
LINE
   8
LEVEL001
   6
CONTINUOUS
  62
7
  10
 315.987
  20
 853.496
  30
0.0
  11
 315.987
  21
 856.339
  31
0.0
   0
LINE
   8
LEVEL001
   6
CONTINUOUS
  62
7
  10
 332.987
  20
 863.326
  30
0.0
  11
 333.938
  21
 862.873
  31
0.0
   0
LINE
   8
LEVEL001
   6
CONTINUOUS
  62
7
  10
 333.938
  20
 862.873
  30
0.0
  11
 333.938
  21
 851.903
  31
0.0
   0
LINE
   8
LEVEL001
   6
CONTINUOUS
  62
7
  10
 333.938
  20
 851.903
  30
0.0
  11
 324.438
  21
 847.370
  31
0.0
   0
LINE
   8
LEVEL001
   6
CONTINUOUS
  62
7
  10
 324.438
  20
 847.370
  30
0.0
  11
 314.938
  21
 851.903
  31
0.0
   0
LINE
   8
LEVEL001
   6
CONTINUOUS
  62
7
  10
 314.938
  20
 851.903
  30
0.0
  11
 314.938
  21
 862.873
  31
0.0
   0
LINE
   8
LEVEL001
   6
CONTINUOUS
  62
7
  10
 314.938
  20
 862.873
  30
0.0
  11
 315.987
  21
 863.374
  31
0.0
   0
LINE
   8
LEVEL001
   6
CONTINUOUS
  62
7
  10
 316.005
  20
 861.500
  30
0.0
  11
 315.526
  21
 860.480
  31
0.0
   0
LINE
   8
LEVEL001
   6
CONTINUOUS
  62
7
  10
 315.526
  20
 860.480
  30
0.0
  11
 315.185
  21
 859.412
  31
0.0
   0
LINE
   8
LEVEL001
   6
CONTINUOUS
  62
7
  10
 315.185
  20
 859.412
  30
0.0
  11
 314.989
  21
 858.312
  31
0.0
   0
LINE
   8
LEVEL001
   6
CONTINUOUS
  62
7
  10
 314.989
  20
 858.312
  30
0.0
  11
 314.940
  21
 857.198
  31
0.0
   0
LINE
   8
LEVEL001
   6
CONTINUOUS
  62
7
  10
 314.940
  20
 857.198
  30
0.0
  11
 315.039
  21
 856.087
  31
0.0
   0
LINE
   8
LEVEL001
   6
CONTINUOUS
  62
7
  10
 315.039
  20
 856.087
  30
0.0
  11
 315.285
  21
 854.996
  31
0.0
   0
LINE
   8
LEVEL001
   6
CONTINUOUS
  62
7
  10
 315.285
  20
 854.996
  30
0.0
  11
 315.674
  21
 853.942
  31
0.0
   0
LINE
   8
LEVEL001
   6
CONTINUOUS
  62
7
  10
 315.674
  20
 853.942
  30
0.0
  11
 316.199
  21
 852.942
  31
0.0
   0
LINE
   8
LEVEL001
   6
CONTINUOUS
  62
7
  10
 316.199
  20
 852.942
  30
0.0
  11
 316.854
  21
 852.012
  31
0.0
   0
LINE
   8
LEVEL001
   6
CONTINUOUS
  62
7
  10
 316.854
  20
 852.012
  30
0.0
  11
 317.626
  21
 851.165
  31
0.0
   0
LINE
   8
LEVEL001
   6
CONTINUOUS
  62
7
  10
 317.626
  20
 851.165
  30
0.0
  11
 318.505
  21
 850.416
  31
0.0
   0
LINE
   8
LEVEL001
   6
CONTINUOUS
  62
7
  10
 318.505
  20
 850.416
  30
0.0
  11
 319.476
  21
 849.775
  31
0.0
   0
LINE
   8
LEVEL001
   6
CONTINUOUS
  62
7
  10
 319.476
  20
 849.775
  30
0.0
  11
 320.525
  21
 849.253
  31
0.0
   0
LINE
   8
LEVEL001
   6
CONTINUOUS
  62
7
  10
 320.525
  20
 849.253
  30
0.0
  11
 321.635
  21
 848.858
  31
0.0
   0
LINE
   8
LEVEL001
   6
CONTINUOUS
  62
7
  10
 321.635
  20
 848.858
  30
0.0
  11
 322.788
  21
 848.597
  31
0.0
   0
LINE
   8
LEVEL001
   6
CONTINUOUS
  62
7
  10
 322.788
  20
 848.597
  30
0.0
  11
 323.968
  21
 848.472
  31
0.0
   0
LINE
   8
LEVEL001
   6
CONTINUOUS
  62
7
  10
 323.968
  20
 848.472
  30
0.0
  11
 325.154
  21
 848.486
  31
0.0
   0
LINE
   8
LEVEL001
   6
CONTINUOUS
  62
7
  10
 325.154
  20
 848.486
  30
0.0
  11
 326.330
  21
 848.640
  31
0.0
   0
LINE
   8
LEVEL001
   6
CONTINUOUS
  62
7
  10
 326.330
  20
 848.640
  30
0.0
  11
 327.476
  21
 848.930
  31
0.0
   0
LINE
   8
LEVEL001
   6
CONTINUOUS
  62
7
  10
 327.476
  20
 848.930
  30
0.0
  11
 328.574
  21
 849.352
  31
0.0
   0
LINE
   8
LEVEL001
   6
CONTINUOUS
  62
7
  10
 328.574
  20
 849.352
  30
0.0
  11
 329.608
  21
 849.899
  31
0.0
   0
LINE
   8
LEVEL001
   6
CONTINUOUS
  62
7
  10
 329.608
  20
 849.899
  30
0.0
  11
 330.561
  21
 850.563
  31
0.0
   0
LINE
   8
LEVEL001
   6
CONTINUOUS
  62
7
  10
 330.561
  20
 850.563
  30
0.0
  11
 331.419
  21
 851.334
  31
0.0
   0
LINE
   8
LEVEL001
   6
CONTINUOUS
  62
7
  10
 331.419
  20
 851.334
  30
0.0
  11
 332.168
  21
 852.199
  31
0.0
   0
LINE
   8
LEVEL001
   6
CONTINUOUS
  62
7
  10
 332.168
  20
 852.199
  30
0.0
  11
 332.796
  21
 853.145
  31
0.0
   0
LINE
   8
LEVEL001
   6
CONTINUOUS
  62
7
  10
 332.796
  20
 853.145
  30
0.0
  11
 333.294
  21
 854.158
  31
0.0
   0
LINE
   8
LEVEL001
   6
CONTINUOUS
  62
7
  10
 333.294
  20
 854.158
  30
0.0
  11
 333.653
  21
 855.220
  31
0.0
   0
LINE
   8
LEVEL001
   6
CONTINUOUS
  62
7
  10
 333.653
  20
 855.220
  30
0.0
  11
 333.869
  21
 856.317
  31
0.0
   0
LINE
   8
LEVEL001
   6
CONTINUOUS
  62
7
  10
 333.869
  20
 856.317
  30
0.0
  11
 333.937
  21
 857.430
  31
0.0
   0
LINE
   8
LEVEL001
   6
CONTINUOUS
  62
7
  10
 333.937
  20
 857.430
  30
0.0
  11
 333.858
  21
 858.543
  31
0.0
   0
LINE
   8
LEVEL001
   6
CONTINUOUS
  62
7
  10
 333.858
  20
 858.543
  30
0.0
  11
 333.631
  21
 859.638
  31
0.0
   0
LINE
   8
LEVEL001
   6
CONTINUOUS
  62
7
  10
 333.631
  20
 859.638
  30
0.0
  11
 333.261
  21
 860.697
  31
0.0
   0
LINE
   8
LEVEL001
   6
CONTINUOUS
  62
7
  10
 333.261
  20
 860.697
  30
0.0
  11
 333.000
  21
 861.254
  31
0.0
   0
CIRCLE
   8
LEVEL001
   6
CONTINUOUS
  62
7
  10
 300.487
  20
 859.825
  30
0.0
  40
 7.50000
   0
LINE
   8
LEVEL001
   6
CONTINUOUS
  62
7
  10
 300.487
  20
 850.364
  30
0.0
  11
 291.987
  21
 854.917
  31
0.0
   0
LINE
   8
LEVEL001
   6
CONTINUOUS
  62
7
  10
 291.987
  20
 854.917
  30
0.0
  11
 291.987
  21
 864.198
  31
0.0
   0
LINE
   8
LEVEL001
   6
CONTINUOUS
  62
7
  10
 291.987
  20
 864.198
  30
0.0
  11
 300.487
  21
 868.810
  31
0.0
   0
LINE
   8
LEVEL001
   6
CONTINUOUS
  62
7
  10
 300.487
  20
 868.810
  30
0.0
  11
 308.987
  21
 864.198
  31
0.0
   0
LINE
   8
LEVEL001
   6
CONTINUOUS
  62
7
  10
 308.987
  20
 864.198
  30
0.0
  11
 308.987
  21
 854.917
  31
0.0
   0
LINE
   8
LEVEL001
   6
CONTINUOUS
  62
7
  10
 308.987
  20
 854.917
  30
0.0
  11
 300.487
  21
 850.364
  31
0.0
   0
LINE
   8
LEVEL001
   6
CONTINUOUS
  62
7
  10
 291.987
  20
 859.560
  30
0.0
  11
 292.054
  21
 858.564
  31
0.0
   0
LINE
   8
LEVEL001
   6
CONTINUOUS
  62
7
  10
 292.054
  20
 858.564
  30
0.0
  11
 292.252
  21
 857.584
  31
0.0
   0
LINE
   8
LEVEL001
   6
CONTINUOUS
  62
7
  10
 292.252
  20
 857.584
  30
0.0
  11
 292.578
  21
 856.635
  31
0.0
   0
LINE
   8
LEVEL001
   6
CONTINUOUS
  62
7
  10
 292.578
  20
 856.635
  30
0.0
  11
 293.028
  21
 855.731
  31
0.0
   0
LINE
   8
LEVEL001
   6
CONTINUOUS
  62
7
  10
 293.028
  20
 855.731
  30
0.0
  11
 293.594
  21
 854.887
  31
0.0
   0
LINE
   8
LEVEL001
   6
CONTINUOUS
  62
7
  10
 293.594
  20
 854.887
  30
0.0
  11
 294.268
  21
 854.116
  31
0.0
   0
LINE
   8
LEVEL001
   6
CONTINUOUS
  62
7
  10
 294.268
  20
 854.116
  30
0.0
  11
 295.039
  21
 853.430
  31
0.0
   0
LINE
   8
LEVEL001
   6
CONTINUOUS
  62
7
  10
 295.039
  20
 853.430
  30
0.0
  11
 295.895
  21
 852.839
  31
0.0
   0
LINE
   8
LEVEL001
   6
CONTINUOUS
  62
7
  10
 295.895
  20
 852.839
  30
0.0
  11
 296.822
  21
 852.353
  31
0.0
   0
LINE
   8
LEVEL001
   6
CONTINUOUS
  62
7
  10
 296.822
  20
 852.353
  30
0.0
  11
 297.807
  21
 851.980
  31
0.0
   0
LINE
   8
LEVEL001
   6
CONTINUOUS
  62
7
  10
 297.807
  20
 851.980
  30
0.0
  11
 298.834
  21
 851.725
  31
0.0
   0
LINE
   8
LEVEL001
   6
CONTINUOUS
  62
7
  10
 298.834
  20
 851.725
  30
0.0
  11
 299.886
  21
 851.593
  31
0.0
   0
LINE
   8
LEVEL001
   6
CONTINUOUS
  62
7
  10
 299.886
  20
 851.593
  30
0.0
  11
 300.948
  21
 851.585
  31
0.0
   0
LINE
   8
LEVEL001
   6
CONTINUOUS
  62
7
  10
 300.948
  20
 851.585
  30
0.0
  11
 302.002
  21
 851.701
  31
0.0
   0
LINE
   8
LEVEL001
   6
CONTINUOUS
  62
7
  10
 302.002
  20
 851.701
  30
0.0
  11
 303.033
  21
 851.940
  31
0.0
   0
LINE
   8
LEVEL001
   6
CONTINUOUS
  62
7
  10
 303.033
  20
 851.940
  30
0.0
  11
 304.025
  21
 852.297
  31
0.0
   0
LINE
   8
LEVEL001
   6
CONTINUOUS
  62
7
  10
 304.025
  20
 852.297
  30
0.0
  11
 304.961
  21
 852.768
  31
0.0
   0
LINE
   8
LEVEL001
   6
CONTINUOUS
  62
7
  10
 304.961
  20
 852.768
  30
0.0
  11
 305.827
  21
 853.345
  31
0.0
   0
LINE
   8
LEVEL001
   6
CONTINUOUS
  62
7
  10
 305.827
  20
 853.345
  30
0.0
  11
 306.610
  21
 854.019
  31
0.0
   0
LINE
   8
LEVEL001
   6
CONTINUOUS
  62
7
  10
 306.610
  20
 854.019
  30
0.0
  11
 307.297
  21
 854.780
  31
0.0
   0
LINE
   8
LEVEL001
   6
CONTINUOUS
  62
7
  10
 307.297
  20
 854.780
  30
0.0
  11
 307.878
  21
 855.615
  31
0.0
   0
LINE
   8
LEVEL001
   6
CONTINUOUS
  62
7
  10
 307.878
  20
 855.615
  30
0.0
  11
 308.344
  21
 856.512
  31
0.0
   0
LINE
   8
LEVEL001
   6
CONTINUOUS
  62
7
  10
 308.344
  20
 856.512
  30
0.0
  11
 308.687
  21
 857.456
  31
0.0
   0
LINE
   8
LEVEL001
   6
CONTINUOUS
  62
7
  10
 308.687
  20
 857.456
  30
0.0
  11
 308.902
  21
 858.433
  31
0.0
   0
LINE
   8
LEVEL001
   6
CONTINUOUS
  62
7
  10
 308.902
  20
 858.433
  30
0.0
  11
 308.986
  21
 859.428
  31
0.0
   0
LINE
   8
LEVEL001
   6
CONTINUOUS
  62
7
  10
 308.986
  20
 859.428
  30
0.0
  11
 308.937
  21
 860.424
  31
0.0
   0
LINE
   8
LEVEL001
   6
CONTINUOUS
  62
7
  10
 308.937
  20
 860.424
  30
0.0
  11
 308.757
  21
 861.408
  31
0.0
   0
LINE
   8
LEVEL001
   6
CONTINUOUS
  62
7
  10
 308.757
  20
 861.408
  30
0.0
  11
 308.447
  21
 862.362
  31
0.0
   0
LINE
   8
LEVEL001
   6
CONTINUOUS
  62
7
  10
 308.447
  20
 862.362
  30
0.0
  11
 308.013
  21
 863.273
  31
0.0
   0
LINE
   8
LEVEL001
   6
CONTINUOUS
  62
7
  10
 308.013
  20
 863.273
  30
0.0
  11
 307.462
  21
 864.125
  31
0.0
   0
LINE
   8
LEVEL001
   6
CONTINUOUS
  62
7
  10
 307.462
  20
 864.125
  30
0.0
  11
 306.802
  21
 864.907
  31
0.0
   0
LINE
   8
LEVEL001
   6
CONTINUOUS
  62
7
  10
 306.802
  20
 864.907
  30
0.0
  11
 306.043
  21
 865.605
  31
0.0
   0
LINE
   8
LEVEL001
   6
CONTINUOUS
  62
7
  10
 306.043
  20
 865.605
  30
0.0
  11
 305.198
  21
 866.209
  31
0.0
   0
LINE
   8
LEVEL001
   6
CONTINUOUS
  62
7
  10
 305.198
  20
 866.209
  30
0.0
  11
 304.279
  21
 866.709
  31
0.0
   0
LINE
   8
LEVEL001
   6
CONTINUOUS
  62
7
  10
 304.279
  20
 866.709
  30
0.0
  11
 303.301
  21
 867.097
  31
0.0
   0
LINE
   8
LEVEL001
   6
CONTINUOUS
  62
7
  10
 303.301
  20
 867.097
  30
0.0
  11
 302.279
  21
 867.368
  31
0.0
   0
LINE
   8
LEVEL001
   6
CONTINUOUS
  62
7
  10
 302.279
  20
 867.368
  30
0.0
  11
 301.229
  21
 867.517
  31
0.0
   0
LINE
   8
LEVEL001
   6
CONTINUOUS
  62
7
  10
 301.229
  20
 867.517
  30
0.0
  11
 300.168
  21
 867.542
  31
0.0
   0
LINE
   8
LEVEL001
   6
CONTINUOUS
  62
7
  10
 300.168
  20
 867.542
  30
0.0
  11
 299.111
  21
 867.442
  31
0.0
   0
LINE
   8
LEVEL001
   6
CONTINUOUS
  62
7
  10
 299.111
  20
 867.442
  30
0.0
  11
 298.076
  21
 867.219
  31
0.0
   0
LINE
   8
LEVEL001
   6
CONTINUOUS
  62
7
  10
 298.076
  20
 867.219
  30
0.0
  11
 297.079
  21
 866.877
  31
0.0
   0
LINE
   8
LEVEL001
   6
CONTINUOUS
  62
7
  10
 297.079
  20
 866.877
  30
0.0
  11
 296.135
  21
 866.421
  31
0.0
   0
LINE
   8
LEVEL001
   6
CONTINUOUS
  62
7
  10
 296.135
  20
 866.421
  30
0.0
  11
 295.258
  21
 865.857
  31
0.0
   0
LINE
   8
LEVEL001
   6
CONTINUOUS
  62
7
  10
 295.258
  20
 865.857
  30
0.0
  11
 294.464
  21
 865.196
  31
0.0
   0
LINE
   8
LEVEL001
   6
CONTINUOUS
  62
7
  10
 294.464
  20
 865.196
  30
0.0
  11
 293.763
  21
 864.446
  31
0.0
   0
LINE
   8
LEVEL001
   6
CONTINUOUS
  62
7
  10
 293.763
  20
 864.446
  30
0.0
  11
 293.167
  21
 863.620
  31
0.0
   0
LINE
   8
LEVEL001
   6
CONTINUOUS
  62
7
  10
 293.167
  20
 863.620
  30
0.0
  11
 292.686
  21
 862.731
  31
0.0
   0
LINE
   8
LEVEL001
   6
CONTINUOUS
  62
7
  10
 292.686
  20
 862.731
  30
0.0
  11
 292.326
  21
 861.792
  31
0.0
   0
LINE
   8
LEVEL001
   6
CONTINUOUS
  62
7
  10
 292.326
  20
 861.792
  30
0.0
  11
 292.093
  21
 860.818
  31
0.0
   0
LINE
   8
LEVEL001
   6
CONTINUOUS
  62
7
  10
 292.093
  20
 860.818
  30
0.0
  11
 291.992
  21
 859.825
  31
0.0
   0
LINE
   8
LEVEL001
   6
CONTINUOUS
  62
7
  10
 291.992
  20
 859.825
  30
0.0
  11
 291.987
  21
 859.560
  31
0.0
   0
LINE
   8
LEVEL001
   6
DASHDOT
  62
1
  10
 310.220
  20
 859.825
  30
0.0
  11
 290.979
  21
 859.825
  31
0.0
   0
LINE
   8
LEVEL001
   6
CONTINUOUS
  62
7
  10
 308.987
  20
 854.917
  30
0.0
  11
 308.987
  21
 852.074
  31
0.0
   0
LINE
   8
LEVEL001
   6
CONTINUOUS
  62
7
  10
 308.987
  20
 852.074
  30
0.0
  11
 300.487
  21
 847.463
  31
0.0
   0
LINE
   8
LEVEL001
   6
CONTINUOUS
  62
7
  10
 300.487
  20
 847.463
  30
0.0
  11
 291.987
  21
 852.074
  31
0.0
   0
LINE
   8
LEVEL001
   6
CONTINUOUS
  62
7
  10
 291.987
  20
 852.074
  30
0.0
  11
 291.987
  21
 854.917
  31
0.0
   0
LINE
   8
LEVEL001
   6
CONTINUOUS
  62
7
  10
 290.206
  20
 853.922
  30
0.0
  11
 290.579
  21
 852.741
  31
0.0
   0
LINE
   8
LEVEL001
   6
CONTINUOUS
  62
7
  10
 290.579
  20
 852.741
  30
0.0
  11
 291.107
  21
 851.613
  31
0.0
   0
LINE
   8
LEVEL001
   6
CONTINUOUS
  62
7
  10
 291.107
  20
 851.613
  30
0.0
  11
 291.780
  21
 850.555
  31
0.0
   0
LINE
   8
LEVEL001
   6
CONTINUOUS
  62
7
  10
 291.780
  20
 850.555
  30
0.0
  11
 292.588
  21
 849.584
  31
0.0
   0
LINE
   8
LEVEL001
   6
CONTINUOUS
  62
7
  10
 292.588
  20
 849.584
  30
0.0
  11
 293.519
  21
 848.716
  31
0.0
   0
LINE
   8
LEVEL001
   6
CONTINUOUS
  62
7
  10
 293.519
  20
 848.716
  30
0.0
  11
 294.558
  21
 847.963
  31
0.0
   0
LINE
   8
LEVEL001
   6
CONTINUOUS
  62
7
  10
 294.558
  20
 847.963
  30
0.0
  11
 295.688
  21
 847.338
  31
0.0
   0
LINE
   8
LEVEL001
   6
CONTINUOUS
  62
7
  10
 295.688
  20
 847.338
  30
0.0
  11
 296.893
  21
 846.850
  31
0.0
   0
LINE
   8
LEVEL001
   6
CONTINUOUS
  62
7
  10
 296.893
  20
 846.850
  30
0.0
  11
 298.153
  21
 846.507
  31
0.0
   0
LINE
   8
LEVEL001
   6
CONTINUOUS
  62
7
  10
 298.153
  20
 846.507
  30
0.0
  11
 299.448
  21
 846.315
  31
0.0
   0
LINE
   8
LEVEL001
   6
CONTINUOUS
  62
7
  10
 299.448
  20
 846.315
  30
0.0
  11
 300.759
  21
 846.275
  31
0.0
   0
LINE
   8
LEVEL001
   6
CONTINUOUS
  62
7
  10
 300.759
  20
 846.275
  30
0.0
  11
 302.065
  21
 846.390
  31
0.0
   0
LINE
   8
LEVEL001
   6
CONTINUOUS
  62
7
  10
 302.065
  20
 846.390
  30
0.0
  11
 303.346
  21
 846.657
  31
0.0
   0
LINE
   8
LEVEL001
   6
CONTINUOUS
  62
7
  10
 303.346
  20
 846.657
  30
0.0
  11
 304.581
  21
 847.071
  31
0.0
   0
LINE
   8
LEVEL001
   6
CONTINUOUS
  62
7
  10
 304.581
  20
 847.071
  30
0.0
  11
 305.751
  21
 847.628
  31
0.0
   0
LINE
   8
LEVEL001
   6
CONTINUOUS
  62
7
  10
 305.751
  20
 847.628
  30
0.0
  11
 306.839
  21
 848.316
  31
0.0
   0
LINE
   8
LEVEL001
   6
CONTINUOUS
  62
7
  10
 306.839
  20
 848.316
  30
0.0
  11
 307.827
  21
 849.127
  31
0.0
   0
LINE
   8
LEVEL001
   6
CONTINUOUS
  62
7
  10
 307.827
  20
 849.127
  30
0.0
  11
 308.699
  21
 850.048
  31
0.0
   0
LINE
   8
LEVEL001
   6
CONTINUOUS
  62
7
  10
 308.699
  20
 850.048
  30
0.0
  11
 309.443
  21
 851.063
  31
0.0
   0
LINE
   8
LEVEL001
   6
CONTINUOUS
  62
7
  10
 309.443
  20
 851.063
  30
0.0
  11
 310.046
  21
 852.158
  31
0.0
   0
LINE
   8
LEVEL001
   6
CONTINUOUS
  62
7
  10
 310.046
  20
 852.158
  30
0.0
  11
 310.499
  21
 853.314
  31
0.0
   0
LINE
   8
LEVEL001
   6
CONTINUOUS
  62
7
  10
 310.499
  20
 853.314
  30
0.0
  11
 310.669
  21
 853.922
  31
0.0
   0
LINE
   8
LEVEL001
   6
CONTINUOUS
  62
7
  10
 310.394
  20
 857.009
  30
0.0
  11
 310.201
  21
 858.168
  31
0.0
   0
LINE
   8
LEVEL001
   6
CONTINUOUS
  62
7
  10
 310.201
  20
 858.168
  30
0.0
  11
 309.856
  21
 859.296
  31
0.0
   0
LINE
   8
LEVEL001
   6
CONTINUOUS
  62
7
  10
 309.856
  20
 859.296
  30
0.0
  11
 309.363
  21
 860.375
  31
0.0
   0
LINE
   8
LEVEL001
   6
CONTINUOUS
  62
7
  10
 309.363
  20
 860.375
  30
0.0
  11
 308.987
  21
 861.011
  31
0.0
   0
LINE
   8
LEVEL001
   6
CONTINUOUS
  62
7
  10
 291.987
  20
 861.162
  30
0.0
  11
 291.387
  21
 860.133
  31
0.0
   0
LINE
   8
LEVEL001
   6
CONTINUOUS
  62
7
  10
 291.387
  20
 860.133
  30
0.0
  11
 290.927
  21
 859.042
  31
0.0
   0
LINE
   8
LEVEL001
   6
CONTINUOUS
  62
7
  10
 290.927
  20
 859.042
  30
0.0
  11
 290.616
  21
 857.905
  31
0.0
   0
LINE
   8
LEVEL001
   6
CONTINUOUS
  62
7
  10
 290.616
  20
 857.905
  30
0.0
  11
 290.481
  21
 857.009
  31
0.0
   0
LINE
   8
LEVEL001
   6
CONTINUOUS
  62
7
  10
 253.527
  20
 865.937
  30
0.0
  11
 295.370
  21
 865.937
  31
0.0
   0
LINE
   8
LEVEL001
   6
CONTINUOUS
  62
7
  10
 305.605
  20
 865.937
  30
0.0
  11
 311.348
  21
 865.937
  31
0.0
   0
LINE
   8
LEVEL001
   6
CONTINUOUS
  62
7
  10
 314.938
  20
 859.776
  30
0.0
  11
 313.905
  21
 858.598
  31
0.0
   0
LINE
   8
LEVEL001
   6
CONTINUOUS
  62
7
  10
 313.905
  20
 858.598
  30
0.0
  11
 313.037
  21
 857.309
  31
0.0
   0
LINE
   8
LEVEL001
   6
CONTINUOUS
  62
7
  10
 313.037
  20
 857.309
  30
0.0
  11
 312.347
  21
 855.927
  31
0.0
   0
LINE
   8
LEVEL001
   6
CONTINUOUS
  62
7
  10
 312.347
  20
 855.927
  30
0.0
  11
 311.846
  21
 854.476
  31
0.0
   0
LINE
   8
LEVEL001
   6
CONTINUOUS
  62
7
  10
 311.846
  20
 854.476
  30
0.0
  11
 311.541
  21
 852.977
  31
0.0
   0
LINE
   8
LEVEL001
   6
CONTINUOUS
  62
7
  10
 311.541
  20
 852.977
  30
0.0
  11
 311.438
  21
 851.454
  31
0.0
   0
LINE
   8
LEVEL001
   6
CONTINUOUS
  62
7
  10
 311.438
  20
 851.454
  30
0.0
  11
 311.537
  21
 849.931
  31
0.0
   0
LINE
   8
LEVEL001
   6
CONTINUOUS
  62
7
  10
 311.537
  20
 849.931
  30
0.0
  11
 311.837
  21
 848.431
  31
0.0
   0
LINE
   8
LEVEL001
   6
CONTINUOUS
  62
7
  10
 311.837
  20
 848.431
  30
0.0
  11
 312.334
  21
 846.978
  31
0.0
   0
LINE
   8
LEVEL001
   6
CONTINUOUS
  62
7
  10
 312.334
  20
 846.978
  30
0.0
  11
 313.021
  21
 845.595
  31
0.0
   0
LINE
   8
LEVEL001
   6
CONTINUOUS
  62
7
  10
 313.021
  20
 845.595
  30
0.0
  11
 313.885
  21
 844.303
  31
0.0
   0
LINE
   8
LEVEL001
   6
CONTINUOUS
  62
7
  10
 313.885
  20
 844.303
  30
0.0
  11
 314.914
  21
 843.123
  31
0.0
   0
LINE
   8
LEVEL001
   6
CONTINUOUS
  62
7
  10
 314.914
  20
 843.123
  30
0.0
  11
 316.091
  21
 842.072
  31
0.0
   0
LINE
   8
LEVEL001
   6
CONTINUOUS
  62
7
  10
 316.091
  20
 842.072
  30
0.0
  11
 317.399
  21
 841.167
  31
0.0
   0
LINE
   8
LEVEL001
   6
CONTINUOUS
  62
7
  10
 317.399
  20
 841.167
  30
0.0
  11
 318.816
  21
 840.423
  31
0.0
   0
LINE
   8
LEVEL001
   6
CONTINUOUS
  62
7
  10
 318.816
  20
 840.423
  30
0.0
  11
 320.322
  21
 839.850
  31
0.0
   0
LINE
   8
LEVEL001
   6
CONTINUOUS
  62
7
  10
 320.322
  20
 839.850
  30
0.0
  11
 321.891
  21
 839.458
  31
0.0
   0
LINE
   8
LEVEL001
   6
CONTINUOUS
  62
7
  10
 321.891
  20
 839.458
  30
0.0
  11
 323.500
  21
 839.253
  31
0.0
   0
LINE
   8
LEVEL001
   6
CONTINUOUS
  62
7
  10
 323.500
  20
 839.253
  30
0.0
  11
 325.124
  21
 839.239
  31
0.0
   0
LINE
   8
LEVEL001
   6
CONTINUOUS
  62
7
  10
 325.124
  20
 839.239
  30
0.0
  11
 326.737
  21
 839.414
  31
0.0
   0
LINE
   8
LEVEL001
   6
CONTINUOUS
  62
7
  10
 326.737
  20
 839.414
  30
0.0
  11
 328.315
  21
 839.777
  31
0.0
   0
LINE
   8
LEVEL001
   6
CONTINUOUS
  62
7
  10
 328.315
  20
 839.777
  30
0.0
  11
 329.831
  21
 840.323
  31
0.0
   0
LINE
   8
LEVEL001
   6
CONTINUOUS
  62
7
  10
 329.831
  20
 840.323
  30
0.0
  11
 331.264
  21
 841.041
  31
0.0
   0
LINE
   8
LEVEL001
   6
CONTINUOUS
  62
7
  10
 331.264
  20
 841.041
  30
0.0
  11
 332.590
  21
 841.922
  31
0.0
   0
LINE
   8
LEVEL001
   6
CONTINUOUS
  62
7
  10
 332.590
  20
 841.922
  30
0.0
  11
 333.789
  21
 842.952
  31
0.0
   0
LINE
   8
LEVEL001
   6
CONTINUOUS
  62
7
  10
 333.789
  20
 842.952
  30
0.0
  11
 334.842
  21
 844.113
  31
0.0
   0
LINE
   8
LEVEL001
   6
CONTINUOUS
  62
7
  10
 334.842
  20
 844.113
  30
0.0
  11
 335.732
  21
 845.389
  31
0.0
   0
LINE
   8
LEVEL001
   6
CONTINUOUS
  62
7
  10
 335.732
  20
 845.389
  30
0.0
  11
 336.447
  21
 846.760
  31
0.0
   0
LINE
   8
LEVEL001
   6
CONTINUOUS
  62
7
  10
 336.447
  20
 846.760
  30
0.0
  11
 336.974
  21
 848.203
  31
0.0
   0
LINE
   8
LEVEL001
   6
CONTINUOUS
  62
7
  10
 336.974
  20
 848.203
  30
0.0
  11
 337.305
  21
 849.697
  31
0.0
   0
LINE
   8
LEVEL001
   6
CONTINUOUS
  62
7
  10
 337.305
  20
 849.697
  30
0.0
  11
 337.435
  21
 851.218
  31
0.0
   0
LINE
   8
LEVEL001
   6
CONTINUOUS
  62
7
  10
 337.435
  20
 851.218
  30
0.0
  11
 337.363
  21
 852.743
  31
0.0
   0
LINE
   8
LEVEL001
   6
CONTINUOUS
  62
7
  10
 337.363
  20
 852.743
  30
0.0
  11
 337.089
  21
 854.247
  31
0.0
   0
LINE
   8
LEVEL001
   6
CONTINUOUS
  62
7
  10
 337.089
  20
 854.247
  30
0.0
  11
 336.618
  21
 855.707
  31
0.0
   0
LINE
   8
LEVEL001
   6
CONTINUOUS
  62
7
  10
 336.618
  20
 855.707
  30
0.0
  11
 335.956
  21
 857.101
  31
0.0
   0
LINE
   8
LEVEL001
   6
CONTINUOUS
  62
7
  10
 335.956
  20
 857.101
  30
0.0
  11
 335.115
  21
 858.406
  31
0.0
   0
LINE
   8
LEVEL001
   6
CONTINUOUS
  62
7
  10
 335.115
  20
 858.406
  30
0.0
  11
 334.107
  21
 859.603
  31
0.0
   0
LINE
   8
LEVEL001
   6
CONTINUOUS
  62
7
  10
 334.107
  20
 859.603
  30
0.0
  11
 333.938
  21
 859.776
  31
0.0
   0
LINE
   8
LEVEL003
   6
CONTINUOUS
  62
7
  10
 338.438
  20
 855.920
  30
0.0
  11
 338.438
  21
 879.438
  31
0.0
   0
LINE
   8
LEVEL003
   6
CONTINUOUS
  62
7
  10
 338.438
  20
 879.438
  30
0.0
  11
 288.786
  21
 879.438
  31
0.0
   0
LINE
   8
LEVEL003
   6
CONTINUOUS
  62
3
  10
 284.786
  20
 879.438
  30
0.0
  11
 200.438
  21
 879.438
  31
0.0
   0
LINE
   8
LEVEL003
   6
CONTINUOUS
  62
3
  10
 240.973
  20
 814.438
  30
0.0
  11
 200.438
  21
 814.438
  31
0.0
   0
LINE
   8
LEVEL003
   6
CONTINUOUS
  62
3
  10
 208.438
  20
 879.438
  30
0.0
  11
 208.438
  21
 814.438
  31
0.0
   0
LINE
   8
LEVEL003
   6
CONTINUOUS
  62
3
  10
 208.438
  20
 879.438
  30
0.0
  11
 206.322
  21
 867.438
  31
0.0
   0
LINE
   8
LEVEL003
   6
CONTINUOUS
  62
3
  10
 208.438
  20
 879.438
  30
0.0
  11
 210.553
  21
 867.438
  31
0.0
   0
LINE
   8
LEVEL003
   6
CONTINUOUS
  62
3
  10
 208.438
  20
 814.438
  30
0.0
  11
 210.553
  21
 826.438
  31
0.0
   0
LINE
   8
LEVEL003
   6
CONTINUOUS
  62
3
  10
 208.438
  20
 814.438
  30
0.0
  11
 206.322
  21
 826.438
  31
0.0
   0
TEXT
   8
LEVEL003
  62
3
  10
 205.238
  20
 838.938
  30
0.0
  40
 16.0000
   1
65
  50
 90.0000
  41
 0.500000
   7
STANDARD
  72
1
  11
 205.238
  21
 846.938
  31
0.0
   0
LINE
   8
LEVEL003
   6
CONTINUOUS
  62
7
  10
 288.438
  20
 765.437
  30
0.0
  11
 288.438
  21
 719.438
  31
0.0
   0
LINE
   8
LEVEL003
   6
CONTINUOUS
  62
7
  10
 288.438
  20
 719.438
  30
0.0
  11
 338.438
  21
 719.438
  31
0.0
   0
LINE
   8
LEVEL003
   6
CONTINUOUS
  62
7
  10
 338.438
  20
 719.438
  30
0.0
  11
 338.438
  21
 762.874
  31
0.0
   0
LINE
   8
LEVEL003
   6
CONTINUOUS
  62
3
  10
 240.973
  20
 814.438
  30
0.0
  11
 200.438
  21
 814.438
  31
0.0
   0
LINE
   8
LEVEL003
   6
CONTINUOUS
  62
3
  10
 284.438
  20
 719.438
  30
0.0
  11
 200.438
  21
 719.438
  31
0.0
   0
LINE
   8
LEVEL003
   6
CONTINUOUS
  62
3
  10
 208.438
  20
 814.438
  30
0.0
  11
 208.438
  21
 719.438
  31
0.0
   0
LINE
   8
LEVEL003
   6
CONTINUOUS
  62
3
  10
 208.438
  20
 814.438
  30
0.0
  11
 206.322
  21
 802.438
  31
0.0
   0
LINE
   8
LEVEL003
   6
CONTINUOUS
  62
3
  10
 208.438
  20
 814.438
  30
0.0
  11
 210.553
  21
 802.438
  31
0.0
   0
LINE
   8
LEVEL003
   6
CONTINUOUS
  62
3
  10
 208.438
  20
 719.438
  30
0.0
  11
 210.553
  21
 731.438
  31
0.0
   0
LINE
   8
LEVEL003
   6
CONTINUOUS
  62
3
  10
 208.438
  20
 719.438
  30
0.0
  11
 206.322
  21
 731.438
  31
0.0
   0
TEXT
   8
LEVEL003
  62
3
  10
 205.238
  20
 758.938
  30
0.0
  40
 16.0000
   1
95
  50
 90.0000
  41
 0.500000
   7
STANDARD
  72
1
  11
 205.238
  21
 766.938
  31
0.0
   0
LINE
   8
LEVEL003
   6
CONTINUOUS
  62
3
  10
 284.786
  20
 879.438
  30
0.0
  11
 160.438
  21
 879.438
  31
0.0
   0
LINE
   8
LEVEL003
   6
CONTINUOUS
  62
3
  10
 284.438
  20
 719.438
  30
0.0
  11
 160.438
  21
 719.438
  31
0.0
   0
LINE
   8
LEVEL003
   6
CONTINUOUS
  62
3
  10
 168.438
  20
 879.438
  30
0.0
  11
 168.438
  21
 719.438
  31
0.0
   0
LINE
   8
LEVEL003
   6
CONTINUOUS
  62
3
  10
 168.438
  20
 879.438
  30
0.0
  11
 166.322
  21
 867.438
  31
0.0
   0
LINE
   8
LEVEL003
   6
CONTINUOUS
  62
3
  10
 168.438
  20
 879.438
  30
0.0
  11
 170.553
  21
 867.438
  31
0.0
   0
LINE
   8
LEVEL003
   6
CONTINUOUS
  62
3
  10
 168.438
  20
 719.438
  30
0.0
  11
 170.553
  21
 731.438
  31
0.0
   0
LINE
   8
LEVEL003
   6
CONTINUOUS
  62
3
  10
 168.438
  20
 719.438
  30
0.0
  11
 166.322
  21
 731.438
  31
0.0
   0
TEXT
   8
LEVEL003
  62
3
  10
 165.238
  20
 787.438
  30
0.0
  40
 16.0000
   1
160
  50
 90.0000
  41
 0.500000
   7
STANDARD
  72
1
  11
 165.238
  21
 799.438
  31
0.0
   0
ARC
   8
LEVEL014
   6
CONTINUOUS
  62
7
  10
 1109.25
  20
 814.438
  30
0.0
  40
 31.8750
  50
 334.942
  51
 25.0576
   0
LINE
   8
LEVEL014
   6
CONTINUOUS
  62
7
  10
 1128.12
  20
 801.938
  30
0.0
  11
 1128.12
  21
 826.938
  31
0.0
   0
LINE
   8
LEVEL014
   6
CONTINUOUS
  62
7
  10
 1128.12
  20
 826.938
  30
0.0
  11
 1138.12
  21
 827.938
  31
0.0
   0
LINE
   8
LEVEL014
   6
CONTINUOUS
  62
7
  10
 1138.12
  20
 827.938
  30
0.0
  11
 1138.12
  21
 800.938
  31
0.0
   0
LINE
   8
LEVEL014
   6
CONTINUOUS
  62
7
  10
 1138.12
  20
 800.938
  30
0.0
  11
 1128.12
  21
 801.938
  31
0.0
   0
LINE
   8
LEVEL014
   6
CONTINUOUS
  62
7
  10
 1056.12
  20
 800.938
  30
0.0
  11
 1056.12
  21
 827.938
  31
0.0
   0
LINE
   8
LEVEL014
   6
CONTINUOUS
  62
7
  10
 1056.12
  20
 827.938
  30
0.0
  11
 1066.12
  21
 826.938
  31
0.0
   0
LINE
   8
LEVEL014
   6
CONTINUOUS
  62
7
  10
 1066.12
  20
 826.938
  30
0.0
  11
 1066.12
  21
 801.938
  31
0.0
   0
LINE
   8
LEVEL014
   6
CONTINUOUS
  62
7
  10
 1066.12
  20
 801.938
  30
0.0
  11
 1056.12
  21
 800.938
  31
0.0
   0
LINE
   8
LEVEL014
   6
CONTINUOUS
  62
3
  10
 1066.12
  20
 803.442
  30
0.0
  11
 1068.12
  21
 803.288
  31
0.0
   0
LINE
   8
LEVEL014
   6
CONTINUOUS
  62
3
  10
 1068.12
  20
 801.784
  30
0.0
  11
 1068.12
  21
 827.091
  31
0.0
   0
LINE
   8
LEVEL014
   6
CONTINUOUS
  62
3
  10
 1068.12
  20
 827.091
  30
0.0
  11
 1070.12
  21
 827.245
  31
0.0
   0
LINE
   8
LEVEL014
   6
CONTINUOUS
  62
3
  10
 1070.12
  20
 827.245
  30
0.0
  11
 1070.12
  21
 801.630
  31
0.0
   0
LINE
   8
LEVEL014
   6
CONTINUOUS
  62
3
  10
 1070.12
  20
 801.630
  30
0.0
  11
 1068.12
  21
 801.784
  31
0.0
   0
LINE
   8
LEVEL014
   6
CONTINUOUS
  62
3
  10
 1066.12
  20
 825.433
  30
0.0
  11
 1068.12
  21
 825.587
  31
0.0
   0
LINE
   8
LEVEL014
   6
CONTINUOUS
  62
3
  10
 1070.12
  20
 803.134
  30
0.0
  11
 1072.12
  21
 802.980
  31
0.0
   0
LINE
   8
LEVEL014
   6
CONTINUOUS
  62
3
  10
 1074.12
  20
 802.827
  30
0.0
  11
 1076.12
  21
 802.673
  31
0.0
   0
LINE
   8
LEVEL014
   6
CONTINUOUS
  62
3
  10
 1078.12
  20
 802.519
  30
0.0
  11
 1080.12
  21
 802.365
  31
0.0
   0
LINE
   8
LEVEL014
   6
CONTINUOUS
  62
3
  10
 1082.12
  20
 802.211
  30
0.0
  11
 1084.12
  21
 802.057
  31
0.0
   0
LINE
   8
LEVEL014
   6
CONTINUOUS
  62
3
  10
 1086.12
  20
 801.904
  30
0.0
  11
 1088.12
  21
 801.750
  31
0.0
   0
LINE
   8
LEVEL014
   6
CONTINUOUS
  62
3
  10
 1090.12
  20
 801.596
  30
0.0
  11
 1092.12
  21
 801.442
  31
0.0
   0
LINE
   8
LEVEL014
   6
CONTINUOUS
  62
3
  10
 1072.12
  20
 801.476
  30
0.0
  11
 1072.12
  21
 827.399
  31
0.0
   0
LINE
   8
LEVEL014
   6
CONTINUOUS
  62
3
  10
 1072.12
  20
 827.399
  30
0.0
  11
 1074.12
  21
 827.553
  31
0.0
   0
LINE
   8
LEVEL014
   6
CONTINUOUS
  62
3
  10
 1074.12
  20
 827.553
  30
0.0
  11
 1074.12
  21
 801.322
  31
0.0
   0
LINE
   8
LEVEL014
   6
CONTINUOUS
  62
3
  10
 1074.12
  20
 801.322
  30
0.0
  11
 1072.12
  21
 801.476
  31
0.0
   0
LINE
   8
LEVEL014
   6
CONTINUOUS
  62
3
  10
 1076.12
  20
 801.168
  30
0.0
  11
 1076.12
  21
 827.707
  31
0.0
   0
LINE
   8
LEVEL014
   6
CONTINUOUS
  62
3
  10
 1076.12
  20
 827.707
  30
0.0
  11
 1078.12
  21
 827.861
  31
0.0
   0
LINE
   8
LEVEL014
   6
CONTINUOUS
  62
3
  10
 1078.12
  20
 827.861
  30
0.0
  11
 1078.12
  21
 801.014
  31
0.0
   0
LINE
   8
LEVEL014
   6
CONTINUOUS
  62
3
  10
 1078.12
  20
 801.014
  30
0.0
  11
 1076.12
  21
 801.168
  31
0.0
   0
LINE
   8
LEVEL014
   6
CONTINUOUS
  62
3
  10
 1080.12
  20
 800.861
  30
0.0
  11
 1080.12
  21
 828.014
  31
0.0
   0
LINE
   8
LEVEL014
   6
CONTINUOUS
  62
3
  10
 1080.12
  20
 828.014
  30
0.0
  11
 1082.12
  21
 828.168
  31
0.0
   0
LINE
   8
LEVEL014
   6
CONTINUOUS
  62
3
  10
 1082.12
  20
 828.168
  30
0.0
  11
 1082.12
  21
 800.707
  31
0.0
   0
LINE
   8
LEVEL014
   6
CONTINUOUS
  62
3
  10
 1082.12
  20
 800.707
  30
0.0
  11
 1080.12
  21
 800.861
  31
0.0
   0
LINE
   8
LEVEL014
   6
CONTINUOUS
  62
3
  10
 1084.12
  20
 800.553
  30
0.0
  11
 1084.12
  21
 828.322
  31
0.0
   0
LINE
   8
LEVEL014
   6
CONTINUOUS
  62
3
  10
 1084.12
  20
 828.322
  30
0.0
  11
 1086.12
  21
 828.476
  31
0.0
   0
LINE
   8
LEVEL014
   6
CONTINUOUS
  62
3
  10
 1086.12
  20
 828.476
  30
0.0
  11
 1086.12
  21
 800.399
  31
0.0
   0
LINE
   8
LEVEL014
   6
CONTINUOUS
  62
3
  10
 1086.12
  20
 800.399
  30
0.0
  11
 1084.12
  21
 800.553
  31
0.0
   0
LINE
   8
LEVEL014
   6
CONTINUOUS
  62
3
  10
 1088.12
  20
 800.245
  30
0.0
  11
 1088.12
  21
 828.630
  31
0.0
   0
LINE
   8
LEVEL014
   6
CONTINUOUS
  62
3
  10
 1088.12
  20
 828.630
  30
0.0
  11
 1090.12
  21
 828.784
  31
0.0
   0
LINE
   8
LEVEL014
   6
CONTINUOUS
  62
3
  10
 1090.12
  20
 828.784
  30
0.0
  11
 1090.12
  21
 800.091
  31
0.0
   0
LINE
   8
LEVEL014
   6
CONTINUOUS
  62
3
  10
 1090.12
  20
 800.091
  30
0.0
  11
 1088.12
  21
 800.245
  31
0.0
   0
LINE
   8
LEVEL014
   6
CONTINUOUS
  62
3
  10
 1092.12
  20
 799.938
  30
0.0
  11
 1092.12
  21
 828.938
  31
0.0
   0
LINE
   8
LEVEL014
   6
CONTINUOUS
  62
3
  10
 1092.12
  20
 828.938
  30
0.0
  11
 1094.12
  21
 829.091
  31
0.0
   0
LINE
   8
LEVEL014
   6
CONTINUOUS
  62
3
  10
 1094.12
  20
 829.091
  30
0.0
  11
 1094.12
  21
 799.784
  31
0.0
   0
LINE
   8
LEVEL014
   6
CONTINUOUS
  62
3
  10
 1094.12
  20
 799.784
  30
0.0
  11
 1092.12
  21
 799.938
  31
0.0
   0
LINE
   8
LEVEL014
   6
CONTINUOUS
  62
3
  10
 1070.12
  20
 825.741
  30
0.0
  11
 1072.12
  21
 825.895
  31
0.0
   0
LINE
   8
LEVEL014
   6
CONTINUOUS
  62
3
  10
 1074.12
  20
 826.048
  30
0.0
  11
 1076.12
  21
 826.202
  31
0.0
   0
LINE
   8
LEVEL014
   6
CONTINUOUS
  62
3
  10
 1078.12
  20
 826.356
  30
0.0
  11
 1080.12
  21
 826.510
  31
0.0
   0
LINE
   8
LEVEL014
   6
CONTINUOUS
  62
3
  10
 1082.12
  20
 826.664
  30
0.0
  11
 1084.12
  21
 826.818
  31
0.0
   0
LINE
   8
LEVEL014
   6
CONTINUOUS
  62
3
  10
 1086.12
  20
 826.972
  30
0.0
  11
 1088.12
  21
 827.125
  31
0.0
   0
LINE
   8
LEVEL014
   6
CONTINUOUS
  62
3
  10
 1090.12
  20
 827.279
  30
0.0
  11
 1092.12
  21
 827.433
  31
0.0
   0
LINE
   8
LEVEL014
   6
CONTINUOUS
  62
3
  10
 1114.12
  20
 802.256
  30
0.0
  11
 1116.12
  21
 802.426
  31
0.0
   0
LINE
   8
LEVEL014
   6
CONTINUOUS
  62
3
  10
 1118.12
  20
 802.595
  30
0.0
  11
 1120.12
  21
 802.765
  31
0.0
   0
LINE
   8
LEVEL014
   6
CONTINUOUS
  62
3
  10
 1122.12
  20
 802.934
  30
0.0
  11
 1124.12
  21
 803.104
  31
0.0
   0
LINE
   8
LEVEL014
   6
CONTINUOUS
  62
3
  10
 1126.12
  20
 803.273
  30
0.0
  11
 1128.12
  21
 803.443
  31
0.0
   0
LINE
   8
LEVEL014
   6
CONTINUOUS
  62
3
  10
 1094.12
  20
 801.288
  30
0.0
  11
 1096.12
  21
 801.134
  31
0.0
   0
LINE
   8
LEVEL014
   6
CONTINUOUS
  62
3
  10
 1098.12
  20
 800.901
  30
0.0
  11
 1100.12
  21
 801.070
  31
0.0
   0
LINE
   8
LEVEL014
   6
CONTINUOUS
  62
3
  10
 1102.12
  20
 801.240
  30
0.0
  11
 1104.12
  21
 801.409
  31
0.0
   0
LINE
   8
LEVEL014
   6
CONTINUOUS
  62
3
  10
 1106.12
  20
 801.578
  30
0.0
  11
 1108.12
  21
 801.748
  31
0.0
   0
LINE
   8
LEVEL014
   6
CONTINUOUS
  62
3
  10
 1110.12
  20
 801.917
  30
0.0
  11
 1112.12
  21
 802.087
  31
0.0
   0
LINE
   8
LEVEL014
   6
CONTINUOUS
  62
3
  10
 1104.12
  20
 799.904
  30
0.0
  11
 1104.12
  21
 828.971
  31
0.0
   0
LINE
   8
LEVEL014
   6
CONTINUOUS
  62
3
  10
 1104.12
  20
 828.971
  30
0.0
  11
 1106.12
  21
 828.802
  31
0.0
   0
LINE
   8
LEVEL014
   6
CONTINUOUS
  62
3
  10
 1106.12
  20
 828.802
  30
0.0
  11
 1106.12
  21
 800.073
  31
0.0
   0
LINE
   8
LEVEL014
   6
CONTINUOUS
  62
3
  10
 1106.12
  20
 800.073
  30
0.0
  11
 1104.12
  21
 799.904
  31
0.0
   0
LINE
   8
LEVEL014
   6
CONTINUOUS
  62
3
  10
 1108.12
  20
 800.243
  30
0.0
  11
 1108.12
  21
 828.632
  31
0.0
   0
LINE
   8
LEVEL014
   6
CONTINUOUS
  62
3
  10
 1108.12
  20
 828.632
  30
0.0
  11
 1110.12
  21
 828.463
  31
0.0
   0
LINE
   8
LEVEL014
   6
CONTINUOUS
  62
3
  10
 1110.12
  20
 828.463
  30
0.0
  11
 1110.12
  21
 800.412
  31
0.0
   0
LINE
   8
LEVEL014
   6
CONTINUOUS
  62
3
  10
 1110.12
  20
 800.412
  30
0.0
  11
 1108.12
  21
 800.243
  31
0.0
   0
LINE
   8
LEVEL014
   6
CONTINUOUS
  62
3
  10
 1112.12
  20
 800.582
  30
0.0
  11
 1112.12
  21
 828.293
  31
0.0
   0
LINE
   8
LEVEL014
   6
CONTINUOUS
  62
3
  10
 1112.12
  20
 828.293
  30
0.0
  11
 1114.12
  21
 828.124
  31
0.0
   0
LINE
   8
LEVEL014
   6
CONTINUOUS
  62
3
  10
 1114.12
  20
 828.124
  30
0.0
  11
 1114.12
  21
 800.751
  31
0.0
   0
LINE
   8
LEVEL014
   6
CONTINUOUS
  62
3
  10
 1114.12
  20
 800.751
  30
0.0
  11
 1112.12
  21
 800.582
  31
0.0
   0
LINE
   8
LEVEL014
   6
CONTINUOUS
  62
3
  10
 1116.12
  20
 800.921
  30
0.0
  11
 1116.12
  21
 827.954
  31
0.0
   0
LINE
   8
LEVEL014
   6
CONTINUOUS
  62
3
  10
 1116.12
  20
 827.954
  30
0.0
  11
 1118.12
  21
 827.785
  31
0.0
   0
LINE
   8
LEVEL014
   6
CONTINUOUS
  62
3
  10
 1118.12
  20
 827.785
  30
0.0
  11
 1118.12
  21
 801.090
  31
0.0
   0
LINE
   8
LEVEL014
   6
CONTINUOUS
  62
3
  10
 1118.12
  20
 801.090
  30
0.0
  11
 1116.12
  21
 800.921
  31
0.0
   0
LINE
   8
LEVEL014
   6
CONTINUOUS
  62
3
  10
 1120.12
  20
 801.260
  30
0.0
  11
 1120.12
  21
 827.615
  31
0.0
   0
LINE
   8
LEVEL014
   6
CONTINUOUS
  62
3
  10
 1120.12
  20
 827.615
  30
0.0
  11
 1122.12
  21
 827.446
  31
0.0
   0
LINE
   8
LEVEL014
   6
CONTINUOUS
  62
3
  10
 1122.12
  20
 827.446
  30
0.0
  11
 1122.12
  21
 801.429
  31
0.0
   0
LINE
   8
LEVEL014
   6
CONTINUOUS
  62
3
  10
 1122.12
  20
 801.429
  30
0.0
  11
 1120.12
  21
 801.260
  31
0.0
   0
LINE
   8
LEVEL014
   6
CONTINUOUS
  62
3
  10
 1124.12
  20
 801.599
  30
0.0
  11
 1124.12
  21
 827.276
  31
0.0
   0
LINE
   8
LEVEL014
   6
CONTINUOUS
  62
3
  10
 1124.12
  20
 827.276
  30
0.0
  11
 1126.12
  21
 827.107
  31
0.0
   0
LINE
   8
LEVEL014
   6
CONTINUOUS
  62
3
  10
 1126.12
  20
 827.107
  30
0.0
  11
 1126.12
  21
 801.768
  31
0.0
   0
LINE
   8
LEVEL014
   6
CONTINUOUS
  62
3
  10
 1126.12
  20
 801.768
  30
0.0
  11
 1124.12
  21
 801.599
  31
0.0
   0
LINE
   8
LEVEL014
   6
CONTINUOUS
  62
3
  10
 1094.12
  20
 827.587
  30
0.0
  11
 1096.12
  21
 827.741
  31
0.0
   0
LINE
   8
LEVEL014
   6
CONTINUOUS
  62
3
  10
 1098.12
  20
 827.974
  30
0.0
  11
 1100.12
  21
 827.805
  31
0.0
   0
LINE
   8
LEVEL014
   6
CONTINUOUS
  62
3
  10
 1102.12
  20
 827.635
  30
0.0
  11
 1104.12
  21
 827.466
  31
0.0
   0
LINE
   8
LEVEL014
   6
CONTINUOUS
  62
3
  10
 1106.12
  20
 827.297
  30
0.0
  11
 1108.12
  21
 827.127
  31
0.0
   0
LINE
   8
LEVEL014
   6
CONTINUOUS
  62
3
  10
 1110.12
  20
 826.958
  30
0.0
  11
 1112.12
  21
 826.788
  31
0.0
   0
LINE
   8
LEVEL014
   6
CONTINUOUS
  62
3
  10
 1114.12
  20
 826.619
  30
0.0
  11
 1116.12
  21
 826.449
  31
0.0
   0
LINE
   8
LEVEL014
   6
CONTINUOUS
  62
3
  10
 1118.12
  20
 826.280
  30
0.0
  11
 1120.12
  21
 826.110
  31
0.0
   0
LINE
   8
LEVEL014
   6
CONTINUOUS
  62
3
  10
 1122.12
  20
 825.941
  30
0.0
  11
 1124.12
  21
 825.771
  31
0.0
   0
LINE
   8
LEVEL014
   6
CONTINUOUS
  62
3
  10
 1126.12
  20
 825.602
  30
0.0
  11
 1128.12
  21
 825.432
  31
0.0
   0
LINE
   8
LEVEL014
   6
CONTINUOUS
  62
3
  10
 1096.12
  20
 814.438
  30
0.0
  11
 1096.12
  21
 829.245
  31
0.0
   0
LINE
   8
LEVEL014
   6
CONTINUOUS
  62
3
  10
 1096.12
  20
 829.245
  30
0.0
  11
 1098.12
  21
 829.399
  31
0.0
   0
LINE
   8
LEVEL014
   6
CONTINUOUS
  62
3
  10
 1098.12
  20
 829.399
  30
0.0
  11
 1098.12
  21
 814.438
  31
0.0
   0
LINE
   8
LEVEL014
   6
CONTINUOUS
  62
3
  10
 1100.12
  20
 814.438
  30
0.0
  11
 1100.12
  21
 829.310
  31
0.0
   0
LINE
   8
LEVEL014
   6
CONTINUOUS
  62
3
  10
 1100.12
  20
 829.310
  30
0.0
  11
 1102.12
  21
 829.141
  31
0.0
   0
LINE
   8
LEVEL014
   6
CONTINUOUS
  62
3
  10
 1102.12
  20
 829.141
  30
0.0
  11
 1102.12
  21
 814.438
  31
0.0
   0
LINE
   8
LEVEL014
   6
CONTINUOUS
  62
3
  10
 1096.12
  20
 814.438
  30
0.0
  11
 1096.12
  21
 799.630
  31
0.0
   0
LINE
   8
LEVEL014
   6
CONTINUOUS
  62
3
  10
 1096.12
  20
 799.630
  30
0.0
  11
 1098.12
  21
 799.476
  31
0.0
   0
LINE
   8
LEVEL014
   6
CONTINUOUS
  62
3
  10
 1098.12
  20
 799.476
  30
0.0
  11
 1098.12
  21
 814.438
  31
0.0
   0
LINE
   8
LEVEL014
   6
CONTINUOUS
  62
3
  10
 1100.12
  20
 814.438
  30
0.0
  11
 1100.12
  21
 799.565
  31
0.0
   0
LINE
   8
LEVEL014
   6
CONTINUOUS
  62
3
  10
 1100.12
  20
 799.565
  30
0.0
  11
 1102.12
  21
 799.734
  31
0.0
   0
LINE
   8
LEVEL014
   6
CONTINUOUS
  62
3
  10
 1102.12
  20
 799.734
  30
0.0
  11
 1102.12
  21
 814.438
  31
0.0
   0
LINE
   8
LEVEL001
   6
CONTINUOUS
  62
7
  10
 926.911
  20
 767.492
  30
0.0
  11
 925.864
  21
 767.438
  31
0.0
   0
ARC
   8
LEVEL001
   6
CONTINUOUS
  62
7
  10
 925.864
  20
 787.465
  30
0.0
  40
 20.0000
  50
 273.000
  51
0.0
   0
ARC
   8
LEVEL001
   6
CONTINUOUS
  62
7
  10
 961.864
  20
 751.507
  30
0.0
  40
 2.00000
  50
 268.047
  51
0.0
   0
LINE
   8
LEVEL001
   6
CONTINUOUS
  62
7
  10
 961.796
  20
 749.508
  30
0.0
  11
 921.796
  21
 750.872
  31
0.0
   0
ARC
   8
LEVEL001
   6
CONTINUOUS
  62
7
  10
 921.864
  20
 752.870
  30
0.0
  40
 2.00000
  50
 180.000
  51
 268.047
   0
LINE
   8
LEVEL001
   6
CONTINUOUS
  62
7
  10
 919.864
  20
 752.870
  30
0.0
  11
 919.864
  21
 767.719
  31
0.0
   0
LINE
   8
LEVEL001
   6
CONTINUOUS
  62
7
  10
 895.864
  20
 770.438
  30
0.0
  11
 897.536
  21
 768.765
  31
0.0
   0
LINE
   8
LEVEL001
   6
CONTINUOUS
  62
7
  10
 925.864
  20
 767.438
  30
0.0
  11
 897.536
  21
 768.765
  31
0.0
   0
LINE
   8
LEVEL001
   6
CONTINUOUS
  62
7
  10
 926.911
  20
 861.383
  30
0.0
  11
 925.864
  21
 861.438
  31
0.0
   0
ARC
   8
LEVEL001
   6
CONTINUOUS
  62
7
  10
 925.864
  20
 841.410
  30
0.0
  40
 20.0000
  50
 0.195413E-11
  51
 87.0000
   0
ARC
   8
LEVEL001
   6
CONTINUOUS
  62
7
  10
 961.864
  20
 877.368
  30
0.0
  40
 2.00000
  50
 0.280092E-9
  51
 91.9525
   0
LINE
   8
LEVEL001
   6
CONTINUOUS
  62
7
  10
 961.796
  20
 879.367
  30
0.0
  11
 921.796
  21
 878.003
  31
0.0
   0
ARC
   8
LEVEL001
   6
CONTINUOUS
  62
7
  10
 921.864
  20
 876.005
  30
0.0
  40
 2.00000
  50
 91.9525
  51
 180.000
   0
LINE
   8
LEVEL001
   6
CONTINUOUS
  62
7
  10
 919.864
  20
 876.005
  30
0.0
  11
 919.864
  21
 861.156
  31
0.0
   0
ARC
   8
LEVEL001
   6
CONTINUOUS
  62
7
  10
 947.864
  20
 831.335
  30
0.0
  40
 2.00000
  50
 180.000
  51
 267.000
   0
LINE
   8
LEVEL001
   6
CONTINUOUS
  62
7
  10
 895.864
  20
 858.438
  30
0.0
  11
 897.536
  21
 860.110
  31
0.0
   0
LINE
   8
LEVEL001
   6
CONTINUOUS
  62
7
  10
 925.864
  20
 861.438
  30
0.0
  11
 897.536
  21
 860.110
  31
0.0
   0
LINE
   8
LEVEL003
   6
CONTINUOUS
  62
7
  10
 344.438
  20
 773.138
  30
0.0
  11
 884.864
  21
 773.138
  31
0.0
   0
LINE
   8
LEVEL003
   6
CONTINUOUS
  62
7
  10
 344.438
  20
 855.737
  30
0.0
  11
 884.864
  21
 855.737
  31
0.0
   0
LINE
   8
LEVEL003
   6
CONTINUOUS
  62
7
  10
 884.864
  20
 855.737
  30
0.0
  11
 884.864
  21
 825.187
  31
0.0
   0
LINE
   8
LEVEL003
   6
CONTINUOUS
  62
7
  10
 884.864
  20
 803.687
  30
0.0
  11
 884.864
  21
 773.138
  31
0.0
   0
LINE
   8
LEVEL001
   6
CONTINUOUS
  62
7
  10
 884.864
  20
 774.087
  30
0.0
  11
 895.864
  21
 774.087
  31
0.0
   0
LINE
   8
LEVEL001
   6
CONTINUOUS
  62
7
  10
 897.536
  20
 860.110
  30
0.0
  11
 897.536
  21
 825.187
  31
0.0
   0
LINE
   8
LEVEL001
   6
CONTINUOUS
  62
7
  10
 895.864
  20
 825.187
  30
0.0
  11
 895.864
  21
 858.438
  31
0.0
   0
LINE
   8
LEVEL001
   6
CONTINUOUS
  62
7
  10
 897.536
  20
 768.765
  30
0.0
  11
 897.536
  21
 803.687
  31
0.0
   0
LINE
   8
LEVEL001
   6
CONTINUOUS
  62
7
  10
 895.864
  20
 803.687
  30
0.0
  11
 895.864
  21
 770.438
  31
0.0
   0
LINE
   8
LEVEL001
   6
CONTINUOUS
  62
7
  10
 884.864
  20
 854.788
  30
0.0
  11
 895.864
  21
 854.788
  31
0.0
   0
ARC
   8
LEVEL001
   6
CONTINUOUS
  62
7
  10
 896.864
  20
 851.213
  30
0.0
  40
 5.50000
  50
 100.476
  51
 136.658
   0
TEXT
   8
LEVEL003
  62
3
  10
 945.864
  20
 714.438
  30
0.0
  40
 16.0000
   1
エア抜きプラグ
   7
STANDARD
   0
TEXT
   8
LEVEL003
  62
3
  10
 945.864
  20
 693.104
  30
0.0
  40
 16.0000
   1
検油棒及び給油口兼用
   7
STANDARD
   0
LINE
   8
LEVEL003
   6
CONTINUOUS
  62
3
  10
 929.762
  20
 776.199
  30
0.0
  11
 940.317
  21
 712.341
  31
0.0
   0
LINE
   8
LEVEL003
   6
CONTINUOUS
  62
3
  10
 940.317
  20
 712.341
  30
0.0
  11
 1095.48
  21
 712.341
  31
0.0
   0
LINE
   8
LEVEL003
   6
CONTINUOUS
  62
3
  10
 929.762
  20
 776.199
  30
0.0
  11
 929.632
  21
 764.014
  31
0.0
   0
LINE
   8
LEVEL003
   6
CONTINUOUS
  62
3
  10
 929.762
  20
 776.199
  30
0.0
  11
 933.807
  21
 764.705
  31
0.0
   0
LINE
   8
LEVEL003
   6
CONTINUOUS
  62
7
  10
 938.864
  20
 788.631
  30
0.0
  11
 938.786
  21
 789.835
  31
0.0
   0
LINE
   8
LEVEL003
   6
CONTINUOUS
  62
7
  10
 938.786
  20
 789.835
  30
0.0
  11
 938.553
  21
 791.021
  31
0.0
   0
LINE
   8
LEVEL003
   6
CONTINUOUS
  62
7
  10
 938.553
  20
 791.021
  30
0.0
  11
 938.169
  21
 792.169
  31
0.0
   0
LINE
   8
LEVEL003
   6
CONTINUOUS
  62
7
  10
 938.169
  20
 792.169
  30
0.0
  11
 937.640
  21
 793.262
  31
0.0
   0
LINE
   8
LEVEL003
   6
CONTINUOUS
  62
7
  10
 937.640
  20
 793.262
  30
0.0
  11
 936.974
  21
 794.283
  31
0.0
   0
LINE
   8
LEVEL003
   6
CONTINUOUS
  62
7
  10
 936.974
  20
 794.283
  30
0.0
  11
 936.181
  21
 795.215
  31
0.0
   0
LINE
   8
LEVEL003
   6
CONTINUOUS
  62
7
  10
 936.181
  20
 795.215
  30
0.0
  11
 935.274
  21
 796.045
  31
0.0
   0
LINE
   8
LEVEL003
   6
CONTINUOUS
  62
7
  10
 935.274
  20
 796.045
  30
0.0
  11
 934.267
  21
 796.759
  31
0.0
   0
LINE
   8
LEVEL003
   6
CONTINUOUS
  62
7
  10
 934.267
  20
 796.759
  30
0.0
  11
 933.176
  21
 797.346
  31
0.0
   0
LINE
   8
LEVEL003
   6
CONTINUOUS
  62
7
  10
 933.176
  20
 797.346
  30
0.0
  11
 932.017
  21
 797.798
  31
0.0
   0
LINE
   8
LEVEL003
   6
CONTINUOUS
  62
7
  10
 932.017
  20
 797.798
  30
0.0
  11
 930.810
  21
 798.106
  31
0.0
   0
LINE
   8
LEVEL003
   6
CONTINUOUS
  62
7
  10
 930.810
  20
 798.106
  30
0.0
  11
 929.571
  21
 798.266
  31
0.0
   0
LINE
   8
LEVEL003
   6
CONTINUOUS
  62
7
  10
 929.571
  20
 798.266
  30
0.0
  11
 928.322
  21
 798.276
  31
0.0
   0
LINE
   8
LEVEL003
   6
CONTINUOUS
  62
7
  10
 928.322
  20
 798.276
  30
0.0
  11
 927.082
  21
 798.136
  31
0.0
   0
LINE
   8
LEVEL003
   6
CONTINUOUS
  62
7
  10
 927.082
  20
 798.136
  30
0.0
  11
 925.869
  21
 797.847
  31
0.0
   0
LINE
   8
LEVEL003
   6
CONTINUOUS
  62
7
  10
 925.869
  20
 797.847
  30
0.0
  11
 924.703
  21
 797.414
  31
0.0
   0
LINE
   8
LEVEL003
   6
CONTINUOUS
  62
7
  10
 924.703
  20
 797.414
  30
0.0
  11
 923.601
  21
 796.845
  31
0.0
   0
LINE
   8
LEVEL003
   6
CONTINUOUS
  62
7
  10
 923.601
  20
 796.845
  30
0.0
  11
 922.582
  21
 796.147
  31
0.0
   0
LINE
   8
LEVEL003
   6
CONTINUOUS
  62
7
  10
 922.582
  20
 796.147
  30
0.0
  11
 921.661
  21
 795.332
  31
0.0
   0
LINE
   8
LEVEL003
   6
CONTINUOUS
  62
7
  10
 921.661
  20
 795.332
  30
0.0
  11
 920.853
  21
 794.412
  31
0.0
   0
LINE
   8
LEVEL003
   6
CONTINUOUS
  62
7
  10
 920.853
  20
 794.412
  30
0.0
  11
 920.169
  21
 793.402
  31
0.0
   0
LINE
   8
LEVEL003
   6
CONTINUOUS
  62
7
  10
 920.169
  20
 793.402
  30
0.0
  11
 919.621
  21
 792.318
  31
0.0
   0
LINE
   8
LEVEL003
   6
CONTINUOUS
  62
7
  10
 919.621
  20
 792.318
  30
0.0
  11
 919.217
  21
 791.176
  31
0.0
   0
LINE
   8
LEVEL003
   6
CONTINUOUS
  62
7
  10
 919.217
  20
 791.176
  30
0.0
  11
 918.964
  21
 789.994
  31
0.0
   0
LINE
   8
LEVEL003
   6
CONTINUOUS
  62
7
  10
 918.964
  20
 789.994
  30
0.0
  11
 918.865
  21
 788.791
  31
0.0
   0
LINE
   8
LEVEL003
   6
CONTINUOUS
  62
7
  10
 918.865
  20
 788.791
  30
0.0
  11
 918.864
  21
 788.631
  31
0.0
   0
LINE
   8
LEVEL003
   6
CONTINUOUS
  62
7
  10
 937.531
  20
 790.790
  30
0.0
  11
 936.841
  21
 791.796
  31
0.0
   0
LINE
   8
LEVEL003
   6
CONTINUOUS
  62
7
  10
 936.841
  20
 791.796
  30
0.0
  11
 936.027
  21
 792.711
  31
0.0
   0
LINE
   8
LEVEL003
   6
CONTINUOUS
  62
7
  10
 936.027
  20
 792.711
  30
0.0
  11
 935.101
  21
 793.521
  31
0.0
   0
LINE
   8
LEVEL003
   6
CONTINUOUS
  62
7
  10
 935.101
  20
 793.521
  30
0.0
  11
 934.078
  21
 794.214
  31
0.0
   0
LINE
   8
LEVEL003
   6
CONTINUOUS
  62
7
  10
 934.078
  20
 794.214
  30
0.0
  11
 932.973
  21
 794.777
  31
0.0
   0
LINE
   8
LEVEL003
   6
CONTINUOUS
  62
7
  10
 932.973
  20
 794.777
  30
0.0
  11
 931.805
  21
 795.203
  31
0.0
   0
LINE
   8
LEVEL003
   6
CONTINUOUS
  62
7
  10
 931.805
  20
 795.203
  30
0.0
  11
 930.590
  21
 795.485
  31
0.0
   0
LINE
   8
LEVEL003
   6
CONTINUOUS
  62
7
  10
 930.590
  20
 795.485
  30
0.0
  11
 929.349
  21
 795.619
  31
0.0
   0
LINE
   8
LEVEL003
   6
CONTINUOUS
  62
7
  10
 929.349
  20
 795.619
  30
0.0
  11
 928.100
  21
 795.602
  31
0.0
   0
LINE
   8
LEVEL003
   6
CONTINUOUS
  62
7
  10
 928.100
  20
 795.602
  30
0.0
  11
 926.862
  21
 795.435
  31
0.0
   0
LINE
   8
LEVEL003
   6
CONTINUOUS
  62
7
  10
 926.862
  20
 795.435
  30
0.0
  11
 925.656
  21
 795.120
  31
0.0
   0
LINE
   8
LEVEL003
   6
CONTINUOUS
  62
7
  10
 925.656
  20
 795.120
  30
0.0
  11
 924.501
  21
 794.662
  31
0.0
   0
LINE
   8
LEVEL003
   6
CONTINUOUS
  62
7
  10
 924.501
  20
 794.662
  30
0.0
  11
 923.413
  21
 794.069
  31
0.0
   0
LINE
   8
LEVEL003
   6
CONTINUOUS
  62
7
  10
 923.413
  20
 794.069
  30
0.0
  11
 922.410
  21
 793.349
  31
0.0
   0
LINE
   8
LEVEL003
   6
CONTINUOUS
  62
7
  10
 922.410
  20
 793.349
  30
0.0
  11
 921.508
  21
 792.515
  31
0.0
   0
LINE
   8
LEVEL003
   6
CONTINUOUS
  62
7
  10
 921.508
  20
 792.515
  30
0.0
  11
 920.721
  21
 791.578
  31
0.0
   0
LINE
   8
LEVEL003
   6
CONTINUOUS
  62
7
  10
 920.721
  20
 791.578
  30
0.0
  11
 920.197
  21
 790.790
  31
0.0
   0
LINE
   8
LEVEL050
   6
DASHDOT
  62
1
  10
 928.864
  20
 800.971
  30
0.0
  11
 928.864
  21
 770.971
  31
0.0
   0
LINE
   8
LEVEL003
   6
DASHDOT
  62
1
  10
 937.864
  20
 785.971
  30
0.0
  11
 937.794
  21
 787.055
  31
0.0
   0
LINE
   8
LEVEL003
   6
DASHDOT
  62
1
  10
 937.794
  20
 787.055
  30
0.0
  11
 937.584
  21
 788.122
  31
0.0
   0
LINE
   8
LEVEL003
   6
DASHDOT
  62
1
  10
 937.584
  20
 788.122
  30
0.0
  11
 937.239
  21
 789.155
  31
0.0
   0
LINE
   8
LEVEL003
   6
DASHDOT
  62
1
  10
 937.239
  20
 789.155
  30
0.0
  11
 936.762
  21
 790.139
  31
0.0
   0
LINE
   8
LEVEL003
   6
DASHDOT
  62
1
  10
 936.762
  20
 790.139
  30
0.0
  11
 936.163
  21
 791.058
  31
0.0
   0
LINE
   8
LEVEL003
   6
DASHDOT
  62
1
  10
 936.163
  20
 791.058
  30
0.0
  11
 935.449
  21
 791.897
  31
0.0
   0
LINE
   8
LEVEL003
   6
DASHDOT
  62
1
  10
 935.449
  20
 791.897
  30
0.0
  11
 934.633
  21
 792.644
  31
0.0
   0
LINE
   8
LEVEL003
   6
DASHDOT
  62
1
  10
 934.633
  20
 792.644
  30
0.0
  11
 933.727
  21
 793.286
  31
0.0
   0
LINE
   8
LEVEL003
   6
DASHDOT
  62
1
  10
 933.727
  20
 793.286
  30
0.0
  11
 932.745
  21
 793.815
  31
0.0
   0
LINE
   8
LEVEL003
   6
DASHDOT
  62
1
  10
 932.745
  20
 793.815
  30
0.0
  11
 931.702
  21
 794.221
  31
0.0
   0
LINE
   8
LEVEL003
   6
DASHDOT
  62
1
  10
 931.702
  20
 794.221
  30
0.0
  11
 930.615
  21
 794.498
  31
0.0
   0
LINE
   8
LEVEL003
   6
DASHDOT
  62
1
  10
 930.615
  20
 794.498
  30
0.0
  11
 929.501
  21
 794.643
  31
0.0
   0
LINE
   8
LEVEL003
   6
DASHDOT
  62
1
  10
 929.501
  20
 794.643
  30
0.0
  11
 928.376
  21
 794.652
  31
0.0
   0
LINE
   8
LEVEL003
   6
DASHDOT
  62
1
  10
 928.376
  20
 794.652
  30
0.0
  11
 927.260
  21
 794.525
  31
0.0
   0
LINE
   8
LEVEL003
   6
DASHDOT
  62
1
  10
 927.260
  20
 794.525
  30
0.0
  11
 926.168
  21
 794.265
  31
0.0
   0
LINE
   8
LEVEL003
   6
DASHDOT
  62
1
  10
 926.168
  20
 794.265
  30
0.0
  11
 925.119
  21
 793.876
  31
0.0
   0
LINE
   8
LEVEL003
   6
DASHDOT
  62
1
  10
 925.119
  20
 793.876
  30
0.0
  11
 924.128
  21
 793.363
  31
0.0
   0
LINE
   8
LEVEL003
   6
DASHDOT
  62
1
  10
 924.128
  20
 793.363
  30
0.0
  11
 923.210
  21
 792.735
  31
0.0
   0
LINE
   8
LEVEL003
   6
DASHDOT
  62
1
  10
 923.210
  20
 792.735
  30
0.0
  11
 922.382
  21
 792.002
  31
0.0
   0
LINE
   8
LEVEL003
   6
DASHDOT
  62
1
  10
 922.382
  20
 792.002
  30
0.0
  11
 921.654
  21
 791.174
  31
0.0
   0
LINE
   8
LEVEL003
   6
DASHDOT
  62
1
  10
 921.654
  20
 791.174
  30
0.0
  11
 921.038
  21
 790.265
  31
0.0
   0
LINE
   8
LEVEL003
   6
DASHDOT
  62
1
  10
 921.038
  20
 790.265
  30
0.0
  11
 920.545
  21
 789.289
  31
0.0
   0
LINE
   8
LEVEL003
   6
DASHDOT
  62
1
  10
 920.545
  20
 789.289
  30
0.0
  11
 920.182
  21
 788.261
  31
0.0
   0
LINE
   8
LEVEL003
   6
DASHDOT
  62
1
  10
 920.182
  20
 788.261
  30
0.0
  11
 919.954
  21
 787.198
  31
0.0
   0
LINE
   8
LEVEL003
   6
DASHDOT
  62
1
  10
 919.954
  20
 787.198
  30
0.0
  11
 919.865
  21
 786.115
  31
0.0
   0
LINE
   8
LEVEL003
   6
DASHDOT
  62
1
  10
 919.865
  20
 786.115
  30
0.0
  11
 919.917
  21
 785.031
  31
0.0
   0
LINE
   8
LEVEL003
   6
DASHDOT
  62
1
  10
 919.917
  20
 785.031
  30
0.0
  11
 920.108
  21
 783.960
  31
0.0
   0
LINE
   8
LEVEL003
   6
DASHDOT
  62
1
  10
 920.108
  20
 783.960
  30
0.0
  11
 920.436
  21
 782.922
  31
0.0
   0
LINE
   8
LEVEL003
   6
DASHDOT
  62
1
  10
 920.436
  20
 782.922
  30
0.0
  11
 920.895
  21
 781.930
  31
0.0
   0
LINE
   8
LEVEL003
   6
DASHDOT
  62
1
  10
 920.895
  20
 781.930
  30
0.0
  11
 921.479
  21
 781.002
  31
0.0
   0
LINE
   8
LEVEL003
   6
DASHDOT
  62
1
  10
 921.479
  20
 781.002
  30
0.0
  11
 922.178
  21
 780.152
  31
0.0
   0
LINE
   8
LEVEL003
   6
DASHDOT
  62
1
  10
 922.178
  20
 780.152
  30
0.0
  11
 922.981
  21
 779.392
  31
0.0
   0
LINE
   8
LEVEL003
   6
DASHDOT
  62
1
  10
 922.981
  20
 779.392
  30
0.0
  11
 923.876
  21
 778.735
  31
0.0
   0
LINE
   8
LEVEL003
   6
DASHDOT
  62
1
  10
 923.876
  20
 778.735
  30
0.0
  11
 924.849
  21
 778.191
  31
0.0
   0
LINE
   8
LEVEL003
   6
DASHDOT
  62
1
  10
 924.849
  20
 778.191
  30
0.0
  11
 925.885
  21
 777.768
  31
0.0
   0
LINE
   8
LEVEL003
   6
DASHDOT
  62
1
  10
 925.885
  20
 777.768
  30
0.0
  11
 926.967
  21
 777.473
  31
0.0
   0
LINE
   8
LEVEL003
   6
DASHDOT
  62
1
  10
 926.967
  20
 777.473
  30
0.0
  11
 928.079
  21
 777.311
  31
0.0
   0
LINE
   8
LEVEL003
   6
DASHDOT
  62
1
  10
 928.079
  20
 777.311
  30
0.0
  11
 929.202
  21
 777.284
  31
0.0
   0
LINE
   8
LEVEL003
   6
DASHDOT
  62
1
  10
 929.202
  20
 777.284
  30
0.0
  11
 930.321
  21
 777.392
  31
0.0
   0
LINE
   8
LEVEL003
   6
DASHDOT
  62
1
  10
 930.321
  20
 777.392
  30
0.0
  11
 931.417
  21
 777.635
  31
0.0
   0
LINE
   8
LEVEL003
   6
DASHDOT
  62
1
  10
 931.417
  20
 777.635
  30
0.0
  11
 932.473
  21
 778.007
  31
0.0
   0
LINE
   8
LEVEL003
   6
DASHDOT
  62
1
  10
 932.473
  20
 778.007
  30
0.0
  11
 933.473
  21
 778.504
  31
0.0
   0
LINE
   8
LEVEL003
   6
DASHDOT
  62
1
  10
 933.473
  20
 778.504
  30
0.0
  11
 934.401
  21
 779.117
  31
0.0
   0
LINE
   8
LEVEL003
   6
DASHDOT
  62
1
  10
 934.401
  20
 779.117
  30
0.0
  11
 935.242
  21
 779.838
  31
0.0
   0
LINE
   8
LEVEL003
   6
DASHDOT
  62
1
  10
 935.242
  20
 779.838
  30
0.0
  11
 935.984
  21
 780.654
  31
0.0
   0
LINE
   8
LEVEL003
   6
DASHDOT
  62
1
  10
 935.984
  20
 780.654
  30
0.0
  11
 936.615
  21
 781.552
  31
0.0
   0
LINE
   8
LEVEL003
   6
DASHDOT
  62
1
  10
 936.615
  20
 781.552
  30
0.0
  11
 937.125
  21
 782.520
  31
0.0
   0
LINE
   8
LEVEL003
   6
DASHDOT
  62
1
  10
 937.125
  20
 782.520
  30
0.0
  11
 937.506
  21
 783.542
  31
0.0
   0
LINE
   8
LEVEL003
   6
DASHDOT
  62
1
  10
 937.506
  20
 783.542
  30
0.0
  11
 937.752
  21
 784.602
  31
0.0
   0
LINE
   8
LEVEL003
   6
DASHDOT
  62
1
  10
 937.752
  20
 784.602
  30
0.0
  11
 937.859
  21
 785.683
  31
0.0
   0
LINE
   8
LEVEL003
   6
DASHDOT
  62
1
  10
 937.859
  20
 785.683
  30
0.0
  11
 937.864
  21
 785.971
  31
0.0
   0
LINE
   8
LEVEL050
   6
DASHDOT
  62
1
  10
 943.864
  20
 785.971
  30
0.0
  11
 913.864
  21
 785.971
  31
0.0
   0
LINE
   8
LEVEL001
   6
CONTINUOUS
  62
7
  10
 916.364
  20
 789.438
  30
0.0
  11
 916.364
  21
 799.273
  31
0.0
   0
ARC
   8
LEVEL001
   6
CONTINUOUS
  62
7
  10
 928.864
  20
 789.438
  30
0.0
  40
 12.5000
  50
 180.000
  51
0.0
   0
LINE
   8
LEVEL001
   6
CONTINUOUS
  62
7
  10
 941.364
  20
 789.438
  30
0.0
  11
 941.364
  21
 799.273
  31
0.0
   0
LINE
   8
LEVEL003
   6
CONTINUOUS
  62
7
  10
 918.864
  20
 788.631
  30
0.0
  11
 918.864
  21
 785.971
  31
0.0
   0
LINE
   8
LEVEL003
   6
CONTINUOUS
  62
7
  10
 918.864
  20
 785.971
  30
0.0
  11
 918.942
  21
 784.767
  31
0.0
   0
LINE
   8
LEVEL003
   6
CONTINUOUS
  62
7
  10
 918.942
  20
 784.767
  30
0.0
  11
 919.175
  21
 783.581
  31
0.0
   0
LINE
   8
LEVEL003
   6
CONTINUOUS
  62
7
  10
 919.175
  20
 783.581
  30
0.0
  11
 919.559
  21
 782.433
  31
0.0
   0
LINE
   8
LEVEL003
   6
CONTINUOUS
  62
7
  10
 919.559
  20
 782.433
  30
0.0
  11
 920.088
  21
 781.340
  31
0.0
   0
LINE
   8
LEVEL003
   6
CONTINUOUS
  62
7
  10
 920.088
  20
 781.340
  30
0.0
  11
 920.754
  21
 780.320
  31
0.0
   0
LINE
   8
LEVEL003
   6
CONTINUOUS
  62
7
  10
 920.754
  20
 780.320
  30
0.0
  11
 921.547
  21
 779.387
  31
0.0
   0
LINE
   8
LEVEL003
   6
CONTINUOUS
  62
7
  10
 921.547
  20
 779.387
  30
0.0
  11
 922.454
  21
 778.557
  31
0.0
   0
LINE
   8
LEVEL003
   6
CONTINUOUS
  62
7
  10
 922.454
  20
 778.557
  30
0.0
  11
 923.461
  21
 777.843
  31
0.0
   0
LINE
   8
LEVEL003
   6
CONTINUOUS
  62
7
  10
 923.461
  20
 777.843
  30
0.0
  11
 924.552
  21
 777.256
  31
0.0
   0
LINE
   8
LEVEL003
   6
CONTINUOUS
  62
7
  10
 924.552
  20
 777.256
  30
0.0
  11
 925.711
  21
 776.805
  31
0.0
   0
LINE
   8
LEVEL003
   6
CONTINUOUS
  62
7
  10
 925.711
  20
 776.805
  30
0.0
  11
 926.919
  21
 776.496
  31
0.0
   0
LINE
   8
LEVEL003
   6
CONTINUOUS
  62
7
  10
 926.919
  20
 776.496
  30
0.0
  11
 928.157
  21
 776.336
  31
0.0
   0
LINE
   8
LEVEL003
   6
CONTINUOUS
  62
7
  10
 928.157
  20
 776.336
  30
0.0
  11
 929.406
  21
 776.326
  31
0.0
   0
LINE
   8
LEVEL003
   6
CONTINUOUS
  62
7
  10
 929.406
  20
 776.326
  30
0.0
  11
 930.646
  21
 776.467
  31
0.0
   0
LINE
   8
LEVEL003
   6
CONTINUOUS
  62
7
  10
 930.646
  20
 776.467
  30
0.0
  11
 931.859
  21
 776.755
  31
0.0
   0
LINE
   8
LEVEL003
   6
CONTINUOUS
  62
7
  10
 931.859
  20
 776.755
  30
0.0
  11
 933.026
  21
 777.188
  31
0.0
   0
LINE
   8
LEVEL003
   6
CONTINUOUS
  62
7
  10
 933.026
  20
 777.188
  30
0.0
  11
 934.127
  21
 777.758
  31
0.0
   0
LINE
   8
LEVEL003
   6
CONTINUOUS
  62
7
  10
 934.127
  20
 777.758
  30
0.0
  11
 935.146
  21
 778.456
  31
0.0
   0
LINE
   8
LEVEL003
   6
CONTINUOUS
  62
7
  10
 935.146
  20
 778.456
  30
0.0
  11
 936.067
  21
 779.271
  31
0.0
   0
LINE
   8
LEVEL003
   6
CONTINUOUS
  62
7
  10
 936.067
  20
 779.271
  30
0.0
  11
 936.875
  21
 780.190
  31
0.0
   0
LINE
   8
LEVEL003
   6
CONTINUOUS
  62
7
  10
 936.875
  20
 780.190
  30
0.0
  11
 937.559
  21
 781.200
  31
0.0
   0
LINE
   8
LEVEL003
   6
CONTINUOUS
  62
7
  10
 937.559
  20
 781.200
  30
0.0
  11
 938.107
  21
 782.285
  31
0.0
   0
LINE
   8
LEVEL003
   6
CONTINUOUS
  62
7
  10
 938.107
  20
 782.285
  30
0.0
  11
 938.511
  21
 783.426
  31
0.0
   0
LINE
   8
LEVEL003
   6
CONTINUOUS
  62
7
  10
 938.511
  20
 783.426
  30
0.0
  11
 938.764
  21
 784.608
  31
0.0
   0
LINE
   8
LEVEL003
   6
CONTINUOUS
  62
7
  10
 938.764
  20
 784.608
  30
0.0
  11
 938.863
  21
 785.811
  31
0.0
   0
LINE
   8
LEVEL003
   6
CONTINUOUS
  62
7
  10
 938.863
  20
 785.811
  30
0.0
  11
 938.864
  21
 785.971
  31
0.0
   0
LINE
   8
LEVEL003
   6
CONTINUOUS
  62
7
  10
 938.864
  20
 788.631
  30
0.0
  11
 938.864
  21
 785.971
  31
0.0
   0
ARC
   8
LEVEL001
   6
CONTINUOUS
  62
7
  10
 944.364
  20
 799.273
  30
0.0
  40
 3.00000
  50
 90.0000
  51
 180.000
   0
ARC
   8
LEVEL001
   6
CONTINUOUS
  62
7
  10
 913.364
  20
 799.273
  30
0.0
  40
 3.00000
  50
 0.121590E-9
  51
 90.0000
   0
ARC
   8
LEVEL003
   6
CONTINUOUS
  62
7
  10
 952.364
  20
 822.506
  30
0.0
  40
 2.00000
  50
0.0
  51
 88.0000
   0
LINE
   8
LEVEL001
   6
CONTINUOUS
  62
7
  10
 947.759
  20
 829.338
  30
0.0
  11
 952.469
  21
 829.091
  31
0.0
   0
ARC
   8
LEVEL001
   6
CONTINUOUS
  62
7
  10
 952.364
  20
 827.094
  30
0.0
  40
 2.00000
  50
0.0
  51
 87.0000
   0
LINE
   8
LEVEL001
   6
CONTINUOUS
  62
7
  10
 954.364
  20
 832.866
  30
0.0
  11
 954.364
  21
 814.438
  31
0.0
   0
LINE
   8
LEVEL001
   6
CONTINUOUS
  62
7
  10
 945.864
  20
 827.631
  30
0.0
  11
 945.864
  21
 841.410
  31
0.0
   0
ARC
   8
LEVEL001
   6
CONTINUOUS
  62
7
  10
 948.864
  20
 827.631
  30
0.0
  40
 3.00000
  50
 180.000
  51
 268.000
   0
ARC
   8
LEVEL001
   6
CONTINUOUS
  62
7
  10
 947.864
  20
 797.540
  30
0.0
  40
 2.00000
  50
 93.0000
  51
 180.000
   0
ARC
   8
LEVEL003
   6
CONTINUOUS
  62
7
  10
 952.364
  20
 806.369
  30
0.0
  40
 2.00000
  50
 272.000
  51
 0.381056E-9
   0
LINE
   8
LEVEL001
   6
CONTINUOUS
  62
7
  10
 947.759
  20
 799.537
  30
0.0
  11
 952.469
  21
 799.784
  31
0.0
   0
ARC
   8
LEVEL001
   6
CONTINUOUS
  62
7
  10
 952.364
  20
 801.781
  30
0.0
  40
 2.00000
  50
 273.000
  51
 0.189551E-8
   0
LINE
   8
LEVEL001
   6
CONTINUOUS
  62
7
  10
 945.864
  20
 801.244
  30
0.0
  11
 945.864
  21
 787.465
  31
0.0
   0
ARC
   8
LEVEL001
   6
CONTINUOUS
  62
7
  10
 948.864
  20
 801.244
  30
0.0
  40
 3.00000
  50
 92.0000
  51
 180.000
   0
LINE
   8
LEVEL003
   6
CONTINUOUS
  62
7
  10
 941.120
  20
 822.438
  30
0.0
  11
 941.120
  21
 806.438
  31
0.0
   0
LINE
   8
LEVEL003
   6
CONTINUOUS
  62
7
  10
 934.192
  20
 826.438
  30
0.0
  11
 934.192
  21
 802.438
  31
0.0
   0
LINE
   8
LEVEL001
   6
CONTINUOUS
  62
7
  10
 934.192
  20
 802.438
  30
0.0
  11
 447.438
  21
 802.438
  31
0.0
   0
LINE
   8
LEVEL001
   6
CONTINUOUS
  62
7
  10
 447.438
  20
 826.438
  30
0.0
  11
 934.192
  21
 826.438
  31
0.0
   0
LINE
   8
LEVEL003
   6
CONTINUOUS
  62
7
  10
 952.434
  20
 824.505
  30
0.0
  11
 936.581
  21
 825.059
  31
0.0
   0
LINE
   8
LEVEL003
   6
CONTINUOUS
  62
7
  10
 952.434
  20
 804.370
  30
0.0
  11
 936.581
  21
 803.816
  31
0.0
   0
LINE
   8
LEVEL003
   6
CONTINUOUS
  62
7
  10
 934.192
  20
 826.438
  30
0.0
  11
 941.120
  21
 822.438
  31
0.0
   0
LINE
   8
LEVEL003
   6
CONTINUOUS
  62
7
  10
 941.120
  20
 822.438
  30
0.0
  11
 954.364
  21
 822.438
  31
0.0
   0
LINE
   8
LEVEL003
   6
CONTINUOUS
  62
7
  10
 934.192
  20
 802.438
  30
0.0
  11
 941.120
  21
 806.438
  31
0.0
   0
LINE
   8
LEVEL003
   6
CONTINUOUS
  62
7
  10
 941.120
  20
 806.438
  30
0.0
  11
 954.364
  21
 806.438
  31
0.0
   0
LINE
   8
LEVEL001
   6
CONTINUOUS
  62
7
  10
 145.500
  20
 465.063
  30
0.0
  11
 146.500
  21
 464.063
  31
0.0
   0
LINE
   8
LEVEL001
   6
CONTINUOUS
  62
7
  10
 93.5000
  20
 464.063
  30
0.0
  11
 94.5000
  21
 465.063
  31
0.0
   0
LINE
   8
LEVEL001
   6
CONTINUOUS
  62
7
  10
 94.5000
  20
 465.063
  30
0.0
  11
 104.000
  21
 465.063
  31
0.0
   0
LINE
   8
LEVEL001
   6
CONTINUOUS
  62
7
  10
 136.000
  20
 465.063
  30
0.0
  11
 145.500
  21
 465.063
  31
0.0
   0
LINE
   8
LEVEL001
   6
CONTINUOUS
  62
7
  10
 93.5000
  20
 464.063
  30
0.0
  11
 104.000
  21
 464.063
  31
0.0
   0
LINE
   8
LEVEL001
   6
CONTINUOUS
  62
7
  10
 136.000
  20
 464.063
  30
0.0
  11
 146.500
  21
 464.063
  31
0.0
   0
LINE
   8
LEVEL001
   6
CONTINUOUS
  62
7
  10
 97.5000
  20
 344.063
  30
0.0
  11
 142.500
  21
 344.063
  31
0.0
   0
LINE
   8
LEVEL001
   6
CONTINUOUS
  62
7
  10
 97.7477
  20
 392.567
  30
0.0
  11
 98.9007
  21
 389.063
  31
0.0
   0
ARC
   8
LEVEL001
   6
CONTINUOUS
  62
7
  10
 106.500
  20
 391.563
  30
0.0
  40
 8.00000
  50
 198.210
  51
 265.000
   0
LINE
   8
LEVEL001
   6
CONTINUOUS
  62
7
  10
 157.970
  20
 407.254
  30
0.0
  11
 159.451
  21
 390.187
  31
0.0
   0
ARC
   8
LEVEL001
   6
CONTINUOUS
  62
7
  10
 136.000
  20
 366.062
  30
0.0
  40
 9.00000
  50
 275.000
  51
 0.108563E-11
   0
LINE
   8
LEVEL001
   6
CONTINUOUS
  62
7
  10
 136.784
  20
 357.097
  30
0.0
  11
 120.000
  21
 355.628
  31
0.0
   0
ARC
   8
LEVEL001
   6
CONTINUOUS
  62
7
  10
 167.000
  20
 405.776
  30
0.0
  40
 2.00000
  50
 0.488533E-11
  51
 85.0000
   0
LINE
   8
LEVEL001
   6
CONTINUOUS
  62
7
  10
 169.000
  20
 405.776
  30
0.0
  11
 169.000
  21
 376.895
  31
0.0
   0
ARC
   8
LEVEL001
   6
CONTINUOUS
  62
7
  10
 167.000
  20
 376.895
  30
0.0
  40
 2.00000
  50
 275.000
  51
 0.846791E-10
   0
ARC
   8
LEVEL001
   6
CONTINUOUS
  62
7
  10
 120.000
  20
 400.063
  30
0.0
  40
 41.5000
  50
 311.843
  51
 320.330
   0
ARC
   8
LEVEL001
   6
CONTINUOUS
  62
7
  10
 71.4665
  20
 428.347
  30
0.0
  40
 2.00000
  50
 110.000
  51
 174.010
   0
ARC
   8
LEVEL001
   6
CONTINUOUS
  62
7
  10
 166.771
  20
 416.237
  30
0.0
  40
 2.00000
  50
 338.500
  51
 68.5000
   0
LINE
   8
LEVEL001
   6
CONTINUOUS
  62
7
  10
 168.632
  20
 415.504
  30
0.0
  11
 168.370
  21
 414.837
  31
0.0
   0
ARC
   8
LEVEL001
   6
CONTINUOUS
  62
7
  10
 171.150
  20
 413.742
  30
0.0
  40
 3.00000
  50
 153.333
  51
 218.151
   0
LINE
   8
LEVEL001
   6
CONTINUOUS
  62
7
  10
 171.611
  20
 406.232
  30
0.0
  11
 171.715
  21
 406.390
  31
0.0
   0
LINE
   8
LEVEL001
   6
CONTINUOUS
  62
7
  10
 171.715
  20
 406.390
  30
0.0
  11
 171.747
  21
 406.630
  31
0.0
   0
LINE
   8
LEVEL001
   6
CONTINUOUS
  62
7
  10
 171.747
  20
 406.630
  30
0.0
  11
 171.707
  21
 406.947
  31
0.0
   0
LINE
   8
LEVEL001
   6
CONTINUOUS
  62
7
  10
 171.707
  20
 406.947
  30
0.0
  11
 171.595
  21
 407.337
  31
0.0
   0
LINE
   8
LEVEL001
   6
CONTINUOUS
  62
7
  10
 171.595
  20
 407.337
  30
0.0
  11
 171.413
  21
 407.793
  31
0.0
   0
LINE
   8
LEVEL001
   6
CONTINUOUS
  62
7
  10
 171.413
  20
 407.793
  30
0.0
  11
 171.164
  21
 408.308
  31
0.0
   0
LINE
   8
LEVEL001
   6
CONTINUOUS
  62
7
  10
 171.164
  20
 408.308
  30
0.0
  11
 170.852
  21
 408.875
  31
0.0
   0
LINE
   8
LEVEL001
   6
CONTINUOUS
  62
7
  10
 170.852
  20
 408.875
  30
0.0
  11
 170.481
  21
 409.484
  31
0.0
   0
LINE
   8
LEVEL001
   6
CONTINUOUS
  62
7
  10
 170.481
  20
 409.484
  30
0.0
  11
 170.058
  21
 410.126
  31
0.0
   0
LINE
   8
LEVEL001
   6
CONTINUOUS
  62
7
  10
 170.058
  20
 410.126
  30
0.0
  11
 169.589
  21
 410.791
  31
0.0
   0
LINE
   8
LEVEL001
   6
CONTINUOUS
  62
7
  10
 169.589
  20
 410.791
  30
0.0
  11
 169.081
  21
 411.468
  31
0.0
   0
LINE
   8
LEVEL001
   6
CONTINUOUS
  62
7
  10
 169.081
  20
 411.468
  30
0.0
  11
 168.766
  21
 411.870
  31
0.0
   0
LINE
   8
LEVEL001
   6
CONTINUOUS
  62
7
  10
 171.611
  20
 406.232
  30
0.0
  11
 169.000
  21
 404.041
  31
0.0
   0
LINE
   8
LEVEL001
   6
CONTINUOUS
  62
7
  10
 168.370
  20
 414.837
  30
0.0
  11
 165.638
  21
 407.902
  31
0.0
   0
LINE
   8
LEVEL001
   6
CONTINUOUS
  62
7
  10
 144.500
  20
 449.598
  30
0.0
  11
 144.500
  21
 430.563
  31
0.0
   0
ARC
   8
LEVEL001
   6
CONTINUOUS
  62
7
  10
 149.500
  20
 430.563
  30
0.0
  40
 5.00000
  50
 180.000
  51
 248.500
   0
ARC
   8
LEVEL001
   6
CONTINUOUS
  62
7
  10
 146.655
  20
 424.161
  30
0.0
  40
 2.00000
  50
 68.5000
  51
 90.0000
   0
LINE
   8
LEVEL001
   6
CONTINUOUS
  62
7
  10
 147.667
  20
 425.911
  30
0.0
  11
 167.504
  21
 418.097
  31
0.0
   0
ARC
   8
LEVEL001
   6
CONTINUOUS
  62
7
  10
 128.500
  20
 432.776
  30
0.0
  40
 5.00000
  50
 180.000
  51
 265.000
   0
LINE
   8
LEVEL001
   6
CONTINUOUS
  62
7
  10
 146.830
  20
 426.153
  30
0.0
  11
 128.064
  21
 427.795
  31
0.0
   0
LINE
   8
LEVEL001
   6
CONTINUOUS
  62
7
  10
 150.697
  20
 414.532
  30
0.0
  11
 128.064
  21
 416.512
  31
0.0
   0
LINE
   8
LEVEL001
   6
CONTINUOUS
  62
7
  10
 120.000
  20
 421.793
  30
0.0
  11
 121.267
  21
 421.682
  31
0.0
   0
ARC
   8
LEVEL001
   6
CONTINUOUS
  62
7
  10
 121.006
  20
 418.694
  30
0.0
  40
 3.00000
  50
 20.4824
  51
 85.0000
   0
ARC
   8
LEVEL001
   6
CONTINUOUS
  62
7
  10
 128.500
  20
 421.493
  30
0.0
  40
 5.00000
  50
 180.000
  51
 265.000
   0
ARC
   8
LEVEL001
   6
CONTINUOUS
  62
7
  10
 111.500
  20
 436.506
  30
0.0
  40
 5.00000
  50
 274.000
  51
 0.390827E-10
   0
LINE
   8
LEVEL001
   6
CONTINUOUS
  62
7
  10
 68.7907
  20
 428.508
  30
0.0
  11
 111.849
  21
 431.519
  31
0.0
   0
ARC
   8
LEVEL001
   6
CONTINUOUS
  62
7
  10
 111.500
  20
 426.069
  30
0.0
  40
 5.00000
  50
 275.000
  51
 0.716515E-11
   0
LINE
   8
LEVEL001
   6
CONTINUOUS
  62
7
  10
 105.367
  20
 420.513
  30
0.0
  11
 120.000
  21
 421.793
  31
0.0
   0
LINE
   8
LEVEL001
   6
CONTINUOUS
  62
7
  10
 123.500
  20
 491.063
  30
0.0
  11
 123.500
  21
 421.493
  31
0.0
   0
ARC
   8
LEVEL001
   6
CONTINUOUS
  62
7
  10
 111.500
  20
 378.075
  30
0.0
  40
 5.00000
  50
 0.130276E-11
  51
 85.0000
   0
LINE
   8
LEVEL001
   6
CONTINUOUS
  62
7
  10
 105.803
  20
 383.593
  30
0.0
  11
 111.936
  21
 383.056
  31
0.0
   0
ARC
   8
LEVEL001
   6
CONTINUOUS
  62
7
  10
 107.000
  20
 362.933
  30
0.0
  40
 5.00000
  50
 0.123762E-10
  51
 86.0000
   0
ARC
   8
LEVEL001
   6
CONTINUOUS
  62
7
  10
 107.000
  20
 367.946
  30
0.0
  40
 5.00000
  50
 0.136789E-10
  51
 86.0000
   0
ARC
   8
LEVEL001
   6
CONTINUOUS
  62
7
  10
 150.000
  20
 371.406
  30
0.0
  40
 5.00000
  50
 101.212
  51
 180.000
   0
ARC
   8
LEVEL001
   6
CONTINUOUS
  62
7
  10
 146.500
  20
 389.062
  30
0.0
  40
 13.0000
  50
 281.212
  51
 4.96017
   0
ARC
   8
LEVEL001
   6
CONTINUOUS
  62
7
  10
 152.855
  20
 368.631
  30
0.0
  40
 5.00000
  50
 95.0000
  51
 158.500
   0
LINE
   8
LEVEL003
   6
CONTINUOUS
  62
7
  10
 167.174
  20
 374.903
  30
0.0
  11
 149.564
  21
 373.362
  31
0.0
   0
ARC
   8
LEVEL003
   6
CONTINUOUS
  62
7
  10
 150.000
  20
 368.381
  30
0.0
  40
 5.00000
  50
 95.0000
  51
 180.000
   0
LINE
   8
LEVEL001
   6
CONTINUOUS
  62
7
  10
 145.000
  20
 366.063
  30
0.0
  11
 145.000
  21
 371.406
  31
0.0
   0
LINE
   8
LEVEL001
   6
CONTINUOUS
  62
7
  10
 120.000
  20
 373.694
  30
0.0
  11
 119.239
  21
 373.761
  31
0.0
   0
ARC
   8
LEVEL001
   6
CONTINUOUS
  62
7
  10
 119.500
  20
 376.750
  30
0.0
  40
 3.00000
  50
 180.000
  51
 265.000
   0
LINE
   8
LEVEL001
   6
CONTINUOUS
  62
7
  10
 116.500
  20
 376.750
  30
0.0
  11
 116.500
  21
 378.075
  31
0.0
   0
LINE
   8
LEVEL001
   6
CONTINUOUS
  62
7
  10
 112.000
  20
 359.077
  30
0.0
  11
 112.000
  21
 367.946
  31
0.0
   0
ARC
   8
LEVEL001
   6
CONTINUOUS
  62
7
  10
 115.000
  20
 359.077
  30
0.0
  40
 3.00000
  50
 180.000
  51
 265.000
   0
LINE
   8
LEVEL001
   6
CONTINUOUS
  62
7
  10
 120.000
  20
 355.628
  30
0.0
  11
 114.739
  21
 356.089
  31
0.0
   0
ARC
   8
LEVEL001
   6
CONTINUOUS
  62
7
  10
 92.5000
  20
 347.167
  30
0.0
  40
 5.00000
  50
0.0
  51
 20.0000
   0
LINE
   8
LEVEL003
   6
CONTINUOUS
  62
7
  10
 89.8211
  20
 369.147
  30
0.0
  11
 97.1985
  21
 348.878
  31
0.0
   0
LINE
   8
LEVEL001
   6
CONTINUOUS
  62
7
  10
 93.0970
  20
 368.918
  30
0.0
  11
 97.1985
  21
 357.649
  31
0.0
   0
ARC
   8
LEVEL001
   6
CONTINUOUS
  62
7
  10
 92.5000
  20
 355.939
  30
0.0
  40
 5.00000
  50
0.0
  51
 20.0000
   0
ARC
   8
LEVEL001
   6
CONTINUOUS
  62
7
  10
 92.5000
  20
 363.947
  30
0.0
  40
 5.00000
  50
 0.117248E-10
  51
 86.0000
   0
LINE
   8
LEVEL001
   6
CONTINUOUS
  62
7
  10
 97.5000
  20
 344.063
  30
0.0
  11
 97.5000
  21
 363.947
  31
0.0
   0
LINE
   8
LEVEL001
   6
CONTINUOUS
  62
7
  10
 68.7907
  20
 370.617
  30
0.0
  11
 107.000
  21
 367.946
  31
0.0
   0
LINE
   8
LEVEL001
   6
CONTINUOUS
  62
7
  10
 148.203
  20
 370.463
  30
0.0
  11
 142.848
  21
 356.868
  31
0.0
   0
ARC
   8
LEVEL001
   6
CONTINUOUS
  62
7
  10
 147.500
  20
 355.036
  30
0.0
  40
 5.00000
  50
 158.500
  51
 180.000
   0
LINE
   8
LEVEL001
   6
CONTINUOUS
  62
7
  10
 142.500
  20
 344.063
  30
0.0
  11
 142.500
  21
 359.838
  31
0.0
   0
LINE
   8
LEVEL001
   6
CONTINUOUS
  62
7
  10
 167.174
  20
 407.768
  30
0.0
  11
 160.671
  21
 408.337
  31
0.0
   0
ARC
   8
LEVEL001
   6
CONTINUOUS
  62
7
  10
 161.107
  20
 413.318
  30
0.0
  40
 5.00000
  50
 211.309
  51
 265.000
   0
ARC
   8
LEVEL001
   6
CONTINUOUS
  62
7
  10
 150.000
  20
 406.562
  30
0.0
  40
 8.00000
  50
 4.96017
  51
 85.0000
   0
LINE
   8
LEVEL001
   6
CONTINUOUS
  62
7
  10
 92.2101
  20
 438.025
  30
0.0
  11
 70.7825
  21
 430.226
  31
0.0
   0
LINE
   8
LEVEL001
   6
CONTINUOUS
  62
7
  10
 93.5000
  20
 464.063
  30
0.0
  11
 93.5000
  21
 453.063
  31
0.0
   0
ARC
   8
LEVEL001
   6
CONTINUOUS
  62
7
  10
 93.5000
  20
 449.598
  30
0.0
  40
 2.00000
  50
0.0
  51
 60.0000
   0
ARC
   8
LEVEL001
   6
CONTINUOUS
  62
7
  10
 95.5000
  20
 453.063
  30
0.0
  40
 2.00000
  50
 180.000
  51
 240.000
   0
LINE
   8
LEVEL001
   6
CONTINUOUS
  62
7
  10
 146.500
  20
 464.063
  30
0.0
  11
 146.500
  21
 453.063
  31
0.0
   0
ARC
   8
LEVEL001
   6
CONTINUOUS
  62
7
  10
 146.500
  20
 449.598
  30
0.0
  40
 2.00000
  50
 120.000
  51
 180.000
   0
ARC
   8
LEVEL001
   6
CONTINUOUS
  62
7
  10
 144.500
  20
 453.062
  30
0.0
  40
 2.00000
  50
 300.000
  51
0.0
   0
ARC
   8
LEVEL001
   6
CONTINUOUS
  62
7
  10
 134.000
  20
 456.895
  30
0.0
  40
 2.00000
  50
 275.000
  51
0.0
   0
ARC
   8
LEVEL001
   6
CONTINUOUS
  62
7
  10
 106.000
  20
 456.895
  30
0.0
  40
 2.00000
  50
 180.000
  51
 265.000
   0
LINE
   8
LEVEL001
   6
CONTINUOUS
  62
7
  10
 104.000
  20
 474.063
  30
0.0
  11
 104.000
  21
 456.895
  31
0.0
   0
LINE
   8
LEVEL001
   6
CONTINUOUS
  62
7
  10
 136.000
  20
 474.063
  30
0.0
  11
 136.000
  21
 456.895
  31
0.0
   0
LINE
   8
LEVEL001
   6
CONTINUOUS
  62
7
  10
 134.174
  20
 454.903
  30
0.0
  11
 128.064
  21
 454.368
  31
0.0
   0
ARC
   8
LEVEL001
   6
CONTINUOUS
  62
7
  10
 128.500
  20
 449.387
  30
0.0
  40
 5.00000
  50
 95.0000
  51
 180.000
   0
LINE
   8
LEVEL001
   6
CONTINUOUS
  62
7
  10
 105.826
  20
 454.903
  30
0.0
  11
 111.936
  21
 454.368
  31
0.0
   0
ARC
   8
LEVEL001
   6
CONTINUOUS
  62
7
  10
 111.500
  20
 449.387
  30
0.0
  40
 5.00000
  50
0.0
  51
 85.0000
   0
LINE
   8
LEVEL001
   6
CONTINUOUS
  62
7
  10
 95.5000
  20
 442.724
  30
0.0
  11
 95.5000
  21
 449.598
  31
0.0
   0
ARC
   8
LEVEL001
   6
CONTINUOUS
  62
7
  10
 90.5000
  20
 442.724
  30
0.0
  40
 5.00000
  50
 290.000
  51
 0.188900E-10
   0
ARC
   8
LEVEL001
   6
CONTINUOUS
  62
7
  10
 126.500
  20
 491.063
  30
0.0
  40
 3.00000
  50
 90.0000
  51
 180.000
   0
ARC
   8
LEVEL001
   6
CONTINUOUS
  62
7
  10
 113.500
  20
 491.063
  30
0.0
  40
 3.00000
  50
0.0
  51
 90.0000
   0
LINE
   8
LEVEL001
   6
CONTINUOUS
  62
7
  10
 149.034
  20
 376.235
  30
0.0
  11
 120.000
  21
 373.694
  31
0.0
   0
ARC
   8
LEVEL001
   6
CONTINUOUS
  62
7
  10
 69.0000
  20
 373.610
  30
0.0
  40
 3.00000
  50
 259.867
  51
 266.000
   0
LINE
   8
LEVEL003
   6
CONTINUOUS
  62
7
  10
 68.5000
  20
 428.473
  30
0.0
  11
 68.5000
  21
 370.657
  31
0.0
   0
ARC
   8
LEVEL001
   6
CONTINUOUS
  62
7
  10
 69.0000
  20
 425.515
  30
0.0
  40
 3.00000
  50
 94.0000
  51
 99.5941
   0
LINE
   8
LEVEL001
   6
CONTINUOUS
  62
7
  10
 116.500
  20
 491.063
  30
0.0
  11
 116.500
  21
 426.069
  31
0.0
   0
LINE
   8
LEVEL001
   6
CONTINUOUS
  62
7
  10
 116.211
  20
 451.063
  30
0.0
  11
 95.5000
  21
 451.063
  31
0.0
   0
LINE
   8
LEVEL001
   6
CONTINUOUS
  62
7
  10
 144.500
  20
 451.063
  30
0.0
  11
 123.789
  21
 451.063
  31
0.0
   0
LINE
   8
LEVEL001
   6
CONTINUOUS
  62
7
  10
 104.000
  20
 474.063
  30
0.0
  11
 110.500
  21
 474.063
  31
0.0
   0
LINE
   8
LEVEL001
   6
CONTINUOUS
  62
7
  10
 110.500
  20
 474.063
  30
0.0
  11
 110.500
  21
 498.694
  31
0.0
   0
LINE
   8
LEVEL001
   6
CONTINUOUS
  62
7
  10
 129.500
  20
 474.063
  30
0.0
  11
 136.000
  21
 474.063
  31
0.0
   0
LINE
   8
LEVEL001
   6
CONTINUOUS
  62
7
  10
 129.500
  20
 474.063
  30
0.0
  11
 129.500
  21
 498.694
  31
0.0
   0
LINE
   8
LEVEL001
   6
CONTINUOUS
  62
7
  10
 129.500
  20
 498.694
  30
0.0
  11
 120.000
  21
 499.525
  31
0.0
   0
LINE
   8
LEVEL001
   6
CONTINUOUS
  62
7
  10
 110.500
  20
 498.694
  30
0.0
  11
 120.000
  21
 499.525
  31
0.0
   0
LINE
   8
LEVEL001
   6
DASHDOT
  62
1
  10
 120.000
  20
 372.063
  30
0.0
  11
 170.322
  21
 414.287
  31
0.0
   0
LINE
   8
LEVEL001
   6
DASHDOT
  62
1
  10
 90.3846
  20
 400.063
  30
0.0
  11
 164.559
  21
 400.063
  31
0.0
   0
LINE
   8
LEVEL001
   6
DASHDOT
  62
1
  10
 150.000
  20
 406.563
  30
0.0
  11
 150.000
  21
 392.563
  31
0.0
   0
LINE
   8
LEVEL001
   6
DASHDOT
  62
1
  10
 142.864
  20
 367.063
  30
0.0
  11
 127.136
  21
 367.063
  31
0.0
   0
LINE
   8
LEVEL001
   6
DASHDOT
  62
1
  10
 135.000
  20
 374.927
  30
0.0
  11
 135.000
  21
 359.198
  31
0.0
   0
ARC
   8
LEVEL001
   6
CONTINUOUS
  62
7
  10
 106.500
  20
 407.563
  30
0.0
  40
 13.0000
  50
 95.0000
  51
 190.867
   0
LINE
   8
LEVEL001
   6
CONTINUOUS
  62
7
  10
 93.5000
  20
 344.063
  30
0.0
  11
 97.5000
  21
 348.063
  31
0.0
   0
LINE
   8
LEVEL001
   6
CONTINUOUS
  62
7
  10
 146.500
  20
 344.063
  30
0.0
  11
 142.500
  21
 348.063
  31
0.0
   0
LINE
   8
LEVEL001
   6
DASHDOT
  62
1
  10
 128.337
  20
 345.951
  30
0.0
  11
 163.816
  21
 436.020
  31
0.0
   0
LINE
   8
LEVEL003
   6
CONTINUOUS
  62
7
  10
 135.000
  20
 369.949
  30
0.0
  11
 137.500
  21
 368.506
  31
0.0
   0
LINE
   8
LEVEL003
   6
CONTINUOUS
  62
7
  10
 137.500
  20
 368.506
  30
0.0
  11
 137.500
  21
 365.619
  31
0.0
   0
LINE
   8
LEVEL003
   6
CONTINUOUS
  62
7
  10
 137.500
  20
 365.619
  30
0.0
  11
 135.000
  21
 364.176
  31
0.0
   0
LINE
   8
LEVEL003
   6
CONTINUOUS
  62
7
  10
 135.000
  20
 364.176
  30
0.0
  11
 132.500
  21
 365.619
  31
0.0
   0
LINE
   8
LEVEL003
   6
CONTINUOUS
  62
7
  10
 132.500
  20
 365.619
  30
0.0
  11
 132.500
  21
 368.506
  31
0.0
   0
LINE
   8
LEVEL003
   6
CONTINUOUS
  62
7
  10
 132.500
  20
 368.506
  30
0.0
  11
 135.000
  21
 369.949
  31
0.0
   0
CIRCLE
   8
LEVEL003
   6
CONTINUOUS
  62
7
  10
 135.000
  20
 367.063
  30
0.0
  40
 4.86400
   0
CIRCLE
   8
LEVEL003
   6
CONTINUOUS
  62
3
  10
 135.000
  20
 367.063
  30
0.0
  40
 4.28300
   0
LINE
   8
LEVEL003
   6
CONTINUOUS
  62
7
  10
 150.000
  20
 401.872
  30
0.0
  11
 152.000
  21
 400.717
  31
0.0
   0
LINE
   8
LEVEL003
   6
CONTINUOUS
  62
7
  10
 152.000
  20
 400.717
  30
0.0
  11
 152.000
  21
 398.408
  31
0.0
   0
LINE
   8
LEVEL003
   6
CONTINUOUS
  62
7
  10
 152.000
  20
 398.408
  30
0.0
  11
 150.000
  21
 397.253
  31
0.0
   0
LINE
   8
LEVEL003
   6
CONTINUOUS
  62
7
  10
 150.000
  20
 397.253
  30
0.0
  11
 148.000
  21
 398.408
  31
0.0
   0
LINE
   8
LEVEL003
   6
CONTINUOUS
  62
7
  10
 148.000
  20
 398.408
  30
0.0
  11
 148.000
  21
 400.717
  31
0.0
   0
LINE
   8
LEVEL003
   6
CONTINUOUS
  62
7
  10
 148.000
  20
 400.717
  30
0.0
  11
 150.000
  21
 401.872
  31
0.0
   0
CIRCLE
   8
LEVEL003
   6
CONTINUOUS
  62
7
  10
 150.000
  20
 399.563
  30
0.0
  40
 4.00000
   0
CIRCLE
   8
LEVEL003
   6
CONTINUOUS
  62
3
  10
 150.000
  20
 399.563
  30
0.0
  40
 3.37500
   0
ARC
   8
LEVEL003
   6
CONTINUOUS
  62
7
  10
 82.9729
  20
 399.562
  30
0.0
  40
 21.9729
  50
 162.412
  51
 197.588
   0
ARC
   8
LEVEL003
   6
CONTINUOUS
  62
7
  10
 73.0136
  20
 411.063
  30
0.0
  40
 12.0136
  50
 180.000
  51
 203.865
   0
ARC
   8
LEVEL003
   6
CONTINUOUS
  62
7
  10
 73.0136
  20
 388.062
  30
0.0
  40
 12.0136
  50
 156.135
  51
 180.000
   0
LINE
   8
LEVEL001
   6
CONTINUOUS
  62
7
  10
 52.4075
  20
 387.354
  30
0.0
  11
 52.4075
  21
 394.563
  31
0.0
   0
LINE
   8
LEVEL001
   6
CONTINUOUS
  62
7
  10
 52.4075
  20
 404.563
  30
0.0
  11
 52.4075
  21
 411.771
  31
0.0
   0
ARC
   8
LEVEL001
   6
CONTINUOUS
  62
7
  10
 45.4075
  20
 381.978
  30
0.0
  40
 3.00000
  50
 98.5311
  51
 179.999
   0
ARC
   8
LEVEL001
   6
CONTINUOUS
  62
7
  10
 33.1830
  20
 376.705
  30
0.0
  40
 2.00000
  50
 188.884
  51
 270.000
   0
LINE
   8
LEVEL001
   6
CONTINUOUS
  62
7
  10
 30.4075
  20
 382.269
  30
0.0
  11
 30.4075
  21
 416.853
  31
0.0
   0
ARC
   8
LEVEL001
   6
CONTINUOUS
  62
7
  10
 179.407
  20
 399.561
  30
0.0
  40
 150.000
  50
 186.620
  51
 188.884
   0
LINE
   8
LEVEL001
   6
CONTINUOUS
  62
7
  10
 41.4075
  20
 374.705
  30
0.0
  11
 33.1830
  21
 374.705
  31
0.0
   0
ARC
   8
LEVEL001
   6
CONTINUOUS
  62
7
  10
 41.4075
  20
 375.705
  30
0.0
  40
 1.00000
  50
 270.000
  51
0.0
   0
LINE
   8
LEVEL001
   6
CONTINUOUS
  62
7
  10
 42.4075
  20
 375.705
  30
0.0
  11
 42.4075
  21
 399.563
  31
0.0
   0
ARC
   8
LEVEL010
   6
CONTINUOUS
  62
7
  10
 41.4075
  20
 387.089
  30
0.0
  40
 1.00000
  50
 270.000
  51
0.0
   0
ARC
   8
LEVEL010
   6
CONTINUOUS
  62
7
  10
 33.2070
  20
 388.089
  30
0.0
  40
 2.00000
  50
 180.000
  51
 270.000
   0
LINE
   8
LEVEL010
   6
CONTINUOUS
  62
7
  10
 30.4075
  20
 396.063
  30
0.0
  11
 31.2167
  21
 387.892
  31
0.0
   0
ARC
   8
LEVEL010
   6
CONTINUOUS
  62
7
  10
 41.4075
  20
 385.089
  30
0.0
  40
 1.00000
  50
0.0
  51
 90.0000
   0
ARC
   8
LEVEL010
   6
CONTINUOUS
  62
7
  10
 33.2070
  20
 384.089
  30
0.0
  40
 2.00000
  50
 90.0000
  51
 180.000
   0
LINE
   8
LEVEL010
   6
CONTINUOUS
  62
7
  10
 41.4075
  20
 386.089
  30
0.0
  11
 33.2070
  21
 386.089
  31
0.0
   0
LINE
   8
LEVEL010
   6
CONTINUOUS
  62
7
  10
 31.2070
  20
 384.089
  30
0.0
  11
 31.2070
  21
 378.587
  31
0.0
   0
LINE
   8
LEVEL010
   6
CONTINUOUS
  62
7
  10
 41.4075
  20
 396.063
  30
0.0
  11
 33.2070
  21
 396.063
  31
0.0
   0
ARC
   8
LEVEL001
   6
CONTINUOUS
  62
7
  10
 45.4075
  20
 417.145
  30
0.0
  40
 3.00000
  50
 179.999
  51
 261.469
   0
ARC
   8
LEVEL001
   6
CONTINUOUS
  62
7
  10
 41.4075
  20
 423.417
  30
0.0
  40
 1.00000
  50
0.0
  51
 90.0000
   0
ARC
   8
LEVEL001
   6
CONTINUOUS
  62
7
  10
 33.1830
  20
 422.417
  30
0.0
  40
 2.00000
  50
 89.9999
  51
 171.117
   0
LINE
   8
LEVEL001
   6
CONTINUOUS
  62
7
  10
 41.4075
  20
 424.417
  30
0.0
  11
 33.1830
  21
 424.417
  31
0.0
   0
ARC
   8
LEVEL001
   6
CONTINUOUS
  62
7
  10
 179.408
  20
 399.561
  30
0.0
  40
 150.000
  50
 171.116
  51
 173.380
   0
LINE
   8
LEVEL001
   6
CONTINUOUS
  62
7
  10
 42.4075
  20
 399.563
  30
0.0
  11
 42.4075
  21
 423.417
  31
0.0
   0
ARC
   8
LEVEL010
   6
CONTINUOUS
  62
7
  10
 41.4075
  20
 412.036
  30
0.0
  40
 1.00000
  50
0.0
  51
 90.0000
   0
ARC
   8
LEVEL010
   6
CONTINUOUS
  62
7
  10
 33.2070
  20
 411.036
  30
0.0
  40
 2.00000
  50
 90.0000
  51
 180.000
   0
LINE
   8
LEVEL010
   6
CONTINUOUS
  62
7
  10
 30.4075
  20
 403.063
  30
0.0
  11
 31.2167
  21
 411.233
  31
0.0
   0
ARC
   8
LEVEL010
   6
CONTINUOUS
  62
7
  10
 41.4075
  20
 414.036
  30
0.0
  40
 1.00000
  50
 270.000
  51
0.0
   0
ARC
   8
LEVEL010
   6
CONTINUOUS
  62
7
  10
 33.2070
  20
 415.036
  30
0.0
  40
 2.00000
  50
 180.000
  51
 270.000
   0
LINE
   8
LEVEL010
   6
CONTINUOUS
  62
7
  10
 41.4075
  20
 413.036
  30
0.0
  11
 33.2070
  21
 413.036
  31
0.0
   0
LINE
   8
LEVEL010
   6
CONTINUOUS
  62
7
  10
 31.2070
  20
 415.036
  30
0.0
  11
 31.2070
  21
 420.538
  31
0.0
   0
LINE
   8
LEVEL010
   6
CONTINUOUS
  62
7
  10
 41.4075
  20
 403.063
  30
0.0
  11
 33.2070
  21
 403.063
  31
0.0
   0
ARC
   8
LEVEL001
   6
CONTINUOUS
  62
7
  10
 50.4075
  20
 411.339
  30
0.0
  40
 2.00000
  50
 0.768312E-3
  51
 81.4689
   0
LINE
   8
LEVEL001
   6
CONTINUOUS
  62
7
  10
 50.7042
  20
 413.317
  30
0.0
  11
 44.9625
  21
 414.178
  31
0.0
   0
LINE
   8
LEVEL001
   6
CONTINUOUS
  62
7
  10
 52.4075
  20
 399.563
  30
0.0
  11
 52.4075
  21
 411.339
  31
0.0
   0
ARC
   8
LEVEL001
   6
CONTINUOUS
  62
7
  10
 50.4075
  20
 387.784
  30
0.0
  40
 2.00000
  50
 278.531
  51
 0.980216E-3
   0
LINE
   8
LEVEL001
   6
CONTINUOUS
  62
7
  10
 50.7042
  20
 385.806
  30
0.0
  11
 44.9625
  21
 384.944
  31
0.0
   0
LINE
   8
LEVEL001
   6
CONTINUOUS
  62
7
  10
 52.4075
  20
 387.784
  30
0.0
  11
 52.4075
  21
 399.563
  31
0.0
   0
ARC
   8
LEVEL001
   6
CONTINUOUS
  62
7
  10
 179.408
  20
 399.562
  30
0.0
  40
 150.000
  50
 170.951
  51
 189.049
   0
LINE
   8
LEVEL001
   6
CONTINUOUS
  62
7
  10
 52.4075
  20
 393.211
  30
0.0
  11
 61.0000
  21
 393.211
  31
0.0
   0
LINE
   8
LEVEL001
   6
CONTINUOUS
  62
7
  10
 52.4075
  20
 405.911
  30
0.0
  11
 61.0000
  21
 405.911
  31
0.0
   0
LINE
   8
LEVEL001
   6
DASHDOT
  62
1
  10
 26.0067
  20
 399.563
  30
0.0
  11
 160.705
  21
 399.563
  31
0.0
   0
LINE
   8
LEVEL003
   6
CONTINUOUS
  62
7
  10
 68.5000
  20
 386.283
  30
0.0
  11
 62.0271
  21
 386.283
  31
0.0
   0
LINE
   8
LEVEL003
   6
CONTINUOUS
  62
7
  10
 62.0271
  20
 386.283
  30
0.0
  11
 61.0000
  21
 388.063
  31
0.0
   0
LINE
   8
LEVEL003
   6
CONTINUOUS
  62
7
  10
 61.0000
  20
 388.063
  30
0.0
  11
 61.0000
  21
 411.063
  31
0.0
   0
LINE
   8
LEVEL003
   6
CONTINUOUS
  62
7
  10
 61.0000
  20
 411.063
  30
0.0
  11
 62.0271
  21
 412.842
  31
0.0
   0
LINE
   8
LEVEL003
   6
CONTINUOUS
  62
7
  10
 62.0271
  20
 412.842
  30
0.0
  11
 68.5000
  21
 412.842
  31
0.0
   0
LINE
   8
LEVEL003
   6
CONTINUOUS
  62
7
  10
 68.5000
  20
 392.923
  30
0.0
  11
 62.0271
  21
 392.923
  31
0.0
   0
LINE
   8
LEVEL003
   6
CONTINUOUS
  62
7
  10
 68.5000
  20
 406.202
  30
0.0
  11
 62.0271
  21
 406.202
  31
0.0
   0
ARC
   8
LEVEL010
   6
CONTINUOUS
  62
7
  10
 101.500
  20
 501.063
  30
0.0
  40
 2.00000
  50
 270.000
  51
0.0
   0
LINE
   8
LEVEL010
   6
CONTINUOUS
  62
7
  10
 101.500
  20
 478.063
  30
0.0
  11
 104.000
  21
 478.063
  31
0.0
   0
LINE
   8
LEVEL010
   6
CONTINUOUS
  62
7
  10
 101.500
  20
 469.563
  30
0.0
  11
 101.500
  21
 499.063
  31
0.0
   0
ARC
   8
LEVEL010
   6
CONTINUOUS
  62
7
  10
 101.500
  20
 484.688
  30
0.0
  40
 2.00000
  50
 270.000
  51
0.0
   0
LINE
   8
LEVEL010
   6
CONTINUOUS
  62
7
  10
 101.500
  20
 484.063
  30
0.0
  11
 96.5000
  21
 484.063
  31
0.0
   0
LINE
   8
LEVEL010
   6
CONTINUOUS
  62
7
  10
 96.5000
  20
 484.063
  30
0.0
  11
 96.5000
  21
 494.063
  31
0.0
   0
LINE
   8
LEVEL010
   6
CONTINUOUS
  62
7
  10
 96.5000
  20
 494.063
  30
0.0
  11
 101.500
  21
 494.063
  31
0.0
   0
LINE
   8
LEVEL010
   6
CONTINUOUS
  62
7
  10
 96.5000
  20
 484.063
  30
0.0
  11
 95.5000
  21
 485.063
  31
0.0
   0
LINE
   8
LEVEL010
   6
CONTINUOUS
  62
7
  10
 95.5000
  20
 485.063
  30
0.0
  11
 95.5000
  21
 493.063
  31
0.0
   0
LINE
   8
LEVEL010
   6
CONTINUOUS
  62
7
  10
 95.5000
  20
 493.063
  30
0.0
  11
 96.5000
  21
 494.063
  31
0.0
   0
ARC
   8
LEVEL010
   6
CONTINUOUS
  62
7
  10
 138.500
  20
 501.063
  30
0.0
  40
 2.00000
  50
 180.000
  51
 270.000
   0
LINE
   8
LEVEL010
   6
CONTINUOUS
  62
7
  10
 136.000
  20
 478.063
  30
0.0
  11
 138.500
  21
 478.063
  31
0.0
   0
LINE
   8
LEVEL010
   6
CONTINUOUS
  62
7
  10
 138.500
  20
 469.563
  30
0.0
  11
 138.500
  21
 499.063
  31
0.0
   0
ARC
   8
LEVEL010
   6
CONTINUOUS
  62
7
  10
 138.500
  20
 484.688
  30
0.0
  40
 2.00000
  50
 180.000
  51
 270.000
   0
LINE
   8
LEVEL010
   6
CONTINUOUS
  62
7
  10
 138.500
  20
 494.063
  30
0.0
  11
 143.500
  21
 494.063
  31
0.0
   0
LINE
   8
LEVEL010
   6
CONTINUOUS
  62
7
  10
 143.500
  20
 494.063
  30
0.0
  11
 143.500
  21
 484.063
  31
0.0
   0
LINE
   8
LEVEL010
   6
CONTINUOUS
  62
7
  10
 143.500
  20
 484.063
  30
0.0
  11
 138.500
  21
 484.063
  31
0.0
   0
LINE
   8
LEVEL010
   6
CONTINUOUS
  62
7
  10
 143.500
  20
 494.063
  30
0.0
  11
 144.500
  21
 493.063
  31
0.0
   0
LINE
   8
LEVEL010
   6
CONTINUOUS
  62
7
  10
 144.500
  20
 493.063
  30
0.0
  11
 144.500
  21
 485.063
  31
0.0
   0
LINE
   8
LEVEL010
   6
CONTINUOUS
  62
7
  10
 144.500
  20
 485.063
  30
0.0
  11
 143.500
  21
 484.063
  31
0.0
   0
ARC
   8
LEVEL010
   6
CONTINUOUS
  62
7
  10
 136.500
  20
 469.563
  30
0.0
  40
 2.00000
  50
 270.000
  51
0.0
   0
LINE
   8
LEVEL010
   6
CONTINUOUS
  62
7
  10
 136.000
  20
 467.563
  30
0.0
  11
 136.500
  21
 467.563
  31
0.0
   0
ARC
   8
LEVEL010
   6
CONTINUOUS
  62
7
  10
 103.500
  20
 469.563
  30
0.0
  40
 2.00000
  50
 180.000
  51
 270.000
   0
LINE
   8
LEVEL010
   6
CONTINUOUS
  62
7
  10
 110.500
  20
 498.694
  30
0.0
  11
 110.500
  21
 505.143
  31
0.0
   0
LINE
   8
LEVEL010
   6
CONTINUOUS
  62
7
  10
 110.500
  20
 505.143
  30
0.0
  11
 129.500
  21
 505.143
  31
0.0
   0
LINE
   8
LEVEL010
   6
CONTINUOUS
  62
7
  10
 129.500
  20
 505.143
  30
0.0
  11
 129.500
  21
 498.694
  31
0.0
   0
LINE
   8
LEVEL010
   6
CONTINUOUS
  62
7
  10
 104.000
  20
 478.063
  30
0.0
  11
 110.500
  21
 482.705
  31
0.0
   0
LINE
   8
LEVEL010
   6
CONTINUOUS
  62
7
  10
 136.000
  20
 478.063
  30
0.0
  11
 129.500
  21
 482.705
  31
0.0
   0
LINE
   8
LEVEL001
   6
DASHDOT
  62
1
  10
 92.7384
  20
 489.063
  30
0.0
  11
 147.391
  21
 489.063
  31
0.0
   0
LINE
   8
LEVEL010
   6
CONTINUOUS
  62
7
  10
 104.000
  20
 467.563
  30
0.0
  11
 103.500
  21
 467.563
  31
0.0
   0
LINE
   8
LEVEL001
   6
DASHDOT
  62
1
  10
 99.0000
  20
 497.014
  30
0.0
  11
 99.0000
  21
 483.436
  31
0.0
   0
LINE
   8
LEVEL001
   6
CONTINUOUS
  62
7
  10
 99.8000
  20
 495.312
  30
0.0
  11
 99.8000
  21
 494.063
  31
0.0
   0
LINE
   8
LEVEL001
   6
CONTINUOUS
  62
7
  10
 98.2000
  20
 495.312
  30
0.0
  11
 98.2000
  21
 494.063
  31
0.0
   0
ARC
   8
LEVEL001
   6
CONTINUOUS
  62
7
  10
 99.0000
  20
 495.312
  30
0.0
  40
 0.800000
  50
0.0
  51
 180.000
   0
LINE
   8
LEVEL001
   6
CONTINUOUS
  62
7
  10
 99.8000
  20
 486.437
  30
0.0
  11
 99.8000
  21
 492.837
  31
0.0
   0
LINE
   8
LEVEL001
   6
CONTINUOUS
  62
7
  10
 98.2000
  20
 492.837
  30
0.0
  11
 98.2000
  21
 486.437
  31
0.0
   0
ARC
   8
LEVEL001
   6
CONTINUOUS
  62
7
  10
 99.0000
  20
 492.837
  30
0.0
  40
 0.800000
  50
0.0
  51
 180.000
   0
ARC
   8
LEVEL001
   6
CONTINUOUS
  62
7
  10
 99.0000
  20
 486.437
  30
0.0
  40
 0.800000
  50
 180.000
  51
0.0
   0
LINE
   8
LEVEL001
   6
CONTINUOUS
  62
7
  10
 101.250
  20
 484.063
  30
0.0
  11
 101.250
  21
 474.063
  31
0.0
   0
LINE
   8
LEVEL001
   6
CONTINUOUS
  62
7
  10
 101.250
  20
 474.063
  30
0.0
  11
 101.500
  21
 474.063
  31
0.0
   0
LINE
   8
LEVEL001
   6
CONTINUOUS
  62
7
  10
 101.250
  20
 474.063
  30
0.0
  11
 100.250
  21
 475.063
  31
0.0
   0
LINE
   8
LEVEL001
   6
CONTINUOUS
  62
7
  10
 100.250
  20
 483.063
  30
0.0
  11
 100.250
  21
 475.063
  31
0.0
   0
LINE
   8
LEVEL001
   6
CONTINUOUS
  62
7
  10
 101.250
  20
 484.063
  30
0.0
  11
 100.250
  21
 483.063
  31
0.0
   0
LINE
   8
LEVEL003
   6
DASHDOT
  62
1
  10
 97.0528
  20
 479.063
  30
0.0
  11
 142.053
  21
 479.063
  31
0.0
   0
LINE
   8
LEVEL001
   6
DASHDOT
  62
1
  10
 141.000
  20
 497.014
  30
0.0
  11
 141.000
  21
 483.436
  31
0.0
   0
LINE
   8
LEVEL001
   6
CONTINUOUS
  62
7
  10
 141.800
  20
 495.312
  30
0.0
  11
 141.800
  21
 494.063
  31
0.0
   0
ARC
   8
LEVEL001
   6
CONTINUOUS
  62
7
  10
 141.000
  20
 495.312
  30
0.0
  40
 0.800000
  50
0.0
  51
 180.000
   0
LINE
   8
LEVEL001
   6
CONTINUOUS
  62
7
  10
 140.200
  20
 495.312
  30
0.0
  11
 140.200
  21
 494.063
  31
0.0
   0
LINE
   8
LEVEL001
   6
CONTINUOUS
  62
7
  10
 140.200
  20
 486.437
  30
0.0
  11
 140.200
  21
 492.837
  31
0.0
   0
LINE
   8
LEVEL001
   6
CONTINUOUS
  62
7
  10
 141.800
  20
 492.837
  30
0.0
  11
 141.800
  21
 486.437
  31
0.0
   0
ARC
   8
LEVEL001
   6
CONTINUOUS
  62
7
  10
 141.000
  20
 492.837
  30
0.0
  40
 0.800000
  50
0.0
  51
 180.000
   0
ARC
   8
LEVEL001
   6
CONTINUOUS
  62
7
  10
 141.000
  20
 486.437
  30
0.0
  40
 0.800000
  50
 180.000
  51
0.0
   0
LINE
   8
LEVEL001
   6
CONTINUOUS
  62
7
  10
 138.750
  20
 484.063
  30
0.0
  11
 138.750
  21
 474.063
  31
0.0
   0
LINE
   8
LEVEL001
   6
CONTINUOUS
  62
7
  10
 138.750
  20
 484.063
  30
0.0
  11
 139.750
  21
 483.063
  31
0.0
   0
LINE
   8
LEVEL001
   6
CONTINUOUS
  62
7
  10
 138.750
  20
 474.063
  30
0.0
  11
 138.500
  21
 474.063
  31
0.0
   0
LINE
   8
LEVEL001
   6
CONTINUOUS
  62
7
  10
 138.750
  20
 474.063
  30
0.0
  11
 139.750
  21
 475.063
  31
0.0
   0
LINE
   8
LEVEL001
   6
CONTINUOUS
  62
7
  10
 139.750
  20
 483.063
  30
0.0
  11
 139.750
  21
 475.063
  31
0.0
   0
LINE
   8
LEVEL001
   6
CONTINUOUS
  62
7
  10
 169.611
  20
 427.538
  30
0.0
  11
 153.794
  21
 433.769
  31
0.0
   0
LINE
   8
LEVEL001
   6
CONTINUOUS
  62
7
  10
 150.291
  20
 424.878
  30
0.0
  11
 153.794
  21
 433.769
  31
0.0
   0
LINE
   8
LEVEL001
   6
CONTINUOUS
  62
7
  10
 153.794
  20
 433.769
  30
0.0
  11
 154.515
  21
 434.129
  31
0.0
   0
LINE
   8
LEVEL001
   6
CONTINUOUS
  62
7
  10
 154.515
  20
 434.129
  30
0.0
  11
 169.329
  21
 428.294
  31
0.0
   0
LINE
   8
LEVEL001
   6
CONTINUOUS
  62
7
  10
 169.329
  20
 428.294
  30
0.0
  11
 169.611
  21
 427.538
  31
0.0
   0
LINE
   8
LEVEL001
   6
CONTINUOUS
  62
7
  10
 169.611
  20
 427.538
  30
0.0
  11
 166.109
  21
 418.647
  31
0.0
   0
ARC
   8
LEVEL001
   6
CONTINUOUS
  62
7
  10
 120.000
  20
 400.062
  30
0.0
  40
 41.5000
  50
 41.1146
  51
 53.8173
   0
ARC
   8
LEVEL001
   6
CONTINUOUS
  62
7
  10
 120.000
  20
 499.169
  30
0.0
  40
 18.2500
  50
 154.704
  51
 180.000
   0
ARC
   8
LEVEL001
   6
CONTINUOUS
  62
7
  10
 120.000
  20
 498.542
  30
0.0
  40
 18.2500
  50
 154.704
  51
 178.031
   0
ARC
   8
LEVEL001
   6
CONTINUOUS
  62
7
  10
 120.000
  20
 499.169
  30
0.0
  40
 18.2500
  50
 0.142768E-11
  51
 25.2964
   0
ARC
   8
LEVEL001
   6
CONTINUOUS
  62
7
  10
 120.000
  20
 498.542
  30
0.0
  40
 18.2500
  50
 1.96882
  51
 25.2964
   0
ARC
   8
LEVEL001
   6
CONTINUOUS
  62
7
  10
 120.000
  20
 499.169
  30
0.0
  40
 18.2500
  50
 51.6775
  51
 128.323
   0
ARC
   8
LEVEL001
   6
CONTINUOUS
  62
7
  10
 120.000
  20
 498.542
  30
0.0
  40
 18.2500
  50
 102.661
  51
 125.026
   0
ARC
   8
LEVEL001
   6
CONTINUOUS
  62
7
  10
 120.000
  20
 498.542
  30
0.0
  40
 18.2500
  50
 54.9737
  51
 77.3392
   0
LINE
   8
LEVEL001
   6
CONTINUOUS
  62
7
  10
 124.000
  20
 516.975
  30
0.0
  11
 124.000
  21
 515.486
  31
0.0
   0
ARC
   8
LEVEL001
   6
CONTINUOUS
  62
7
  10
 126.000
  20
 515.486
  30
0.0
  40
 2.00000
  50
 180.000
  51
 270.000
   0
LINE
   8
LEVEL001
   6
CONTINUOUS
  62
7
  10
 116.000
  20
 515.486
  30
0.0
  11
 116.000
  21
 516.975
  31
0.0
   0
ARC
   8
LEVEL001
   6
CONTINUOUS
  62
7
  10
 114.000
  20
 515.486
  30
0.0
  40
 2.00000
  50
 270.000
  51
 0.286606E-9
   0
ARC
   8
LEVEL010
   6
CONTINUOUS
  62
7
  10
 135.500
  20
 507.063
  30
0.0
  40
 1.00000
  50
0.0
  51
 90.0000
   0
ARC
   8
LEVEL010
   6
CONTINUOUS
  62
7
  10
 135.500
  20
 508.063
  30
0.0
  40
 1.00000
  50
0.0
  51
 90.0000
   0
ARC
   8
LEVEL010
   6
CONTINUOUS
  62
7
  10
 104.500
  20
 507.063
  30
0.0
  40
 1.00000
  50
 90.0000
  51
 180.000
   0
LINE
   8
LEVEL010
   6
CONTINUOUS
  62
7
  10
 104.500
  20
 508.063
  30
0.0
  11
 135.500
  21
 508.063
  31
0.0
   0
ARC
   8
LEVEL010
   6
CONTINUOUS
  62
7
  10
 104.500
  20
 508.063
  30
0.0
  40
 1.00000
  50
 90.0000
  51
 180.000
   0
LINE
   8
LEVEL010
   6
CONTINUOUS
  62
7
  10
 104.500
  20
 509.063
  30
0.0
  11
 135.500
  21
 509.063
  31
0.0
   0
LINE
   8
LEVEL010
   6
CONTINUOUS
  62
7
  10
 136.500
  20
 512.486
  30
0.0
  11
 136.500
  21
 484.688
  31
0.0
   0
ARC
   8
LEVEL010
   6
CONTINUOUS
  62
7
  10
 135.500
  20
 512.486
  30
0.0
  40
 1.00000
  50
0.0
  51
 90.0000
   0
LINE
   8
LEVEL001
   6
CONTINUOUS
  62
7
  10
 135.500
  20
 513.486
  30
0.0
  11
 126.000
  21
 513.486
  31
0.0
   0
LINE
   8
LEVEL010
   6
CONTINUOUS
  62
7
  10
 103.500
  20
 484.688
  30
0.0
  11
 103.500
  21
 512.486
  31
0.0
   0
ARC
   8
LEVEL010
   6
CONTINUOUS
  62
7
  10
 104.500
  20
 512.486
  30
0.0
  40
 1.00000
  50
 90.0000
  51
 180.000
   0
LINE
   8
LEVEL001
   6
CONTINUOUS
  62
7
  10
 114.000
  20
 513.486
  30
0.0
  11
 104.500
  21
 513.486
  31
0.0
   0
LINE
   8
LEVEL001
   6
DASHDOT
  62
1
  10
 120.000
  20
 552.143
  30
0.0
  11
 120.000
  21
 325.063
  31
0.0
   0
LINE
   8
LEVEL001
   6
DASHDOT
  62
1
  10
 70.0000
  20
 424.063
  30
0.0
  11
 120.000
  21
 424.063
  31
0.0
   0
ARC
   8
LEVEL001
   6
CONTINUOUS
  62
7
  10
 69.0000
  20
 361.063
  30
0.0
  40
 15.0000
  50
 270.000
  51
0.0
   0
LINE
   8
LEVEL001
   6
CONTINUOUS
  62
7
  10
 56.0000
  20
 346.063
  30
0.0
  11
 69.0000
  21
 346.063
  31
0.0
   0
ARC
   8
LEVEL001
   6
CONTINUOUS
  62
7
  10
 56.0000
  20
 345.063
  30
0.0
  40
 1.00000
  50
 90.0000
  51
 180.000
   0
ARC
   8
LEVEL001
   6
CONTINUOUS
  62
7
  10
 171.000
  20
 361.063
  30
0.0
  40
 15.0000
  50
 180.000
  51
 270.000
   0
LINE
   8
LEVEL001
   6
CONTINUOUS
  62
7
  10
 184.000
  20
 346.063
  30
0.0
  11
 171.000
  21
 346.063
  31
0.0
   0
ARC
   8
LEVEL001
   6
CONTINUOUS
  62
7
  10
 184.000
  20
 345.063
  30
0.0
  40
 1.00000
  50
0.0
  51
 90.0000
   0
LINE
   8
LEVEL001
   6
CONTINUOUS
  62
7
  10
 84.0000
  20
 369.554
  30
0.0
  11
 84.0000
  21
 361.063
  31
0.0
   0
LINE
   8
LEVEL001
   6
CONTINUOUS
  62
7
  10
 156.000
  20
 373.925
  30
0.0
  11
 156.000
  21
 361.063
  31
0.0
   0
ARC
   8
LEVEL001
   6
CONTINUOUS
  62
7
  10
 120.000
  20
 424.063
  30
0.0
  40
 44.0000
  50
 8.52460
  51
 52.9672
   0
ARC
   8
LEVEL001
   6
CONTINUOUS
  62
7
  10
 120.000
  20
 424.062
  30
0.0
  40
 47.0000
  50
 6.43264
  51
 55.6789
   0
ARC
   8
LEVEL001
   6
CONTINUOUS
  62
7
  10
 120.000
  20
 424.062
  30
0.0
  40
 47.0000
  50
 60.7318
  51
 69.2277
   0
ARC
   8
LEVEL001
   6
CONTINUOUS
  62
7
  10
 120.000
  20
 424.062
  30
0.0
  40
 47.0000
  50
 111.649
  51
 119.268
   0
LINE
   8
LEVEL001
   6
CONTINUOUS
  62
7
  10
 185.000
  20
 345.063
  30
0.0
  11
 185.000
  21
 344.063
  31
0.0
   0
ARC
   8
LEVEL001
   6
CONTINUOUS
  62
7
  10
 117.503
  20
 520.785
  30
0.0
  40
 16.0000
  50
 28.2393
  51
 188.602
   0
ARC
   8
LEVEL001
   6
CONTINUOUS
  62
7
  10
 129.837
  20
 527.410
  30
0.0
  40
 2.00000
  50
 272.862
  51
 28.2393
   0
ARC
   8
LEVEL001
   6
CONTINUOUS
  62
7
  10
 120.000
  20
 521.208
  30
0.0
  40
 10.7500
  50
0.0
  51
 180.000
   0
LINE
   8
LEVEL001
   6
CONTINUOUS
  62
7
  10
 101.683
  20
 518.392
  30
0.0
  11
 103.500
  21
 506.381
  31
0.0
   0
ARC
   8
LEVEL001
   6
CONTINUOUS
  62
7
  10
 120.000
  20
 522.638
  30
0.0
  40
 13.5000
  50
 322.778
  51
 76.8153
   0
ARC
   8
LEVEL001
   6
CONTINUOUS
  62
7
  10
 120.000
  20
 526.912
  30
0.0
  40
 13.5000
  50
 349.023
  51
 148.163
   0
LINE
   8
LEVEL001
   6
CONTINUOUS
  62
7
  10
 109.250
  20
 521.208
  30
0.0
  11
 109.250
  21
 513.917
  31
0.0
   0
LINE
   8
LEVEL001
   6
CONTINUOUS
  62
7
  10
 130.750
  20
 521.208
  30
0.0
  11
 130.750
  21
 513.917
  31
0.0
   0
LINE
   8
LEVEL001
   6
DASHDOT
  62
1
  10
 110.252
  20
 345.175
  30
0.0
  11
 70.0280
  21
 455.690
  31
0.0
   0
ARC
   8
LEVEL001
   6
CONTINUOUS
  62
7
  10
 120.000
  20
 424.062
  30
0.0
  40
 47.0000
  50
 124.321
  51
 147.568
   0
ARC
   8
LEVEL001
   6
CONTINUOUS
  62
7
  10
 120.000
  20
 424.062
  30
0.0
  40
 44.0000
  50
 127.033
  51
 146.750
   0
LINE
   8
LEVEL001
   6
CONTINUOUS
  62
7
  10
 82.6519
  20
 435.354
  30
0.0
  11
 79.7510
  21
 443.324
  31
0.0
   0
LINE
   8
LEVEL001
   6
CONTINUOUS
  62
7
  10
 73.4288
  20
 431.997
  30
0.0
  11
 70.5279
  21
 439.968
  31
0.0
   0
ARC
   8
LEVEL001
   6
CONTINUOUS
  62
7
  10
 80.4345
  20
 427.098
  30
0.0
  40
 16.2408
  50
 92.4120
  51
 127.588
   0
ARC
   8
LEVEL001
   6
CONTINUOUS
  62
7
  10
 72.7453
  20
 448.224
  30
0.0
  40
 16.2408
  50
 272.412
  51
 307.588
   0
ARC
   8
LEVEL001
   6
CONTINUOUS
  62
7
  10
 83.2504
  20
 444.214
  30
0.0
  40
 8.87961
  50
 266.135
  51
 290.000
   0
ARC
   8
LEVEL001
   6
CONTINUOUS
  62
7
  10
 85.9042
  20
 436.922
  30
0.0
  40
 8.87961
  50
 110.000
  51
 133.865
   0
ARC
   8
LEVEL001
   6
CONTINUOUS
  62
7
  10
 69.9294
  20
 431.108
  30
0.0
  40
 8.87961
  50
 86.1351
  51
 110.000
   0
ARC
   8
LEVEL001
   6
CONTINUOUS
  62
7
  10
 67.2756
  20
 438.399
  30
0.0
  40
 8.87961
  50
 290.000
  51
 313.865
   0
LINE
   8
LEVEL001
   6
CONTINUOUS
  62
7
  10
 70.3126
  20
 430.055
  30
0.0
  11
 68.8173
  21
 430.319
  31
0.0
   0
LINE
   8
LEVEL001
   6
CONTINUOUS
  62
7
  10
 68.8173
  20
 430.319
  30
0.0
  11
 65.9164
  21
 438.289
  31
0.0
   0
LINE
   8
LEVEL001
   6
CONTINUOUS
  62
7
  10
 65.9164
  20
 438.289
  30
0.0
  11
 66.8924
  21
 439.452
  31
0.0
   0
LINE
   8
LEVEL001
   6
CONTINUOUS
  62
7
  10
 66.8924
  20
 439.452
  30
0.0
  11
 82.8672
  21
 445.267
  31
0.0
   0
LINE
   8
LEVEL001
   6
CONTINUOUS
  62
7
  10
 82.8672
  20
 445.267
  30
0.0
  11
 84.3625
  21
 445.003
  31
0.0
   0
LINE
   8
LEVEL001
   6
CONTINUOUS
  62
7
  10
 84.3625
  20
 445.003
  30
0.0
  11
 87.2634
  21
 437.033
  31
0.0
   0
LINE
   8
LEVEL001
   6
CONTINUOUS
  62
7
  10
 87.2634
  20
 437.033
  30
0.0
  11
 86.2874
  21
 435.870
  31
0.0
   0
ARC
   8
LEVEL001
   6
CONTINUOUS
  62
7
  10
 74.8798
  20
 442.359
  30
0.0
  40
 7.50000
  50
 20.0000
  51
 200.000
   0
LINE
   8
LEVEL003
   6
CONTINUOUS
  62
7
  10
 67.8885
  20
 432.871
  30
0.0
  11
 67.0315
  21
 431.849
  31
0.0
   0
LINE
   8
LEVEL003
   6
CONTINUOUS
  62
7
  10
 67.0315
  20
 431.849
  30
0.0
  11
 68.5000
  21
 427.815
  31
0.0
   0
LINE
   8
LEVEL003
   6
CONTINUOUS
  62
7
  10
 88.6081
  20
 436.714
  30
0.0
  11
 87.6477
  21
 439.353
  31
0.0
   0
LINE
   8
LEVEL003
   6
CONTINUOUS
  62
7
  10
 87.6477
  20
 439.353
  30
0.0
  11
 86.3346
  21
 439.585
  31
0.0
   0
ARC
   8
LEVEL001
   6
CONTINUOUS
  62
7
  10
 73.4582
  20
 446.265
  30
0.0
  40
 7.50000
  50
 20.0000
  51
 200.000
   0
LINE
   8
LEVEL001
   6
CONTINUOUS
  62
7
  10
 67.5918
  20
 444.130
  30
0.0
  11
 65.4708
  21
 443.358
  31
0.0
   0
LINE
   8
LEVEL001
   6
CONTINUOUS
  62
7
  10
 65.4708
  20
 443.358
  30
0.0
  11
 64.4948
  21
 442.195
  31
0.0
   0
LINE
   8
LEVEL001
   6
CONTINUOUS
  62
7
  10
 64.4948
  20
 442.195
  30
0.0
  11
 65.9164
  21
 438.289
  31
0.0
   0
LINE
   8
LEVEL001
   6
CONTINUOUS
  62
7
  10
 84.3625
  20
 445.003
  30
0.0
  11
 82.9409
  21
 448.909
  31
0.0
   0
LINE
   8
LEVEL001
   6
CONTINUOUS
  62
7
  10
 82.9409
  20
 448.909
  30
0.0
  11
 81.4455
  21
 449.173
  31
0.0
   0
LINE
   8
LEVEL001
   6
CONTINUOUS
  62
7
  10
 81.4455
  20
 449.173
  30
0.0
  11
 79.3245
  21
 448.401
  31
0.0
   0
ARC
   8
LEVEL001
   6
CONTINUOUS
  62
7
  10
 84.4826
  20
 440.828
  30
0.0
  40
 8.87961
  50
 116.425
  51
 123.660
   0
ARC
   8
LEVEL001
   6
CONTINUOUS
  62
7
  10
 68.5078
  20
 435.014
  30
0.0
  40
 8.87961
  50
 96.3397
  51
 103.575
   0
LINE
   8
LEVEL001
   6
CONTINUOUS
  62
7
  10
 93.6318
  20
 405.078
  30
0.0
  11
 98.9007
  21
 389.063
  31
0.0
   0
LINE
   8
LEVEL001
   6
CONTINUOUS
  62
7
  10
 55.0000
  20
 345.063
  30
0.0
  11
 55.0000
  21
 344.063
  31
0.0
   0
LINE
   8
LEVEL001
   6
CONTINUOUS
  62
7
  10
 55.0000
  20
 335.063
  30
0.0
  11
 55.0000
  21
 344.063
  31
0.0
   0
LINE
   8
LEVEL001
   6
CONTINUOUS
  62
7
  10
 55.0000
  20
 344.063
  30
0.0
  11
 215.000
  21
 344.063
  31
0.0
   0
LINE
   8
LEVEL001
   6
CONTINUOUS
  62
7
  10
 215.000
  20
 344.063
  30
0.0
  11
 215.000
  21
 335.063
  31
0.0
   0
LINE
   8
LEVEL001
   6
CONTINUOUS
  62
7
  10
 215.000
  20
 335.063
  30
0.0
  11
 55.0000
  21
 335.063
  31
0.0
   0
LINE
   8
LEVEL003
   6
CONTINUOUS
  62
3
  10
 29.4075
  20
 395.563
  30
0.0
  11
 29.4075
  21
 287.063
  31
0.0
   0
LINE
   8
LEVEL003
   6
CONTINUOUS
  62
3
  10
 215.000
  20
 331.063
  30
0.0
  11
 215.000
  21
 287.063
  31
0.0
   0
LINE
   8
LEVEL003
   6
CONTINUOUS
  62
3
  10
 29.4075
  20
 295.063
  30
0.0
  11
 215.000
  21
 295.063
  31
0.0
   0
LINE
   8
LEVEL003
   6
CONTINUOUS
  62
3
  10
 29.4075
  20
 295.063
  30
0.0
  11
 41.4075
  21
 292.947
  31
0.0
   0
LINE
   8
LEVEL003
   6
CONTINUOUS
  62
3
  10
 29.4075
  20
 295.063
  30
0.0
  11
 41.4075
  21
 297.178
  31
0.0
   0
LINE
   8
LEVEL003
   6
CONTINUOUS
  62
3
  10
 215.000
  20
 295.063
  30
0.0
  11
 203.000
  21
 297.178
  31
0.0
   0
LINE
   8
LEVEL003
   6
CONTINUOUS
  62
3
  10
 215.000
  20
 295.063
  30
0.0
  11
 203.000
  21
 292.947
  31
0.0
   0
TEXT
   8
LEVEL003
  62
3
  10
 102.204
  20
 298.262
  30
0.0
  40
 16.0000
   1
約185
   7
STANDARD
  72
1
  11
 122.204
  21
 298.262
  31
0.0
   0
LINE
   8
LEVEL001
   6
CONTINUOUS
  62
7
  10
 288.118
  20
 344.057
  30
0.0
  11
 338.086
  21
 345.833
  31
0.0
   0
LINE
   8
LEVEL001
   6
CONTINUOUS
  62
7
  10
 338.086
  20
 345.833
  30
0.0
  11
 338.406
  21
 336.839
  31
0.0
   0
LINE
   8
LEVEL001
   6
CONTINUOUS
  62
7
  10
 338.406
  20
 336.839
  30
0.0
  11
 288.438
  21
 335.062
  31
0.0
   0
LINE
   8
LEVEL001
   6
CONTINUOUS
  62
7
  10
 288.438
  20
 335.062
  30
0.0
  11
 288.118
  21
 344.057
  31
0.0
   0
LINE
   8
LEVEL003
   6
CONTINUOUS
  62
7
  10
 328.290
  20
 466.562
  30
0.0
  11
 329.325
  21
 465.598
  31
0.0
   0
LINE
   8
LEVEL001
   6
CONTINUOUS
  62
7
  10
 268.310
  20
 476.780
  30
0.0
  11
 266.837
  21
 468.911
  31
0.0
   0
LINE
   8
LEVEL001
   6
CONTINUOUS
  62
7
  10
 329.325
  20
 465.598
  30
0.0
  11
 329.716
  21
 454.605
  31
0.0
   0
ARC
   8
LEVEL001
   6
CONTINUOUS
  62
7
  10
 329.839
  20
 451.143
  30
0.0
  40
 2.00000
  50
 122.036
  51
 182.036
   0
ARC
   8
LEVEL001
   6
CONTINUOUS
  62
7
  10
 327.717
  20
 454.534
  30
0.0
  40
 2.00000
  50
 302.036
  51
 2.03633
   0
ARC
   8
LEVEL001
   6
CONTINUOUS
  62
7
  10
 332.945
  20
 448.215
  30
0.0
  40
 5.00000
  50
 182.036
  51
 272.036
   0
LINE
   8
LEVEL001
   6
CONTINUOUS
  62
7
  10
 327.840
  20
 451.072
  30
0.0
  11
 327.948
  21
 448.038
  31
0.0
   0
ARC
   8
LEVEL001
   6
CONTINUOUS
  62
7
  10
 283.851
  20
 351.476
  30
0.0
  40
 4.00000
  50
 2.03633
  51
 92.0363
   0
ARC
   8
LEVEL001
   6
CONTINUOUS
  62
7
  10
 341.711
  20
 356.469
  30
0.0
  40
 4.00000
  50
 92.0363
  51
 182.036
   0
LINE
   8
LEVEL001
   6
CONTINUOUS
  62
7
  10
 273.645
  20
 357.117
  30
0.0
  11
 273.216
  21
 369.175
  31
0.0
   0
ARC
   8
LEVEL001
   6
CONTINUOUS
  62
7
  10
 275.643
  20
 357.188
  30
0.0
  40
 2.00000
  50
 182.036
  51
 272.036
   0
LINE
   8
LEVEL001
   6
CONTINUOUS
  62
7
  10
 283.709
  20
 355.473
  30
0.0
  11
 275.714
  21
 355.189
  31
0.0
   0
ARC
   8
LEVEL001
   6
CONTINUOUS
  62
7
  10
 269.218
  20
 369.033
  30
0.0
  40
 4.00000
  50
 2.03632
  51
 92.0363
   0
ARC
   8
LEVEL001
   6
CONTINUOUS
  62
7
  10
 280.150
  20
 399.302
  30
0.0
  40
 28.7500
  50
 246.132
  51
 254.013
   0
ARC
   8
LEVEL001
   6
CONTINUOUS
  62
7
  10
 265.548
  20
 472.893
  30
0.0
  40
 2.00000
  50
 349.401
  51
 13.6914
   0
LINE
   8
LEVEL001
   6
CONTINUOUS
  62
7
  10
 267.490
  20
 473.406
  30
0.0
  11
 261.463
  21
 473.191
  31
0.0
   0
LINE
   8
LEVEL003
   6
CONTINUOUS
  62
7
  10
 277.322
  20
 464.749
  30
0.0
  11
 276.358
  21
 463.715
  31
0.0
   0
LINE
   8
LEVEL001
   6
CONTINUOUS
  62
7
  10
 276.358
  20
 463.715
  30
0.0
  11
 273.860
  21
 463.626
  31
0.0
   0
ARC
   8
LEVEL001
   6
CONTINUOUS
  62
7
  10
 273.718
  20
 467.623
  30
0.0
  40
 4.00000
  50
 139.627
  51
 272.036
   0
LINE
   8
LEVEL001
   6
CONTINUOUS
  62
7
  10
 333.123
  20
 443.219
  30
0.0
  11
 340.618
  21
 443.485
  31
0.0
   0
LINE
   8
LEVEL001
   6
CONTINUOUS
  62
7
  10
 341.568
  20
 360.466
  30
0.0
  11
 343.567
  21
 360.538
  31
0.0
   0
LINE
   8
LEVEL001
   6
CONTINUOUS
  62
7
  10
 337.713
  20
 356.327
  30
0.0
  11
 338.086
  21
 345.833
  31
0.0
   0
LINE
   8
LEVEL001
   6
CONTINUOUS
  62
7
  10
 270.728
  20
 470.281
  30
0.0
  11
 277.376
  21
 477.760
  31
0.0
   0
ARC
   8
LEVEL001
   6
CONTINUOUS
  62
7
  10
 271.259
  20
 476.228
  30
0.0
  40
 3.00000
  50
 156.074
  51
 169.401
   0
LINE
   8
LEVEL001
   6
DASHDOT
  62
1
  10
 294.425
  20
 382.305
  30
0.0
  11
 328.141
  21
 383.504
  31
0.0
   0
LINE
   8
LEVEL001
   6
DASHDOT
  62
1
  10
 298.589
  20
 387.273
  30
0.0
  11
 298.955
  21
 376.979
  31
0.0
   0
LINE
   8
LEVEL001
   6
DASHDOT
  62
1
  10
 301.756
  20
 495.197
  30
0.0
  11
 303.862
  21
 435.952
  31
0.0
   0
LINE
   8
LEVEL001
   6
DASHDOT
  62
1
  10
 241.118
  20
 397.921
  30
0.0
  11
 286.595
  21
 399.538
  31
0.0
   0
LINE
   8
LEVEL003
   6
CONTINUOUS
  62
7
  10
 247.380
  20
 420.388
  30
0.0
  11
 249.089
  21
 372.320
  31
0.0
   0
ARC
   8
LEVEL001
   6
CONTINUOUS
  62
7
  10
 273.736
  20
 467.123
  30
0.0
  40
 25.0000
  50
 139.627
  51
 182.036
   0
LINE
   8
LEVEL001
   6
CONTINUOUS
  62
7
  10
 250.239
  20
 424.408
  30
0.0
  11
 248.751
  21
 466.235
  31
0.0
   0
LINE
   8
LEVEL001
   6
CONTINUOUS
  62
7
  10
 249.089
  20
 372.320
  30
0.0
  11
 269.076
  21
 373.030
  31
0.0
   0
ARC
   8
LEVEL001
   6
CONTINUOUS
  62
7
  10
 246.241
  20
 424.266
  30
0.0
  40
 4.00000
  50
 286.361
  51
 2.03632
   0
LINE
   8
LEVEL001
   6
CONTINUOUS
  62
7
  10
 255.234
  20
 483.958
  30
0.0
  11
 254.690
  21
 483.317
  31
0.0
   0
LINE
   8
LEVEL001
   6
CONTINUOUS
  62
7
  10
 261.475
  20
 478.821
  30
0.0
  11
 259.865
  21
 470.215
  31
0.0
   0
LINE
   8
LEVEL001
   6
CONTINUOUS
  62
7
  10
 262.416
  20
 478.046
  30
0.0
  11
 260.901
  21
 469.953
  31
0.0
   0
LINE
   8
LEVEL003
   6
CONTINUOUS
  62
7
  10
 277.322
  20
 464.749
  30
0.0
  11
 328.290
  21
 466.562
  31
0.0
   0
LINE
   8
LEVEL001
   6
DASHDOT
  62
1
  10
 322.571
  20
 387.216
  30
0.0
  11
 322.937
  21
 376.922
  31
0.0
   0
LINE
   8
LEVEL001
   6
CONTINUOUS
  62
7
  10
 343.560
  20
 360.737
  30
0.0
  11
 340.618
  21
 443.485
  31
0.0
   0
ARC
   8
LEVEL001
   6
CONTINUOUS
  62
7
  10
 275.893
  20
 420.520
  30
0.0
  40
 4.00000
  50
 272.036
  51
 2.03633
   0
LINE
   8
LEVEL001
   6
CONTINUOUS
  62
7
  10
 247.553
  20
 415.510
  30
0.0
  11
 276.035
  21
 416.522
  31
0.0
   0
LINE
   8
LEVEL001
   6
CONTINUOUS
  62
7
  10
 322.496
  20
 390.308
  30
0.0
  11
 321.497
  21
 390.272
  31
0.0
   0
ARC
   8
LEVEL001
   6
CONTINUOUS
  62
7
  10
 322.745
  20
 383.312
  30
0.0
  40
 7.00000
  50
 272.036
  51
 92.0361
   0
ARC
   8
LEVEL001
   6
CONTINUOUS
  62
7
  10
 321.745
  20
 383.276
  30
0.0
  40
 7.00000
  50
 92.0361
  51
 272.036
   0
LINE
   8
LEVEL001
   6
CONTINUOUS
  62
7
  10
 294.608
  20
 397.688
  30
0.0
  11
 283.150
  21
 405.985
  31
0.0
   0
LINE
   8
LEVEL001
   6
CONTINUOUS
  62
7
  10
 294.608
  20
 397.688
  30
0.0
  11
 303.996
  21
 387.105
  31
0.0
   0
LINE
   8
LEVEL001
   6
CONTINUOUS
  62
7
  10
 283.196
  20
 385.087
  30
0.0
  11
 294.654
  21
 376.790
  31
0.0
   0
LINE
   8
LEVEL001
   6
CONTINUOUS
  62
7
  10
 283.196
  20
 385.087
  30
0.0
  11
 273.808
  21
 395.670
  31
0.0
   0
ARC
   8
LEVEL001
   6
CONTINUOUS
  62
7
  10
 279.044
  20
 400.316
  30
0.0
  40
 7.00000
  50
 54.0889
  51
 221.576
   0
ARC
   8
LEVEL001
   6
CONTINUOUS
  62
7
  10
 298.760
  20
 382.459
  30
0.0
  40
 7.00000
  50
 234.089
  51
 41.5764
   0
ARC
   8
LEVEL001
   6
CONTINUOUS
  62
7
  10
 273.718
  20
 467.623
  30
0.0
  40
 14.0936
  50
 169.700
  51
 272.036
   0
ARC
   8
LEVEL001
   6
CONTINUOUS
  62
7
  10
 273.718
  20
 467.623
  30
0.0
  40
 13.0000
  50
 169.700
  51
 272.036
   0
ARC
   8
LEVEL001
   6
CONTINUOUS
  62
7
  10
 278.732
  20
 463.799
  30
0.0
  40
 3.00000
  50
 272.036
  51
 2.03632
   0
LINE
   8
LEVEL001
   6
CONTINUOUS
  62
7
  10
 274.180
  20
 454.631
  30
0.0
  11
 279.052
  21
 454.805
  31
0.0
   0
ARC
   8
LEVEL001
   6
CONTINUOUS
  62
7
  10
 279.198
  20
 450.714
  30
0.0
  40
 3.00000
  50
 47.0363
  51
 92.0363
   0
ARC
   8
LEVEL001
   6
CONTINUOUS
  62
7
  10
 279.159
  20
 451.807
  30
0.0
  40
 3.00000
  50
 47.0363
  51
 92.0363
   0
ARC
   8
LEVEL001
   6
CONTINUOUS
  62
7
  10
 274.395
  20
 462.644
  30
0.0
  40
 2.00000
  50
 272.036
  51
 2.03633
   0
LINE
   8
LEVEL001
   6
CONTINUOUS
  62
7
  10
 273.967
  20
 460.628
  30
0.0
  11
 278.839
  21
 460.801
  31
0.0
   0
ARC
   8
LEVEL001
   6
CONTINUOUS
  62
7
  10
 273.718
  20
 467.623
  30
0.0
  40
 7.00000
  50
 169.401
  51
 272.036
   0
LINE
   8
LEVEL001
   6
CONTINUOUS
  62
7
  10
 327.788
  20
 452.535
  30
0.0
  11
 279.819
  21
 450.829
  31
0.0
   0
ARC
   8
LEVEL001
   6
CONTINUOUS
  62
7
  10
 274.684
  20
 450.553
  30
0.0
  40
 3.00000
  50
 33.0740
  51
 92.0363
   0
LINE
   8
LEVEL001
   6
CONTINUOUS
  62
7
  10
 274.219
  20
 453.538
  30
0.0
  11
 279.091
  21
 453.712
  31
0.0
   0
LINE
   8
LEVEL001
   6
CONTINUOUS
  62
7
  10
 278.871
  20
 449.323
  30
0.0
  11
 279.890
  21
 420.662
  31
0.0
   0
ARC
   8
LEVEL001
   6
CONTINUOUS
  62
7
  10
 275.873
  20
 449.216
  30
0.0
  40
 3.00000
  50
 2.03632
  51
 50.2260
   0
ARC
   8
LEVEL001
   6
CONTINUOUS
  62
7
  10
 279.712
  20
 453.827
  30
0.0
  40
 3.00000
  50
 213.074
  51
 230.226
   0
CIRCLE
   8
LEVEL001
   6
CONTINUOUS
  62
7
  10
 299.626
  20
 442.528
  30
0.0
  40
 3.99984
   0
ARC
   8
LEVEL001
   6
CONTINUOUS
  62
7
  10
 310.198
  20
 400.808
  30
0.0
  40
 19.0000
  50
 77.5466
  51
 108.196
   0
LINE
   8
LEVEL001
   6
CONTINUOUS
  62
7
  10
 284.597
  20
 424.491
  30
0.0
  11
 285.409
  21
 421.354
  31
0.0
   0
LINE
   8
LEVEL001
   6
CONTINUOUS
  62
7
  10
 285.409
  20
 421.354
  30
0.0
  11
 285.642
  21
 420.818
  31
0.0
   0
LINE
   8
LEVEL001
   6
CONTINUOUS
  62
7
  10
 285.642
  20
 420.818
  30
0.0
  11
 286.058
  21
 420.303
  31
0.0
   0
LINE
   8
LEVEL001
   6
CONTINUOUS
  62
7
  10
 286.058
  20
 420.303
  30
0.0
  11
 286.650
  21
 419.816
  31
0.0
   0
LINE
   8
LEVEL001
   6
CONTINUOUS
  62
7
  10
 286.650
  20
 419.816
  30
0.0
  11
 287.410
  21
 419.366
  31
0.0
   0
LINE
   8
LEVEL001
   6
CONTINUOUS
  62
7
  10
 287.410
  20
 419.366
  30
0.0
  11
 288.324
  21
 418.958
  31
0.0
   0
LINE
   8
LEVEL001
   6
CONTINUOUS
  62
7
  10
 288.324
  20
 418.958
  30
0.0
  11
 289.379
  21
 418.601
  31
0.0
   0
LINE
   8
LEVEL001
   6
CONTINUOUS
  62
7
  10
 289.379
  20
 418.601
  30
0.0
  11
 290.559
  21
 418.298
  31
0.0
   0
LINE
   8
LEVEL001
   6
CONTINUOUS
  62
7
  10
 290.559
  20
 418.298
  30
0.0
  11
 291.844
  21
 418.055
  31
0.0
   0
LINE
   8
LEVEL001
   6
CONTINUOUS
  62
7
  10
 291.844
  20
 418.055
  30
0.0
  11
 293.216
  21
 417.876
  31
0.0
   0
LINE
   8
LEVEL001
   6
CONTINUOUS
  62
7
  10
 293.216
  20
 417.876
  30
0.0
  11
 294.652
  21
 417.763
  31
0.0
   0
LINE
   8
LEVEL001
   6
CONTINUOUS
  62
7
  10
 294.652
  20
 417.763
  30
0.0
  11
 296.130
  21
 417.719
  31
0.0
   0
LINE
   8
LEVEL001
   6
CONTINUOUS
  62
7
  10
 296.130
  20
 417.719
  30
0.0
  11
 297.627
  21
 417.743
  31
0.0
   0
LINE
   8
LEVEL001
   6
CONTINUOUS
  62
7
  10
 297.627
  20
 417.743
  30
0.0
  11
 299.119
  21
 417.836
  31
0.0
   0
LINE
   8
LEVEL001
   6
CONTINUOUS
  62
7
  10
 299.119
  20
 417.836
  30
0.0
  11
 300.584
  21
 417.996
  31
0.0
   0
LINE
   8
LEVEL001
   6
CONTINUOUS
  62
7
  10
 300.584
  20
 417.996
  30
0.0
  11
 301.999
  21
 418.221
  31
0.0
   0
LINE
   8
LEVEL001
   6
CONTINUOUS
  62
7
  10
 301.999
  20
 418.221
  30
0.0
  11
 303.341
  21
 418.507
  31
0.0
   0
LINE
   8
LEVEL001
   6
CONTINUOUS
  62
7
  10
 303.341
  20
 418.507
  30
0.0
  11
 304.590
  21
 418.849
  31
0.0
   0
LINE
   8
LEVEL001
   6
CONTINUOUS
  62
7
  10
 304.590
  20
 418.849
  30
0.0
  11
 304.616
  21
 418.857
  31
0.0
   0
LINE
   8
LEVEL001
   6
CONTINUOUS
  62
7
  10
 314.092
  20
 419.256
  30
0.0
  11
 315.340
  21
 418.991
  31
0.0
   0
LINE
   8
LEVEL001
   6
CONTINUOUS
  62
7
  10
 315.340
  20
 418.991
  30
0.0
  11
 316.682
  21
 418.788
  31
0.0
   0
LINE
   8
LEVEL001
   6
CONTINUOUS
  62
7
  10
 316.682
  20
 418.788
  30
0.0
  11
 318.097
  21
 418.650
  31
0.0
   0
LINE
   8
LEVEL001
   6
CONTINUOUS
  62
7
  10
 318.097
  20
 418.650
  30
0.0
  11
 319.562
  21
 418.580
  31
0.0
   0
LINE
   8
LEVEL001
   6
CONTINUOUS
  62
7
  10
 319.562
  20
 418.580
  30
0.0
  11
 321.055
  21
 418.579
  31
0.0
   0
LINE
   8
LEVEL001
   6
CONTINUOUS
  62
7
  10
 321.055
  20
 418.579
  30
0.0
  11
 322.552
  21
 418.647
  31
0.0
   0
LINE
   8
LEVEL001
   6
CONTINUOUS
  62
7
  10
 322.552
  20
 418.647
  30
0.0
  11
 324.030
  21
 418.782
  31
0.0
   0
LINE
   8
LEVEL001
   6
CONTINUOUS
  62
7
  10
 324.030
  20
 418.782
  30
0.0
  11
 325.466
  21
 418.983
  31
0.0
   0
LINE
   8
LEVEL001
   6
CONTINUOUS
  62
7
  10
 325.466
  20
 418.983
  30
0.0
  11
 326.837
  21
 419.246
  31
0.0
   0
LINE
   8
LEVEL001
   6
CONTINUOUS
  62
7
  10
 326.837
  20
 419.246
  30
0.0
  11
 328.123
  21
 419.568
  31
0.0
   0
LINE
   8
LEVEL001
   6
CONTINUOUS
  62
7
  10
 328.123
  20
 419.568
  30
0.0
  11
 329.303
  21
 419.943
  31
0.0
   0
LINE
   8
LEVEL001
   6
CONTINUOUS
  62
7
  10
 329.303
  20
 419.943
  30
0.0
  11
 330.358
  21
 420.366
  31
0.0
   0
LINE
   8
LEVEL001
   6
CONTINUOUS
  62
7
  10
 330.358
  20
 420.366
  30
0.0
  11
 331.272
  21
 420.830
  31
0.0
   0
LINE
   8
LEVEL001
   6
CONTINUOUS
  62
7
  10
 331.272
  20
 420.830
  30
0.0
  11
 332.032
  21
 421.327
  31
0.0
   0
LINE
   8
LEVEL001
   6
CONTINUOUS
  62
7
  10
 332.032
  20
 421.327
  30
0.0
  11
 332.624
  21
 421.850
  31
0.0
   0
LINE
   8
LEVEL001
   6
CONTINUOUS
  62
7
  10
 332.624
  20
 421.850
  30
0.0
  11
 333.041
  21
 422.391
  31
0.0
   0
LINE
   8
LEVEL001
   6
CONTINUOUS
  62
7
  10
 333.041
  20
 422.391
  30
0.0
  11
 333.274
  21
 422.941
  31
0.0
   0
LINE
   8
LEVEL001
   6
CONTINUOUS
  62
7
  10
 333.274
  20
 422.941
  30
0.0
  11
 333.300
  21
 423.057
  31
0.0
   0
LINE
   8
LEVEL001
   6
CONTINUOUS
  62
7
  10
 285.482
  20
 418.200
  30
0.0
  11
 285.815
  21
 408.818
  31
0.0
   0
ARC
   8
LEVEL001
   6
CONTINUOUS
  62
7
  10
 311.190
  20
 372.913
  30
0.0
  40
 19.0000
  50
 77.5466
  51
 108.196
   0
LINE
   8
LEVEL001
   6
CONTINUOUS
  62
7
  10
 313.391
  20
 388.329
  30
0.0
  11
 313.624
  21
 381.798
  31
0.0
   0
LINE
   8
LEVEL001
   6
CONTINUOUS
  62
7
  10
 307.698
  20
 388.126
  30
0.0
  11
 307.930
  21
 381.595
  31
0.0
   0
LINE
   8
LEVEL001
   6
CONTINUOUS
  62
7
  10
 303.594
  20
 390.445
  30
0.0
  11
 304.897
  21
 390.756
  31
0.0
   0
LINE
   8
LEVEL001
   6
CONTINUOUS
  62
7
  10
 304.897
  20
 390.756
  30
0.0
  11
 305.607
  21
 390.962
  31
0.0
   0
LINE
   8
LEVEL001
   6
CONTINUOUS
  62
7
  10
 315.084
  20
 391.362
  30
0.0
  11
 316.332
  21
 391.096
  31
0.0
   0
LINE
   8
LEVEL001
   6
CONTINUOUS
  62
7
  10
 316.332
  20
 391.096
  30
0.0
  11
 317.674
  21
 390.893
  31
0.0
   0
LINE
   8
LEVEL001
   6
CONTINUOUS
  62
7
  10
 317.674
  20
 390.893
  30
0.0
  11
 319.089
  21
 390.755
  31
0.0
   0
LINE
   8
LEVEL001
   6
CONTINUOUS
  62
7
  10
 319.089
  20
 390.755
  30
0.0
  11
 320.554
  21
 390.685
  31
0.0
   0
LINE
   8
LEVEL001
   6
CONTINUOUS
  62
7
  10
 320.554
  20
 390.685
  30
0.0
  11
 322.046
  21
 390.684
  31
0.0
   0
LINE
   8
LEVEL001
   6
CONTINUOUS
  62
7
  10
 322.046
  20
 390.684
  30
0.0
  11
 323.543
  21
 390.752
  31
0.0
   0
LINE
   8
LEVEL001
   6
CONTINUOUS
  62
7
  10
 323.543
  20
 390.752
  30
0.0
  11
 325.021
  21
 390.887
  31
0.0
   0
LINE
   8
LEVEL001
   6
CONTINUOUS
  62
7
  10
 325.021
  20
 390.887
  30
0.0
  11
 326.457
  21
 391.088
  31
0.0
   0
LINE
   8
LEVEL001
   6
CONTINUOUS
  62
7
  10
 326.457
  20
 391.088
  30
0.0
  11
 327.829
  21
 391.352
  31
0.0
   0
LINE
   8
LEVEL001
   6
CONTINUOUS
  62
7
  10
 327.829
  20
 391.352
  30
0.0
  11
 329.115
  21
 391.673
  31
0.0
   0
LINE
   8
LEVEL001
   6
CONTINUOUS
  62
7
  10
 329.115
  20
 391.673
  30
0.0
  11
 330.294
  21
 392.049
  31
0.0
   0
LINE
   8
LEVEL001
   6
CONTINUOUS
  62
7
  10
 330.294
  20
 392.049
  30
0.0
  11
 331.350
  21
 392.471
  31
0.0
   0
LINE
   8
LEVEL001
   6
CONTINUOUS
  62
7
  10
 331.350
  20
 392.471
  30
0.0
  11
 332.264
  21
 392.935
  31
0.0
   0
LINE
   8
LEVEL001
   6
CONTINUOUS
  62
7
  10
 332.264
  20
 392.935
  30
0.0
  11
 333.024
  21
 393.432
  31
0.0
   0
LINE
   8
LEVEL001
   6
CONTINUOUS
  62
7
  10
 333.024
  20
 393.432
  30
0.0
  11
 333.616
  21
 393.955
  31
0.0
   0
LINE
   8
LEVEL001
   6
CONTINUOUS
  62
7
  10
 333.616
  20
 393.955
  30
0.0
  11
 334.033
  21
 394.496
  31
0.0
   0
LINE
   8
LEVEL001
   6
CONTINUOUS
  62
7
  10
 334.033
  20
 394.496
  30
0.0
  11
 334.266
  21
 395.046
  31
0.0
   0
LINE
   8
LEVEL001
   6
CONTINUOUS
  62
7
  10
 334.266
  20
 395.046
  30
0.0
  11
 334.292
  21
 395.162
  31
0.0
   0
LINE
   8
LEVEL001
   6
CONTINUOUS
  62
7
  10
 339.024
  20
 412.988
  30
0.0
  11
 339.043
  21
 413.311
  31
0.0
   0
LINE
   8
LEVEL001
   6
CONTINUOUS
  62
7
  10
 339.043
  20
 413.311
  30
0.0
  11
 339.009
  21
 413.636
  31
0.0
   0
LINE
   8
LEVEL001
   6
CONTINUOUS
  62
7
  10
 339.009
  20
 413.636
  30
0.0
  11
 338.923
  21
 413.958
  31
0.0
   0
LINE
   8
LEVEL001
   6
CONTINUOUS
  62
7
  10
 338.923
  20
 413.958
  30
0.0
  11
 338.787
  21
 414.273
  31
0.0
   0
LINE
   8
LEVEL001
   6
CONTINUOUS
  62
7
  10
 338.787
  20
 414.273
  30
0.0
  11
 338.602
  21
 414.574
  31
0.0
   0
LINE
   8
LEVEL001
   6
CONTINUOUS
  62
7
  10
 338.602
  20
 414.574
  30
0.0
  11
 338.372
  21
 414.859
  31
0.0
   0
LINE
   8
LEVEL001
   6
CONTINUOUS
  62
7
  10
 338.372
  20
 414.859
  30
0.0
  11
 338.099
  21
 415.121
  31
0.0
   0
LINE
   8
LEVEL001
   6
CONTINUOUS
  62
7
  10
 338.099
  20
 415.121
  30
0.0
  11
 337.789
  21
 415.357
  31
0.0
   0
LINE
   8
LEVEL001
   6
CONTINUOUS
  62
7
  10
 337.789
  20
 415.357
  30
0.0
  11
 337.446
  21
 415.564
  31
0.0
   0
LINE
   8
LEVEL001
   6
CONTINUOUS
  62
7
  10
 337.446
  20
 415.564
  30
0.0
  11
 337.076
  21
 415.738
  31
0.0
   0
LINE
   8
LEVEL001
   6
CONTINUOUS
  62
7
  10
 337.076
  20
 415.738
  30
0.0
  11
 336.683
  21
 415.876
  31
0.0
   0
LINE
   8
LEVEL001
   6
CONTINUOUS
  62
7
  10
 336.683
  20
 415.876
  30
0.0
  11
 336.276
  21
 415.976
  31
0.0
   0
LINE
   8
LEVEL001
   6
CONTINUOUS
  62
7
  10
 336.276
  20
 415.976
  30
0.0
  11
 335.858
  21
 416.037
  31
0.0
   0
LINE
   8
LEVEL001
   6
CONTINUOUS
  62
7
  10
 335.858
  20
 416.037
  30
0.0
  11
 335.438
  21
 416.058
  31
0.0
   0
LINE
   8
LEVEL001
   6
CONTINUOUS
  62
7
  10
 335.438
  20
 416.058
  30
0.0
  11
 335.022
  21
 416.038
  31
0.0
   0
LINE
   8
LEVEL001
   6
CONTINUOUS
  62
7
  10
 335.022
  20
 416.038
  30
0.0
  11
 334.617
  21
 415.978
  31
0.0
   0
LINE
   8
LEVEL001
   6
CONTINUOUS
  62
7
  10
 334.617
  20
 415.978
  30
0.0
  11
 334.227
  21
 415.879
  31
0.0
   0
LINE
   8
LEVEL001
   6
CONTINUOUS
  62
7
  10
 334.227
  20
 415.879
  30
0.0
  11
 333.861
  21
 415.741
  31
0.0
   0
LINE
   8
LEVEL001
   6
CONTINUOUS
  62
7
  10
 333.861
  20
 415.741
  30
0.0
  11
 333.523
  21
 415.568
  31
0.0
   0
LINE
   8
LEVEL001
   6
CONTINUOUS
  62
7
  10
 333.523
  20
 415.568
  30
0.0
  11
 333.218
  21
 415.362
  31
0.0
   0
LINE
   8
LEVEL001
   6
CONTINUOUS
  62
7
  10
 333.218
  20
 415.362
  30
0.0
  11
 332.952
  21
 415.127
  31
0.0
   0
LINE
   8
LEVEL001
   6
CONTINUOUS
  62
7
  10
 332.952
  20
 415.127
  30
0.0
  11
 332.729
  21
 414.865
  31
0.0
   0
LINE
   8
LEVEL001
   6
CONTINUOUS
  62
7
  10
 332.729
  20
 414.865
  30
0.0
  11
 332.552
  21
 414.581
  31
0.0
   0
LINE
   8
LEVEL001
   6
CONTINUOUS
  62
7
  10
 332.552
  20
 414.581
  30
0.0
  11
 332.423
  21
 414.280
  31
0.0
   0
LINE
   8
LEVEL001
   6
CONTINUOUS
  62
7
  10
 332.423
  20
 414.280
  30
0.0
  11
 332.346
  21
 413.965
  31
0.0
   0
LINE
   8
LEVEL001
   6
CONTINUOUS
  62
7
  10
 332.346
  20
 413.965
  30
0.0
  11
 332.320
  21
 413.643
  31
0.0
   0
LINE
   8
LEVEL001
   6
CONTINUOUS
  62
7
  10
 332.320
  20
 413.643
  30
0.0
  11
 332.347
  21
 413.318
  31
0.0
   0
LINE
   8
LEVEL001
   6
CONTINUOUS
  62
7
  10
 332.347
  20
 413.318
  30
0.0
  11
 332.426
  21
 412.995
  31
0.0
   0
LINE
   8
LEVEL001
   6
CONTINUOUS
  62
7
  10
 332.426
  20
 412.995
  30
0.0
  11
 332.556
  21
 412.679
  31
0.0
   0
LINE
   8
LEVEL001
   6
CONTINUOUS
  62
7
  10
 332.556
  20
 412.679
  30
0.0
  11
 332.734
  21
 412.376
  31
0.0
   0
LINE
   8
LEVEL001
   6
CONTINUOUS
  62
7
  10
 332.734
  20
 412.376
  30
0.0
  11
 332.959
  21
 412.089
  31
0.0
   0
LINE
   8
LEVEL001
   6
CONTINUOUS
  62
7
  10
 332.959
  20
 412.089
  30
0.0
  11
 333.226
  21
 411.823
  31
0.0
   0
LINE
   8
LEVEL001
   6
CONTINUOUS
  62
7
  10
 333.226
  20
 411.823
  30
0.0
  11
 333.531
  21
 411.583
  31
0.0
   0
LINE
   8
LEVEL001
   6
CONTINUOUS
  62
7
  10
 333.531
  20
 411.583
  30
0.0
  11
 333.870
  21
 411.372
  31
0.0
   0
LINE
   8
LEVEL001
   6
CONTINUOUS
  62
7
  10
 333.870
  20
 411.372
  30
0.0
  11
 334.237
  21
 411.194
  31
0.0
   0
LINE
   8
LEVEL001
   6
CONTINUOUS
  62
7
  10
 334.237
  20
 411.194
  30
0.0
  11
 334.627
  21
 411.051
  31
0.0
   0
LINE
   8
LEVEL001
   6
CONTINUOUS
  62
7
  10
 334.627
  20
 411.051
  30
0.0
  11
 335.033
  21
 410.945
  31
0.0
   0
LINE
   8
LEVEL001
   6
CONTINUOUS
  62
7
  10
 335.033
  20
 410.945
  30
0.0
  11
 335.450
  21
 410.879
  31
0.0
   0
LINE
   8
LEVEL001
   6
CONTINUOUS
  62
7
  10
 335.450
  20
 410.879
  30
0.0
  11
 335.869
  21
 410.853
  31
0.0
   0
LINE
   8
LEVEL001
   6
CONTINUOUS
  62
7
  10
 335.869
  20
 410.853
  30
0.0
  11
 336.286
  21
 410.867
  31
0.0
   0
LINE
   8
LEVEL001
   6
CONTINUOUS
  62
7
  10
 336.286
  20
 410.867
  30
0.0
  11
 336.694
  21
 410.922
  31
0.0
   0
LINE
   8
LEVEL001
   6
CONTINUOUS
  62
7
  10
 336.694
  20
 410.922
  30
0.0
  11
 337.086
  21
 411.017
  31
0.0
   0
LINE
   8
LEVEL001
   6
CONTINUOUS
  62
7
  10
 337.086
  20
 411.017
  30
0.0
  11
 337.456
  21
 411.149
  31
0.0
   0
LINE
   8
LEVEL001
   6
CONTINUOUS
  62
7
  10
 337.456
  20
 411.149
  30
0.0
  11
 337.798
  21
 411.317
  31
0.0
   0
LINE
   8
LEVEL001
   6
CONTINUOUS
  62
7
  10
 337.798
  20
 411.317
  30
0.0
  11
 338.107
  21
 411.519
  31
0.0
   0
LINE
   8
LEVEL001
   6
CONTINUOUS
  62
7
  10
 338.107
  20
 411.519
  30
0.0
  11
 338.378
  21
 411.751
  31
0.0
   0
LINE
   8
LEVEL001
   6
CONTINUOUS
  62
7
  10
 338.378
  20
 411.751
  30
0.0
  11
 338.607
  21
 412.010
  31
0.0
   0
LINE
   8
LEVEL001
   6
CONTINUOUS
  62
7
  10
 338.607
  20
 412.010
  30
0.0
  11
 338.791
  21
 412.291
  31
0.0
   0
LINE
   8
LEVEL001
   6
CONTINUOUS
  62
7
  10
 338.791
  20
 412.291
  30
0.0
  11
 338.926
  21
 412.590
  31
0.0
   0
LINE
   8
LEVEL001
   6
CONTINUOUS
  62
7
  10
 338.926
  20
 412.590
  30
0.0
  11
 339.011
  21
 412.903
  31
0.0
   0
LINE
   8
LEVEL001
   6
CONTINUOUS
  62
7
  10
 339.011
  20
 412.903
  30
0.0
  11
 339.024
  21
 412.988
  31
0.0
   0
LINE
   8
LEVEL001
   6
CONTINUOUS
  62
7
  10
 321.994
  20
 376.281
  30
0.0
  11
 322.993
  21
 376.316
  31
0.0
   0
ARC
   8
LEVEL001
   6
CONTINUOUS
  62
7
  10
 323.565
  20
 360.249
  30
0.0
  40
 3.00000
  50
 207.036
  51
 337.036
   0
ARC
   8
LEVEL001
   6
CONTINUOUS
  62
7
  10
 299.580
  20
 359.396
  30
0.0
  40
 3.00000
  50
 207.036
  51
 337.036
   0
LINE
   8
LEVEL001
   6
CONTINUOUS
  62
7
  10
 296.908
  20
 358.033
  30
0.0
  11
 290.023
  21
 371.523
  31
0.0
   0
LINE
   8
LEVEL001
   6
CONTINUOUS
  62
7
  10
 302.342
  20
 358.226
  30
0.0
  11
 308.400
  21
 372.523
  31
0.0
   0
ARC
   8
LEVEL001
   6
CONTINUOUS
  62
7
  10
 311.162
  20
 371.352
  30
0.0
  40
 3.00000
  50
 27.0363
  51
 157.036
   0
LINE
   8
LEVEL001
   6
CONTINUOUS
  62
7
  10
 320.893
  20
 358.885
  30
0.0
  11
 313.835
  21
 372.716
  31
0.0
   0
ARC
   8
LEVEL001
   6
CONTINUOUS
  62
7
  10
 287.178
  20
 370.499
  30
0.0
  40
 3.00000
  50
 27.0363
  51
 93.2774
   0
ARC
   8
LEVEL001
   6
CONTINUOUS
  62
7
  10
 335.147
  20
 372.205
  30
0.0
  40
 3.00000
  50
 93.4400
  51
 157.036
   0
LINE
   8
LEVEL001
   6
CONTINUOUS
  62
7
  10
 326.327
  20
 359.079
  30
0.0
  11
 332.385
  21
 373.375
  31
0.0
   0
ARC
   8
LEVEL001
   6
CONTINUOUS
  62
7
  10
 284.666
  20
 356.717
  30
0.0
  40
 3.00000
  50
 2.03632
  51
 92.0363
   0
LINE
   8
LEVEL001
   6
CONTINUOUS
  62
7
  10
 275.565
  20
 359.396
  30
0.0
  11
 284.559
  21
 359.715
  31
0.0
   0
LINE
   8
LEVEL001
   6
CONTINUOUS
  62
7
  10
 337.464
  20
 363.322
  30
0.0
  11
 336.474
  21
 391.183
  31
0.0
   0
LINE
   8
LEVEL001
   6
CONTINUOUS
  62
7
  10
 335.010
  20
 432.342
  30
0.0
  11
 334.728
  21
 440.274
  31
0.0
   0
LINE
   8
LEVEL001
   6
CONTINUOUS
  62
7
  10
 332.180
  20
 386.476
  30
0.0
  11
 332.439
  21
 379.212
  31
0.0
   0
LINE
   8
LEVEL001
   6
CONTINUOUS
  62
7
  10
 329.064
  20
 410.511
  30
0.0
  11
 329.619
  21
 409.952
  31
0.0
   0
LINE
   8
LEVEL001
   6
CONTINUOUS
  62
7
  10
 329.619
  20
 409.952
  30
0.0
  11
 330.253
  21
 409.446
  31
0.0
   0
LINE
   8
LEVEL001
   6
CONTINUOUS
  62
7
  10
 330.253
  20
 409.446
  30
0.0
  11
 330.955
  21
 408.999
  31
0.0
   0
LINE
   8
LEVEL001
   6
CONTINUOUS
  62
7
  10
 330.955
  20
 408.999
  30
0.0
  11
 331.716
  21
 408.619
  31
0.0
   0
LINE
   8
LEVEL001
   6
CONTINUOUS
  62
7
  10
 331.716
  20
 408.619
  30
0.0
  11
 332.524
  21
 408.313
  31
0.0
   0
LINE
   8
LEVEL001
   6
CONTINUOUS
  62
7
  10
 332.524
  20
 408.313
  30
0.0
  11
 333.365
  21
 408.084
  31
0.0
   0
LINE
   8
LEVEL001
   6
CONTINUOUS
  62
7
  10
 333.365
  20
 408.084
  30
0.0
  11
 334.227
  21
 407.936
  31
0.0
   0
LINE
   8
LEVEL001
   6
CONTINUOUS
  62
7
  10
 334.227
  20
 407.936
  30
0.0
  11
 335.096
  21
 407.871
  31
0.0
   0
LINE
   8
LEVEL001
   6
CONTINUOUS
  62
7
  10
 335.096
  20
 407.871
  30
0.0
  11
 335.959
  21
 407.891
  31
0.0
   0
LINE
   8
LEVEL001
   6
CONTINUOUS
  62
7
  10
 335.959
  20
 407.891
  30
0.0
  11
 336.801
  21
 407.995
  31
0.0
   0
LINE
   8
LEVEL001
   6
CONTINUOUS
  62
7
  10
 336.801
  20
 407.995
  30
0.0
  11
 337.611
  21
 408.182
  31
0.0
   0
LINE
   8
LEVEL001
   6
CONTINUOUS
  62
7
  10
 337.611
  20
 408.182
  30
0.0
  11
 338.375
  21
 408.449
  31
0.0
   0
LINE
   8
LEVEL001
   6
CONTINUOUS
  62
7
  10
 338.375
  20
 408.449
  30
0.0
  11
 339.082
  21
 408.791
  31
0.0
   0
LINE
   8
LEVEL001
   6
CONTINUOUS
  62
7
  10
 339.082
  20
 408.791
  30
0.0
  11
 339.129
  21
 408.817
  31
0.0
   0
ARC
   8
LEVEL001
   6
CONTINUOUS
  62
7
  10
 332.777
  20
 402.411
  30
0.0
  40
 3.00000
  50
 190.447
  51
 329.772
   0
LINE
   8
LEVEL001
   6
CONTINUOUS
  62
7
  10
 329.829
  20
 401.856
  30
0.0
  11
 328.067
  21
 411.205
  31
0.0
   0
LINE
   8
LEVEL001
   6
CONTINUOUS
  62
7
  10
 335.400
  20
 400.956
  30
0.0
  11
 341.119
  21
 411.268
  31
0.0
   0
ARC
   8
LEVEL001
   6
CONTINUOUS
  62
7
  10
 325.118
  20
 410.649
  30
0.0
  40
 3.00000
  50
 10.6730
  51
 96.9634
   0
LINE
   8
LEVEL001
   6
CONTINUOUS
  62
7
  10
 328.303
  20
 438.044
  30
0.0
  11
 328.318
  21
 437.620
  31
0.0
   0
ARC
   8
LEVEL001
   6
CONTINUOUS
  62
7
  10
 333.300
  20
 438.222
  30
0.0
  40
 5.00000
  50
 124.992
  51
 182.036
   0
LINE
   8
LEVEL001
   6
CONTINUOUS
  62
7
  10
 335.010
  20
 432.342
  30
0.0
  11
 333.300
  21
 423.057
  31
0.0
   0
LINE
   8
LEVEL001
   6
CONTINUOUS
  62
7
  10
 334.858
  20
 421.681
  30
0.0
  11
 328.304
  21
 414.258
  31
0.0
   0
LINE
   8
LEVEL001
   6
CONTINUOUS
  62
7
  10
 335.010
  20
 432.342
  30
0.0
  11
 334.728
  21
 440.274
  31
0.0
   0
LINE
   8
LEVEL001
   6
CONTINUOUS
  62
3
  10
 339.643
  20
 412.901
  30
0.0
  11
 339.665
  21
 413.284
  31
0.0
   0
LINE
   8
LEVEL001
   6
CONTINUOUS
  62
3
  10
 339.665
  20
 413.284
  30
0.0
  11
 339.625
  21
 413.669
  31
0.0
   0
LINE
   8
LEVEL001
   6
CONTINUOUS
  62
3
  10
 339.625
  20
 413.669
  30
0.0
  11
 339.523
  21
 414.051
  31
0.0
   0
LINE
   8
LEVEL001
   6
CONTINUOUS
  62
3
  10
 339.523
  20
 414.051
  30
0.0
  11
 339.362
  21
 414.424
  31
0.0
   0
LINE
   8
LEVEL001
   6
CONTINUOUS
  62
3
  10
 339.362
  20
 414.424
  30
0.0
  11
 339.143
  21
 414.781
  31
0.0
   0
LINE
   8
LEVEL001
   6
CONTINUOUS
  62
3
  10
 339.143
  20
 414.781
  30
0.0
  11
 338.870
  21
 415.118
  31
0.0
   0
LINE
   8
LEVEL001
   6
CONTINUOUS
  62
3
  10
 338.870
  20
 415.118
  30
0.0
  11
 338.547
  21
 415.429
  31
0.0
   0
LINE
   8
LEVEL001
   6
CONTINUOUS
  62
3
  10
 338.547
  20
 415.429
  30
0.0
  11
 338.179
  21
 415.709
  31
0.0
   0
LINE
   8
LEVEL001
   6
CONTINUOUS
  62
3
  10
 338.179
  20
 415.709
  30
0.0
  11
 337.773
  21
 415.954
  31
0.0
   0
LINE
   8
LEVEL001
   6
CONTINUOUS
  62
3
  10
 337.773
  20
 415.954
  30
0.0
  11
 337.334
  21
 416.160
  31
0.0
   0
LINE
   8
LEVEL001
   6
CONTINUOUS
  62
3
  10
 337.334
  20
 416.160
  30
0.0
  11
 336.869
  21
 416.324
  31
0.0
   0
LINE
   8
LEVEL001
   6
CONTINUOUS
  62
3
  10
 336.869
  20
 416.324
  30
0.0
  11
 336.385
  21
 416.443
  31
0.0
   0
LINE
   8
LEVEL001
   6
CONTINUOUS
  62
3
  10
 336.385
  20
 416.443
  30
0.0
  11
 335.891
  21
 416.516
  31
0.0
   0
LINE
   8
LEVEL001
   6
CONTINUOUS
  62
3
  10
 335.891
  20
 416.516
  30
0.0
  11
 335.393
  21
 416.540
  31
0.0
   0
LINE
   8
LEVEL001
   6
CONTINUOUS
  62
3
  10
 335.393
  20
 416.540
  30
0.0
  11
 334.900
  21
 416.517
  31
0.0
   0
LINE
   8
LEVEL001
   6
CONTINUOUS
  62
3
  10
 334.900
  20
 416.517
  30
0.0
  11
 334.419
  21
 416.445
  31
0.0
   0
LINE
   8
LEVEL001
   6
CONTINUOUS
  62
3
  10
 334.419
  20
 416.445
  30
0.0
  11
 333.958
  21
 416.327
  31
0.0
   0
LINE
   8
LEVEL001
   6
CONTINUOUS
  62
3
  10
 333.958
  20
 416.327
  30
0.0
  11
 333.524
  21
 416.165
  31
0.0
   0
LINE
   8
LEVEL001
   6
CONTINUOUS
  62
3
  10
 333.524
  20
 416.165
  30
0.0
  11
 333.123
  21
 415.960
  31
0.0
   0
LINE
   8
LEVEL001
   6
CONTINUOUS
  62
3
  10
 333.123
  20
 415.960
  30
0.0
  11
 332.762
  21
 415.715
  31
0.0
   0
LINE
   8
LEVEL001
   6
CONTINUOUS
  62
3
  10
 332.762
  20
 415.715
  30
0.0
  11
 332.447
  21
 415.436
  31
0.0
   0
LINE
   8
LEVEL001
   6
CONTINUOUS
  62
3
  10
 332.447
  20
 415.436
  30
0.0
  11
 332.182
  21
 415.126
  31
0.0
   0
LINE
   8
LEVEL001
   6
CONTINUOUS
  62
3
  10
 332.182
  20
 415.126
  30
0.0
  11
 331.972
  21
 414.789
  31
0.0
   0
LINE
   8
LEVEL001
   6
CONTINUOUS
  62
3
  10
 331.972
  20
 414.789
  30
0.0
  11
 331.820
  21
 414.432
  31
0.0
   0
LINE
   8
LEVEL001
   6
CONTINUOUS
  62
3
  10
 331.820
  20
 414.432
  30
0.0
  11
 331.728
  21
 414.060
  31
0.0
   0
LINE
   8
LEVEL001
   6
CONTINUOUS
  62
3
  10
 331.728
  20
 414.060
  30
0.0
  11
 331.698
  21
 413.678
  31
0.0
   0
LINE
   8
LEVEL001
   6
CONTINUOUS
  62
3
  10
 331.698
  20
 413.678
  30
0.0
  11
 331.730
  21
 413.293
  31
0.0
   0
LINE
   8
LEVEL001
   6
CONTINUOUS
  62
3
  10
 331.730
  20
 413.293
  30
0.0
  11
 331.823
  21
 412.910
  31
0.0
   0
LINE
   8
LEVEL001
   6
CONTINUOUS
  62
3
  10
 331.823
  20
 412.910
  30
0.0
  11
 331.977
  21
 412.536
  31
0.0
   0
LINE
   8
LEVEL001
   6
CONTINUOUS
  62
3
  10
 331.977
  20
 412.536
  30
0.0
  11
 332.189
  21
 412.176
  31
0.0
   0
LINE
   8
LEVEL001
   6
CONTINUOUS
  62
3
  10
 332.189
  20
 412.176
  30
0.0
  11
 332.455
  21
 411.836
  31
0.0
   0
LINE
   8
LEVEL001
   6
CONTINUOUS
  62
3
  10
 332.455
  20
 411.836
  30
0.0
  11
 332.771
  21
 411.521
  31
0.0
   0
LINE
   8
LEVEL001
   6
CONTINUOUS
  62
3
  10
 332.771
  20
 411.521
  30
0.0
  11
 333.133
  21
 411.236
  31
0.0
   0
LINE
   8
LEVEL001
   6
CONTINUOUS
  62
3
  10
 333.133
  20
 411.236
  30
0.0
  11
 333.535
  21
 410.987
  31
0.0
   0
LINE
   8
LEVEL001
   6
CONTINUOUS
  62
3
  10
 333.535
  20
 410.987
  30
0.0
  11
 333.970
  21
 410.775
  31
0.0
   0
LINE
   8
LEVEL001
   6
CONTINUOUS
  62
3
  10
 333.970
  20
 410.775
  30
0.0
  11
 334.432
  21
 410.606
  31
0.0
   0
LINE
   8
LEVEL001
   6
CONTINUOUS
  62
3
  10
 334.432
  20
 410.606
  30
0.0
  11
 334.913
  21
 410.481
  31
0.0
   0
LINE
   8
LEVEL001
   6
CONTINUOUS
  62
3
  10
 334.913
  20
 410.481
  30
0.0
  11
 335.407
  21
 410.402
  31
0.0
   0
LINE
   8
LEVEL001
   6
CONTINUOUS
  62
3
  10
 335.407
  20
 410.402
  30
0.0
  11
 335.904
  21
 410.371
  31
0.0
   0
LINE
   8
LEVEL001
   6
CONTINUOUS
  62
3
  10
 335.904
  20
 410.371
  30
0.0
  11
 336.398
  21
 410.388
  31
0.0
   0
LINE
   8
LEVEL001
   6
CONTINUOUS
  62
3
  10
 336.398
  20
 410.388
  30
0.0
  11
 336.881
  21
 410.453
  31
0.0
   0
LINE
   8
LEVEL001
   6
CONTINUOUS
  62
3
  10
 336.881
  20
 410.453
  30
0.0
  11
 337.346
  21
 410.565
  31
0.0
   0
LINE
   8
LEVEL001
   6
CONTINUOUS
  62
3
  10
 337.346
  20
 410.565
  30
0.0
  11
 337.784
  21
 410.722
  31
0.0
   0
LINE
   8
LEVEL001
   6
CONTINUOUS
  62
3
  10
 337.784
  20
 410.722
  30
0.0
  11
 338.190
  21
 410.922
  31
0.0
   0
LINE
   8
LEVEL001
   6
CONTINUOUS
  62
3
  10
 338.190
  20
 410.922
  30
0.0
  11
 338.556
  21
 411.161
  31
0.0
   0
LINE
   8
LEVEL001
   6
CONTINUOUS
  62
3
  10
 338.556
  20
 411.161
  30
0.0
  11
 338.878
  21
 411.436
  31
0.0
   0
LINE
   8
LEVEL001
   6
CONTINUOUS
  62
3
  10
 338.878
  20
 411.436
  30
0.0
  11
 339.149
  21
 411.742
  31
0.0
   0
LINE
   8
LEVEL001
   6
CONTINUOUS
  62
3
  10
 339.149
  20
 411.742
  30
0.0
  11
 339.367
  21
 412.075
  31
0.0
   0
LINE
   8
LEVEL001
   6
CONTINUOUS
  62
3
  10
 339.367
  20
 412.075
  30
0.0
  11
 339.527
  21
 412.430
  31
0.0
   0
LINE
   8
LEVEL001
   6
CONTINUOUS
  62
3
  10
 339.527
  20
 412.430
  30
0.0
  11
 339.627
  21
 412.801
  31
0.0
   0
LINE
   8
LEVEL001
   6
CONTINUOUS
  62
3
  10
 339.627
  20
 412.801
  30
0.0
  11
 339.643
  21
 412.901
  31
0.0
   0
LINE
   8
LEVEL001
   6
DASHDOT
  62
1
  10
 282.415
  20
 421.603
  30
0.0
  11
 342.400
  21
 423.736
  31
0.0
   0
LINE
   8
LEVEL001
   6
DASHDOT
  62
1
  10
 336.520
  20
 419.447
  30
0.0
  11
 326.837
  21
 350.234
  31
0.0
   0
LINE
   8
LEVEL001
   6
CONTINUOUS
  62
7
  10
 287.664
  20
 356.824
  30
0.0
  11
 288.118
  21
 344.057
  31
0.0
   0
LINE
   8
LEVEL001
   6
CONTINUOUS
  62
7
  10
 322.663
  20
 385.620
  30
0.0
  11
 324.702
  21
 384.537
  31
0.0
   0
LINE
   8
LEVEL001
   6
CONTINUOUS
  62
7
  10
 324.702
  20
 384.537
  30
0.0
  11
 324.784
  21
 382.229
  31
0.0
   0
LINE
   8
LEVEL001
   6
CONTINUOUS
  62
7
  10
 324.784
  20
 382.229
  30
0.0
  11
 322.827
  21
 381.004
  31
0.0
   0
LINE
   8
LEVEL001
   6
CONTINUOUS
  62
7
  10
 322.827
  20
 381.004
  30
0.0
  11
 320.787
  21
 382.087
  31
0.0
   0
LINE
   8
LEVEL001
   6
CONTINUOUS
  62
7
  10
 320.787
  20
 382.087
  30
0.0
  11
 320.705
  21
 384.395
  31
0.0
   0
LINE
   8
LEVEL001
   6
CONTINUOUS
  62
7
  10
 320.705
  20
 384.395
  30
0.0
  11
 322.663
  21
 385.620
  31
0.0
   0
CIRCLE
   8
LEVEL001
   6
CONTINUOUS
  62
7
  10
 322.745
  20
 383.312
  30
0.0
  40
 4.00000
   0
CIRCLE
   8
LEVEL001
   6
CONTINUOUS
  62
3
  10
 322.745
  20
 383.312
  30
0.0
  40
 3.37500
   0
LINE
   8
LEVEL001
   6
CONTINUOUS
  62
7
  10
 298.678
  20
 384.767
  30
0.0
  11
 300.718
  21
 383.684
  31
0.0
   0
LINE
   8
LEVEL001
   6
CONTINUOUS
  62
7
  10
 300.718
  20
 383.684
  30
0.0
  11
 300.800
  21
 381.376
  31
0.0
   0
LINE
   8
LEVEL001
   6
CONTINUOUS
  62
7
  10
 300.800
  20
 381.376
  30
0.0
  11
 298.842
  21
 380.151
  31
0.0
   0
LINE
   8
LEVEL001
   6
CONTINUOUS
  62
7
  10
 298.842
  20
 380.151
  30
0.0
  11
 296.802
  21
 381.234
  31
0.0
   0
LINE
   8
LEVEL001
   6
CONTINUOUS
  62
7
  10
 296.802
  20
 381.234
  30
0.0
  11
 296.720
  21
 383.542
  31
0.0
   0
LINE
   8
LEVEL001
   6
CONTINUOUS
  62
7
  10
 296.720
  20
 383.542
  30
0.0
  11
 298.678
  21
 384.767
  31
0.0
   0
CIRCLE
   8
LEVEL001
   6
CONTINUOUS
  62
7
  10
 298.760
  20
 382.459
  30
0.0
  40
 4.00000
   0
CIRCLE
   8
LEVEL001
   6
CONTINUOUS
  62
3
  10
 298.760
  20
 382.459
  30
0.0
  40
 3.37500
   0
LINE
   8
LEVEL003
   6
DASHDOT
  62
1
  10
 279.574
  20
 415.499
  30
0.0
  11
 280.689
  21
 384.125
  31
0.0
   0
LINE
   8
LEVEL001
   6
DASHDOT
  62
1
  10
 330.107
  20
 414.235
  30
0.0
  11
 341.117
  21
 412.695
  31
0.0
   0
LINE
   8
LEVEL003
   6
CONTINUOUS
  62
7
  10
 333.395
  20
 413.775
  30
0.0
  11
 334.719
  21
 414.906
  31
0.0
   0
LINE
   8
LEVEL003
   6
CONTINUOUS
  62
7
  10
 334.719
  20
 414.906
  30
0.0
  11
 337.006
  21
 414.586
  31
0.0
   0
LINE
   8
LEVEL003
   6
CONTINUOUS
  62
7
  10
 337.006
  20
 414.586
  30
0.0
  11
 337.969
  21
 413.135
  31
0.0
   0
LINE
   8
LEVEL003
   6
CONTINUOUS
  62
7
  10
 337.969
  20
 413.135
  30
0.0
  11
 336.645
  21
 412.004
  31
0.0
   0
LINE
   8
LEVEL003
   6
CONTINUOUS
  62
7
  10
 336.645
  20
 412.004
  30
0.0
  11
 334.358
  21
 412.324
  31
0.0
   0
LINE
   8
LEVEL003
   6
CONTINUOUS
  62
7
  10
 334.358
  20
 412.324
  30
0.0
  11
 333.395
  21
 413.775
  31
0.0
   0
LINE
   8
LEVEL001
   6
DASHDOT
  62
1
  10
 320.704
  20
 440.698
  30
0.0
  11
 323.793
  21
 353.819
  31
0.0
   0
LINE
   8
LEVEL001
   6
DASHDOT
  62
1
  10
 296.719
  20
 439.845
  30
0.0
  11
 299.842
  21
 352.029
  31
0.0
   0
LINE
   8
LEVEL001
   6
CONTINUOUS
  62
7
  10
 305.002
  20
 432.034
  30
0.0
  11
 304.927
  21
 432.405
  31
0.0
   0
LINE
   8
LEVEL001
   6
CONTINUOUS
  62
7
  10
 304.927
  20
 432.405
  30
0.0
  11
 304.727
  21
 432.766
  31
0.0
   0
LINE
   8
LEVEL001
   6
CONTINUOUS
  62
7
  10
 304.727
  20
 432.766
  30
0.0
  11
 304.408
  21
 433.111
  31
0.0
   0
LINE
   8
LEVEL001
   6
CONTINUOUS
  62
7
  10
 304.408
  20
 433.111
  30
0.0
  11
 303.972
  21
 433.435
  31
0.0
   0
LINE
   8
LEVEL001
   6
CONTINUOUS
  62
7
  10
 303.972
  20
 433.435
  30
0.0
  11
 303.429
  21
 433.732
  31
0.0
   0
LINE
   8
LEVEL001
   6
CONTINUOUS
  62
7
  10
 303.429
  20
 433.732
  30
0.0
  11
 302.785
  21
 433.999
  31
0.0
   0
LINE
   8
LEVEL001
   6
CONTINUOUS
  62
7
  10
 302.785
  20
 433.999
  30
0.0
  11
 302.050
  21
 434.230
  31
0.0
   0
LINE
   8
LEVEL001
   6
CONTINUOUS
  62
7
  10
 302.050
  20
 434.230
  30
0.0
  11
 301.237
  21
 434.423
  31
0.0
   0
LINE
   8
LEVEL001
   6
CONTINUOUS
  62
7
  10
 301.237
  20
 434.423
  30
0.0
  11
 300.358
  21
 434.574
  31
0.0
   0
LINE
   8
LEVEL001
   6
CONTINUOUS
  62
7
  10
 300.358
  20
 434.574
  30
0.0
  11
 299.427
  21
 434.681
  31
0.0
   0
LINE
   8
LEVEL001
   6
CONTINUOUS
  62
7
  10
 299.427
  20
 434.681
  30
0.0
  11
 298.458
  21
 434.743
  31
0.0
   0
LINE
   8
LEVEL001
   6
CONTINUOUS
  62
7
  10
 298.458
  20
 434.743
  30
0.0
  11
 297.467
  21
 434.757
  31
0.0
   0
LINE
   8
LEVEL001
   6
CONTINUOUS
  62
7
  10
 297.467
  20
 434.757
  30
0.0
  11
 296.468
  21
 434.725
  31
0.0
   0
LINE
   8
LEVEL001
   6
CONTINUOUS
  62
7
  10
 296.468
  20
 434.725
  30
0.0
  11
 295.477
  21
 434.646
  31
0.0
   0
LINE
   8
LEVEL001
   6
CONTINUOUS
  62
7
  10
 295.477
  20
 434.646
  30
0.0
  11
 294.511
  21
 434.522
  31
0.0
   0
LINE
   8
LEVEL001
   6
CONTINUOUS
  62
7
  10
 294.511
  20
 434.522
  30
0.0
  11
 293.583
  21
 434.354
  31
0.0
   0
LINE
   8
LEVEL001
   6
CONTINUOUS
  62
7
  10
 293.583
  20
 434.354
  30
0.0
  11
 292.709
  21
 434.147
  31
0.0
   0
LINE
   8
LEVEL001
   6
CONTINUOUS
  62
7
  10
 292.709
  20
 434.147
  30
0.0
  11
 291.902
  21
 433.901
  31
0.0
   0
LINE
   8
LEVEL001
   6
CONTINUOUS
  62
7
  10
 291.902
  20
 433.901
  30
0.0
  11
 291.175
  21
 433.622
  31
0.0
   0
LINE
   8
LEVEL001
   6
CONTINUOUS
  62
7
  10
 291.175
  20
 433.622
  30
0.0
  11
 290.538
  21
 433.314
  31
0.0
   0
LINE
   8
LEVEL001
   6
CONTINUOUS
  62
7
  10
 290.538
  20
 433.314
  30
0.0
  11
 290.003
  21
 432.982
  31
0.0
   0
LINE
   8
LEVEL001
   6
CONTINUOUS
  62
7
  10
 290.003
  20
 432.982
  30
0.0
  11
 289.577
  21
 432.630
  31
0.0
   0
LINE
   8
LEVEL001
   6
CONTINUOUS
  62
7
  10
 289.577
  20
 432.630
  30
0.0
  11
 289.267
  21
 432.264
  31
0.0
   0
LINE
   8
LEVEL001
   6
CONTINUOUS
  62
7
  10
 289.267
  20
 432.264
  30
0.0
  11
 289.077
  21
 431.891
  31
0.0
   0
LINE
   8
LEVEL001
   6
CONTINUOUS
  62
7
  10
 289.077
  20
 431.891
  30
0.0
  11
 289.012
  21
 431.515
  31
0.0
   0
LINE
   8
LEVEL001
   6
CONTINUOUS
  62
7
  10
 289.012
  20
 431.515
  30
0.0
  11
 289.071
  21
 431.143
  31
0.0
   0
LINE
   8
LEVEL001
   6
CONTINUOUS
  62
7
  10
 289.071
  20
 431.143
  30
0.0
  11
 289.254
  21
 430.780
  31
0.0
   0
LINE
   8
LEVEL001
   6
CONTINUOUS
  62
7
  10
 289.254
  20
 430.780
  30
0.0
  11
 289.558
  21
 430.433
  31
0.0
   0
LINE
   8
LEVEL001
   6
CONTINUOUS
  62
7
  10
 289.558
  20
 430.433
  30
0.0
  11
 289.978
  21
 430.106
  31
0.0
   0
LINE
   8
LEVEL001
   6
CONTINUOUS
  62
7
  10
 289.978
  20
 430.106
  30
0.0
  11
 290.508
  21
 429.804
  31
0.0
   0
LINE
   8
LEVEL001
   6
CONTINUOUS
  62
7
  10
 290.508
  20
 429.804
  30
0.0
  11
 291.139
  21
 429.533
  31
0.0
   0
LINE
   8
LEVEL001
   6
CONTINUOUS
  62
7
  10
 291.139
  20
 429.533
  30
0.0
  11
 291.862
  21
 429.297
  31
0.0
   0
LINE
   8
LEVEL001
   6
CONTINUOUS
  62
7
  10
 291.862
  20
 429.297
  30
0.0
  11
 292.665
  21
 429.099
  31
0.0
   0
LINE
   8
LEVEL001
   6
CONTINUOUS
  62
7
  10
 292.665
  20
 429.099
  30
0.0
  11
 293.536
  21
 428.942
  31
0.0
   0
LINE
   8
LEVEL001
   6
CONTINUOUS
  62
7
  10
 293.536
  20
 428.942
  30
0.0
  11
 294.461
  21
 428.829
  31
0.0
   0
LINE
   8
LEVEL001
   6
CONTINUOUS
  62
7
  10
 294.461
  20
 428.829
  30
0.0
  11
 295.426
  21
 428.762
  31
0.0
   0
LINE
   8
LEVEL001
   6
CONTINUOUS
  62
7
  10
 295.426
  20
 428.762
  30
0.0
  11
 296.416
  21
 428.741
  31
0.0
   0
LINE
   8
LEVEL001
   6
CONTINUOUS
  62
7
  10
 296.416
  20
 428.741
  30
0.0
  11
 297.414
  21
 428.767
  31
0.0
   0
LINE
   8
LEVEL001
   6
CONTINUOUS
  62
7
  10
 297.414
  20
 428.767
  30
0.0
  11
 298.407
  21
 428.840
  31
0.0
   0
LINE
   8
LEVEL001
   6
CONTINUOUS
  62
7
  10
 298.407
  20
 428.840
  30
0.0
  11
 299.377
  21
 428.958
  31
0.0
   0
LINE
   8
LEVEL001
   6
CONTINUOUS
  62
7
  10
 299.377
  20
 428.958
  30
0.0
  11
 300.311
  21
 429.120
  31
0.0
   0
LINE
   8
LEVEL001
   6
CONTINUOUS
  62
7
  10
 300.311
  20
 429.120
  30
0.0
  11
 301.193
  21
 429.323
  31
0.0
   0
LINE
   8
LEVEL001
   6
CONTINUOUS
  62
7
  10
 301.193
  20
 429.323
  30
0.0
  11
 302.010
  21
 429.563
  31
0.0
   0
LINE
   8
LEVEL001
   6
CONTINUOUS
  62
7
  10
 302.010
  20
 429.563
  30
0.0
  11
 302.748
  21
 429.838
  31
0.0
   0
LINE
   8
LEVEL001
   6
CONTINUOUS
  62
7
  10
 302.748
  20
 429.838
  30
0.0
  11
 303.397
  21
 430.142
  31
0.0
   0
LINE
   8
LEVEL001
   6
CONTINUOUS
  62
7
  10
 303.397
  20
 430.142
  30
0.0
  11
 303.947
  21
 430.472
  31
0.0
   0
LINE
   8
LEVEL001
   6
CONTINUOUS
  62
7
  10
 303.947
  20
 430.472
  30
0.0
  11
 304.388
  21
 430.822
  31
0.0
   0
LINE
   8
LEVEL001
   6
CONTINUOUS
  62
7
  10
 304.388
  20
 430.822
  30
0.0
  11
 304.714
  21
 431.186
  31
0.0
   0
LINE
   8
LEVEL001
   6
CONTINUOUS
  62
7
  10
 304.714
  20
 431.186
  30
0.0
  11
 304.919
  21
 431.558
  31
0.0
   0
LINE
   8
LEVEL001
   6
CONTINUOUS
  62
7
  10
 304.919
  20
 431.558
  30
0.0
  11
 305.001
  21
 431.934
  31
0.0
   0
LINE
   8
LEVEL001
   6
CONTINUOUS
  62
7
  10
 305.001
  20
 431.934
  30
0.0
  11
 305.002
  21
 432.034
  31
0.0
   0
LINE
   8
LEVEL001
   6
CONTINUOUS
  62
7
  10
 288.848
  20
 422.004
  30
0.0
  11
 288.533
  21
 430.890
  31
0.0
   0
LINE
   8
LEVEL001
   6
CONTINUOUS
  62
7
  10
 305.522
  20
 431.494
  30
0.0
  11
 305.838
  21
 422.608
  31
0.0
   0
LINE
   8
LEVEL001
   6
CONTINUOUS
  62
7
  10
 294.069
  20
 433.479
  30
0.0
  11
 299.815
  21
 433.683
  31
0.0
   0
LINE
   8
LEVEL001
   6
CONTINUOUS
  62
7
  10
 299.815
  20
 433.683
  30
0.0
  11
 302.754
  21
 431.954
  31
0.0
   0
LINE
   8
LEVEL001
   6
CONTINUOUS
  62
7
  10
 302.754
  20
 431.954
  30
0.0
  11
 299.946
  21
 430.020
  31
0.0
   0
LINE
   8
LEVEL001
   6
CONTINUOUS
  62
7
  10
 299.946
  20
 430.020
  30
0.0
  11
 294.199
  21
 429.816
  31
0.0
   0
LINE
   8
LEVEL001
   6
CONTINUOUS
  62
7
  10
 294.199
  20
 429.816
  30
0.0
  11
 291.261
  21
 431.545
  31
0.0
   0
LINE
   8
LEVEL001
   6
CONTINUOUS
  62
7
  10
 291.261
  20
 431.545
  30
0.0
  11
 294.069
  21
 433.479
  31
0.0
   0
LINE
   8
LEVEL001
   6
CONTINUOUS
  62
7
  10
 288.848
  20
 422.004
  30
0.0
  11
 288.929
  21
 421.610
  31
0.0
   0
LINE
   8
LEVEL001
   6
CONTINUOUS
  62
7
  10
 288.929
  20
 421.610
  30
0.0
  11
 289.141
  21
 421.226
  31
0.0
   0
LINE
   8
LEVEL001
   6
CONTINUOUS
  62
7
  10
 289.141
  20
 421.226
  30
0.0
  11
 289.480
  21
 420.860
  31
0.0
   0
LINE
   8
LEVEL001
   6
CONTINUOUS
  62
7
  10
 289.480
  20
 420.860
  30
0.0
  11
 289.943
  21
 420.515
  31
0.0
   0
LINE
   8
LEVEL001
   6
CONTINUOUS
  62
7
  10
 289.943
  20
 420.515
  30
0.0
  11
 290.520
  21
 420.199
  31
0.0
   0
LINE
   8
LEVEL001
   6
CONTINUOUS
  62
7
  10
 290.520
  20
 420.199
  30
0.0
  11
 291.205
  21
 419.916
  31
0.0
   0
LINE
   8
LEVEL001
   6
CONTINUOUS
  62
7
  10
 291.205
  20
 419.916
  30
0.0
  11
 291.985
  21
 419.670
  31
0.0
   0
LINE
   8
LEVEL001
   6
CONTINUOUS
  62
7
  10
 291.985
  20
 419.670
  30
0.0
  11
 292.849
  21
 419.465
  31
0.0
   0
LINE
   8
LEVEL001
   6
CONTINUOUS
  62
7
  10
 292.849
  20
 419.465
  30
0.0
  11
 293.782
  21
 419.305
  31
0.0
   0
LINE
   8
LEVEL001
   6
CONTINUOUS
  62
7
  10
 293.782
  20
 419.305
  30
0.0
  11
 294.772
  21
 419.191
  31
0.0
   0
LINE
   8
LEVEL001
   6
CONTINUOUS
  62
7
  10
 294.772
  20
 419.191
  30
0.0
  11
 295.801
  21
 419.126
  31
0.0
   0
LINE
   8
LEVEL001
   6
CONTINUOUS
  62
7
  10
 295.801
  20
 419.126
  30
0.0
  11
 296.855
  21
 419.111
  31
0.0
   0
LINE
   8
LEVEL001
   6
CONTINUOUS
  62
7
  10
 296.855
  20
 419.111
  30
0.0
  11
 297.916
  21
 419.145
  31
0.0
   0
LINE
   8
LEVEL001
   6
CONTINUOUS
  62
7
  10
 297.916
  20
 419.145
  30
0.0
  11
 298.969
  21
 419.229
  31
0.0
   0
LINE
   8
LEVEL001
   6
CONTINUOUS
  62
7
  10
 298.969
  20
 419.229
  30
0.0
  11
 299.995
  21
 419.361
  31
0.0
   0
LINE
   8
LEVEL001
   6
CONTINUOUS
  62
7
  10
 299.995
  20
 419.361
  30
0.0
  11
 300.981
  21
 419.538
  31
0.0
   0
LINE
   8
LEVEL001
   6
CONTINUOUS
  62
7
  10
 300.981
  20
 419.538
  30
0.0
  11
 301.910
  21
 419.759
  31
0.0
   0
LINE
   8
LEVEL001
   6
CONTINUOUS
  62
7
  10
 301.910
  20
 419.759
  30
0.0
  11
 302.767
  21
 420.020
  31
0.0
   0
LINE
   8
LEVEL001
   6
CONTINUOUS
  62
7
  10
 302.767
  20
 420.020
  30
0.0
  11
 303.540
  21
 420.316
  31
0.0
   0
LINE
   8
LEVEL001
   6
CONTINUOUS
  62
7
  10
 303.540
  20
 420.316
  30
0.0
  11
 304.216
  21
 420.644
  31
0.0
   0
LINE
   8
LEVEL001
   6
CONTINUOUS
  62
7
  10
 304.216
  20
 420.644
  30
0.0
  11
 304.785
  21
 420.997
  31
0.0
   0
LINE
   8
LEVEL001
   6
CONTINUOUS
  62
7
  10
 304.785
  20
 420.997
  30
0.0
  11
 305.238
  21
 421.371
  31
0.0
   0
LINE
   8
LEVEL001
   6
CONTINUOUS
  62
7
  10
 305.238
  20
 421.371
  30
0.0
  11
 305.567
  21
 421.759
  31
0.0
   0
LINE
   8
LEVEL001
   6
CONTINUOUS
  62
7
  10
 305.567
  20
 421.759
  30
0.0
  11
 305.769
  21
 422.156
  31
0.0
   0
LINE
   8
LEVEL001
   6
CONTINUOUS
  62
7
  10
 305.769
  20
 422.156
  30
0.0
  11
 305.838
  21
 422.555
  31
0.0
   0
LINE
   8
LEVEL001
   6
CONTINUOUS
  62
7
  10
 305.838
  20
 422.555
  30
0.0
  11
 305.838
  21
 422.608
  31
0.0
   0
LINE
   8
LEVEL001
   6
CONTINUOUS
  62
7
  10
 288.987
  20
 431.975
  30
0.0
  11
 289.440
  21
 432.487
  31
0.0
   0
LINE
   8
LEVEL001
   6
CONTINUOUS
  62
7
  10
 304.503
  20
 433.022
  30
0.0
  11
 304.991
  21
 432.544
  31
0.0
   0
LINE
   8
LEVEL001
   6
CONTINUOUS
  62
7
  10
 288.987
  20
 431.975
  30
0.0
  11
 288.708
  21
 431.582
  31
0.0
   0
LINE
   8
LEVEL001
   6
CONTINUOUS
  62
7
  10
 288.708
  20
 431.582
  30
0.0
  11
 288.558
  21
 431.184
  31
0.0
   0
LINE
   8
LEVEL001
   6
CONTINUOUS
  62
7
  10
 288.558
  20
 431.184
  30
0.0
  11
 288.541
  21
 430.785
  31
0.0
   0
LINE
   8
LEVEL001
   6
CONTINUOUS
  62
7
  10
 288.541
  20
 430.785
  30
0.0
  11
 288.656
  21
 430.393
  31
0.0
   0
LINE
   8
LEVEL001
   6
CONTINUOUS
  62
7
  10
 288.656
  20
 430.393
  30
0.0
  11
 288.902
  21
 430.014
  31
0.0
   0
LINE
   8
LEVEL001
   6
CONTINUOUS
  62
7
  10
 288.902
  20
 430.014
  30
0.0
  11
 289.274
  21
 429.652
  31
0.0
   0
LINE
   8
LEVEL001
   6
CONTINUOUS
  62
7
  10
 289.274
  20
 429.652
  30
0.0
  11
 289.768
  21
 429.315
  31
0.0
   0
LINE
   8
LEVEL001
   6
CONTINUOUS
  62
7
  10
 289.768
  20
 429.315
  30
0.0
  11
 290.374
  21
 429.007
  31
0.0
   0
LINE
   8
LEVEL001
   6
CONTINUOUS
  62
7
  10
 290.374
  20
 429.007
  30
0.0
  11
 291.085
  21
 428.733
  31
0.0
   0
LINE
   8
LEVEL001
   6
CONTINUOUS
  62
7
  10
 291.085
  20
 428.733
  30
0.0
  11
 291.888
  21
 428.498
  31
0.0
   0
LINE
   8
LEVEL001
   6
CONTINUOUS
  62
7
  10
 291.888
  20
 428.498
  30
0.0
  11
 292.772
  21
 428.304
  31
0.0
   0
LINE
   8
LEVEL001
   6
CONTINUOUS
  62
7
  10
 292.772
  20
 428.304
  30
0.0
  11
 293.722
  21
 428.156
  31
0.0
   0
LINE
   8
LEVEL001
   6
CONTINUOUS
  62
7
  10
 293.722
  20
 428.156
  30
0.0
  11
 294.723
  21
 428.055
  31
0.0
   0
LINE
   8
LEVEL001
   6
CONTINUOUS
  62
7
  10
 294.723
  20
 428.055
  30
0.0
  11
 295.761
  21
 428.003
  31
0.0
   0
LINE
   8
LEVEL001
   6
CONTINUOUS
  62
7
  10
 295.761
  20
 428.003
  30
0.0
  11
 296.818
  21
 428.000
  31
0.0
   0
LINE
   8
LEVEL001
   6
CONTINUOUS
  62
7
  10
 296.818
  20
 428.000
  30
0.0
  11
 297.878
  21
 428.048
  31
0.0
   0
LINE
   8
LEVEL001
   6
CONTINUOUS
  62
7
  10
 297.878
  20
 428.048
  30
0.0
  11
 298.925
  21
 428.144
  31
0.0
   0
LINE
   8
LEVEL001
   6
CONTINUOUS
  62
7
  10
 298.925
  20
 428.144
  30
0.0
  11
 299.943
  21
 428.288
  31
0.0
   0
LINE
   8
LEVEL001
   6
CONTINUOUS
  62
7
  10
 299.943
  20
 428.288
  30
0.0
  11
 300.915
  21
 428.478
  31
0.0
   0
LINE
   8
LEVEL001
   6
CONTINUOUS
  62
7
  10
 300.915
  20
 428.478
  30
0.0
  11
 301.826
  21
 428.709
  31
0.0
   0
LINE
   8
LEVEL001
   6
CONTINUOUS
  62
7
  10
 301.826
  20
 428.709
  30
0.0
  11
 302.663
  21
 428.980
  31
0.0
   0
LINE
   8
LEVEL001
   6
CONTINUOUS
  62
7
  10
 302.663
  20
 428.980
  30
0.0
  11
 303.412
  21
 429.285
  31
0.0
   0
LINE
   8
LEVEL001
   6
CONTINUOUS
  62
7
  10
 303.412
  20
 429.285
  30
0.0
  11
 304.060
  21
 429.620
  31
0.0
   0
LINE
   8
LEVEL001
   6
CONTINUOUS
  62
7
  10
 304.060
  20
 429.620
  30
0.0
  11
 304.600
  21
 429.979
  31
0.0
   0
LINE
   8
LEVEL001
   6
CONTINUOUS
  62
7
  10
 304.600
  20
 429.979
  30
0.0
  11
 305.021
  21
 430.357
  31
0.0
   0
LINE
   8
LEVEL001
   6
CONTINUOUS
  62
7
  10
 305.021
  20
 430.357
  30
0.0
  11
 305.317
  21
 430.748
  31
0.0
   0
LINE
   8
LEVEL001
   6
CONTINUOUS
  62
7
  10
 305.317
  20
 430.748
  30
0.0
  11
 305.484
  21
 431.146
  31
0.0
   0
LINE
   8
LEVEL001
   6
CONTINUOUS
  62
7
  10
 305.484
  20
 431.146
  30
0.0
  11
 305.519
  21
 431.545
  31
0.0
   0
LINE
   8
LEVEL001
   6
CONTINUOUS
  62
7
  10
 305.519
  20
 431.545
  30
0.0
  11
 305.421
  21
 431.939
  31
0.0
   0
LINE
   8
LEVEL001
   6
CONTINUOUS
  62
7
  10
 305.421
  20
 431.939
  30
0.0
  11
 305.193
  21
 432.320
  31
0.0
   0
LINE
   8
LEVEL001
   6
CONTINUOUS
  62
7
  10
 305.193
  20
 432.320
  30
0.0
  11
 304.991
  21
 432.544
  31
0.0
   0
LINE
   8
LEVEL001
   6
CONTINUOUS
  62
7
  10
 329.019
  20
 431.976
  30
0.0
  11
 328.944
  21
 432.348
  31
0.0
   0
LINE
   8
LEVEL001
   6
CONTINUOUS
  62
7
  10
 328.944
  20
 432.348
  30
0.0
  11
 328.745
  21
 432.709
  31
0.0
   0
LINE
   8
LEVEL001
   6
CONTINUOUS
  62
7
  10
 328.745
  20
 432.709
  30
0.0
  11
 328.425
  21
 433.054
  31
0.0
   0
LINE
   8
LEVEL001
   6
CONTINUOUS
  62
7
  10
 328.425
  20
 433.054
  30
0.0
  11
 327.990
  21
 433.378
  31
0.0
   0
LINE
   8
LEVEL001
   6
CONTINUOUS
  62
7
  10
 327.990
  20
 433.378
  30
0.0
  11
 327.446
  21
 433.675
  31
0.0
   0
LINE
   8
LEVEL001
   6
CONTINUOUS
  62
7
  10
 327.446
  20
 433.675
  30
0.0
  11
 326.802
  21
 433.942
  31
0.0
   0
LINE
   8
LEVEL001
   6
CONTINUOUS
  62
7
  10
 326.802
  20
 433.942
  30
0.0
  11
 326.068
  21
 434.173
  31
0.0
   0
LINE
   8
LEVEL001
   6
CONTINUOUS
  62
7
  10
 326.068
  20
 434.173
  30
0.0
  11
 325.255
  21
 434.366
  31
0.0
   0
LINE
   8
LEVEL001
   6
CONTINUOUS
  62
7
  10
 325.255
  20
 434.366
  30
0.0
  11
 324.376
  21
 434.517
  31
0.0
   0
LINE
   8
LEVEL001
   6
CONTINUOUS
  62
7
  10
 324.376
  20
 434.517
  30
0.0
  11
 323.444
  21
 434.624
  31
0.0
   0
LINE
   8
LEVEL001
   6
CONTINUOUS
  62
7
  10
 323.444
  20
 434.624
  30
0.0
  11
 322.475
  21
 434.685
  31
0.0
   0
LINE
   8
LEVEL001
   6
CONTINUOUS
  62
7
  10
 322.475
  20
 434.685
  30
0.0
  11
 321.484
  21
 434.700
  31
0.0
   0
LINE
   8
LEVEL001
   6
CONTINUOUS
  62
7
  10
 321.484
  20
 434.700
  30
0.0
  11
 320.485
  21
 434.667
  31
0.0
   0
LINE
   8
LEVEL001
   6
CONTINUOUS
  62
7
  10
 320.485
  20
 434.667
  30
0.0
  11
 319.495
  21
 434.589
  31
0.0
   0
LINE
   8
LEVEL001
   6
CONTINUOUS
  62
7
  10
 319.495
  20
 434.589
  30
0.0
  11
 318.528
  21
 434.465
  31
0.0
   0
LINE
   8
LEVEL001
   6
CONTINUOUS
  62
7
  10
 318.528
  20
 434.465
  30
0.0
  11
 317.601
  21
 434.297
  31
0.0
   0
LINE
   8
LEVEL001
   6
CONTINUOUS
  62
7
  10
 317.601
  20
 434.297
  30
0.0
  11
 316.727
  21
 434.089
  31
0.0
   0
LINE
   8
LEVEL001
   6
CONTINUOUS
  62
7
  10
 316.727
  20
 434.089
  30
0.0
  11
 315.919
  21
 433.844
  31
0.0
   0
LINE
   8
LEVEL001
   6
CONTINUOUS
  62
7
  10
 315.919
  20
 433.844
  30
0.0
  11
 315.192
  21
 433.565
  31
0.0
   0
LINE
   8
LEVEL001
   6
CONTINUOUS
  62
7
  10
 315.192
  20
 433.565
  30
0.0
  11
 314.556
  21
 433.257
  31
0.0
   0
LINE
   8
LEVEL001
   6
CONTINUOUS
  62
7
  10
 314.556
  20
 433.257
  30
0.0
  11
 314.020
  21
 432.924
  31
0.0
   0
LINE
   8
LEVEL001
   6
CONTINUOUS
  62
7
  10
 314.020
  20
 432.924
  30
0.0
  11
 313.594
  21
 432.573
  31
0.0
   0
LINE
   8
LEVEL001
   6
CONTINUOUS
  62
7
  10
 313.594
  20
 432.573
  30
0.0
  11
 313.284
  21
 432.207
  31
0.0
   0
LINE
   8
LEVEL001
   6
CONTINUOUS
  62
7
  10
 313.284
  20
 432.207
  30
0.0
  11
 313.095
  21
 431.833
  31
0.0
   0
LINE
   8
LEVEL001
   6
CONTINUOUS
  62
7
  10
 313.095
  20
 431.833
  30
0.0
  11
 313.029
  21
 431.458
  31
0.0
   0
LINE
   8
LEVEL001
   6
CONTINUOUS
  62
7
  10
 313.029
  20
 431.458
  30
0.0
  11
 313.088
  21
 431.086
  31
0.0
   0
LINE
   8
LEVEL001
   6
CONTINUOUS
  62
7
  10
 313.088
  20
 431.086
  30
0.0
  11
 313.271
  21
 430.723
  31
0.0
   0
LINE
   8
LEVEL001
   6
CONTINUOUS
  62
7
  10
 313.271
  20
 430.723
  30
0.0
  11
 313.575
  21
 430.375
  31
0.0
   0
LINE
   8
LEVEL001
   6
CONTINUOUS
  62
7
  10
 313.575
  20
 430.375
  30
0.0
  11
 313.995
  21
 430.048
  31
0.0
   0
LINE
   8
LEVEL001
   6
CONTINUOUS
  62
7
  10
 313.995
  20
 430.048
  30
0.0
  11
 314.525
  21
 429.747
  31
0.0
   0
LINE
   8
LEVEL001
   6
CONTINUOUS
  62
7
  10
 314.525
  20
 429.747
  30
0.0
  11
 315.156
  21
 429.476
  31
0.0
   0
LINE
   8
LEVEL001
   6
CONTINUOUS
  62
7
  10
 315.156
  20
 429.476
  30
0.0
  11
 315.879
  21
 429.240
  31
0.0
   0
LINE
   8
LEVEL001
   6
CONTINUOUS
  62
7
  10
 315.879
  20
 429.240
  30
0.0
  11
 316.682
  21
 429.042
  31
0.0
   0
LINE
   8
LEVEL001
   6
CONTINUOUS
  62
7
  10
 316.682
  20
 429.042
  30
0.0
  11
 317.553
  21
 428.885
  31
0.0
   0
LINE
   8
LEVEL001
   6
CONTINUOUS
  62
7
  10
 317.553
  20
 428.885
  30
0.0
  11
 318.478
  21
 428.772
  31
0.0
   0
LINE
   8
LEVEL001
   6
CONTINUOUS
  62
7
  10
 318.478
  20
 428.772
  30
0.0
  11
 319.443
  21
 428.705
  31
0.0
   0
LINE
   8
LEVEL001
   6
CONTINUOUS
  62
7
  10
 319.443
  20
 428.705
  30
0.0
  11
 320.433
  21
 428.684
  31
0.0
   0
LINE
   8
LEVEL001
   6
CONTINUOUS
  62
7
  10
 320.433
  20
 428.684
  30
0.0
  11
 321.432
  21
 428.710
  31
0.0
   0
LINE
   8
LEVEL001
   6
CONTINUOUS
  62
7
  10
 321.432
  20
 428.710
  30
0.0
  11
 322.424
  21
 428.783
  31
0.0
   0
LINE
   8
LEVEL001
   6
CONTINUOUS
  62
7
  10
 322.424
  20
 428.783
  30
0.0
  11
 323.395
  21
 428.901
  31
0.0
   0
LINE
   8
LEVEL001
   6
CONTINUOUS
  62
7
  10
 323.395
  20
 428.901
  30
0.0
  11
 324.328
  21
 429.063
  31
0.0
   0
LINE
   8
LEVEL001
   6
CONTINUOUS
  62
7
  10
 324.328
  20
 429.063
  30
0.0
  11
 325.210
  21
 429.265
  31
0.0
   0
LINE
   8
LEVEL001
   6
CONTINUOUS
  62
7
  10
 325.210
  20
 429.265
  30
0.0
  11
 326.027
  21
 429.506
  31
0.0
   0
LINE
   8
LEVEL001
   6
CONTINUOUS
  62
7
  10
 326.027
  20
 429.506
  30
0.0
  11
 326.765
  21
 429.781
  31
0.0
   0
LINE
   8
LEVEL001
   6
CONTINUOUS
  62
7
  10
 326.765
  20
 429.781
  30
0.0
  11
 327.414
  21
 430.085
  31
0.0
   0
LINE
   8
LEVEL001
   6
CONTINUOUS
  62
7
  10
 327.414
  20
 430.085
  30
0.0
  11
 327.964
  21
 430.415
  31
0.0
   0
LINE
   8
LEVEL001
   6
CONTINUOUS
  62
7
  10
 327.964
  20
 430.415
  30
0.0
  11
 328.405
  21
 430.764
  31
0.0
   0
LINE
   8
LEVEL001
   6
CONTINUOUS
  62
7
  10
 328.405
  20
 430.764
  30
0.0
  11
 328.731
  21
 431.128
  31
0.0
   0
LINE
   8
LEVEL001
   6
CONTINUOUS
  62
7
  10
 328.731
  20
 431.128
  30
0.0
  11
 328.936
  21
 431.501
  31
0.0
   0
LINE
   8
LEVEL001
   6
CONTINUOUS
  62
7
  10
 328.936
  20
 431.501
  30
0.0
  11
 329.019
  21
 431.877
  31
0.0
   0
LINE
   8
LEVEL001
   6
CONTINUOUS
  62
7
  10
 329.019
  20
 431.877
  30
0.0
  11
 329.019
  21
 431.976
  31
0.0
   0
LINE
   8
LEVEL001
   6
CONTINUOUS
  62
7
  10
 312.866
  20
 421.947
  30
0.0
  11
 312.550
  21
 430.832
  31
0.0
   0
LINE
   8
LEVEL001
   6
CONTINUOUS
  62
7
  10
 329.539
  20
 431.436
  30
0.0
  11
 329.855
  21
 422.551
  31
0.0
   0
LINE
   8
LEVEL001
   6
CONTINUOUS
  62
7
  10
 318.086
  20
 433.421
  30
0.0
  11
 323.833
  21
 433.626
  31
0.0
   0
LINE
   8
LEVEL001
   6
CONTINUOUS
  62
7
  10
 323.833
  20
 433.626
  30
0.0
  11
 326.771
  21
 431.897
  31
0.0
   0
LINE
   8
LEVEL001
   6
CONTINUOUS
  62
7
  10
 326.771
  20
 431.897
  30
0.0
  11
 323.963
  21
 429.963
  31
0.0
   0
LINE
   8
LEVEL001
   6
CONTINUOUS
  62
7
  10
 323.963
  20
 429.963
  30
0.0
  11
 318.216
  21
 429.759
  31
0.0
   0
LINE
   8
LEVEL001
   6
CONTINUOUS
  62
7
  10
 318.216
  20
 429.759
  30
0.0
  11
 315.278
  21
 431.488
  31
0.0
   0
LINE
   8
LEVEL001
   6
CONTINUOUS
  62
7
  10
 315.278
  20
 431.488
  30
0.0
  11
 318.086
  21
 433.421
  31
0.0
   0
LINE
   8
LEVEL001
   6
CONTINUOUS
  62
7
  10
 312.866
  20
 421.947
  30
0.0
  11
 312.946
  21
 421.552
  31
0.0
   0
LINE
   8
LEVEL001
   6
CONTINUOUS
  62
7
  10
 312.946
  20
 421.552
  30
0.0
  11
 313.158
  21
 421.169
  31
0.0
   0
LINE
   8
LEVEL001
   6
CONTINUOUS
  62
7
  10
 313.158
  20
 421.169
  30
0.0
  11
 313.497
  21
 420.802
  31
0.0
   0
LINE
   8
LEVEL001
   6
CONTINUOUS
  62
7
  10
 313.497
  20
 420.802
  30
0.0
  11
 313.960
  21
 420.458
  31
0.0
   0
LINE
   8
LEVEL001
   6
CONTINUOUS
  62
7
  10
 313.960
  20
 420.458
  30
0.0
  11
 314.538
  21
 420.142
  31
0.0
   0
LINE
   8
LEVEL001
   6
CONTINUOUS
  62
7
  10
 314.538
  20
 420.142
  30
0.0
  11
 315.222
  21
 419.859
  31
0.0
   0
LINE
   8
LEVEL001
   6
CONTINUOUS
  62
7
  10
 315.222
  20
 419.859
  30
0.0
  11
 316.002
  21
 419.613
  31
0.0
   0
LINE
   8
LEVEL001
   6
CONTINUOUS
  62
7
  10
 316.002
  20
 419.613
  30
0.0
  11
 316.866
  21
 419.408
  31
0.0
   0
LINE
   8
LEVEL001
   6
CONTINUOUS
  62
7
  10
 316.866
  20
 419.408
  30
0.0
  11
 317.800
  21
 419.248
  31
0.0
   0
LINE
   8
LEVEL001
   6
CONTINUOUS
  62
7
  10
 317.800
  20
 419.248
  30
0.0
  11
 318.789
  21
 419.134
  31
0.0
   0
LINE
   8
LEVEL001
   6
CONTINUOUS
  62
7
  10
 318.789
  20
 419.134
  30
0.0
  11
 319.819
  21
 419.069
  31
0.0
   0
LINE
   8
LEVEL001
   6
CONTINUOUS
  62
7
  10
 319.819
  20
 419.069
  30
0.0
  11
 320.872
  21
 419.053
  31
0.0
   0
LINE
   8
LEVEL001
   6
CONTINUOUS
  62
7
  10
 320.872
  20
 419.053
  30
0.0
  11
 321.933
  21
 419.088
  31
0.0
   0
LINE
   8
LEVEL001
   6
CONTINUOUS
  62
7
  10
 321.933
  20
 419.088
  30
0.0
  11
 322.986
  21
 419.172
  31
0.0
   0
LINE
   8
LEVEL001
   6
CONTINUOUS
  62
7
  10
 322.986
  20
 419.172
  30
0.0
  11
 324.013
  21
 419.303
  31
0.0
   0
LINE
   8
LEVEL001
   6
CONTINUOUS
  62
7
  10
 324.013
  20
 419.303
  30
0.0
  11
 324.998
  21
 419.481
  31
0.0
   0
LINE
   8
LEVEL001
   6
CONTINUOUS
  62
7
  10
 324.998
  20
 419.481
  30
0.0
  11
 325.927
  21
 419.702
  31
0.0
   0
LINE
   8
LEVEL001
   6
CONTINUOUS
  62
7
  10
 325.927
  20
 419.702
  30
0.0
  11
 326.784
  21
 419.963
  31
0.0
   0
LINE
   8
LEVEL001
   6
CONTINUOUS
  62
7
  10
 326.784
  20
 419.963
  30
0.0
  11
 327.557
  21
 420.259
  31
0.0
   0
LINE
   8
LEVEL001
   6
CONTINUOUS
  62
7
  10
 327.557
  20
 420.259
  30
0.0
  11
 328.233
  21
 420.586
  31
0.0
   0
LINE
   8
LEVEL001
   6
CONTINUOUS
  62
7
  10
 328.233
  20
 420.586
  30
0.0
  11
 328.802
  21
 420.940
  31
0.0
   0
LINE
   8
LEVEL001
   6
CONTINUOUS
  62
7
  10
 328.802
  20
 420.940
  30
0.0
  11
 329.255
  21
 421.314
  31
0.0
   0
LINE
   8
LEVEL001
   6
CONTINUOUS
  62
7
  10
 329.255
  20
 421.314
  30
0.0
  11
 329.585
  21
 421.702
  31
0.0
   0
LINE
   8
LEVEL001
   6
CONTINUOUS
  62
7
  10
 329.585
  20
 421.702
  30
0.0
  11
 329.786
  21
 422.099
  31
0.0
   0
LINE
   8
LEVEL001
   6
CONTINUOUS
  62
7
  10
 329.786
  20
 422.099
  30
0.0
  11
 329.856
  21
 422.498
  31
0.0
   0
LINE
   8
LEVEL001
   6
CONTINUOUS
  62
7
  10
 329.856
  20
 422.498
  30
0.0
  11
 329.855
  21
 422.551
  31
0.0
   0
LINE
   8
LEVEL001
   6
CONTINUOUS
  62
7
  10
 313.004
  20
 431.918
  30
0.0
  11
 313.457
  21
 432.429
  31
0.0
   0
LINE
   8
LEVEL001
   6
CONTINUOUS
  62
7
  10
 328.520
  20
 432.965
  30
0.0
  11
 329.009
  21
 432.487
  31
0.0
   0
LINE
   8
LEVEL001
   6
CONTINUOUS
  62
7
  10
 313.004
  20
 431.918
  30
0.0
  11
 312.725
  21
 431.525
  31
0.0
   0
LINE
   8
LEVEL001
   6
CONTINUOUS
  62
7
  10
 312.725
  20
 431.525
  30
0.0
  11
 312.575
  21
 431.126
  31
0.0
   0
LINE
   8
LEVEL001
   6
CONTINUOUS
  62
7
  10
 312.575
  20
 431.126
  30
0.0
  11
 312.558
  21
 430.728
  31
0.0
   0
LINE
   8
LEVEL001
   6
CONTINUOUS
  62
7
  10
 312.558
  20
 430.728
  30
0.0
  11
 312.673
  21
 430.336
  31
0.0
   0
LINE
   8
LEVEL001
   6
CONTINUOUS
  62
7
  10
 312.673
  20
 430.336
  30
0.0
  11
 312.919
  21
 429.956
  31
0.0
   0
LINE
   8
LEVEL001
   6
CONTINUOUS
  62
7
  10
 312.919
  20
 429.956
  30
0.0
  11
 313.291
  21
 429.595
  31
0.0
   0
LINE
   8
LEVEL001
   6
CONTINUOUS
  62
7
  10
 313.291
  20
 429.595
  30
0.0
  11
 313.785
  21
 429.258
  31
0.0
   0
LINE
   8
LEVEL001
   6
CONTINUOUS
  62
7
  10
 313.785
  20
 429.258
  30
0.0
  11
 314.392
  21
 428.950
  31
0.0
   0
LINE
   8
LEVEL001
   6
CONTINUOUS
  62
7
  10
 314.392
  20
 428.950
  30
0.0
  11
 315.102
  21
 428.676
  31
0.0
   0
LINE
   8
LEVEL001
   6
CONTINUOUS
  62
7
  10
 315.102
  20
 428.676
  30
0.0
  11
 315.905
  21
 428.440
  31
0.0
   0
LINE
   8
LEVEL001
   6
CONTINUOUS
  62
7
  10
 315.905
  20
 428.440
  30
0.0
  11
 316.789
  21
 428.247
  31
0.0
   0
LINE
   8
LEVEL001
   6
CONTINUOUS
  62
7
  10
 316.789
  20
 428.247
  30
0.0
  11
 317.739
  21
 428.098
  31
0.0
   0
LINE
   8
LEVEL001
   6
CONTINUOUS
  62
7
  10
 317.739
  20
 428.098
  30
0.0
  11
 318.740
  21
 427.997
  31
0.0
   0
LINE
   8
LEVEL001
   6
CONTINUOUS
  62
7
  10
 318.740
  20
 427.997
  30
0.0
  11
 319.778
  21
 427.945
  31
0.0
   0
LINE
   8
LEVEL001
   6
CONTINUOUS
  62
7
  10
 319.778
  20
 427.945
  30
0.0
  11
 320.835
  21
 427.943
  31
0.0
   0
LINE
   8
LEVEL001
   6
CONTINUOUS
  62
7
  10
 320.835
  20
 427.943
  30
0.0
  11
 321.895
  21
 427.990
  31
0.0
   0
LINE
   8
LEVEL001
   6
CONTINUOUS
  62
7
  10
 321.895
  20
 427.990
  30
0.0
  11
 322.943
  21
 428.087
  31
0.0
   0
LINE
   8
LEVEL001
   6
CONTINUOUS
  62
7
  10
 322.943
  20
 428.087
  30
0.0
  11
 323.960
  21
 428.231
  31
0.0
   0
LINE
   8
LEVEL001
   6
CONTINUOUS
  62
7
  10
 323.960
  20
 428.231
  30
0.0
  11
 324.932
  21
 428.420
  31
0.0
   0
LINE
   8
LEVEL001
   6
CONTINUOUS
  62
7
  10
 324.932
  20
 428.420
  30
0.0
  11
 325.844
  21
 428.652
  31
0.0
   0
LINE
   8
LEVEL001
   6
CONTINUOUS
  62
7
  10
 325.844
  20
 428.652
  30
0.0
  11
 326.680
  21
 428.923
  31
0.0
   0
LINE
   8
LEVEL001
   6
CONTINUOUS
  62
7
  10
 326.680
  20
 428.923
  30
0.0
  11
 327.429
  21
 429.228
  31
0.0
   0
LINE
   8
LEVEL001
   6
CONTINUOUS
  62
7
  10
 327.429
  20
 429.228
  30
0.0
  11
 328.078
  21
 429.562
  31
0.0
   0
LINE
   8
LEVEL001
   6
CONTINUOUS
  62
7
  10
 328.078
  20
 429.562
  30
0.0
  11
 328.617
  21
 429.922
  31
0.0
   0
LINE
   8
LEVEL001
   6
CONTINUOUS
  62
7
  10
 328.617
  20
 429.922
  30
0.0
  11
 329.038
  21
 430.300
  31
0.0
   0
LINE
   8
LEVEL001
   6
CONTINUOUS
  62
7
  10
 329.038
  20
 430.300
  30
0.0
  11
 329.334
  21
 430.691
  31
0.0
   0
LINE
   8
LEVEL001
   6
CONTINUOUS
  62
7
  10
 329.334
  20
 430.691
  30
0.0
  11
 329.501
  21
 431.089
  31
0.0
   0
LINE
   8
LEVEL001
   6
CONTINUOUS
  62
7
  10
 329.501
  20
 431.089
  30
0.0
  11
 329.536
  21
 431.488
  31
0.0
   0
LINE
   8
LEVEL001
   6
CONTINUOUS
  62
7
  10
 329.536
  20
 431.488
  30
0.0
  11
 329.438
  21
 431.881
  31
0.0
   0
LINE
   8
LEVEL001
   6
CONTINUOUS
  62
7
  10
 329.438
  20
 431.881
  30
0.0
  11
 329.210
  21
 432.263
  31
0.0
   0
LINE
   8
LEVEL001
   6
CONTINUOUS
  62
7
  10
 329.210
  20
 432.263
  30
0.0
  11
 329.009
  21
 432.487
  31
0.0
   0
LINE
   8
LEVEL001
   6
CONTINUOUS
  62
7
  10
 326.497
  20
 434.045
  30
0.0
  11
 327.477
  21
 435.139
  31
0.0
   0
LINE
   8
LEVEL001
   6
CONTINUOUS
  62
7
  10
 327.477
  20
 435.139
  30
0.0
  11
 328.087
  21
 436.257
  31
0.0
   0
LINE
   8
LEVEL001
   6
CONTINUOUS
  62
7
  10
 328.087
  20
 436.257
  30
0.0
  11
 328.318
  21
 437.384
  31
0.0
   0
LINE
   8
LEVEL001
   6
CONTINUOUS
  62
7
  10
 328.318
  20
 437.384
  30
0.0
  11
 328.318
  21
 437.620
  31
0.0
   0
LINE
   8
LEVEL001
   6
CONTINUOUS
  62
7
  10
 287.669
  20
 429.504
  30
0.0
  11
 288.591
  21
 429.249
  31
0.0
   0
LINE
   8
LEVEL001
   6
CONTINUOUS
  62
7
  10
 305.651
  20
 427.846
  30
0.0
  11
 308.682
  21
 428.092
  31
0.0
   0
LINE
   8
LEVEL001
   6
CONTINUOUS
  62
7
  10
 308.682
  20
 428.092
  30
0.0
  11
 311.636
  21
 428.474
  31
0.0
   0
LINE
   8
LEVEL001
   6
CONTINUOUS
  62
7
  10
 311.636
  20
 428.474
  30
0.0
  11
 312.628
  21
 428.635
  31
0.0
   0
LINE
   8
LEVEL001
   6
CONTINUOUS
  62
7
  10
 303.570
  20
 433.663
  30
0.0
  11
 308.244
  21
 433.829
  31
0.0
   0
LINE
   8
LEVEL001
   6
CONTINUOUS
  62
7
  10
 308.244
  20
 433.829
  30
0.0
  11
 315.283
  21
 447.087
  31
0.0
   0
LINE
   8
LEVEL001
   6
CONTINUOUS
  62
7
  10
 315.283
  20
 447.087
  30
0.0
  11
 308.288
  21
 446.839
  31
0.0
   0
LINE
   8
LEVEL001
   6
CONTINUOUS
  62
7
  10
 308.288
  20
 446.839
  30
0.0
  11
 302.602
  21
 436.130
  31
0.0
   0
LINE
   8
LEVEL001
   6
CONTINUOUS
  62
7
  10
 302.602
  20
 436.130
  30
0.0
  11
 292.109
  21
 435.757
  31
0.0
   0
LINE
   8
LEVEL001
   6
CONTINUOUS
  62
7
  10
 292.109
  20
 435.757
  30
0.0
  11
 290.913
  21
 433.504
  31
0.0
   0
TEXT
   8
LEVEL003
  62
3
  10
 549.057
  20
 594.442
  30
0.0
  40
 16.0000
   1
ハンドル棒
  50
 359.863
   7
STANDARD
   0
TEXT
   8
LEVEL003
  62
3
  10
 588.961
  20
 554.347
  30
0.0
  40
 16.0000
   1
オイルタンク
  50
 359.863
   7
STANDARD
   0
LINE
   8
LEVEL003
   6
CONTINUOUS
  62
3
  10
 534.610
  20
 449.976
  30
0.0
  11
 584.971
  21
 553.663
  31
0.0
   0
LINE
   8
LEVEL003
   6
CONTINUOUS
  62
3
  10
 584.971
  20
 553.663
  30
0.0
  11
 690.209
  21
 553.412
  31
0.0
   0
LINE
   8
LEVEL003
   6
CONTINUOUS
  62
3
  10
 534.610
  20
 449.976
  30
0.0
  11
 541.756
  21
 459.846
  31
0.0
   0
LINE
   8
LEVEL003
   6
CONTINUOUS
  62
3
  10
 534.610
  20
 449.976
  30
0.0
  11
 537.949
  21
 461.695
  31
0.0
   0
LINE
   8
LEVEL003
   6
CONTINUOUS
  62
3
  10
 502.544
  20
 513.053
  30
0.0
  11
 546.411
  21
 595.278
  31
0.0
   0
LINE
   8
LEVEL003
   6
CONTINUOUS
  62
3
  10
 546.411
  20
 595.278
  30
0.0
  11
 640.911
  21
 595.053
  31
0.0
   0
LINE
   8
LEVEL003
   6
CONTINUOUS
  62
3
  10
 502.544
  20
 513.053
  30
0.0
  11
 510.059
  21
 522.644
  31
0.0
   0
LINE
   8
LEVEL003
   6
CONTINUOUS
  62
3
  10
 502.544
  20
 513.053
  30
0.0
  11
 506.326
  21
 524.636
  31
0.0
   0
POINT
   8
LEVEL001
  62
7
  10
 288.438
  20
 335.062
  30
0.0
   0
LINE
   8
LEVEL003
   6
CONTINUOUS
  62
3
  10
 608.569
  20
 370.160
  30
0.0
  11
 605.634
  21
 452.708
  31
0.0
   0
LINE
   8
LEVEL003
   6
CONTINUOUS
  62
3
  10
 610.257
  20
 382.228
  30
0.0
  11
 608.569
  21
 370.160
  31
0.0
   0
LINE
   8
LEVEL003
   6
CONTINUOUS
  62
3
  10
 608.569
  20
 370.160
  30
0.0
  11
 606.028
  21
 382.077
  31
0.0
   0
TEXT
   8
LEVEL003
  62
3
  10
 605.183
  20
 375.343
  30
0.0
  40
 16.0000
   1
%%c８２.６
  50
 92.0363
   7
STANDARD
  72
1
  11
 603.904
  21
 411.320
  31
0.0
   0
LINE
   8
LEVEL003
   6
CONTINUOUS
  62
3
  10
 603.946
  20
 440.640
  30
0.0
  11
 605.634
  21
 452.708
  31
0.0
   0
LINE
   8
LEVEL003
   6
CONTINUOUS
  62
3
  10
 605.634
  20
 452.708
  30
0.0
  11
 608.175
  21
 440.791
  31
0.0
   0
LINE
   8
LEVEL001
   6
DASHDOT
  62
1
  10
 320.300
  20
 401.236
  30
0.0
  11
 583.190
  21
 410.584
  31
0.0
   0
LINE
   8
LEVEL001
   6
CONTINUOUS
  62
7
  10
 302.691
  20
 465.738
  30
0.0
  11
 283.700
  21
 465.152
  31
0.0
   0
LINE
   8
LEVEL001
   6
CONTINUOUS
  62
7
  10
 283.700
  20
 465.152
  30
0.0
  11
 283.484
  21
 464.923
  31
0.0
   0
LINE
   8
LEVEL001
   6
CONTINUOUS
  62
7
  10
 302.691
  20
 465.738
  30
0.0
  11
 321.682
  21
 466.324
  31
0.0
   0
LINE
   8
LEVEL001
   6
CONTINUOUS
  62
7
  10
 321.682
  20
 466.324
  30
0.0
  11
 321.912
  21
 466.108
  31
0.0
   0
ARC
   8
LEVEL001
   6
CONTINUOUS
  62
7
  10
 313.055
  20
 467.058
  30
0.0
  40
 1.00000
  50
 181.767
  51
 271.767
   0
LINE
   8
LEVEL001
   6
CONTINUOUS
  62
7
  10
 312.003
  20
 468.750
  30
0.0
  11
 312.056
  21
 467.028
  31
0.0
   0
ARC
   8
LEVEL001
   6
CONTINUOUS
  62
7
  10
 292.265
  20
 466.417
  30
0.0
  40
 1.00000
  50
 271.767
  51
 1.76672
   0
LINE
   8
LEVEL001
   6
CONTINUOUS
  62
7
  10
 293.041
  20
 473.690
  30
0.0
  11
 293.265
  21
 466.448
  31
0.0
   0
ARC
   8
LEVEL001
   6
CONTINUOUS
  62
7
  10
 969.616
  20
 370.289
  30
0.0
  40
 25.0000
  50
 182.036
  51
 255.776
   0
LINE
   8
LEVEL001
   6
CONTINUOUS
  62
7
  10
 963.473
  20
 346.056
  30
0.0
  11
 963.864
  21
 335.062
  31
0.0
   0
ARC
   8
LEVEL001
   6
CONTINUOUS
  62
7
  10
 916.459
  20
 373.775
  30
0.0
  40
 2.00000
  50
 2.03633
  51
 89.3525
   0
ARC
   8
LEVEL001
   6
CONTINUOUS
  62
7
  10
 945.312
  20
 406.551
  30
0.0
  40
 2.00000
  50
 95.0363
  51
 182.036
   0
ARC
   8
LEVEL001
   6
CONTINUOUS
  62
7
  10
 950.692
  20
 410.036
  30
0.0
  40
 1.00000
  50
 275.036
  51
 2.03633
   0
LINE
   8
LEVEL001
   6
CONTINUOUS
  62
7
  10
 943.921
  20
 389.388
  30
0.0
  11
 945.420
  21
 389.441
  31
0.0
   0
LINE
   8
LEVEL001
   6
CONTINUOUS
  62
7
  10
 945.420
  20
 389.441
  30
0.0
  11
 945.900
  21
 375.950
  31
0.0
   0
LINE
   8
LEVEL001
   6
CONTINUOUS
  62
7
  10
 945.900
  20
 375.950
  30
0.0
  11
 944.401
  21
 375.897
  31
0.0
   0
LINE
   8
LEVEL001
   6
CONTINUOUS
  62
7
  10
 894.308
  20
 377.618
  30
0.0
  11
 896.038
  21
 376.006
  31
0.0
   0
LINE
   8
LEVEL001
   6
CONTINUOUS
  62
7
  10
 891.181
  20
 465.562
  30
0.0
  11
 892.793
  21
 467.293
  31
0.0
   0
LINE
   8
LEVEL001
   6
CONTINUOUS
  62
7
  10
 945.137
  20
 408.543
  30
0.0
  11
 950.779
  21
 409.040
  31
0.0
   0
LINE
   8
LEVEL003
   6
CONTINUOUS
  62
7
  10
 343.560
  20
 360.737
  30
0.0
  11
 884.218
  21
 379.961
  31
0.0
   0
LINE
   8
LEVEL003
   6
CONTINUOUS
  62
7
  10
 340.625
  20
 443.285
  30
0.0
  11
 881.283
  21
 462.509
  31
0.0
   0
LINE
   8
LEVEL001
   6
CONTINUOUS
  62
7
  10
 963.864
  20
 335.062
  30
0.0
  11
 919.839
  21
 334.998
  31
0.0
   0
LINE
   8
LEVEL001
   6
CONTINUOUS
  62
7
  10
 881.317
  20
 461.559
  30
0.0
  11
 891.311
  21
 461.915
  31
0.0
   0
LINE
   8
LEVEL001
   6
CONTINUOUS
  62
7
  10
 941.755
  20
 450.322
  30
0.0
  11
 944.632
  21
 369.401
  31
0.0
   0
LINE
   8
LEVEL003
   6
CONTINUOUS
  62
7
  10
 881.283
  20
 462.509
  30
0.0
  11
 884.218
  21
 379.961
  31
0.0
   0
LINE
   8
LEVEL001
   6
CONTINUOUS
  62
7
  10
 891.181
  20
 465.562
  30
0.0
  11
 894.308
  21
 377.618
  31
0.0
   0
LINE
   8
LEVEL001
   6
CONTINUOUS
  62
7
  10
 884.185
  20
 380.910
  30
0.0
  11
 894.178
  21
 381.266
  31
0.0
   0
LINE
   8
LEVEL001
   6
CONTINUOUS
  62
7
  10
 916.481
  20
 375.775
  30
0.0
  11
 896.038
  21
 376.006
  31
0.0
   0
LINE
   8
LEVEL001
   6
CONTINUOUS
  62
7
  10
 892.793
  20
 467.293
  30
0.0
  11
 896.038
  21
 376.006
  31
0.0
   0
LINE
   8
LEVEL003
   6
CONTINUOUS
  62
7
  10
 950.817
  20
 434.662
  30
0.0
  11
 951.316
  21
 434.680
  31
0.0
   0
LINE
   8
LEVEL003
   6
CONTINUOUS
  62
7
  10
 954.213
  20
 437.641
  30
0.0
  11
 964.135
  21
 437.994
  31
0.0
   0
LINE
   8
LEVEL003
   6
CONTINUOUS
  62
7
  10
 964.135
  20
 437.994
  30
0.0
  11
 965.272
  21
 436.176
  31
0.0
   0
LINE
   8
LEVEL003
   6
CONTINUOUS
  62
7
  10
 965.272
  20
 436.176
  30
0.0
  11
 966.125
  21
 412.192
  31
0.0
   0
LINE
   8
LEVEL003
   6
CONTINUOUS
  62
7
  10
 966.125
  20
 412.192
  30
0.0
  11
 965.120
  21
 410.298
  31
0.0
   0
LINE
   8
LEVEL003
   6
CONTINUOUS
  62
7
  10
 965.120
  20
 410.298
  30
0.0
  11
 955.198
  21
 409.945
  31
0.0
   0
LINE
   8
LEVEL001
   6
CONTINUOUS
  62
7
  10
 919.839
  20
 334.998
  30
0.0
  11
 917.848
  21
 390.995
  31
0.0
   0
ARC
   8
LEVEL001
   6
CONTINUOUS
  62
7
  10
 912.851
  20
 390.817
  30
0.0
  40
 5.00000
  50
 2.03633
  51
 89.3525
   0
LINE
   8
LEVEL001
   6
CONTINUOUS
  62
7
  10
 963.473
  20
 346.056
  30
0.0
  11
 919.590
  21
 341.994
  31
0.0
   0
LINE
   8
LEVEL001
   6
DASHDOT
  62
1
  10
 613.496
  20
 411.661
  30
0.0
  11
 968.479
  21
 424.283
  31
0.0
   0
LINE
   8
LEVEL003
   6
CONTINUOUS
  62
7
  10
 954.459
  20
 430.717
  30
0.0
  11
 964.381
  21
 431.070
  31
0.0
   0
ARC
   8
LEVEL003
   6
CONTINUOUS
  62
7
  10
 942.785
  20
 423.369
  30
0.0
  40
 22.9282
  50
 344.448
  51
 19.6243
   0
ARC
   8
LEVEL003
   6
CONTINUOUS
  62
7
  10
 952.744
  20
 435.731
  30
0.0
  40
 12.5359
  50
 338.171
  51
 2.03630
   0
LINE
   8
LEVEL003
   6
CONTINUOUS
  62
7
  10
 954.952
  20
 416.869
  30
0.0
  11
 964.873
  21
 417.222
  31
0.0
   0
ARC
   8
LEVEL003
   6
CONTINUOUS
  62
7
  10
 953.597
  20
 411.746
  30
0.0
  40
 12.5359
  50
 2.03635
  51
 25.9012
   0
LINE
   8
LEVEL050
   6
DASHDOT
  62
1
  10
 923.651
  20
 481.044
  30
0.0
  11
 925.647
  21
 424.908
  31
0.0
   0
LINE
   8
LEVEL003
   6
DASHDOT
  62
1
  10
 908.728
  20
 464.144
  30
0.0
  11
 938.512
  21
 465.203
  31
0.0
   0
ARC
   8
LEVEL003
   6
CONTINUOUS
  62
7
  10
 928.872
  20
 475.001
  30
0.0
  40
 5.00000
  50
 1.01810
  51
 81.9608
   0
LINE
   8
LEVEL001
   6
CONTINUOUS
  62
7
  10
 929.512
  20
 479.928
  30
0.0
  11
 928.447
  21
 480.061
  31
0.0
   0
LINE
   8
LEVEL001
   6
CONTINUOUS
  62
7
  10
 928.447
  20
 480.061
  30
0.0
  11
 927.309
  21
 480.157
  31
0.0
   0
LINE
   8
LEVEL001
   6
CONTINUOUS
  62
7
  10
 927.309
  20
 480.157
  30
0.0
  11
 926.116
  21
 480.212
  31
0.0
   0
LINE
   8
LEVEL001
   6
CONTINUOUS
  62
7
  10
 926.116
  20
 480.212
  30
0.0
  11
 924.886
  21
 480.228
  31
0.0
   0
LINE
   8
LEVEL001
   6
CONTINUOUS
  62
7
  10
 924.886
  20
 480.228
  30
0.0
  11
 923.639
  21
 480.202
  31
0.0
   0
LINE
   8
LEVEL001
   6
CONTINUOUS
  62
7
  10
 923.639
  20
 480.202
  30
0.0
  11
 922.395
  21
 480.136
  31
0.0
   0
LINE
   8
LEVEL001
   6
CONTINUOUS
  62
7
  10
 922.395
  20
 480.136
  30
0.0
  11
 921.171
  21
 480.031
  31
0.0
   0
LINE
   8
LEVEL001
   6
CONTINUOUS
  62
7
  10
 921.171
  20
 480.031
  30
0.0
  11
 919.989
  21
 479.889
  31
0.0
   0
LINE
   8
LEVEL001
   6
CONTINUOUS
  62
7
  10
 919.989
  20
 479.889
  30
0.0
  11
 918.865
  21
 479.710
  31
0.0
   0
LINE
   8
LEVEL001
   6
CONTINUOUS
  62
7
  10
 918.865
  20
 479.710
  30
0.0
  11
 917.885
  21
 479.514
  31
0.0
   0
LINE
   8
LEVEL001
   6
CONTINUOUS
  62
7
  10
 916.119
  20
 475.698
  30
0.0
  11
 916.980
  21
 475.492
  31
0.0
   0
LINE
   8
LEVEL001
   6
CONTINUOUS
  62
7
  10
 916.980
  20
 475.492
  30
0.0
  11
 917.947
  21
 475.320
  31
0.0
   0
LINE
   8
LEVEL001
   6
CONTINUOUS
  62
7
  10
 917.947
  20
 475.320
  30
0.0
  11
 919.005
  21
 475.183
  31
0.0
   0
LINE
   8
LEVEL001
   6
CONTINUOUS
  62
7
  10
 919.005
  20
 475.183
  30
0.0
  11
 920.137
  21
 475.084
  31
0.0
   0
LINE
   8
LEVEL001
   6
CONTINUOUS
  62
7
  10
 920.137
  20
 475.084
  30
0.0
  11
 921.326
  21
 475.025
  31
0.0
   0
LINE
   8
LEVEL001
   6
CONTINUOUS
  62
7
  10
 921.326
  20
 475.025
  30
0.0
  11
 922.554
  21
 475.006
  31
0.0
   0
LINE
   8
LEVEL001
   6
CONTINUOUS
  62
7
  10
 922.554
  20
 475.006
  30
0.0
  11
 923.800
  21
 475.028
  31
0.0
   0
LINE
   8
LEVEL001
   6
CONTINUOUS
  62
7
  10
 923.800
  20
 475.028
  30
0.0
  11
 925.046
  21
 475.091
  31
0.0
   0
LINE
   8
LEVEL001
   6
CONTINUOUS
  62
7
  10
 925.046
  20
 475.091
  30
0.0
  11
 926.272
  21
 475.193
  31
0.0
   0
LINE
   8
LEVEL001
   6
CONTINUOUS
  62
7
  10
 926.272
  20
 475.193
  30
0.0
  11
 927.459
  21
 475.332
  31
0.0
   0
LINE
   8
LEVEL001
   6
CONTINUOUS
  62
7
  10
 927.459
  20
 475.332
  30
0.0
  11
 928.588
  21
 475.508
  31
0.0
   0
LINE
   8
LEVEL001
   6
CONTINUOUS
  62
7
  10
 928.588
  20
 475.508
  30
0.0
  11
 929.642
  21
 475.716
  31
0.0
   0
LINE
   8
LEVEL001
   6
CONTINUOUS
  62
7
  10
 929.642
  20
 475.716
  30
0.0
  11
 930.605
  21
 475.954
  31
0.0
   0
LINE
   8
LEVEL001
   6
CONTINUOUS
  62
7
  10
 930.605
  20
 475.954
  30
0.0
  11
 931.461
  21
 476.218
  31
0.0
   0
LINE
   8
LEVEL001
   6
CONTINUOUS
  62
7
  10
 931.461
  20
 476.218
  30
0.0
  11
 931.679
  21
 476.295
  31
0.0
   0
ARC
   8
LEVEL003
   6
CONTINUOUS
  62
7
  10
 918.874
  20
 474.645
  30
0.0
  40
 5.00000
  50
 102.112
  51
 183.055
   0
LINE
   8
LEVEL050
   6
CONTINUOUS
  62
7
  10
 914.131
  20
 467.368
  30
0.0
  11
 913.882
  21
 474.379
  31
0.0
   0
LINE
   8
LEVEL001
   6
CONTINUOUS
  62
7
  10
 914.905
  20
 473.759
  30
0.0
  11
 915.171
  21
 466.276
  31
0.0
   0
LINE
   8
LEVEL001
   6
CONTINUOUS
  62
7
  10
 917.936
  20
 472.924
  30
0.0
  11
 918.202
  21
 465.441
  31
0.0
   0
LINE
   8
LEVEL001
   6
CONTINUOUS
  62
7
  10
 919.444
  20
 472.737
  30
0.0
  11
 919.710
  21
 465.254
  31
0.0
   0
LINE
   8
LEVEL001
   6
CONTINUOUS
  62
7
  10
 920.949
  20
 472.633
  30
0.0
  11
 921.215
  21
 465.149
  31
0.0
   0
LINE
   8
LEVEL001
   6
CONTINUOUS
  62
7
  10
 922.451
  20
 472.596
  30
0.0
  11
 922.717
  21
 465.113
  31
0.0
   0
LINE
   8
LEVEL001
   6
CONTINUOUS
  62
7
  10
 925.449
  20
 472.703
  30
0.0
  11
 925.715
  21
 465.219
  31
0.0
   0
LINE
   8
LEVEL001
   6
CONTINUOUS
  62
7
  10
 926.945
  20
 472.846
  30
0.0
  11
 927.211
  21
 465.363
  31
0.0
   0
LINE
   8
LEVEL001
   6
CONTINUOUS
  62
7
  10
 928.438
  20
 473.057
  30
0.0
  11
 928.704
  21
 465.574
  31
0.0
   0
LINE
   8
LEVEL001
   6
CONTINUOUS
  62
7
  10
 929.929
  20
 473.351
  30
0.0
  11
 930.195
  21
 465.867
  31
0.0
   0
LINE
   8
LEVEL001
   6
CONTINUOUS
  62
7
  10
 931.415
  20
 473.762
  30
0.0
  11
 931.681
  21
 466.279
  31
0.0
   0
LINE
   8
LEVEL001
   6
CONTINUOUS
  62
7
  10
 916.810
  20
 464.180
  30
0.0
  11
 916.997
  21
 463.948
  31
0.0
   0
LINE
   8
LEVEL001
   6
CONTINUOUS
  62
7
  10
 916.997
  20
 463.948
  30
0.0
  11
 917.298
  21
 463.728
  31
0.0
   0
LINE
   8
LEVEL001
   6
CONTINUOUS
  62
7
  10
 917.298
  20
 463.728
  30
0.0
  11
 917.706
  21
 463.524
  31
0.0
   0
LINE
   8
LEVEL001
   6
CONTINUOUS
  62
7
  10
 917.706
  20
 463.524
  30
0.0
  11
 918.217
  21
 463.337
  31
0.0
   0
LINE
   8
LEVEL001
   6
CONTINUOUS
  62
7
  10
 918.217
  20
 463.337
  30
0.0
  11
 918.821
  21
 463.172
  31
0.0
   0
LINE
   8
LEVEL001
   6
CONTINUOUS
  62
7
  10
 918.821
  20
 463.172
  30
0.0
  11
 919.510
  21
 463.030
  31
0.0
   0
LINE
   8
LEVEL001
   6
CONTINUOUS
  62
7
  10
 919.510
  20
 463.030
  30
0.0
  11
 920.273
  21
 462.915
  31
0.0
   0
LINE
   8
LEVEL001
   6
CONTINUOUS
  62
7
  10
 920.273
  20
 462.915
  30
0.0
  11
 921.097
  21
 462.827
  31
0.0
   0
LINE
   8
LEVEL001
   6
CONTINUOUS
  62
7
  10
 921.097
  20
 462.827
  30
0.0
  11
 921.970
  21
 462.769
  31
0.0
   0
LINE
   8
LEVEL001
   6
CONTINUOUS
  62
7
  10
 921.970
  20
 462.769
  30
0.0
  11
 922.879
  21
 462.740
  31
0.0
   0
LINE
   8
LEVEL001
   6
CONTINUOUS
  62
7
  10
 922.879
  20
 462.740
  30
0.0
  11
 923.809
  21
 462.742
  31
0.0
   0
LINE
   8
LEVEL001
   6
CONTINUOUS
  62
7
  10
 923.809
  20
 462.742
  30
0.0
  11
 924.745
  21
 462.775
  31
0.0
   0
LINE
   8
LEVEL001
   6
CONTINUOUS
  62
7
  10
 924.745
  20
 462.775
  30
0.0
  11
 925.673
  21
 462.837
  31
0.0
   0
LINE
   8
LEVEL001
   6
CONTINUOUS
  62
7
  10
 925.673
  20
 462.837
  30
0.0
  11
 926.579
  21
 462.929
  31
0.0
   0
LINE
   8
LEVEL001
   6
CONTINUOUS
  62
7
  10
 926.579
  20
 462.929
  30
0.0
  11
 927.448
  21
 463.048
  31
0.0
   0
LINE
   8
LEVEL001
   6
CONTINUOUS
  62
7
  10
 927.448
  20
 463.048
  30
0.0
  11
 928.268
  21
 463.192
  31
0.0
   0
LINE
   8
LEVEL001
   6
CONTINUOUS
  62
7
  10
 928.268
  20
 463.192
  30
0.0
  11
 929.024
  21
 463.361
  31
0.0
   0
LINE
   8
LEVEL001
   6
CONTINUOUS
  62
7
  10
 929.024
  20
 463.361
  30
0.0
  11
 929.705
  21
 463.550
  31
0.0
   0
LINE
   8
LEVEL001
   6
CONTINUOUS
  62
7
  10
 929.705
  20
 463.550
  30
0.0
  11
 930.301
  21
 463.756
  31
0.0
   0
LINE
   8
LEVEL001
   6
CONTINUOUS
  62
7
  10
 930.301
  20
 463.756
  30
0.0
  11
 930.802
  21
 463.978
  31
0.0
   0
LINE
   8
LEVEL001
   6
CONTINUOUS
  62
7
  10
 930.802
  20
 463.978
  30
0.0
  11
 931.201
  21
 464.211
  31
0.0
   0
LINE
   8
LEVEL001
   6
CONTINUOUS
  62
7
  10
 931.201
  20
 464.211
  30
0.0
  11
 931.491
  21
 464.451
  31
0.0
   0
LINE
   8
LEVEL001
   6
CONTINUOUS
  62
7
  10
 931.491
  20
 464.451
  30
0.0
  11
 931.668
  21
 464.695
  31
0.0
   0
LINE
   8
LEVEL001
   6
CONTINUOUS
  62
7
  10
 931.668
  20
 464.695
  30
0.0
  11
 931.674
  21
 464.708
  31
0.0
   0
LINE
   8
LEVEL001
   6
CONTINUOUS
  62
7
  10
 933.780
  20
 467.375
  30
0.0
  11
 932.151
  21
 465.742
  31
0.0
   0
LINE
   8
LEVEL050
   6
CONTINUOUS
  62
7
  10
 934.119
  20
 468.079
  30
0.0
  11
 933.869
  21
 475.090
  31
0.0
   0
LINE
   8
LEVEL001
   6
CONTINUOUS
  62
7
  10
 932.893
  20
 474.399
  30
0.0
  11
 933.159
  21
 466.916
  31
0.0
   0
LINE
   8
LEVEL001
   6
CONTINUOUS
  62
7
  10
 932.151
  20
 465.742
  30
0.0
  11
 931.674
  21
 464.708
  31
0.0
   0
LINE
   8
LEVEL001
   6
CONTINUOUS
  62
7
  10
 914.131
  20
 467.368
  30
0.0
  11
 914.221
  21
 467.048
  31
0.0
   0
LINE
   8
LEVEL001
   6
CONTINUOUS
  62
7
  10
 914.221
  20
 467.048
  30
0.0
  11
 914.465
  21
 466.739
  31
0.0
   0
LINE
   8
LEVEL001
   6
CONTINUOUS
  62
7
  10
 914.465
  20
 466.739
  30
0.0
  11
 914.860
  21
 466.445
  31
0.0
   0
LINE
   8
LEVEL001
   6
CONTINUOUS
  62
7
  10
 914.860
  20
 466.445
  30
0.0
  11
 915.399
  21
 466.172
  31
0.0
   0
LINE
   8
LEVEL001
   6
CONTINUOUS
  62
7
  10
 915.399
  20
 466.172
  30
0.0
  11
 916.074
  21
 465.922
  31
0.0
   0
LINE
   8
LEVEL001
   6
CONTINUOUS
  62
7
  10
 916.074
  20
 465.922
  30
0.0
  11
 916.876
  21
 465.700
  31
0.0
   0
LINE
   8
LEVEL001
   6
CONTINUOUS
  62
7
  10
 916.876
  20
 465.700
  30
0.0
  11
 917.790
  21
 465.510
  31
0.0
   0
LINE
   8
LEVEL001
   6
CONTINUOUS
  62
7
  10
 917.790
  20
 465.510
  30
0.0
  11
 918.803
  21
 465.355
  31
0.0
   0
LINE
   8
LEVEL001
   6
CONTINUOUS
  62
7
  10
 918.803
  20
 465.355
  30
0.0
  11
 919.899
  21
 465.236
  31
0.0
   0
LINE
   8
LEVEL001
   6
CONTINUOUS
  62
7
  10
 919.899
  20
 465.236
  30
0.0
  11
 921.061
  21
 465.157
  31
0.0
   0
LINE
   8
LEVEL001
   6
CONTINUOUS
  62
7
  10
 921.061
  20
 465.157
  30
0.0
  11
 922.271
  21
 465.117
  31
0.0
   0
LINE
   8
LEVEL001
   6
CONTINUOUS
  62
7
  10
 922.271
  20
 465.117
  30
0.0
  11
 923.510
  21
 465.118
  31
0.0
   0
LINE
   8
LEVEL001
   6
CONTINUOUS
  62
7
  10
 923.510
  20
 465.118
  30
0.0
  11
 924.758
  21
 465.160
  31
0.0
   0
LINE
   8
LEVEL001
   6
CONTINUOUS
  62
7
  10
 924.758
  20
 465.160
  30
0.0
  11
 925.997
  21
 465.242
  31
0.0
   0
LINE
   8
LEVEL001
   6
CONTINUOUS
  62
7
  10
 925.997
  20
 465.242
  30
0.0
  11
 927.206
  21
 465.362
  31
0.0
   0
LINE
   8
LEVEL001
   6
CONTINUOUS
  62
7
  10
 927.206
  20
 465.362
  30
0.0
  11
 928.368
  21
 465.519
  31
0.0
   0
LINE
   8
LEVEL001
   6
CONTINUOUS
  62
7
  10
 928.368
  20
 465.519
  30
0.0
  11
 929.463
  21
 465.711
  31
0.0
   0
LINE
   8
LEVEL001
   6
CONTINUOUS
  62
7
  10
 929.463
  20
 465.711
  30
0.0
  11
 930.474
  21
 465.934
  31
0.0
   0
LINE
   8
LEVEL001
   6
CONTINUOUS
  62
7
  10
 930.474
  20
 465.934
  30
0.0
  11
 931.387
  21
 466.185
  31
0.0
   0
LINE
   8
LEVEL001
   6
CONTINUOUS
  62
7
  10
 931.387
  20
 466.185
  30
0.0
  11
 932.186
  21
 466.460
  31
0.0
   0
LINE
   8
LEVEL001
   6
CONTINUOUS
  62
7
  10
 932.186
  20
 466.460
  30
0.0
  11
 932.860
  21
 466.755
  31
0.0
   0
LINE
   8
LEVEL001
   6
CONTINUOUS
  62
7
  10
 932.860
  20
 466.755
  30
0.0
  11
 933.397
  21
 467.065
  31
0.0
   0
LINE
   8
LEVEL001
   6
CONTINUOUS
  62
7
  10
 933.397
  20
 467.065
  30
0.0
  11
 933.790
  21
 467.385
  31
0.0
   0
LINE
   8
LEVEL001
   6
CONTINUOUS
  62
7
  10
 933.790
  20
 467.385
  30
0.0
  11
 934.032
  21
 467.710
  31
0.0
   0
LINE
   8
LEVEL001
   6
CONTINUOUS
  62
7
  10
 934.032
  20
 467.710
  30
0.0
  11
 934.119
  21
 468.036
  31
0.0
   0
LINE
   8
LEVEL001
   6
CONTINUOUS
  62
7
  10
 934.119
  20
 468.036
  30
0.0
  11
 934.119
  21
 468.079
  31
0.0
   0
LINE
   8
LEVEL001
   6
CONTINUOUS
  62
7
  10
 916.261
  20
 465.177
  30
0.0
  11
 916.606
  21
 464.937
  31
0.0
   0
LINE
   8
LEVEL001
   6
CONTINUOUS
  62
7
  10
 916.606
  20
 464.937
  30
0.0
  11
 917.070
  21
 464.714
  31
0.0
   0
LINE
   8
LEVEL001
   6
CONTINUOUS
  62
7
  10
 917.070
  20
 464.714
  30
0.0
  11
 917.645
  21
 464.512
  31
0.0
   0
LINE
   8
LEVEL001
   6
CONTINUOUS
  62
7
  10
 917.645
  20
 464.512
  30
0.0
  11
 918.322
  21
 464.333
  31
0.0
   0
LINE
   8
LEVEL001
   6
CONTINUOUS
  62
7
  10
 918.322
  20
 464.333
  30
0.0
  11
 919.091
  21
 464.181
  31
0.0
   0
LINE
   8
LEVEL001
   6
CONTINUOUS
  62
7
  10
 919.091
  20
 464.181
  30
0.0
  11
 919.939
  21
 464.057
  31
0.0
   0
LINE
   8
LEVEL001
   6
CONTINUOUS
  62
7
  10
 919.939
  20
 464.057
  30
0.0
  11
 920.853
  21
 463.965
  31
0.0
   0
LINE
   8
LEVEL001
   6
CONTINUOUS
  62
7
  10
 920.853
  20
 463.965
  30
0.0
  11
 921.819
  21
 463.904
  31
0.0
   0
LINE
   8
LEVEL001
   6
CONTINUOUS
  62
7
  10
 921.819
  20
 463.904
  30
0.0
  11
 922.822
  21
 463.877
  31
0.0
   0
LINE
   8
LEVEL001
   6
CONTINUOUS
  62
7
  10
 922.822
  20
 463.877
  30
0.0
  11
 923.847
  21
 463.884
  31
0.0
   0
LINE
   8
LEVEL001
   6
CONTINUOUS
  62
7
  10
 923.847
  20
 463.884
  30
0.0
  11
 924.876
  21
 463.924
  31
0.0
   0
LINE
   8
LEVEL001
   6
CONTINUOUS
  62
7
  10
 924.876
  20
 463.924
  30
0.0
  11
 925.895
  21
 463.996
  31
0.0
   0
LINE
   8
LEVEL001
   6
CONTINUOUS
  62
7
  10
 925.895
  20
 463.996
  30
0.0
  11
 926.888
  21
 464.101
  31
0.0
   0
LINE
   8
LEVEL001
   6
CONTINUOUS
  62
7
  10
 926.888
  20
 464.101
  30
0.0
  11
 927.838
  21
 464.235
  31
0.0
   0
LINE
   8
LEVEL001
   6
CONTINUOUS
  62
7
  10
 927.838
  20
 464.235
  30
0.0
  11
 928.731
  21
 464.398
  31
0.0
   0
LINE
   8
LEVEL001
   6
CONTINUOUS
  62
7
  10
 928.731
  20
 464.398
  30
0.0
  11
 929.553
  21
 464.586
  31
0.0
   0
LINE
   8
LEVEL001
   6
CONTINUOUS
  62
7
  10
 929.553
  20
 464.586
  30
0.0
  11
 930.291
  21
 464.796
  31
0.0
   0
LINE
   8
LEVEL001
   6
CONTINUOUS
  62
7
  10
 930.291
  20
 464.796
  30
0.0
  11
 930.935
  21
 465.026
  31
0.0
   0
LINE
   8
LEVEL001
   6
CONTINUOUS
  62
7
  10
 930.935
  20
 465.026
  30
0.0
  11
 931.472
  21
 465.272
  31
0.0
   0
LINE
   8
LEVEL001
   6
CONTINUOUS
  62
7
  10
 931.472
  20
 465.272
  30
0.0
  11
 931.896
  21
 465.529
  31
0.0
   0
LINE
   8
LEVEL001
   6
CONTINUOUS
  62
7
  10
 931.896
  20
 465.529
  30
0.0
  11
 932.151
  21
 465.742
  31
0.0
   0
LINE
   8
LEVEL001
   6
CONTINUOUS
  62
7
  10
 916.261
  20
 465.177
  30
0.0
  11
 916.810
  21
 464.180
  31
0.0
   0
LINE
   8
LEVEL001
   6
CONTINUOUS
  62
7
  10
 914.519
  20
 466.690
  30
0.0
  11
 916.261
  21
 465.177
  31
0.0
   0
LINE
   8
LEVEL001
   6
CONTINUOUS
  62
7
  10
 916.425
  20
 473.229
  30
0.0
  11
 916.691
  21
 465.746
  31
0.0
   0
LINE
   8
LEVEL003
   6
CONTINUOUS
  62
7
  10
 950.817
  20
 434.662
  30
0.0
  11
 954.315
  21
 434.786
  31
0.0
   0
LINE
   8
LEVEL003
   6
CONTINUOUS
  62
7
  10
 951.598
  20
 412.676
  30
0.0
  11
 955.096
  21
 412.800
  31
0.0
   0
LINE
   8
LEVEL003
   6
CONTINUOUS
  62
7
  10
 954.213
  20
 437.641
  30
0.0
  11
 955.198
  21
 409.945
  31
0.0
   0
ARC
   8
LEVEL001
   6
CONTINUOUS
  62
7
  10
 924.095
  20
 468.497
  30
0.0
  40
 13.0684
  50
 217.197
  51
 327.055
   0
ARC
   8
LEVEL001
   6
CONTINUOUS
  62
7
  10
 921.767
  20
 449.612
  30
0.0
  40
 20.0000
  50
 2.03632
  51
 38.9857
   0
ARC
   8
LEVEL001
   6
CONTINUOUS
  62
7
  10
 939.590
  20
 464.036
  30
0.0
  40
 3.00000
  50
 166.156
  51
 218.986
   0
LINE
   8
LEVEL001
   6
CONTINUOUS
  62
7
  10
 936.725
  20
 465.140
  30
0.0
  11
 936.613
  21
 465.539
  31
0.0
   0
LINE
   8
LEVEL001
   6
CONTINUOUS
  62
7
  10
 936.613
  20
 465.539
  30
0.0
  11
 936.308
  21
 465.926
  31
0.0
   0
LINE
   8
LEVEL001
   6
CONTINUOUS
  62
7
  10
 936.308
  20
 465.926
  30
0.0
  11
 935.815
  21
 466.293
  31
0.0
   0
LINE
   8
LEVEL001
   6
CONTINUOUS
  62
7
  10
 935.815
  20
 466.293
  30
0.0
  11
 935.140
  21
 466.635
  31
0.0
   0
LINE
   8
LEVEL001
   6
CONTINUOUS
  62
7
  10
 935.140
  20
 466.635
  30
0.0
  11
 934.296
  21
 466.947
  31
0.0
   0
LINE
   8
LEVEL001
   6
CONTINUOUS
  62
7
  10
 934.296
  20
 466.947
  30
0.0
  11
 933.494
  21
 467.175
  31
0.0
   0
LINE
   8
LEVEL001
   6
CONTINUOUS
  62
7
  10
 911.741
  20
 464.233
  30
0.0
  11
 911.862
  21
 463.834
  31
0.0
   0
LINE
   8
LEVEL001
   6
CONTINUOUS
  62
7
  10
 911.862
  20
 463.834
  30
0.0
  11
 912.175
  21
 463.448
  31
0.0
   0
LINE
   8
LEVEL001
   6
CONTINUOUS
  62
7
  10
 912.175
  20
 463.448
  30
0.0
  11
 912.677
  21
 463.082
  31
0.0
   0
LINE
   8
LEVEL001
   6
CONTINUOUS
  62
7
  10
 912.677
  20
 463.082
  30
0.0
  11
 913.359
  21
 462.741
  31
0.0
   0
LINE
   8
LEVEL001
   6
CONTINUOUS
  62
7
  10
 913.359
  20
 462.741
  30
0.0
  11
 914.211
  21
 462.430
  31
0.0
   0
LINE
   8
LEVEL001
   6
CONTINUOUS
  62
7
  10
 914.211
  20
 462.430
  30
0.0
  11
 915.219
  21
 462.155
  31
0.0
   0
LINE
   8
LEVEL001
   6
CONTINUOUS
  62
7
  10
 915.219
  20
 462.155
  30
0.0
  11
 916.367
  21
 461.920
  31
0.0
   0
LINE
   8
LEVEL001
   6
CONTINUOUS
  62
7
  10
 916.367
  20
 461.920
  30
0.0
  11
 917.639
  21
 461.727
  31
0.0
   0
LINE
   8
LEVEL001
   6
CONTINUOUS
  62
7
  10
 917.639
  20
 461.727
  30
0.0
  11
 919.013
  21
 461.581
  31
0.0
   0
LINE
   8
LEVEL001
   6
CONTINUOUS
  62
7
  10
 919.013
  20
 461.581
  30
0.0
  11
 920.469
  21
 461.484
  31
0.0
   0
LINE
   8
LEVEL001
   6
CONTINUOUS
  62
7
  10
 920.469
  20
 461.484
  30
0.0
  11
 921.983
  21
 461.437
  31
0.0
   0
LINE
   8
LEVEL001
   6
CONTINUOUS
  62
7
  10
 921.983
  20
 461.437
  30
0.0
  11
 923.533
  21
 461.440
  31
0.0
   0
LINE
   8
LEVEL001
   6
CONTINUOUS
  62
7
  10
 923.533
  20
 461.440
  30
0.0
  11
 925.093
  21
 461.494
  31
0.0
   0
LINE
   8
LEVEL001
   6
CONTINUOUS
  62
7
  10
 925.093
  20
 461.494
  30
0.0
  11
 926.640
  21
 461.599
  31
0.0
   0
LINE
   8
LEVEL001
   6
CONTINUOUS
  62
7
  10
 926.640
  20
 461.599
  30
0.0
  11
 928.150
  21
 461.751
  31
0.0
   0
LINE
   8
LEVEL001
   6
CONTINUOUS
  62
7
  10
 928.150
  20
 461.751
  30
0.0
  11
 929.598
  21
 461.950
  31
0.0
   0
LINE
   8
LEVEL001
   6
CONTINUOUS
  62
7
  10
 929.598
  20
 461.950
  30
0.0
  11
 930.963
  21
 462.191
  31
0.0
   0
LINE
   8
LEVEL001
   6
CONTINUOUS
  62
7
  10
 930.963
  20
 462.191
  30
0.0
  11
 932.223
  21
 462.472
  31
0.0
   0
LINE
   8
LEVEL001
   6
CONTINUOUS
  62
7
  10
 932.223
  20
 462.472
  30
0.0
  11
 933.358
  21
 462.787
  31
0.0
   0
LINE
   8
LEVEL001
   6
CONTINUOUS
  62
7
  10
 933.358
  20
 462.787
  30
0.0
  11
 934.350
  21
 463.132
  31
0.0
   0
LINE
   8
LEVEL001
   6
CONTINUOUS
  62
7
  10
 934.350
  20
 463.132
  30
0.0
  11
 935.018
  21
 463.419
  31
0.0
   0
LINE
   8
LEVEL003
   6
CONTINUOUS
  62
7
  10
 947.195
  20
 536.535
  30
0.0
  11
 947.561
  21
 526.236
  31
0.0
   0
LINE
   8
LEVEL003
   6
CONTINUOUS
  62
7
  10
 947.561
  20
 526.236
  30
0.0
  11
 950.759
  21
 526.350
  31
0.0
   0
LINE
   8
LEVEL003
   6
CONTINUOUS
  62
7
  10
 950.759
  20
 526.350
  30
0.0
  11
 950.393
  21
 536.649
  31
0.0
   0
LINE
   8
LEVEL003
   6
CONTINUOUS
  62
7
  10
 950.393
  20
 536.649
  30
0.0
  11
 947.195
  21
 536.535
  31
0.0
   0
LINE
   8
LEVEL003
   6
CONTINUOUS
  62
7
  10
 951.203
  20
 513.849
  30
0.0
  11
 953.073
  21
 461.259
  31
0.0
   0
LINE
   8
LEVEL003
   6
CONTINUOUS
  62
7
  10
 949.875
  20
 461.145
  30
0.0
  11
 953.073
  21
 461.259
  31
0.0
   0
LINE
   8
LEVEL003
   6
DASHDOT
  62
1
  10
 962.657
  20
 471.106
  30
0.0
  11
 931.268
  21
 469.989
  31
0.0
   0
LINE
   8
LEVEL003
   6
CONTINUOUS
  62
7
  10
 952.549
  20
 475.999
  30
0.0
  11
 953.348
  21
 476.028
  31
0.0
   0
LINE
   8
LEVEL003
   6
CONTINUOUS
  62
7
  10
 952.922
  20
 465.506
  30
0.0
  11
 953.722
  21
 465.534
  31
0.0
   0
LINE
   8
LEVEL003
   6
CONTINUOUS
  62
3
  10
 946.622
  20
 536.727
  30
0.0
  11
 924.762
  21
 583.981
  31
0.0
   0
LINE
   8
LEVEL003
   6
CONTINUOUS
  62
3
  10
 924.762
  20
 583.981
  30
0.0
  11
 845.822
  21
 584.169
  31
0.0
   0
LINE
   8
LEVEL003
   6
CONTINUOUS
  62
3
  10
 946.622
  20
 536.727
  30
0.0
  11
 943.504
  21
 548.507
  31
0.0
   0
LINE
   8
LEVEL003
   6
CONTINUOUS
  62
3
  10
 946.622
  20
 536.727
  30
0.0
  11
 939.663
  21
 546.730
  31
0.0
   0
LINE
   8
LEVEL001
   6
CONTINUOUS
  62
7
  10
 914.072
  20
 469.050
  30
0.0
  11
 892.793
  21
 467.293
  31
0.0
   0
ARC
   8
LEVEL001
   6
CONTINUOUS
  62
7
  10
 934.535
  20
 470.437
  30
0.0
  40
 10.0000
  50
 89.5090
  51
 112.687
   0
LINE
   8
LEVEL001
   6
CONTINUOUS
  62
7
  10
 934.180
  20
 480.430
  30
0.0
  11
 947.226
  21
 480.606
  31
0.0
   0
ARC
   8
LEVEL001
   6
CONTINUOUS
  62
7
  10
 947.253
  20
 478.607
  30
0.0
  40
 2.00000
  50
 2.03633
  51
 90.7727
   0
POINT
   8
LEVEL001
  62
7
  10
 949.182
  20
 480.633
  30
0.0
   0
LINE
   8
LEVEL001
   6
CONTINUOUS
  62
7
  10
 948.007
  20
 513.675
  30
0.0
  11
 951.691
  21
 410.072
  31
0.0
   0
LINE
   8
LEVEL001
   6
CONTINUOUS
  62
7
  10
 953.286
  20
 477.777
  30
0.0
  11
 955.531
  21
 477.661
  31
0.0
   0
ARC
   8
LEVEL001
   6
CONTINUOUS
  62
7
  10
 955.396
  20
 475.064
  30
0.0
  40
 2.60000
  50
 17.9172
  51
 87.0363
   0
LINE
   8
LEVEL001
   6
CONTINUOUS
  62
7
  10
 953.286
  20
 477.777
  30
0.0
  11
 953.784
  21
 463.786
  31
0.0
   0
LINE
   8
LEVEL001
   6
CONTINUOUS
  62
7
  10
 953.784
  20
 463.786
  30
0.0
  11
 956.014
  21
 464.061
  31
0.0
   0
ARC
   8
LEVEL001
   6
CONTINUOUS
  62
7
  10
 955.696
  20
 466.641
  30
0.0
  40
 2.60000
  50
 277.036
  51
 346.155
   0
ARC
   8
LEVEL001
   6
CONTINUOUS
  62
7
  10
 940.743
  20
 470.326
  30
0.0
  40
 18.0000
  50
 346.155
  51
 17.9172
   0
TEXT
   8
LEVEL003
  62
3
  10
 863.646
  20
 585.502
  30
0.0
  40
 16.0000
   1
フック
  50
 359.863
   7
STANDARD
   0
LINE
   8
LEVEL001
   6
CONTINUOUS
  62
7
  10
 335.807
  20
 512.014
  30
0.0
  11
 334.862
  21
 510.962
  31
0.0
   0
CIRCLE
   8
LEVEL001
   6
CONTINUOUS
  62
7
  10
 272.972
  20
 488.610
  30
0.0
  40
 5.00000
   0
ARC
   8
LEVEL001
   6
CONTINUOUS
  62
7
  10
 272.972
  20
 488.610
  30
0.0
  40
 10.0000
  50
 72.0330
  51
 152.805
   0
ARC
   8
LEVEL001
   6
CONTINUOUS
  62
7
  10
 288.981
  20
 468.369
  30
0.0
  40
 40.0000
  50
 92.8052
  51
 154.420
   0
CIRCLE
   8
LEVEL001
   6
CONTINUOUS
  62
7
  10
 272.972
  20
 488.610
  30
0.0
  40
 4.00000
   0
LINE
   8
LEVEL001
   6
CONTINUOUS
  62
7
  10
 295.014
  20
 508.713
  30
0.0
  11
 294.965
  21
 509.712
  31
0.0
   0
LINE
   8
LEVEL001
   6
CONTINUOUS
  62
7
  10
 294.965
  20
 509.712
  30
0.0
  11
 438.793
  21
 516.759
  31
0.0
   0
ARC
   8
LEVEL001
   6
CONTINUOUS
  62
7
  10
 333.088
  20
 464.523
  30
0.0
  40
 5.00000
  50
 22.1925
  51
 92.8051
   0
ARC
   8
LEVEL001
   6
CONTINUOUS
  62
7
  10
 440.530
  20
 481.302
  30
0.0
  40
 2.00000
  50
 272.805
  51
 2.80520
   0
ARC
   8
LEVEL001
   6
CONTINUOUS
  62
7
  10
 374.739
  20
 472.071
  30
0.0
  40
 5.00000
  50
 92.8052
  51
 167.817
   0
LINE
   8
LEVEL001
   6
CONTINUOUS
  62
7
  10
 374.494
  20
 477.065
  30
0.0
  11
 432.589
  21
 479.911
  31
0.0
   0
LINE
   8
LEVEL001
   6
CONTINUOUS
  62
7
  10
 432.589
  20
 479.911
  30
0.0
  11
 432.638
  21
 478.912
  31
0.0
   0
LINE
   8
LEVEL001
   6
CONTINUOUS
  62
7
  10
 432.638
  20
 478.912
  30
0.0
  11
 440.628
  21
 479.304
  31
0.0
   0
ARC
   8
LEVEL001
   6
CONTINUOUS
  62
7
  10
 438.891
  20
 514.761
  30
0.0
  40
 2.00000
  50
 2.80520
  51
 92.8052
   0
LINE
   8
LEVEL001
   6
DASHDOT
  62
1
  10
 350.629
  20
 517.946
  30
0.0
  11
 354.275
  21
 443.535
  31
0.0
   0
LINE
   8
LEVEL001
   6
DASHDOT
  62
1
  10
 257.016
  20
 487.828
  30
0.0
  11
 441.769
  21
 496.881
  31
0.0
   0
ARC
   8
LEVEL011
   6
CONTINUOUS
  62
7
  10
 267.515
  20
 485.539
  30
0.0
  40
 2.00000
  50
 92.8052
  51
 145.935
   0
ARC
   8
LEVEL011
   6
CONTINUOUS
  62
7
  10
 266.077
  20
 493.750
  30
0.0
  40
 2.00000
  50
 233.936
  51
 323.294
   0
ARC
   8
LEVEL011
   6
CONTINUOUS
  62
7
  10
 267.515
  20
 485.539
  30
0.0
  40
 3.60000
  50
 92.8052
  51
 145.935
   0
ARC
   8
LEVEL011
   6
CONTINUOUS
  62
7
  10
 266.077
  20
 493.750
  30
0.0
  40
 3.60000
  50
 233.937
  51
 323.293
   0
LINE
   8
LEVEL011
   6
CONTINUOUS
  62
7
  10
 267.339
  20
 489.135
  30
0.0
  11
 268.003
  21
 489.167
  31
0.0
   0
LINE
   8
LEVEL011
   6
CONTINUOUS
  62
7
  10
 267.418
  20
 487.537
  30
0.0
  11
 268.081
  21
 487.569
  31
0.0
   0
ARC
   8
LEVEL011
   6
CONTINUOUS
  62
7
  10
 272.972
  20
 488.610
  30
0.0
  40
 6.59982
  50
 42.3167
  51
 143.294
   0
ARC
   8
LEVEL011
   6
CONTINUOUS
  62
7
  10
 279.331
  20
 494.400
  30
0.0
  40
 2.00000
  50
 222.317
  51
 316.567
   0
ARC
   8
LEVEL011
   6
CONTINUOUS
  62
7
  10
 262.545
  20
 488.900
  30
0.0
  40
 4.00000
  50
 53.9361
  51
 325.935
   0
ARC
   8
LEVEL011
   6
CONTINUOUS
  62
7
  10
 262.545
  20
 488.900
  30
0.0
  40
 2.40000
  50
 53.9367
  51
 325.935
   0
LINE
   8
LEVEL001
   6
CONTINUOUS
  62
7
  10
 264.077
  20
 493.180
  30
0.0
  11
 263.825
  21
 492.690
  31
0.0
   0
LINE
   8
LEVEL001
   6
CONTINUOUS
  62
7
  10
 263.080
  20
 491.240
  30
0.0
  11
 260.954
  21
 487.103
  31
0.0
   0
LINE
   8
LEVEL001
   6
CONTINUOUS
  62
7
  10
 260.209
  20
 485.653
  30
0.0
  11
 258.074
  21
 481.497
  31
0.0
   0
LINE
   8
LEVEL001
   6
DASHDOT
  62
1
  10
 272.335
  20
 501.604
  30
0.0
  11
 273.783
  21
 472.044
  31
0.0
   0
ARC
   8
LEVEL001
   6
CONTINUOUS
  62
7
  10
 348.164
  20
 445.649
  30
0.0
  40
 2.00000
  50
 2.80520
  51
 40.9651
   0
ARC
   8
LEVEL001
   6
CONTINUOUS
  62
7
  10
 360.150
  20
 446.236
  30
0.0
  40
 2.00000
  50
 144.645
  51
 182.805
   0
LINE
   8
LEVEL001
   6
CONTINUOUS
  62
7
  10
 440.888
  20
 514.859
  30
0.0
  11
 442.528
  21
 481.399
  31
0.0
   0
CIRCLE
   8
LEVEL001
   6
CONTINUOUS
  62
7
  10
 302.475
  20
 479.042
  30
0.0
  40
 5.00000
   0
LINE
   8
LEVEL011
   6
CONTINUOUS
  62
7
  10
 284.716
  20
 494.851
  30
0.0
  11
 281.945
  21
 491.925
  31
0.0
   0
LINE
   8
LEVEL011
   6
CONTINUOUS
  62
7
  10
 283.554
  20
 495.952
  30
0.0
  11
 284.716
  21
 494.851
  31
0.0
   0
LINE
   8
LEVEL011
   6
CONTINUOUS
  62
7
  10
 283.554
  20
 495.952
  30
0.0
  11
 280.783
  21
 493.025
  31
0.0
   0
LINE
   8
LEVEL011
   6
CONTINUOUS
  62
7
  10
 286.217
  20
 490.060
  30
0.0
  11
 286.295
  21
 488.462
  31
0.0
   0
ARC
   8
LEVEL011
   6
CONTINUOUS
  62
7
  10
 279.331
  20
 494.400
  30
0.0
  40
 3.60000
  50
 222.318
  51
 316.565
   0
LINE
   8
LEVEL011
   6
CONTINUOUS
  62
7
  10
 277.862
  20
 489.651
  30
0.0
  11
 286.217
  21
 490.060
  31
0.0
   0
LINE
   8
LEVEL011
   6
CONTINUOUS
  62
7
  10
 277.941
  20
 488.052
  30
0.0
  11
 286.295
  21
 488.462
  31
0.0
   0
LINE
   8
LEVEL001
   6
CONTINUOUS
  62
7
  10
 358.118
  20
 446.835
  30
0.0
  11
 350.128
  21
 446.443
  31
0.0
   0
ARC
   8
LEVEL001
   6
CONTINUOUS
  62
7
  10
 402.532
  20
 492.852
  30
0.0
  40
 70.0000
  50
 202.192
  51
 220.965
   0
ARC
   8
LEVEL001
   6
CONTINUOUS
  62
7
  10
 301.428
  20
 487.898
  30
0.0
  40
 70.0000
  50
 324.645
  51
 347.817
   0
LINE
   8
LEVEL001
   6
DASHDOT
  62
1
  10
 292.107
  20
 478.534
  30
0.0
  11
 313.762
  21
 479.595
  31
0.0
   0
LINE
   8
LEVEL001
   6
CONTINUOUS
  62
7
  10
 303.014
  20
 468.056
  30
0.0
  11
 332.843
  21
 469.517
  31
0.0
   0
LINE
   8
LEVEL001
   6
CONTINUOUS
  62
7
  10
 252.902
  20
 485.640
  30
0.0
  11
 263.522
  21
 477.134
  31
0.0
   0
LINE
   8
LEVEL001
   6
CONTINUOUS
  62
7
  10
 263.522
  20
 477.134
  30
0.0
  11
 288.817
  21
 478.373
  31
0.0
   0
ARC
   8
LEVEL001
   6
CONTINUOUS
  62
7
  10
 288.964
  20
 475.377
  30
0.0
  40
 3.00000
  50
 15.1788
  51
 92.8052
   0
ARC
   8
LEVEL001
   6
CONTINUOUS
  62
7
  10
 302.475
  20
 479.042
  30
0.0
  40
 11.0000
  50
 195.179
  51
 272.805
   0
LINE
   8
LEVEL001
   6
CONTINUOUS
  62
7
  10
 312.463
  20
 479.532
  30
0.0
  11
 313.002
  21
 468.545
  31
0.0
   0
ARC
   8
LEVEL001
   6
CONTINUOUS
  62
7
  10
 302.475
  20
 479.042
  30
0.0
  40
 10.0000
  50
 2.80520
  51
 72.0329
   0
LINE
   8
LEVEL001
   6
CONTINUOUS
  62
7
  10
 276.056
  20
 498.122
  30
0.0
  11
 283.365
  21
 495.752
  31
0.0
   0
LINE
   8
LEVEL001
   6
CONTINUOUS
  62
7
  10
 283.973
  20
 495.555
  30
0.0
  11
 305.560
  21
 488.555
  31
0.0
   0
LINE
   8
LEVEL001
   6
CONTINUOUS
  62
7
  10
 360.183
  20
 485.063
  30
0.0
  11
 368.090
  21
 478.005
  31
0.0
   0
LINE
   8
LEVEL001
   6
CONTINUOUS
  62
7
  10
 359.418
  20
 500.666
  30
0.0
  11
 366.598
  21
 508.463
  31
0.0
   0
LINE
   8
LEVEL001
   6
CONTINUOUS
  62
7
  10
 287.024
  20
 508.321
  30
0.0
  11
 334.966
  21
 510.670
  31
0.0
   0
CIRCLE
   8
LEVEL001
   6
CONTINUOUS
  62
7
  10
 302.475
  20
 479.042
  30
0.0
  40
 4.00000
   0
LINE
   8
LEVEL001
   6
CONTINUOUS
  62
7
  10
 365.880
  20
 513.186
  30
0.0
  11
 366.928
  21
 512.236
  31
0.0
   0
LINE
   8
LEVEL001
   6
CONTINUOUS
  62
7
  10
 427.855
  20
 515.222
  30
0.0
  11
 366.928
  21
 512.236
  31
0.0
   0
ARC
   8
LEVEL001
   6
CONTINUOUS
  62
7
  10
 428.002
  20
 512.225
  30
0.0
  40
 3.00000
  50
 2.80520
  51
 92.8052
   0
POINT
   8
LEVEL001
  62
7
  10
 430.851
  20
 515.369
  30
0.0
   0
LINE
   8
LEVEL001
   6
CONTINUOUS
  62
7
  10
 432.589
  20
 479.911
  30
0.0
  11
 430.998
  21
 512.372
  31
0.0
   0
LINE
   8
LEVEL001
   6
DASHDOT
  62
1
  10
 298.635
  20
 550.557
  30
0.0
  11
 298.762
  21
 549.148
  31
0.0
   0
POINT
   8
LEVEL001
  62
7
  10
 361.075
  20
 622.325
  30
0.0
   0
ARC
   8
LEVEL001
   6
DASHDOT
  62
1
  10
 392.591
  20
 606.170
  30
0.0
  40
 2.00000
  50
 319.805
  51
 49.8052
   0
ARC
   8
LEVEL001
   6
DASHDOT
  62
1
  10
 354.473
  20
 551.758
  30
0.0
  40
 5.00000
  50
 139.805
  51
 214.817
   0
ARC
   8
LEVEL001
   6
DASHDOT
  62
1
  10
 367.002
  20
 627.791
  30
0.0
  40
 2.00000
  50
 49.8052
  51
 139.805
   0
ARC
   8
LEVEL001
   6
DASHDOT
  62
1
  10
 361.431
  20
 618.097
  30
0.0
  40
 3.00000
  50
 49.8052
  51
 139.805
   0
LINE
   8
LEVEL001
   6
DASHDOT
  62
1
  10
 273.302
  20
 518.441
  30
0.0
  11
 272.539
  21
 519.086
  31
0.0
   0
LINE
   8
LEVEL001
   6
DASHDOT
  62
1
  10
 272.539
  20
 519.086
  30
0.0
  11
 365.474
  21
 629.081
  31
0.0
   0
LINE
   8
LEVEL001
   6
DASHDOT
  62
1
  10
 350.653
  20
 554.985
  30
0.0
  11
 388.192
  21
 599.414
  31
0.0
   0
LINE
   8
LEVEL001
   6
DASHDOT
  62
1
  10
 388.192
  20
 599.414
  30
0.0
  11
 388.956
  21
 598.768
  31
0.0
   0
LINE
   8
LEVEL001
   6
DASHDOT
  62
1
  10
 388.956
  20
 598.768
  30
0.0
  11
 394.119
  21
 604.879
  31
0.0
   0
LINE
   8
LEVEL001
   6
DASHDOT
  62
1
  10
 262.662
  20
 476.408
  30
0.0
  11
 382.042
  21
 617.701
  31
0.0
   0
LINE
   8
LEVEL001
   6
DASHDOT
  62
1
  10
 368.293
  20
 629.318
  30
0.0
  11
 393.882
  21
 607.698
  31
0.0
   0
LINE
   8
LEVEL001
   6
DASHDOT
  62
1
  10
 359.139
  20
 620.034
  30
0.0
  11
 319.770
  21
 573.438
  31
0.0
   0
LINE
   8
LEVEL001
   6
DASHDOT
  62
1
  10
 388.192
  20
 599.414
  30
0.0
  11
 363.367
  21
 620.389
  31
0.0
   0
LINE
   8
LEVEL001
   6
DASHDOT
  62
1
  10
 335.044
  20
 549.973
  30
0.0
  11
 345.598
  21
 550.943
  31
0.0
   0
LINE
   8
LEVEL001
   6
DASHDOT
  62
1
  10
 323.111
  20
 560.055
  30
0.0
  11
 322.305
  21
 570.624
  31
0.0
   0
LINE
   8
LEVEL001
   6
DASHDOT
  62
1
  10
 318.361
  20
 573.320
  30
0.0
  11
 319.770
  21
 573.438
  31
0.0
   0
LINE
   8
LEVEL001
   6
DASHDOT
  62
1
  10
 268.139
  20
 512.330
  30
0.0
  11
 299.118
  21
 548.995
  31
0.0
   0
LINE
   8
LEVEL001
   6
DASHDOT
  62
1
  10
 373.831
  20
 624.639
  30
0.0
  11
 393.084
  21
 647.426
  31
0.0
   0
LINE
   8
LEVEL003
   6
DASHDOT
  62
1
  10
 382.042
  20
 617.701
  30
0.0
  11
 401.295
  21
 640.488
  31
0.0
   0
LINE
   8
LEVEL001
   6
DASHDOT
  62
1
  10
 390.254
  20
 610.763
  30
0.0
  11
 409.507
  21
 633.550
  31
0.0
   0
LINE
   8
LEVEL001
   6
DASHDOT
  62
1
  10
 304.479
  20
 565.412
  30
0.0
  11
 335.853
  21
 538.903
  31
0.0
   0
ARC
   8
LEVEL001
   6
DASHDOT
  62
1
  10
 292.899
  20
 508.936
  30
0.0
  40
 70.0000
  50
 26.2170
  51
 34.8172
   0
LINE
   8
LEVEL012
   6
CONTINUOUS
  62
7
  10
 1056.92
  20
 513.507
  30
0.0
  11
 1055.60
  21
 540.474
  31
0.0
   0
LINE
   8
LEVEL012
   6
CONTINUOUS
  62
7
  10
 1055.60
  20
 540.474
  30
0.0
  11
 1065.63
  21
 539.965
  31
0.0
   0
LINE
   8
LEVEL012
   6
CONTINUOUS
  62
7
  10
 1065.63
  20
 539.965
  30
0.0
  11
 1066.86
  21
 514.995
  31
0.0
   0
LINE
   8
LEVEL012
   6
CONTINUOUS
  62
7
  10
 1066.86
  20
 514.995
  30
0.0
  11
 1056.92
  21
 513.507
  31
0.0
   0
LINE
   8
LEVEL012
   6
CONTINUOUS
  62
3
  10
 1065.71
  20
 538.462
  30
0.0
  11
 1067.70
  21
 538.714
  31
0.0
   0
LINE
   8
LEVEL003
   6
DASHDOT
  62
1
  10
 441.769
  20
 496.881
  30
0.0
  11
 1150.24
  21
 531.596
  31
0.0
   0
LINE
   8
LEVEL003
   6
CONTINUOUS
  62
7
  10
 940.755
  20
 529.340
  30
0.0
  11
 941.538
  21
 513.360
  31
0.0
   0
LINE
   8
LEVEL003
   6
CONTINUOUS
  62
7
  10
 934.814
  20
 509.025
  30
0.0
  11
 941.538
  21
 513.360
  31
0.0
   0
LINE
   8
LEVEL003
   6
CONTINUOUS
  62
7
  10
 941.538
  20
 513.360
  30
0.0
  11
 1056.65
  21
 519.000
  31
0.0
   0
LINE
   8
LEVEL003
   6
CONTINUOUS
  62
7
  10
 933.640
  20
 532.996
  30
0.0
  11
 934.814
  21
 509.025
  31
0.0
   0
LINE
   8
LEVEL001
   6
CONTINUOUS
  62
7
  10
 441.182
  20
 508.866
  30
0.0
  11
 933.640
  21
 532.996
  31
0.0
   0
LINE
   8
LEVEL001
   6
CONTINUOUS
  62
7
  10
 934.814
  20
 509.025
  30
0.0
  11
 442.356
  21
 484.895
  31
0.0
   0
ARC
   8
LEVEL003
   6
CONTINUOUS
  62
3
  10
 272.972
  20
 488.610
  30
0.0
  40
 194.298
  50
 2.80520
  51
 49.8052
   0
LINE
   8
LEVEL003
   6
CONTINUOUS
  62
3
  10
 467.037
  20
 498.119
  30
0.0
  11
 468.314
  21
 510.237
  31
0.0
   0
LINE
   8
LEVEL003
   6
CONTINUOUS
  62
3
  10
 467.037
  20
 498.119
  30
0.0
  11
 464.093
  21
 509.943
  31
0.0
   0
LINE
   8
LEVEL003
   6
CONTINUOUS
  62
3
  10
 398.370
  20
 637.026
  30
0.0
  11
 405.976
  21
 627.506
  31
0.0
   0
LINE
   8
LEVEL003
   6
CONTINUOUS
  62
3
  10
 398.370
  20
 637.026
  30
0.0
  11
 408.773
  21
 630.682
  31
0.0
   0
TEXT
   8
LEVEL003
  62
3
  10
 396.281
  20
 562.629
  30
0.0
  40
 16.0000
   1
約47%%d
   7
STANDARD
  72
2
  11
 444.281
  21
 573.296
  31
0.0
  73
2
   0
LINE
   8
LEVEL012
   6
CONTINUOUS
  62
3
  10
 1068.86
  20
 514.939
  30
0.0
  11
 1067.62
  21
 540.216
  31
0.0
   0
LINE
   8
LEVEL012
   6
CONTINUOUS
  62
3
  10
 1067.62
  20
 540.216
  30
0.0
  11
 1069.62
  21
 540.468
  31
0.0
   0
LINE
   8
LEVEL012
   6
CONTINUOUS
  62
3
  10
 1069.62
  20
 540.468
  30
0.0
  11
 1070.87
  21
 514.883
  31
0.0
   0
LINE
   8
LEVEL012
   6
CONTINUOUS
  62
3
  10
 1070.87
  20
 514.883
  30
0.0
  11
 1068.86
  21
 514.939
  31
0.0
   0
LINE
   8
LEVEL012
   6
CONTINUOUS
  62
3
  10
 1072.87
  20
 514.827
  30
0.0
  11
 1071.61
  21
 540.719
  31
0.0
   0
LINE
   8
LEVEL012
   6
CONTINUOUS
  62
3
  10
 1071.61
  20
 540.719
  30
0.0
  11
 1073.60
  21
 540.971
  31
0.0
   0
LINE
   8
LEVEL012
   6
CONTINUOUS
  62
3
  10
 1073.60
  20
 540.971
  30
0.0
  11
 1074.88
  21
 514.772
  31
0.0
   0
LINE
   8
LEVEL012
   6
CONTINUOUS
  62
3
  10
 1074.88
  20
 514.772
  30
0.0
  11
 1072.87
  21
 514.827
  31
0.0
   0
LINE
   8
LEVEL012
   6
CONTINUOUS
  62
3
  10
 1076.88
  20
 514.716
  30
0.0
  11
 1075.59
  21
 541.222
  31
0.0
   0
LINE
   8
LEVEL012
   6
CONTINUOUS
  62
3
  10
 1075.59
  20
 541.222
  30
0.0
  11
 1077.58
  21
 541.474
  31
0.0
   0
LINE
   8
LEVEL012
   6
CONTINUOUS
  62
3
  10
 1077.58
  20
 541.474
  30
0.0
  11
 1078.89
  21
 514.660
  31
0.0
   0
LINE
   8
LEVEL012
   6
CONTINUOUS
  62
3
  10
 1078.89
  20
 514.660
  30
0.0
  11
 1076.88
  21
 514.716
  31
0.0
   0
LINE
   8
LEVEL012
   6
CONTINUOUS
  62
3
  10
 1080.89
  20
 514.604
  30
0.0
  11
 1079.57
  21
 541.726
  31
0.0
   0
LINE
   8
LEVEL012
   6
CONTINUOUS
  62
3
  10
 1079.57
  20
 541.726
  30
0.0
  11
 1081.56
  21
 541.977
  31
0.0
   0
LINE
   8
LEVEL012
   6
CONTINUOUS
  62
3
  10
 1081.56
  20
 541.977
  30
0.0
  11
 1082.90
  21
 514.548
  31
0.0
   0
LINE
   8
LEVEL012
   6
CONTINUOUS
  62
3
  10
 1082.90
  20
 514.548
  30
0.0
  11
 1080.89
  21
 514.604
  31
0.0
   0
LINE
   8
LEVEL012
   6
CONTINUOUS
  62
3
  10
 1084.90
  20
 514.493
  30
0.0
  11
 1083.55
  21
 542.229
  31
0.0
   0
LINE
   8
LEVEL012
   6
CONTINUOUS
  62
3
  10
 1083.55
  20
 542.229
  30
0.0
  11
 1085.54
  21
 542.480
  31
0.0
   0
LINE
   8
LEVEL012
   6
CONTINUOUS
  62
3
  10
 1085.54
  20
 542.480
  30
0.0
  11
 1086.91
  21
 514.437
  31
0.0
   0
LINE
   8
LEVEL012
   6
CONTINUOUS
  62
3
  10
 1086.91
  20
 514.437
  30
0.0
  11
 1084.90
  21
 514.493
  31
0.0
   0
LINE
   8
LEVEL012
   6
CONTINUOUS
  62
3
  10
 1088.91
  20
 514.381
  30
0.0
  11
 1087.53
  21
 542.732
  31
0.0
   0
LINE
   8
LEVEL012
   6
CONTINUOUS
  62
3
  10
 1087.53
  20
 542.732
  30
0.0
  11
 1089.52
  21
 542.983
  31
0.0
   0
LINE
   8
LEVEL012
   6
CONTINUOUS
  62
3
  10
 1089.52
  20
 542.983
  30
0.0
  11
 1090.92
  21
 514.325
  31
0.0
   0
LINE
   8
LEVEL012
   6
CONTINUOUS
  62
3
  10
 1090.92
  20
 514.325
  30
0.0
  11
 1088.91
  21
 514.381
  31
0.0
   0
LINE
   8
LEVEL012
   6
CONTINUOUS
  62
3
  10
 1069.69
  20
 538.965
  30
0.0
  11
 1071.68
  21
 539.217
  31
0.0
   0
LINE
   8
LEVEL012
   6
CONTINUOUS
  62
3
  10
 1073.67
  20
 539.468
  30
0.0
  11
 1075.66
  21
 539.720
  31
0.0
   0
LINE
   8
LEVEL012
   6
CONTINUOUS
  62
3
  10
 1077.65
  20
 539.971
  30
0.0
  11
 1079.64
  21
 540.223
  31
0.0
   0
LINE
   8
LEVEL012
   6
CONTINUOUS
  62
3
  10
 1081.63
  20
 540.474
  30
0.0
  11
 1083.62
  21
 540.726
  31
0.0
   0
LINE
   8
LEVEL012
   6
CONTINUOUS
  62
3
  10
 1085.61
  20
 540.978
  30
0.0
  11
 1087.60
  21
 541.229
  31
0.0
   0
LINE
   8
LEVEL012
   6
CONTINUOUS
  62
3
  10
 1089.59
  20
 541.481
  30
0.0
  11
 1091.58
  21
 541.732
  31
0.0
   0
LINE
   8
LEVEL012
   6
CONTINUOUS
  62
3
  10
 1066.78
  20
 516.497
  30
0.0
  11
 1068.79
  21
 516.442
  31
0.0
   0
LINE
   8
LEVEL012
   6
CONTINUOUS
  62
3
  10
 1070.80
  20
 516.386
  30
0.0
  11
 1072.80
  21
 516.330
  31
0.0
   0
LINE
   8
LEVEL012
   6
CONTINUOUS
  62
3
  10
 1074.81
  20
 516.274
  30
0.0
  11
 1076.81
  21
 516.218
  31
0.0
   0
LINE
   8
LEVEL012
   6
CONTINUOUS
  62
3
  10
 1078.82
  20
 516.163
  30
0.0
  11
 1080.82
  21
 516.107
  31
0.0
   0
LINE
   8
LEVEL012
   6
CONTINUOUS
  62
3
  10
 1082.83
  20
 516.051
  30
0.0
  11
 1084.83
  21
 515.995
  31
0.0
   0
LINE
   8
LEVEL012
   6
CONTINUOUS
  62
3
  10
 1086.84
  20
 515.940
  30
0.0
  11
 1088.84
  21
 515.884
  31
0.0
   0
LINE
   8
LEVEL012
   6
CONTINUOUS
  62
3
  10
 1092.93
  20
 514.270
  30
0.0
  11
 1091.51
  21
 543.235
  31
0.0
   0
LINE
   8
LEVEL012
   6
CONTINUOUS
  62
3
  10
 1091.51
  20
 543.235
  30
0.0
  11
 1093.50
  21
 543.486
  31
0.0
   0
LINE
   8
LEVEL012
   6
CONTINUOUS
  62
3
  10
 1093.50
  20
 543.486
  30
0.0
  11
 1094.93
  21
 514.214
  31
0.0
   0
LINE
   8
LEVEL012
   6
CONTINUOUS
  62
3
  10
 1094.93
  20
 514.214
  30
0.0
  11
 1092.93
  21
 514.270
  31
0.0
   0
LINE
   8
LEVEL012
   6
CONTINUOUS
  62
3
  10
 1104.91
  20
 514.823
  30
0.0
  11
 1103.49
  21
 543.856
  31
0.0
   0
LINE
   8
LEVEL012
   6
CONTINUOUS
  62
3
  10
 1103.49
  20
 543.856
  30
0.0
  11
 1105.50
  21
 543.785
  31
0.0
   0
LINE
   8
LEVEL012
   6
CONTINUOUS
  62
3
  10
 1105.50
  20
 543.785
  30
0.0
  11
 1106.90
  21
 515.090
  31
0.0
   0
LINE
   8
LEVEL012
   6
CONTINUOUS
  62
3
  10
 1106.90
  20
 515.090
  30
0.0
  11
 1104.91
  21
 514.823
  31
0.0
   0
LINE
   8
LEVEL012
   6
CONTINUOUS
  62
3
  10
 1108.89
  20
 515.357
  30
0.0
  11
 1107.50
  21
 543.713
  31
0.0
   0
LINE
   8
LEVEL012
   6
CONTINUOUS
  62
3
  10
 1107.50
  20
 543.713
  30
0.0
  11
 1109.51
  21
 543.642
  31
0.0
   0
LINE
   8
LEVEL012
   6
CONTINUOUS
  62
3
  10
 1109.51
  20
 543.642
  30
0.0
  11
 1110.88
  21
 515.625
  31
0.0
   0
LINE
   8
LEVEL012
   6
CONTINUOUS
  62
3
  10
 1110.88
  20
 515.625
  30
0.0
  11
 1108.89
  21
 515.357
  31
0.0
   0
LINE
   8
LEVEL012
   6
CONTINUOUS
  62
3
  10
 1112.87
  20
 515.892
  30
0.0
  11
 1111.51
  21
 543.570
  31
0.0
   0
LINE
   8
LEVEL012
   6
CONTINUOUS
  62
3
  10
 1111.51
  20
 543.570
  30
0.0
  11
 1113.52
  21
 543.499
  31
0.0
   0
LINE
   8
LEVEL012
   6
CONTINUOUS
  62
3
  10
 1113.52
  20
 543.499
  30
0.0
  11
 1114.86
  21
 516.159
  31
0.0
   0
LINE
   8
LEVEL012
   6
CONTINUOUS
  62
3
  10
 1114.86
  20
 516.159
  30
0.0
  11
 1112.87
  21
 515.892
  31
0.0
   0
LINE
   8
LEVEL012
   6
CONTINUOUS
  62
3
  10
 1116.85
  20
 516.426
  30
0.0
  11
 1115.53
  21
 543.428
  31
0.0
   0
LINE
   8
LEVEL012
   6
CONTINUOUS
  62
3
  10
 1115.53
  20
 543.428
  30
0.0
  11
 1117.53
  21
 543.356
  31
0.0
   0
LINE
   8
LEVEL012
   6
CONTINUOUS
  62
3
  10
 1117.53
  20
 543.356
  30
0.0
  11
 1118.84
  21
 516.693
  31
0.0
   0
LINE
   8
LEVEL012
   6
CONTINUOUS
  62
3
  10
 1118.84
  20
 516.693
  30
0.0
  11
 1116.85
  21
 516.426
  31
0.0
   0
LINE
   8
LEVEL012
   6
CONTINUOUS
  62
3
  10
 1120.83
  20
 516.960
  30
0.0
  11
 1119.54
  21
 543.285
  31
0.0
   0
LINE
   8
LEVEL012
   6
CONTINUOUS
  62
3
  10
 1119.54
  20
 543.285
  30
0.0
  11
 1121.54
  21
 543.213
  31
0.0
   0
LINE
   8
LEVEL012
   6
CONTINUOUS
  62
3
  10
 1121.54
  20
 543.213
  30
0.0
  11
 1122.82
  21
 517.227
  31
0.0
   0
LINE
   8
LEVEL012
   6
CONTINUOUS
  62
3
  10
 1122.82
  20
 517.227
  30
0.0
  11
 1120.83
  21
 516.960
  31
0.0
   0
LINE
   8
LEVEL012
   6
CONTINUOUS
  62
3
  10
 1096.21
  20
 528.948
  30
0.0
  11
 1095.49
  21
 543.738
  31
0.0
   0
LINE
   8
LEVEL012
   6
CONTINUOUS
  62
3
  10
 1095.49
  20
 543.738
  30
0.0
  11
 1097.48
  21
 543.989
  31
0.0
   0
LINE
   8
LEVEL012
   6
CONTINUOUS
  62
3
  10
 1097.48
  20
 543.989
  30
0.0
  11
 1098.21
  21
 529.046
  31
0.0
   0
LINE
   8
LEVEL012
   6
CONTINUOUS
  62
3
  10
 1100.21
  20
 529.144
  30
0.0
  11
 1099.48
  21
 543.999
  31
0.0
   0
LINE
   8
LEVEL012
   6
CONTINUOUS
  62
3
  10
 1099.48
  20
 543.999
  30
0.0
  11
 1101.48
  21
 543.927
  31
0.0
   0
LINE
   8
LEVEL012
   6
CONTINUOUS
  62
3
  10
 1101.48
  20
 543.927
  30
0.0
  11
 1102.20
  21
 529.242
  31
0.0
   0
LINE
   8
LEVEL012
   6
CONTINUOUS
  62
3
  10
 1093.57
  20
 541.984
  30
0.0
  11
 1095.56
  21
 542.235
  31
0.0
   0
LINE
   8
LEVEL012
   6
CONTINUOUS
  62
3
  10
 1097.55
  20
 542.567
  30
0.0
  11
 1099.55
  21
 542.495
  31
0.0
   0
LINE
   8
LEVEL012
   6
CONTINUOUS
  62
3
  10
 1101.56
  20
 542.424
  30
0.0
  11
 1103.56
  21
 542.352
  31
0.0
   0
LINE
   8
LEVEL012
   6
CONTINUOUS
  62
3
  10
 1105.57
  20
 542.281
  30
0.0
  11
 1107.58
  21
 542.210
  31
0.0
   0
LINE
   8
LEVEL012
   6
CONTINUOUS
  62
3
  10
 1109.58
  20
 542.138
  30
0.0
  11
 1111.59
  21
 542.067
  31
0.0
   0
LINE
   8
LEVEL012
   6
CONTINUOUS
  62
3
  10
 1113.59
  20
 541.995
  30
0.0
  11
 1115.60
  21
 541.924
  31
0.0
   0
LINE
   8
LEVEL012
   6
CONTINUOUS
  62
3
  10
 1117.60
  20
 541.853
  30
0.0
  11
 1119.61
  21
 541.781
  31
0.0
   0
LINE
   8
LEVEL012
   6
CONTINUOUS
  62
3
  10
 1121.62
  20
 541.710
  30
0.0
  11
 1123.62
  21
 541.638
  31
0.0
   0
LINE
   8
LEVEL012
   6
CONTINUOUS
  62
3
  10
 1090.85
  20
 515.828
  30
0.0
  11
 1092.85
  21
 515.772
  31
0.0
   0
LINE
   8
LEVEL012
   6
CONTINUOUS
  62
3
  10
 1114.79
  20
 517.662
  30
0.0
  11
 1116.77
  21
 517.930
  31
0.0
   0
LINE
   8
LEVEL012
   6
CONTINUOUS
  62
3
  10
 1118.76
  20
 518.197
  30
0.0
  11
 1120.75
  21
 518.464
  31
0.0
   0
LINE
   8
LEVEL012
   6
CONTINUOUS
  62
3
  10
 1122.74
  20
 518.731
  30
0.0
  11
 1124.73
  21
 518.998
  31
0.0
   0
LINE
   8
LEVEL012
   6
CONTINUOUS
  62
3
  10
 1094.86
  20
 515.716
  30
0.0
  11
 1096.86
  21
 515.661
  31
0.0
   0
LINE
   8
LEVEL012
   6
CONTINUOUS
  62
3
  10
 1098.87
  20
 515.525
  30
0.0
  11
 1100.86
  21
 515.792
  31
0.0
   0
LINE
   8
LEVEL012
   6
CONTINUOUS
  62
3
  10
 1102.85
  20
 516.059
  30
0.0
  11
 1104.84
  21
 516.327
  31
0.0
   0
LINE
   8
LEVEL012
   6
CONTINUOUS
  62
3
  10
 1106.83
  20
 516.594
  30
0.0
  11
 1108.82
  21
 516.861
  31
0.0
   0
LINE
   8
LEVEL012
   6
CONTINUOUS
  62
3
  10
 1110.81
  20
 517.128
  30
0.0
  11
 1112.80
  21
 517.395
  31
0.0
   0
LINE
   8
LEVEL012
   6
CONTINUOUS
  62
3
  10
 1096.21
  20
 528.948
  30
0.0
  11
 1096.94
  21
 514.158
  31
0.0
   0
LINE
   8
LEVEL012
   6
CONTINUOUS
  62
3
  10
 1096.94
  20
 514.158
  30
0.0
  11
 1098.94
  21
 514.102
  31
0.0
   0
LINE
   8
LEVEL012
   6
CONTINUOUS
  62
3
  10
 1098.94
  20
 514.102
  30
0.0
  11
 1098.21
  21
 529.046
  31
0.0
   0
LINE
   8
LEVEL012
   6
CONTINUOUS
  62
3
  10
 1100.21
  20
 529.144
  30
0.0
  11
 1100.93
  21
 514.289
  31
0.0
   0
LINE
   8
LEVEL012
   6
CONTINUOUS
  62
3
  10
 1100.93
  20
 514.289
  30
0.0
  11
 1102.92
  21
 514.556
  31
0.0
   0
LINE
   8
LEVEL012
   6
CONTINUOUS
  62
3
  10
 1102.92
  20
 514.556
  30
0.0
  11
 1102.20
  21
 529.242
  31
0.0
   0
LINE
   8
LEVEL012
   6
CONTINUOUS
  62
7
  10
 1128.78
  20
 518.029
  30
0.0
  11
 1127.56
  21
 542.999
  31
0.0
   0
LINE
   8
LEVEL012
   6
CONTINUOUS
  62
7
  10
 1127.56
  20
 542.999
  30
0.0
  11
 1137.50
  21
 544.487
  31
0.0
   0
LINE
   8
LEVEL012
   6
CONTINUOUS
  62
7
  10
 1137.50
  20
 544.487
  30
0.0
  11
 1138.82
  21
 517.520
  31
0.0
   0
LINE
   8
LEVEL012
   6
CONTINUOUS
  62
7
  10
 1138.82
  20
 517.520
  30
0.0
  11
 1128.78
  21
 518.029
  31
0.0
   0
ARC
   8
LEVEL012
   6
CONTINUOUS
  62
7
  10
 1109.32
  20
 529.590
  30
0.0
  40
 31.8750
  50
 337.748
  51
 27.8628
   0
LINE
   8
LEVEL012
   6
CONTINUOUS
  62
3
  10
 1124.81
  20
 517.495
  30
0.0
  11
 1123.55
  21
 543.142
  31
0.0
   0
LINE
   8
LEVEL012
   6
CONTINUOUS
  62
3
  10
 1123.55
  20
 543.142
  30
0.0
  11
 1125.55
  21
 543.070
  31
0.0
   0
LINE
   8
LEVEL012
   6
CONTINUOUS
  62
3
  10
 1125.55
  20
 543.070
  30
0.0
  11
 1126.79
  21
 517.762
  31
0.0
   0
LINE
   8
LEVEL012
   6
CONTINUOUS
  62
3
  10
 1126.79
  20
 517.762
  30
0.0
  11
 1124.81
  21
 517.495
  31
0.0
   0
LINE
   8
LEVEL012
   6
CONTINUOUS
  62
3
  10
 1125.63
  20
 541.567
  30
0.0
  11
 1127.63
  21
 541.495
  31
0.0
   0
LINE
   8
LEVEL012
   6
CONTINUOUS
  62
3
  10
 1126.72
  20
 519.265
  30
0.0
  11
 1128.71
  21
 519.533
  31
0.0
   0
LINE
   8
LEVEL003
   6
CONTINUOUS
  62
7
  10
 950.592
  20
 529.822
  30
0.0
  11
 1055.87
  21
 534.981
  31
0.0
   0
LINE
   8
LEVEL003
   6
CONTINUOUS
  62
7
  10
 933.640
  20
 532.996
  30
0.0
  11
 940.755
  21
 529.340
  31
0.0
   0
LINE
   8
LEVEL003
   6
CONTINUOUS
  62
7
  10
 940.755
  20
 529.340
  30
0.0
  11
 947.439
  21
 529.668
  31
0.0
   0
ARC
   8
LEVEL001
   6
CONTINUOUS
  62
7
  10
 351.224
  20
 444.663
  30
0.0
  40
 1.00000
  50
 182.805
  51
 272.805
   0
ARC
   8
LEVEL001
   6
CONTINUOUS
  62
7
  10
 357.217
  20
 444.956
  30
0.0
  40
 1.00000
  50
 272.805
  51
 2.80520
   0
LINE
   8
LEVEL001
   6
CONTINUOUS
  62
7
  10
 350.226
  20
 444.614
  30
0.0
  11
 350.162
  21
 445.747
  31
0.0
   0
LINE
   8
LEVEL001
   6
CONTINUOUS
  62
7
  10
 358.152
  20
 446.138
  30
0.0
  11
 358.216
  21
 445.005
  31
0.0
   0
LINE
   8
LEVEL003
   6
CONTINUOUS
  62
7
  10
 357.266
  20
 443.957
  30
0.0
  11
 351.273
  21
 443.664
  31
0.0
   0
LINE
   8
LEVEL003
   6
CONTINUOUS
  62
3
  10
 248.170
  20
 394.172
  30
0.0
  11
 248.170
  21
 221.883
  31
0.0
   0
LINE
   8
LEVEL003
   6
CONTINUOUS
  62
3
  10
 1141.12
  20
 527.843
  30
0.0
  11
 1141.12
  21
 221.883
  31
0.0
   0
LINE
   8
LEVEL003
   6
CONTINUOUS
  62
3
  10
 248.170
  20
 229.883
  30
0.0
  11
 1141.12
  21
 229.883
  31
0.0
   0
LINE
   8
LEVEL003
   6
CONTINUOUS
  62
3
  10
 248.170
  20
 229.883
  30
0.0
  11
 260.170
  21
 227.767
  31
0.0
   0
LINE
   8
LEVEL003
   6
CONTINUOUS
  62
3
  10
 248.170
  20
 229.883
  30
0.0
  11
 260.170
  21
 231.999
  31
0.0
   0
LINE
   8
LEVEL003
   6
CONTINUOUS
  62
3
  10
 1141.12
  20
 229.883
  30
0.0
  11
 1129.12
  21
 231.999
  31
0.0
   0
LINE
   8
LEVEL003
   6
CONTINUOUS
  62
3
  10
 1141.12
  20
 229.883
  30
0.0
  11
 1129.12
  21
 227.767
  31
0.0
   0
TEXT
   8
LEVEL003
  62
3
  10
 674.646
  20
 233.083
  30
0.0
  40
 16.0000
   1
約900
   7
STANDARD
  72
1
  11
 694.646
  21
 233.083
  31
0.0
   0
LINE
   8
LEVEL003
   6
CONTINUOUS
  62
3
  10
 963.864
  20
 331.062
  30
0.0
  11
 963.864
  21
 258.675
  31
0.0
   0
LINE
   8
LEVEL003
   6
CONTINUOUS
  62
3
  10
 288.438
  20
 331.062
  30
0.0
  11
 288.438
  21
 258.675
  31
0.0
   0
LINE
   8
LEVEL003
   6
CONTINUOUS
  62
3
  10
 963.864
  20
 266.675
  30
0.0
  11
 288.438
  21
 266.675
  31
0.0
   0
LINE
   8
LEVEL003
   6
CONTINUOUS
  62
3
  10
 963.864
  20
 266.675
  30
0.0
  11
 951.864
  21
 268.791
  31
0.0
   0
LINE
   8
LEVEL003
   6
CONTINUOUS
  62
3
  10
 963.864
  20
 266.675
  30
0.0
  11
 951.864
  21
 264.559
  31
0.0
   0
LINE
   8
LEVEL003
   6
CONTINUOUS
  62
3
  10
 288.438
  20
 266.675
  30
0.0
  11
 300.438
  21
 264.559
  31
0.0
   0
LINE
   8
LEVEL003
   6
CONTINUOUS
  62
3
  10
 288.438
  20
 266.675
  30
0.0
  11
 300.438
  21
 268.791
  31
0.0
   0
TEXT
   8
LEVEL003
  62
3
  10
 606.151
  20
 269.875
  30
0.0
  40
 16.0000
   1
約675
   7
STANDARD
  72
1
  11
 626.151
  21
 269.875
  31
0.0
   0
LINE
   8
LEVEL003
   6
CONTINUOUS
  62
3
  10
 338.406
  20
 332.839
  30
0.0
  11
 338.406
  21
 292.033
  31
0.0
   0
LINE
   8
LEVEL003
   6
CONTINUOUS
  62
3
  10
 288.438
  20
 331.062
  30
0.0
  11
 288.438
  21
 292.033
  31
0.0
   0
LINE
   8
LEVEL003
   6
CONTINUOUS
  62
3
  10
 338.406
  20
 300.033
  30
0.0
  11
 288.438
  21
 300.033
  31
0.0
   0
LINE
   8
LEVEL003
   6
CONTINUOUS
  62
3
  10
 338.406
  20
 300.033
  30
0.0
  11
 326.406
  21
 302.149
  31
0.0
   0
LINE
   8
LEVEL003
   6
CONTINUOUS
  62
3
  10
 338.406
  20
 300.033
  30
0.0
  11
 326.406
  21
 297.917
  31
0.0
   0
LINE
   8
LEVEL003
   6
CONTINUOUS
  62
3
  10
 288.438
  20
 300.033
  30
0.0
  11
 300.438
  21
 297.917
  31
0.0
   0
LINE
   8
LEVEL003
   6
CONTINUOUS
  62
3
  10
 288.438
  20
 300.033
  30
0.0
  11
 300.438
  21
 302.149
  31
0.0
   0
TEXT
   8
LEVEL003
  62
3
  10
 305.422
  20
 303.233
  30
0.0
  40
 16.0000
   1
50
  41
 0.500000
   7
STANDARD
  72
1
  11
 313.422
  21
 303.233
  31
0.0
   0
LINE
   8
LEVEL003
   6
CONTINUOUS
  62
3
  10
 919.839
  20
 330.998
  30
0.0
  11
 919.839
  21
 292.033
  31
0.0
   0
LINE
   8
LEVEL003
   6
CONTINUOUS
  62
3
  10
 963.864
  20
 331.062
  30
0.0
  11
 963.864
  21
 292.033
  31
0.0
   0
LINE
   8
LEVEL003
   6
CONTINUOUS
  62
3
  10
 919.839
  20
 300.033
  30
0.0
  11
 963.864
  21
 300.033
  31
0.0
   0
LINE
   8
LEVEL003
   6
CONTINUOUS
  62
3
  10
 919.839
  20
 300.033
  30
0.0
  11
 931.839
  21
 297.917
  31
0.0
   0
LINE
   8
LEVEL003
   6
CONTINUOUS
  62
3
  10
 919.839
  20
 300.033
  30
0.0
  11
 931.839
  21
 302.149
  31
0.0
   0
LINE
   8
LEVEL003
   6
CONTINUOUS
  62
3
  10
 963.864
  20
 300.033
  30
0.0
  11
 951.864
  21
 302.149
  31
0.0
   0
LINE
   8
LEVEL003
   6
CONTINUOUS
  62
3
  10
 963.864
  20
 300.033
  30
0.0
  11
 951.864
  21
 297.917
  31
0.0
   0
TEXT
   8
LEVEL003
  62
3
  10
 933.851
  20
 303.233
  30
0.0
  40
 16.0000
   1
44
  41
 0.500000
   7
STANDARD
  72
1
  11
 941.851
  21
 303.233
  31
0.0
   0
LINE
   8
LEVEL003
   6
CONTINUOUS
  62
3
  10
 1141.45
  20
 545.177
  30
0.0
  11
 1195.53
  21
 545.177
  31
0.0
   0
LINE
   8
LEVEL003
   6
CONTINUOUS
  62
3
  10
 967.864
  20
 335.062
  30
0.0
  11
 1195.53
  21
 335.062
  31
0.0
   0
LINE
   8
LEVEL003
   6
CONTINUOUS
  62
3
  10
 1187.53
  20
 545.177
  30
0.0
  11
 1187.53
  21
 335.062
  31
0.0
   0
LINE
   8
LEVEL003
   6
CONTINUOUS
  62
3
  10
 1187.53
  20
 545.177
  30
0.0
  11
 1185.42
  21
 533.177
  31
0.0
   0
LINE
   8
LEVEL003
   6
CONTINUOUS
  62
3
  10
 1187.53
  20
 545.177
  30
0.0
  11
 1189.65
  21
 533.177
  31
0.0
   0
LINE
   8
LEVEL003
   6
CONTINUOUS
  62
3
  10
 1187.53
  20
 335.062
  30
0.0
  11
 1189.65
  21
 347.062
  31
0.0
   0
LINE
   8
LEVEL003
   6
CONTINUOUS
  62
3
  10
 1187.53
  20
 335.062
  30
0.0
  11
 1185.42
  21
 347.062
  31
0.0
   0
TEXT
   8
LEVEL003
  62
3
  10
 1184.33
  20
 420.120
  30
0.0
  40
 16.0000
   1
約210
  50
 90.0000
   7
STANDARD
  72
1
  11
 1184.33
  21
 440.120
  31
0.0
   0
CIRCLE
   8
LEVEL001
   6
CONTINUOUS
  62
7
  10
 120.000
  20
 399.563
  30
0.0
  40
 10.2500
   0
CIRCLE
   8
LEVEL001
   6
CONTINUOUS
  62
3
  10
 120.000
  20
 399.563
  30
0.0
  40
 11.0000
   0
CIRCLE
   8
LEVEL001
   6
CONTINUOUS
  62
7
  10
 120.000
  20
 399.563
  30
0.0
  40
 2.50000
   0
LINE
   8
LEVEL001
   6
DOT
  62
3
  10
 247.761
  20
 409.664
  30
0.0
  11
 248.534
  21
 408.429
  31
0.0
   0
LINE
   8
LEVEL001
   6
DOT
  62
3
  10
 248.578
  20
 386.679
  30
0.0
  11
 249.255
  21
 387.954
  31
0.0
   0
LINE
   8
LEVEL003
   6
DOT
  62
3
  10
 249.256
  20
 387.954
  30
0.0
  11
 248.533
  21
 408.429
  31
0.0
   0
LINE
   8
LEVEL003
   6
DOT
  62
3
  10
 258.341
  20
 409.540
  30
0.0
  11
 248.067
  21
 409.175
  31
0.0
   0
LINE
   8
LEVEL003
   6
DOT
  62
3
  10
 258.369
  20
 408.786
  30
0.0
  11
 248.534
  21
 408.429
  31
0.0
   0
LINE
   8
LEVEL003
   6
DOT
  62
3
  10
 249.255
  20
 387.954
  30
0.0
  11
 259.097
  21
 388.304
  31
0.0
   0
LINE
   8
LEVEL003
   6
DOT
  62
3
  10
 248.849
  20
 387.189
  30
0.0
  11
 259.124
  21
 387.554
  31
0.0
   0
LINE
   8
LEVEL001
   6
DOT
  62
3
  10
 250.437
  20
 825.938
  30
0.0
  11
 251.166
  21
 824.675
  31
0.0
   0
LINE
   8
LEVEL001
   6
DOT
  62
3
  10
 250.438
  20
 802.938
  30
0.0
  11
 251.159
  21
 804.188
  31
0.0
   0
LINE
   8
LEVEL003
   6
DOT
  62
3
  10
 251.160
  20
 804.187
  30
0.0
  11
 251.165
  21
 824.675
  31
0.0
   0
LINE
   8
LEVEL003
   6
DOT
  62
3
  10
 261.007
  20
 825.438
  30
0.0
  11
 250.726
  21
 825.438
  31
0.0
   0
LINE
   8
LEVEL003
   6
DOT
  62
3
  10
 261.007
  20
 824.683
  30
0.0
  11
 251.166
  21
 824.675
  31
0.0
   0
LINE
   8
LEVEL003
   6
DOT
  62
3
  10
 251.159
  20
 804.188
  30
0.0
  11
 261.007
  21
 804.188
  31
0.0
   0
LINE
   8
LEVEL003
   6
DOT
  62
3
  10
 250.726
  20
 803.438
  30
0.0
  11
 261.007
  21
 803.438
  31
0.0
   0
LINE
   8
LEVEL001
   6
CONTINUOUS
  62
7
  10
 954.364
  20
 832.934
  30
0.0
  11
 957.564
  21
 832.934
  31
0.0
   0
LINE
   8
LEVEL003
   6
CONTINUOUS
  62
7
  10
 957.564
  20
 832.934
  30
0.0
  11
 957.564
  21
 804.938
  31
0.0
   0
LINE
   8
LEVEL003
   6
CONTINUOUS
  62
7
  10
 957.564
  20
 825.438
  30
0.0
  11
 957.864
  21
 825.438
  31
0.0
   0
LINE
   8
LEVEL001
   6
CONTINUOUS
  62
7
  10
 954.364
  20
 804.938
  30
0.0
  11
 957.564
  21
 804.938
  31
0.0
   0
LINE
   8
LEVEL003
   6
CONTINUOUS
  62
7
  10
 954.364
  20
 803.438
  30
0.0
  11
 957.864
  21
 803.438
  31
0.0
   0
LINE
   8
LEVEL001
   6
CONTINUOUS
  62
7
  10
 954.364
  20
 814.438
  30
0.0
  11
 954.364
  21
 801.781
  31
0.0
   0
LINE
   8
LEVEL003
   6
CONTINUOUS
  62
7
  10
 968.864
  20
 822.438
  30
0.0
  11
 968.864
  21
 826.438
  31
0.0
   0
LINE
   8
LEVEL003
   6
CONTINUOUS
  62
7
  10
 968.864
  20
 826.438
  30
0.0
  11
 957.864
  21
 826.438
  31
0.0
   0
LINE
   8
LEVEL003
   6
CONTINUOUS
  62
7
  10
 957.864
  20
 826.438
  30
0.0
  11
 957.864
  21
 822.438
  31
0.0
   0
ARC
   8
LEVEL003
   6
CONTINUOUS
  62
7
  10
 951.534
  20
 820.438
  30
0.0
  40
 17.3301
  50
 6.62704
  51
 20.2562
   0
LINE
   8
LEVEL003
   6
CONTINUOUS
  62
7
  10
 957.864
  20
 806.438
  30
0.0
  11
 957.864
  21
 802.438
  31
0.0
   0
LINE
   8
LEVEL003
   6
CONTINUOUS
  62
7
  10
 957.864
  20
 802.438
  30
0.0
  11
 968.864
  21
 802.438
  31
0.0
   0
LINE
   8
LEVEL003
   6
CONTINUOUS
  62
7
  10
 968.864
  20
 802.438
  30
0.0
  11
 968.864
  21
 806.438
  31
0.0
   0
ARC
   8
LEVEL003
   6
CONTINUOUS
  62
7
  10
 951.534
  20
 808.438
  30
0.0
  40
 17.3301
  50
 339.744
  51
 353.373
   0
LINE
   8
LEVEL001
   6
CONTINUOUS
  62
7
  10
 963.864
  20
 877.368
  30
0.0
  11
 963.864
  21
 826.438
  31
0.0
   0
LINE
   8
LEVEL001
   6
CONTINUOUS
  62
7
  10
 963.864
  20
 751.507
  30
0.0
  11
 963.864
  21
 802.438
  31
0.0
   0
LINE
   8
LEVEL003
   6
CONTINUOUS
  62
3
  10
 967.864
  20
 879.438
  30
0.0
  11
 1044.57
  21
 879.438
  31
0.0
   0
LINE
   8
LEVEL003
   6
CONTINUOUS
  62
3
  10
 967.864
  20
 749.438
  30
0.0
  11
 1044.57
  21
 749.438
  31
0.0
   0
LINE
   8
LEVEL003
   6
CONTINUOUS
  62
3
  10
 1036.57
  20
 879.438
  30
0.0
  11
 1036.57
  21
 749.438
  31
0.0
   0
LINE
   8
LEVEL003
   6
CONTINUOUS
  62
3
  10
 1036.57
  20
 879.438
  30
0.0
  11
 1034.46
  21
 867.438
  31
0.0
   0
LINE
   8
LEVEL003
   6
CONTINUOUS
  62
3
  10
 1036.57
  20
 879.438
  30
0.0
  11
 1038.69
  21
 867.438
  31
0.0
   0
LINE
   8
LEVEL003
   6
CONTINUOUS
  62
3
  10
 1036.57
  20
 749.438
  30
0.0
  11
 1038.69
  21
 761.438
  31
0.0
   0
LINE
   8
LEVEL003
   6
CONTINUOUS
  62
3
  10
 1036.57
  20
 749.438
  30
0.0
  11
 1034.46
  21
 761.438
  31
0.0
   0
TEXT
   8
LEVEL003
  62
3
  10
 1033.37
  20
 802.438
  30
0.0
  40
 16.0000
   1
130
  50
 90.0000
  41
 0.500000
   7
STANDARD
  72
1
  11
 1033.37
  21
 814.438
  31
0.0
   0
LINE
   8
LEVEL003
   6
CONTINUOUS
  62
7
  10
 957.564
  20
 822.438
  30
0.0
  11
 1015.39
  21
 822.438
  31
0.0
   0
LINE
   8
LEVEL003
   6
CONTINUOUS
  62
7
  10
 1040.20
  20
 822.438
  30
0.0
  11
 1056.12
  21
 822.438
  31
0.0
   0
LINE
   8
LEVEL001
   6
DASHDOT
  62
1
  10
 244.973
  20
 814.438
  30
0.0
  11
 1015.39
  21
 814.438
  31
0.0
   0
LINE
   8
LEVEL001
   6
DASHDOT
  62
1
  10
 1040.20
  20
 814.438
  30
0.0
  11
 1150.22
  21
 814.438
  31
0.0
   0
LINE
   8
LEVEL003
   6
CONTINUOUS
  62
7
  10
 957.564
  20
 806.438
  30
0.0
  11
 1015.39
  21
 806.438
  31
0.0
   0
LINE
   8
LEVEL003
   6
CONTINUOUS
  62
7
  10
 1040.20
  20
 806.438
  30
0.0
  11
 1056.12
  21
 806.438
  31
0.0
   0
LINE
   8
LEVEL003
   6
CONTINUOUS
  62
3
  10
 114.628
  20
 389.964
  30
0.0
  11
 40.5127
  21
 257.533
  31
0.0
   0
LINE
   8
LEVEL003
   6
CONTINUOUS
  62
3
  10
 40.5127
  20
 257.533
  30
0.0
  11
 156.313
  21
 257.533
  31
0.0
   0
LINE
   8
LEVEL003
   6
CONTINUOUS
  62
3
  10
 114.628
  20
 389.964
  30
0.0
  11
 106.921
  21
 380.525
  31
0.0
   0
LINE
   8
LEVEL003
   6
CONTINUOUS
  62
3
  10
 114.628
  20
 389.964
  30
0.0
  11
 110.614
  21
 378.459
  31
0.0
   0
TEXT
   8
LEVEL003
  62
3
  10
 46.7756
  20
 258.956
  30
0.0
  40
 16.0000
   1
　吐出口
   7
STANDARD
   0
TEXT
   8
LEVEL003
  62
3
  10
 46.7756
  20
 237.622
  30
0.0
  40
 16.0000
   1
Ｍ２２×１．５
   7
STANDARD
   0
LINE
   8
LEVEL100
   6
DOT
  62
3
  10
 1135.52
  20
 538.884
  30
0.0
  11
 1136.30
  21
 522.903
  31
0.0
   0
LINE
   8
LEVEL100
   6
DOT
  62
3
  10
 914.296
  20
 462.732
  30
0.0
  11
 917.164
  21
 382.083
  31
0.0
   0
LINE
   8
LEVEL003
   6
CONTINUOUS
  62
3
  10
 22.0067
  20
 399.563
  30
0.0
  11
 3.00928
  21
 399.563
  31
0.0
   0
LINE
   8
LEVEL003
   6
CONTINUOUS
  62
3
  10
 51.0000
  20
 335.063
  30
0.0
  11
 3.00928
  21
 335.063
  31
0.0
   0
LINE
   8
LEVEL003
   6
CONTINUOUS
  62
3
  10
 11.0093
  20
 399.563
  30
0.0
  11
 11.0093
  21
 335.063
  31
0.0
   0
LINE
   8
LEVEL003
   6
CONTINUOUS
  62
3
  10
 11.0093
  20
 399.563
  30
0.0
  11
 8.89335
  21
 387.563
  31
0.0
   0
LINE
   8
LEVEL003
   6
CONTINUOUS
  62
3
  10
 11.0093
  20
 399.563
  30
0.0
  11
 13.1252
  21
 387.563
  31
0.0
   0
LINE
   8
LEVEL003
   6
CONTINUOUS
  62
3
  10
 11.0093
  20
 335.063
  30
0.0
  11
 13.1252
  21
 347.063
  31
0.0
   0
LINE
   8
LEVEL003
   6
CONTINUOUS
  62
3
  10
 11.0093
  20
 335.063
  30
0.0
  11
 8.89335
  21
 347.063
  31
0.0
   0
TEXT
   8
LEVEL003
  62
3
  10
 7.80928
  20
 351.313
  30
0.0
  40
 16.0000
   1
約65
  50
 90.0000
   7
STANDARD
  72
1
  11
 7.80928
  21
 367.313
  31
0.0
   0
CIRCLE
   8
LEVEL003
   6
CONTINUOUS
  62
7
  10
 1278.31
  20
 84.5556
  30
0.0
  40
 9.00000
   0
LINE
   8
LEVEL003
   6
CONTINUOUS
  62
7
  10
 1295.97
  20
 93.5556
  30
0.0
  11
 1284.54
  21
 73.7556
  31
0.0
   0
LINE
   8
LEVEL003
   6
CONTINUOUS
  62
7
  10
 1284.54
  20
 73.7556
  30
0.0
  11
 1261.68
  21
 73.7556
  31
0.0
   0
LINE
   8
LEVEL003
   6
CONTINUOUS
  62
7
  10
 1259.08
  20
 69.2556
  30
0.0
  11
 1299.94
  21
 69.2556
  31
0.0
   0
LINE
   8
LEVEL003
   6
CONTINUOUS
  62
7
  10
 1299.94
  20
 69.2556
  30
0.0
  11
 1313.97
  21
 93.5556
  31
0.0
   0
LINE
   8
LEVEL003
   6
CONTINUOUS
  62
7
  10
 1313.97
  20
 93.5556
  30
0.0
  11
 1295.97
  21
 93.5556
  31
0.0
   0
LINE
   8
LEVEL003
   6
CONTINUOUS
  62
7
  10
 1261.68
  20
 73.7556
  30
0.0
  11
 1259.08
  21
 69.2556
  31
0.0
   0
TEXT
   8
LEVEL003
  62
7
  10
 1321.12
  20
 63.2356
  30
0.0
  40
 22.5000
   1
ＯＳＡＫＡ ＪＡＣＫ
   7
STANDARD
   0
TEXT
   8
LEVEL003
  62
7
  10
 1325.86
  20
 108.785
  30
0.0
  40
 15.0000
   1
Model : ＴＷＡＺ－２．３
   7
STANDARD
   0
ENDSEC
   0
EOF
