   0
SECTION
   2
HEADER
   9
$LIMMIN
  10
0.0
  20
0.0
   9
$LIMMAX
  10
 594.000
  20
 596.000
   9
$EXTMIN
  10
0.0
  20
0.0
   9
$EXTMAX
  10
 594.000
  20
 596.000
   9
$LTSCALE
  40
 11.9200
   0
ENDSEC
   0
SECTION
   2
TABLES
  0
TABLE
  2
LTYPE
 70
    25
  0
LTYPE
  2
CONTINUOUS
 70
    64
  3
Solid line
 72
    65
 73
     0
 40
0.0
  0
LTYPE
  2
BORDER
 70
    64
  3
__ __ . __ __ . __ __ . __ __ . __ __ . __ __ .
 72
    65
 73
     6
 40
1.75
 49
0.5
 49
-0.25
 49
0.5
 49
-0.25
 49
0.0
 49
-0.25
  0
LTYPE
  2
BORDER2
 70
    64
  3
__.__.__.__.__.__.__.__.__.__.__.__.__.__.__.__
 72
    65
 73
     6
 40
0.875
 49
0.25
 49
-0.125
 49
0.25
 49
-0.125
 49
0.0
 49
-0.125
  0
LTYPE
  2
BORDERX2
 70
    64
  3
____  ____  .  ____  ____  .  ____  ____  .  __
 72
    65
 73
     6
 40
3.5
 49
1.0
 49
-0.5
 49
1.0
 49
-0.5
 49
0.0
 49
-0.5
  0
LTYPE
  2
CENTER
 70
    64
  3
____ _ ____ _ ____ _ ____ _ ____ _ ____ _ ____ 
 72
    65
 73
     4
 40
2.0
 49
1.25
 49
-0.25
 49
0.25
 49
-0.25
  0
LTYPE
  2
CENTER2
 70
    64
  3
___ _ ___ _ ___ _ ___ _ ___ _ ___ _ ___ _ ___ _
 72
    65
 73
     4
 40
1.125
 49
0.75
 49
-0.125
 49
0.125
 49
-0.125
  0
LTYPE
  2
CENTERX2
 70
    64
  3
________  __  ________  __  ________  __  _____
 72
    65
 73
     4
 40
4.0
 49
2.5
 49
-0.5
 49
0.5
 49
-0.5
  0
LTYPE
  2
DASHDOT
 70
    64
  3
__ . __ . __ . __ . __ . __ . __ . __ . __ . __
 72
    65
 73
     4
 40
1.0
 49
0.5
 49
-0.25
 49
0.0
 49
-0.25
  0
LTYPE
  2
DASHDOT2
 70
    64
  3
_._._._._._._._._._._._._._._._._._._._._._._._
 72
    65
 73
     4
 40
0.5
 49
0.25
 49
-0.125
 49
0.0
 49
-0.125
  0
LTYPE
  2
DASHDOTX2
 70
    64
  3
____  .  ____  .  ____  .  ____  .  ____  .  __
 72
    65
 73
     4
 40
2.0
 49
1.0
 49
-0.5
 49
0.0
 49
-0.5
  0
LTYPE
  2
DASHED
 70
    64
  3
__ __ __ __ __ __ __ __ __ __ __ __ __ __ __ __
 72
    65
 73
     2
 40
0.75
 49
0.5
 49
-0.25
  0
LTYPE
  2
DASHED2
 70
    64
  3
_ _ _ _ _ _ _ _ _ _ _ _ _ _ _ _ _ _ _ _ _ _ _ _
 72
    65
 73
     2
 40
0.375
 49
0.25
 49
-0.125
  0
LTYPE
  2
DASHEDX2
 70
    64
  3
____  ____  ____  ____  ____  ____  ____  ____ 
 72
    65
 73
     2
 40
1.5
 49
1.0
 49
-0.5
  0
LTYPE
  2
DIVIDE
 70
    64
  3
____ . . ____ . . ____ . . ____ . . ____ . . __
 72
    65
 73
     6
 40
1.25
 49
0.5
 49
-0.25
 49
0.0
 49
-0.25
 49
0.0
 49
-0.25
  0
LTYPE
  2
DIVIDE2
 70
    64
  3
__..__..__..__..__..__..__..__..__..__..__..__.
 72
    65
 73
     6
 40
0.625
 49
0.25
 49
-0.125
 49
0.0
 49
-0.125
 49
0.0
 49
-0.125
  0
LTYPE
  2
DIVIDEX2
 70
    64
  3
________  .  .  ________  .  .  ________  .  . 
 72
    65
 73
     6
 40
2.5
 49
1.0
 49
-0.5
 49
0.0
 49
-0.5
 49
0.0
 49
-0.5
  0
LTYPE
  2
DOT
 70
    64
  3
. . . . . . . . . . . . . . . . . . . . . . . .
 72
    65
 73
     2
 40
0.25
 49
0.0
 49
-0.25
  0
LTYPE
  2
DOT2
 70
    64
  3
...............................................
 72
    65
 73
     2
 40
0.125
 49
0.0
 49
-0.125
  0
LTYPE
  2
DOTX2
 70
    64
  3
.  .  .  .  .  .  .  .  .  .  .  .  .  .  .  . 
 72
    65
 73
     2
 40
0.5
 49
0.0
 49
-0.5
  0
LTYPE
  2
HIDDEN
 70
    64
  3
__ __ __ __ __ __ __ __ __ __ __ __ __ __ __ __
 72
    65
 73
     2
 40
0.375
 49
0.25
 49
-0.125
  0
LTYPE
  2
HIDDEN2
 70
    64
  3
_ _ _ _ _ _ _ _ _ _ _ _ _ _ _ _ _ _ _ _ _ _ _ _
 72
    65
 73
     2
 40
0.1875
 49
0.125
 49
-0.0625
  0
LTYPE
  2
HIDDENX2
 70
    64
  3
____ ____ ____ ____ ____ ____ ____ ____ ____ __
 72
    65
 73
     2
 40
0.75
 49
0.5
 49
-0.25
  0
LTYPE
  2
PHANTOM
 70
    64
  3
______  __  __  ______  __  __  ______  __  __ 
 72
    65
 73
     6
 40
2.5
 49
1.25
 49
-0.25
 49
0.25
 49
-0.25
 49
0.25
 49
-0.25
  0
LTYPE
  2
PHANTOM2
 70
    64
  3
___ _ _ ___ _ _ ___ _ _ ___ _ _ ___ _ _ ___ _ _
 72
    65
 73
     6
 40
1.25
 49
0.625
 49
-0.125
 49
0.125
 49
-0.125
 49
0.125
 49
-0.125
  0
LTYPE
  2
PHANTOMX2
 70
    64
  3
____________    ____    ____    ____________   
 72
    65
 73
     6
 40
5.0
 49
2.5
 49
-0.5
 49
0.5
 49
-0.5
 49
0.5
 49
-0.5
  0
ENDTAB
  0
TABLE
  2
STYLE
 70
     2
  0
STYLE
  2
STANDARD
 70
0
 40
0.0
 41
1.0
 50
0.0
 71
0
 42
0.2
  3
TXT
  4
BIGFONT
  0
STYLE
  2
STANDARD1
 70
     4
 40
0.0
 41
1.0
 50
0.0
 71
     0
 42
0.2
  3
TXT
  4
BIGFONT
  0
ENDTAB
   0
TABLE
   2
LAYER
  70
4
   0
LAYER
   2
0
  70
0
  62
7
   6
CONTINUOUS
   0
LAYER
   2
LEVEL001
  70
0
  62
7
   6
CONTINUOUS
   0
LAYER
   2
LEVEL003
  70
0
  62
7
   6
CONTINUOUS
   0
LAYER
   2
LEVEL004
  70
0
  62
7
   6
CONTINUOUS
   0
ENDTAB
   0
ENDSEC
   0
SECTION
   2
ENTITIES
   0
LINE
   8
LEVEL001
   6
CONTINUOUS
  62
7
  10
 238.900
  20
 315.000
  30
0.0
  11
 231.691
  21
 315.000
  31
0.0
   0
ARC
   8
LEVEL001
   6
CONTINUOUS
  62
7
  10
 234.303
  20
 322.639
  30
0.0
  40
 6.00000
  50
 227.432
  51
 237.018
   0
ARC
   8
LEVEL001
   6
CONTINUOUS
  62
7
  10
 218.777
  20
 316.208
  30
0.0
  40
 6.00000
  50
 347.981
  51
 357.567
   0
ARC
   8
LEVEL001
   6
CONTINUOUS
  62
7
  10
 230.443
  20
 310.000
  30
0.0
  40
 5.62228
  50
 151.001
  51
 242.788
   0
LINE
   8
LEVEL001
   6
CONTINUOUS
  62
7
  10
 227.872
  20
 305.000
  30
0.0
  11
 238.900
  21
 305.000
  31
0.0
   0
ARC
   8
LEVEL001
   6
CONTINUOUS
  62
7
  10
 226.693
  20
 319.054
  30
0.0
  40
 6.43506
  50
 259.551
  51
 325.449
   0
ARC
   8
LEVEL001
   6
CONTINUOUS
  62
7
  10
 226.693
  20
 319.054
  30
0.0
  40
 3.30000
  50
 202.500
  51
 228.418
   0
ARC
   8
LEVEL001
   6
CONTINUOUS
  62
7
  10
 226.693
  20
 319.054
  30
0.0
  40
 3.30000
  50
 356.582
  51
 22.5000
   0
LINE
   8
LEVEL001
   6
CONTINUOUS
  62
7
  10
 226.773
  20
 313.581
  30
0.0
  11
 226.094
  21
 315.220
  31
0.0
   0
LINE
   8
LEVEL001
   6
CONTINUOUS
  62
7
  10
 230.507
  20
 315.127
  30
0.0
  11
 229.828
  21
 316.767
  31
0.0
   0
ARC
   8
LEVEL001
   6
CONTINUOUS
  62
7
  10
 230.400
  20
 310.104
  30
0.0
  40
 6.68738
  50
 94.9120
  51
 130.088
   0
ARC
   8
LEVEL001
   6
CONTINUOUS
  62
7
  10
 226.200
  20
 320.243
  30
0.0
  40
 6.68738
  50
 274.912
  51
 310.088
   0
ARC
   8
LEVEL001
   6
CONTINUOUS
  62
7
  10
 232.209
  20
 314.630
  30
0.0
  40
 3.20000
  50
 110.768
  51
 138.098
   0
ARC
   8
LEVEL001
   6
CONTINUOUS
  62
7
  10
 225.921
  20
 312.025
  30
0.0
  40
 3.20000
  50
 86.9030
  51
 114.232
   0
ARC
   8
LEVEL001
   6
CONTINUOUS
  62
7
  10
 224.391
  20
 315.718
  30
0.0
  40
 3.20000
  50
 290.767
  51
 318.097
   0
ARC
   8
LEVEL001
   6
CONTINUOUS
  62
7
  10
 230.680
  20
 318.322
  30
0.0
  40
 3.20000
  50
 266.903
  51
 294.232
   0
LINE
   8
LEVEL001
   6
CONTINUOUS
  62
7
  10
 230.044
  20
 318.509
  30
0.0
  11
 224.720
  21
 316.304
  31
0.0
   0
ARC
   8
LEVEL001
   6
CONTINUOUS
  62
7
  10
 225.755
  20
 321.318
  30
0.0
  40
 1.00000
  50
 36.9770
  51
 188.021
   0
ARC
   8
LEVEL001
   6
CONTINUOUS
  62
7
  10
 230.786
  20
 318.809
  30
0.0
  40
 0.800000
  50
 176.573
  51
 227.428
   0
ARC
   8
LEVEL001
   6
CONTINUOUS
  62
7
  10
 223.972
  20
 315.987
  30
0.0
  40
 0.800000
  50
 357.573
  51
 48.4260
   0
ARC
   8
LEVEL001
   6
CONTINUOUS
  62
7
  10
 231.722
  20
 312.500
  30
0.0
  40
 7.22093
  50
 339.744
  51
 20.2560
   0
LINE
   8
LEVEL001
   6
CONTINUOUS
  62
7
  10
 235.300
  20
 315.000
  30
0.0
  11
 235.300
  21
 305.000
  31
0.0
   0
LINE
   8
LEVEL001
   6
CONTINUOUS
  62
7
  10
 238.454
  20
 310.000
  30
0.0
  11
 235.747
  21
 310.000
  31
0.0
   0
ARC
   8
LEVEL001
   6
CONTINUOUS
  62
7
  10
 242.521
  20
 312.500
  30
0.0
  40
 7.22070
  50
 159.743
  51
 200.257
   0
ARC
   8
LEVEL001
   6
CONTINUOUS
  62
7
  10
 242.521
  20
 307.500
  30
0.0
  40
 7.22070
  50
 159.743
  51
 200.257
   0
ARC
   8
LEVEL001
   6
CONTINUOUS
  62
7
  10
 231.679
  20
 307.500
  30
0.0
  40
 7.22093
  50
 339.744
  51
 20.2560
   0
LINE
   8
LEVEL001
   6
CONTINUOUS
  62
7
  10
 262.500
  20
 277.473
  30
0.0
  11
 262.500
  21
 270.000
  31
0.0
   0
LINE
   8
LEVEL001
   6
CONTINUOUS
  62
7
  10
 310.000
  20
 409.000
  30
0.0
  11
 290.000
  21
 409.000
  31
0.0
   0
LINE
   8
LEVEL001
   6
CONTINUOUS
  62
7
  10
 304.000
  20
 397.378
  30
0.0
  11
 296.000
  21
 397.378
  31
0.0
   0
LINE
   8
LEVEL001
   6
CONTINUOUS
  62
7
  10
 304.000
  20
 393.000
  30
0.0
  11
 310.000
  21
 393.000
  31
0.0
   0
LINE
   8
LEVEL001
   6
CONTINUOUS
  62
7
  10
 296.000
  20
 393.000
  30
0.0
  11
 290.000
  21
 393.000
  31
0.0
   0
LINE
   8
LEVEL001
   6
CONTINUOUS
  62
7
  10
 296.000
  20
 390.000
  30
0.0
  11
 288.000
  21
 390.000
  31
0.0
   0
LINE
   8
LEVEL001
   6
CONTINUOUS
  62
7
  10
 312.000
  20
 390.000
  30
0.0
  11
 304.000
  21
 390.000
  31
0.0
   0
LINE
   8
LEVEL001
   6
CONTINUOUS
  62
7
  10
 309.000
  20
 410.000
  30
0.0
  11
 291.000
  21
 410.000
  31
0.0
   0
LINE
   8
LEVEL001
   6
CONTINUOUS
  62
7
  10
 291.000
  20
 410.000
  30
0.0
  11
 291.000
  21
 392.000
  31
0.0
   0
LINE
   8
LEVEL001
   6
CONTINUOUS
  62
7
  10
 291.000
  20
 392.000
  30
0.0
  11
 291.000
  21
 391.000
  31
0.0
   0
ARC
   8
LEVEL001
   6
CONTINUOUS
  62
7
  10
 290.000
  20
 391.000
  30
0.0
  40
 1.00000
  50
 270.000
  51
0.0
   0
ARC
   8
LEVEL001
   6
CONTINUOUS
  62
7
  10
 290.000
  20
 392.000
  30
0.0
  40
 1.00000
  50
0.0
  51
 90.0000
   0
ARC
   8
LEVEL001
   6
CONTINUOUS
  62
7
  10
 288.000
  20
 389.500
  30
0.0
  40
 0.500000
  50
 90.0000
  51
 180.000
   0
LINE
   8
LEVEL001
   6
CONTINUOUS
  62
7
  10
 282.500
  20
 270.000
  30
0.0
  11
 281.500
  21
 266.268
  31
0.0
   0
ARC
   8
LEVEL001
   6
CONTINUOUS
  62
7
  10
 276.125
  20
 351.500
  30
0.0
  40
 3.00000
  50
 270.000
  51
 357.563
   0
LINE
   8
LEVEL001
   6
CONTINUOUS
  62
7
  10
 279.959
  20
 371.043
  30
0.0
  11
 279.122
  21
 351.372
  31
0.0
   0
ARC
   8
LEVEL001
   6
CONTINUOUS
  62
7
  10
 280.958
  20
 371.000
  30
0.0
  40
 1.00000
  50
 90.0000
  51
 177.563
   0
LINE
   8
LEVEL001
   6
CONTINUOUS
  62
7
  10
 259.000
  20
 348.000
  30
0.0
  11
 259.000
  21
 340.500
  31
0.0
   0
ARC
   8
LEVEL001
   6
CONTINUOUS
  62
7
  10
 259.500
  20
 348.000
  30
0.0
  40
 0.500000
  50
 90.0000
  51
 180.000
   0
LINE
   8
LEVEL001
   6
CONTINUOUS
  62
7
  10
 309.000
  20
 410.000
  30
0.0
  11
 309.000
  21
 392.000
  31
0.0
   0
LINE
   8
LEVEL001
   6
CONTINUOUS
  62
7
  10
 309.000
  20
 392.000
  30
0.0
  11
 309.000
  21
 391.000
  31
0.0
   0
ARC
   8
LEVEL001
   6
CONTINUOUS
  62
7
  10
 310.000
  20
 391.000
  30
0.0
  40
 1.00000
  50
 180.000
  51
 270.000
   0
ARC
   8
LEVEL001
   6
CONTINUOUS
  62
7
  10
 310.000
  20
 392.000
  30
0.0
  40
 1.00000
  50
 90.0000
  51
 180.000
   0
ARC
   8
LEVEL001
   6
CONTINUOUS
  62
7
  10
 312.000
  20
 389.500
  30
0.0
  40
 0.500000
  50
0.0
  51
 90.0000
   0
LINE
   8
LEVEL001
   6
CONTINUOUS
  62
7
  10
 317.500
  20
 270.000
  30
0.0
  11
 318.500
  21
 266.268
  31
0.0
   0
ARC
   8
LEVEL001
   6
CONTINUOUS
  62
7
  10
 323.875
  20
 351.500
  30
0.0
  40
 3.00000
  50
 182.437
  51
 270.000
   0
LINE
   8
LEVEL001
   6
CONTINUOUS
  62
7
  10
 320.041
  20
 371.043
  30
0.0
  11
 320.878
  21
 351.372
  31
0.0
   0
ARC
   8
LEVEL001
   6
CONTINUOUS
  62
7
  10
 319.042
  20
 371.000
  30
0.0
  40
 1.00000
  50
 2.43660
  51
 90.0000
   0
LINE
   8
LEVEL001
   6
CONTINUOUS
  62
7
  10
 341.000
  20
 348.000
  30
0.0
  11
 341.000
  21
 340.500
  31
0.0
   0
ARC
   8
LEVEL001
   6
CONTINUOUS
  62
7
  10
 340.500
  20
 348.000
  30
0.0
  40
 0.500000
  50
0.0
  51
 90.0000
   0
ARC
   8
LEVEL001
   6
CONTINUOUS
  62
7
  10
 352.500
  20
 319.708
  30
0.0
  40
 15.0000
  50
 154.158
  51
 180.000
   0
ARC
   8
LEVEL001
   6
CONTINUOUS
  62
7
  10
 330.000
  20
 330.606
  30
0.0
  40
 10.0000
  50
 334.158
  51
0.0
   0
LINE
   8
LEVEL001
   6
CONTINUOUS
  62
7
  10
 340.000
  20
 340.000
  30
0.0
  11
 340.000
  21
 330.606
  31
0.0
   0
LINE
   8
LEVEL001
   6
CONTINUOUS
  62
7
  10
 232.374
  20
 315.900
  30
0.0
  11
 231.993
  21
 315.404
  31
0.0
   0
LINE
   8
LEVEL001
   6
CONTINUOUS
  62
7
  10
 231.993
  20
 315.404
  30
0.0
  11
 225.526
  21
 312.726
  31
0.0
   0
LINE
   8
LEVEL001
   6
CONTINUOUS
  62
7
  10
 225.526
  20
 312.726
  30
0.0
  11
 224.906
  21
 312.807
  31
0.0
   0
LINE
   8
LEVEL001
   6
CONTINUOUS
  62
7
  10
 224.906
  20
 312.807
  30
0.0
  11
 224.227
  21
 314.447
  31
0.0
   0
LINE
   8
LEVEL001
   6
CONTINUOUS
  62
7
  10
 224.227
  20
 314.447
  30
0.0
  11
 224.608
  21
 314.943
  31
0.0
   0
LINE
   8
LEVEL001
   6
CONTINUOUS
  62
7
  10
 224.608
  20
 314.943
  30
0.0
  11
 231.075
  21
 317.622
  31
0.0
   0
LINE
   8
LEVEL001
   6
CONTINUOUS
  62
7
  10
 231.075
  20
 317.622
  30
0.0
  11
 231.695
  21
 317.540
  31
0.0
   0
LINE
   8
LEVEL001
   6
CONTINUOUS
  62
7
  10
 231.695
  20
 317.540
  30
0.0
  11
 232.374
  21
 315.900
  31
0.0
   0
LINE
   8
LEVEL001
   6
CONTINUOUS
  62
7
  10
 225.660
  20
 321.548
  30
0.0
  11
 227.877
  21
 322.467
  31
0.0
   0
LINE
   8
LEVEL001
   6
CONTINUOUS
  62
7
  10
 227.877
  20
 322.467
  30
0.0
  11
 229.742
  21
 320.317
  31
0.0
   0
LINE
   8
LEVEL001
   6
CONTINUOUS
  62
7
  10
 229.742
  20
 320.317
  30
0.0
  11
 226.693
  21
 319.054
  31
0.0
   0
LINE
   8
LEVEL001
   6
CONTINUOUS
  62
7
  10
 226.693
  20
 319.054
  30
0.0
  11
 223.644
  21
 317.791
  31
0.0
   0
LINE
   8
LEVEL001
   6
CONTINUOUS
  62
7
  10
 223.644
  20
 317.791
  30
0.0
  11
 223.443
  21
 320.630
  31
0.0
   0
LINE
   8
LEVEL001
   6
CONTINUOUS
  62
7
  10
 223.443
  20
 320.630
  30
0.0
  11
 225.660
  21
 321.548
  31
0.0
   0
LINE
   8
LEVEL001
   6
CONTINUOUS
  62
7
  10
 238.900
  20
 305.000
  30
0.0
  11
 238.900
  21
 310.000
  31
0.0
   0
LINE
   8
LEVEL001
   6
CONTINUOUS
  62
7
  10
 238.900
  20
 310.000
  30
0.0
  11
 238.900
  21
 315.000
  31
0.0
   0
LINE
   8
LEVEL001
   6
CONTINUOUS
  62
7
  10
 291.000
  20
 410.000
  30
0.0
  11
 290.000
  21
 409.000
  31
0.0
   0
LINE
   8
LEVEL001
   6
CONTINUOUS
  62
7
  10
 290.000
  20
 409.000
  30
0.0
  11
 290.000
  21
 393.000
  31
0.0
   0
LINE
   8
LEVEL001
   6
CONTINUOUS
  62
7
  10
 309.000
  20
 410.000
  30
0.0
  11
 310.000
  21
 409.000
  31
0.0
   0
LINE
   8
LEVEL001
   6
CONTINUOUS
  62
7
  10
 310.000
  20
 409.000
  30
0.0
  11
 310.000
  21
 393.000
  31
0.0
   0
LINE
   8
LEVEL001
   6
CONTINUOUS
  62
7
  10
 295.253
  20
 10.0000
  30
0.0
  11
 295.703
  21
 9.55000
  31
0.0
   0
LINE
   8
LEVEL001
   6
CONTINUOUS
  62
7
  10
 304.297
  20
 9.55000
  30
0.0
  11
 304.747
  21
 10.0000
  31
0.0
   0
LINE
   8
LEVEL001
   6
CONTINUOUS
  62
7
  10
 295.717
  20
 10.0000
  30
0.0
  11
 295.703
  21
 9.55000
  31
0.0
   0
LINE
   8
LEVEL001
   6
CONTINUOUS
  62
7
  10
 304.283
  20
 10.0000
  30
0.0
  11
 304.297
  21
 9.55000
  31
0.0
   0
LINE
   8
LEVEL001
   6
CONTINUOUS
  62
7
  10
 295.703
  20
 9.55000
  30
0.0
  11
 304.297
  21
 9.55000
  31
0.0
   0
LINE
   8
LEVEL001
   6
CONTINUOUS
  62
7
  10
 280.950
  20
 266.268
  30
0.0
  11
 280.950
  21
 14.5000
  31
0.0
   0
LINE
   8
LEVEL001
   6
CONTINUOUS
  62
7
  10
 283.000
  20
 11.0000
  30
0.0
  11
 284.000
  21
 10.0000
  31
0.0
   0
LINE
   8
LEVEL001
   6
CONTINUOUS
  62
7
  10
 281.000
  20
 14.5000
  30
0.0
  11
 283.000
  21
 12.3310
  31
0.0
   0
LINE
   8
LEVEL001
   6
CONTINUOUS
  62
7
  10
 317.000
  20
 11.0000
  30
0.0
  11
 316.000
  21
 10.0000
  31
0.0
   0
LINE
   8
LEVEL001
   6
CONTINUOUS
  62
7
  10
 319.000
  20
 14.5000
  30
0.0
  11
 317.000
  21
 12.3310
  31
0.0
   0
LINE
   8
LEVEL001
   6
CONTINUOUS
  62
7
  10
 316.000
  20
 10.0000
  30
0.0
  11
 284.000
  21
 10.0000
  31
0.0
   0
LINE
   8
LEVEL001
   6
CONTINUOUS
  62
7
  10
 319.050
  20
 266.268
  30
0.0
  11
 319.050
  21
 14.5000
  31
0.0
   0
LINE
   8
LEVEL001
   6
CONTINUOUS
  62
7
  10
 319.050
  20
 14.5000
  30
0.0
  11
 280.950
  21
 14.5000
  31
0.0
   0
LINE
   8
LEVEL001
   6
CONTINUOUS
  62
7
  10
 317.000
  20
 12.3310
  30
0.0
  11
 317.000
  21
 11.0000
  31
0.0
   0
LINE
   8
LEVEL001
   6
CONTINUOUS
  62
7
  10
 317.000
  20
 11.0000
  30
0.0
  11
 283.000
  21
 11.0000
  31
0.0
   0
LINE
   8
LEVEL001
   6
CONTINUOUS
  62
7
  10
 317.000
  20
 12.3310
  30
0.0
  11
 283.000
  21
 12.3310
  31
0.0
   0
LINE
   8
LEVEL001
   6
CONTINUOUS
  62
7
  10
 283.000
  20
 12.3310
  30
0.0
  11
 283.000
  21
 11.0000
  31
0.0
   0
LINE
   8
LEVEL001
   6
CONTINUOUS
  62
7
  10
 280.958
  20
 372.000
  30
0.0
  11
 319.042
  21
 372.000
  31
0.0
   0
LINE
   8
LEVEL001
   6
CONTINUOUS
  62
7
  10
 304.000
  20
 372.000
  30
0.0
  11
 304.000
  21
 397.378
  31
0.0
   0
LINE
   8
LEVEL001
   6
CONTINUOUS
  62
7
  10
 296.000
  20
 372.000
  30
0.0
  11
 296.000
  21
 397.378
  31
0.0
   0
LINE
   8
LEVEL001
   6
CONTINUOUS
  62
7
  10
 287.500
  20
 389.500
  30
0.0
  11
 287.500
  21
 372.000
  31
0.0
   0
LINE
   8
LEVEL001
   6
CONTINUOUS
  62
7
  10
 312.500
  20
 389.500
  30
0.0
  11
 312.500
  21
 372.000
  31
0.0
   0
LINE
   8
LEVEL001
   6
CONTINUOUS
  62
7
  10
 259.500
  20
 348.500
  30
0.0
  11
 340.500
  21
 348.500
  31
0.0
   0
LINE
   8
LEVEL001
   6
CONTINUOUS
  62
7
  10
 341.000
  20
 340.500
  30
0.0
  11
 259.000
  21
 340.500
  31
0.0
   0
CIRCLE
   8
LEVEL001
   6
CONTINUOUS
  62
7
  10
 268.000
  20
 310.000
  30
0.0
  40
 15.0000
   0
CIRCLE
   8
LEVEL001
   6
CONTINUOUS
  62
7
  10
 268.000
  20
 310.000
  30
0.0
  40
 29.0000
   0
ARC
   8
LEVEL001
   6
CONTINUOUS
  62
7
  10
 256.500
  20
 277.473
  30
0.0
  40
 6.00000
  50
 0.103135E-10
  51
 48.4524
   0
LINE
   8
LEVEL001
   6
CONTINUOUS
  62
7
  10
 259.923
  20
 340.000
  30
0.0
  11
 340.000
  21
 340.000
  31
0.0
   0
ARC
   8
LEVEL001
   6
CONTINUOUS
  62
7
  10
 255.000
  20
 340.875
  30
0.0
  40
 5.00000
  50
 316.739
  51
 349.921
   0
LINE
   8
LEVEL001
   6
CONTINUOUS
  62
7
  10
 239.411
  20
 305.133
  30
0.0
  11
 238.900
  21
 305.117
  31
0.0
   0
LINE
   8
LEVEL001
   6
CONTINUOUS
  62
7
  10
 238.900
  20
 305.117
  30
0.0
  11
 239.342
  21
 305.559
  31
0.0
   0
LINE
   8
LEVEL001
   6
CONTINUOUS
  62
7
  10
 238.900
  20
 314.883
  30
0.0
  11
 239.411
  21
 314.867
  31
0.0
   0
LINE
   8
LEVEL001
   6
CONTINUOUS
  62
7
  10
 238.900
  20
 314.883
  30
0.0
  11
 239.342
  21
 314.441
  31
0.0
   0
LINE
   8
LEVEL001
   6
CONTINUOUS
  62
7
  10
 270.500
  20
 319.500
  30
0.0
  11
 270.500
  21
 314.500
  31
0.0
   0
LINE
   8
LEVEL001
   6
CONTINUOUS
  62
7
  10
 270.500
  20
 314.500
  30
0.0
  11
 265.500
  21
 314.500
  31
0.0
   0
LINE
   8
LEVEL001
   6
CONTINUOUS
  62
7
  10
 265.500
  20
 314.500
  30
0.0
  11
 265.500
  21
 319.500
  31
0.0
   0
LINE
   8
LEVEL001
   6
CONTINUOUS
  62
7
  10
 265.500
  20
 319.500
  30
0.0
  11
 270.500
  21
 319.500
  31
0.0
   0
ARC
   8
LEVEL001
   6
CONTINUOUS
  62
7
  10
 268.000
  20
 310.000
  30
0.0
  40
 6.50000
  50
 112.620
  51
 67.3801
   0
ARC
   8
LEVEL001
   6
CONTINUOUS
  62
7
  10
 268.000
  20
 310.000
  30
0.0
  40
 7.50000
  50
 109.471
  51
 70.5288
   0
ARC
   8
LEVEL001
   6
CONTINUOUS
  62
7
  10
 268.000
  20
 310.000
  30
0.0
  40
 8.50000
  50
 107.105
  51
 72.8954
   0
CIRCLE
   8
LEVEL001
   6
CONTINUOUS
  62
7
  10
 284.794
  20
 326.794
  30
0.0
  40
 4.00000
   0
CIRCLE
   8
LEVEL001
   6
CONTINUOUS
  62
7
  10
 284.794
  20
 326.794
  30
0.0
  40
 3.50000
   0
LINE
   8
LEVEL001
   6
CONTINUOUS
  62
7
  10
 286.019
  20
 328.019
  30
0.0
  11
 284.345
  21
 328.467
  31
0.0
   0
LINE
   8
LEVEL001
   6
CONTINUOUS
  62
7
  10
 284.345
  20
 328.467
  30
0.0
  11
 283.121
  21
 327.242
  31
0.0
   0
LINE
   8
LEVEL001
   6
CONTINUOUS
  62
7
  10
 283.121
  20
 327.242
  30
0.0
  11
 283.569
  21
 325.569
  31
0.0
   0
LINE
   8
LEVEL001
   6
CONTINUOUS
  62
7
  10
 283.569
  20
 325.569
  30
0.0
  11
 285.242
  21
 325.121
  31
0.0
   0
LINE
   8
LEVEL001
   6
CONTINUOUS
  62
7
  10
 285.242
  20
 325.121
  30
0.0
  11
 286.467
  21
 326.345
  31
0.0
   0
LINE
   8
LEVEL001
   6
CONTINUOUS
  62
7
  10
 286.467
  20
 326.345
  30
0.0
  11
 286.019
  21
 328.019
  31
0.0
   0
CIRCLE
   8
LEVEL001
   6
CONTINUOUS
  62
7
  10
 251.206
  20
 326.794
  30
0.0
  40
 4.00000
   0
CIRCLE
   8
LEVEL001
   6
CONTINUOUS
  62
7
  10
 251.206
  20
 326.794
  30
0.0
  40
 3.50000
   0
LINE
   8
LEVEL001
   6
CONTINUOUS
  62
7
  10
 249.981
  20
 328.019
  30
0.0
  11
 249.533
  21
 326.345
  31
0.0
   0
LINE
   8
LEVEL001
   6
CONTINUOUS
  62
7
  10
 249.533
  20
 326.345
  30
0.0
  11
 250.758
  21
 325.121
  31
0.0
   0
LINE
   8
LEVEL001
   6
CONTINUOUS
  62
7
  10
 250.758
  20
 325.121
  30
0.0
  11
 252.431
  21
 325.569
  31
0.0
   0
LINE
   8
LEVEL001
   6
CONTINUOUS
  62
7
  10
 252.431
  20
 325.569
  30
0.0
  11
 252.879
  21
 327.242
  31
0.0
   0
LINE
   8
LEVEL001
   6
CONTINUOUS
  62
7
  10
 252.879
  20
 327.242
  30
0.0
  11
 251.655
  21
 328.467
  31
0.0
   0
LINE
   8
LEVEL001
   6
CONTINUOUS
  62
7
  10
 251.655
  20
 328.467
  30
0.0
  11
 249.981
  21
 328.019
  31
0.0
   0
CIRCLE
   8
LEVEL001
   6
CONTINUOUS
  62
7
  10
 284.794
  20
 293.206
  30
0.0
  40
 4.00000
   0
CIRCLE
   8
LEVEL001
   6
CONTINUOUS
  62
7
  10
 284.794
  20
 293.206
  30
0.0
  40
 3.50000
   0
LINE
   8
LEVEL001
   6
CONTINUOUS
  62
7
  10
 283.569
  20
 294.431
  30
0.0
  11
 283.121
  21
 292.758
  31
0.0
   0
LINE
   8
LEVEL001
   6
CONTINUOUS
  62
7
  10
 283.121
  20
 292.758
  30
0.0
  11
 284.345
  21
 291.533
  31
0.0
   0
LINE
   8
LEVEL001
   6
CONTINUOUS
  62
7
  10
 284.345
  20
 291.533
  30
0.0
  11
 286.019
  21
 291.981
  31
0.0
   0
LINE
   8
LEVEL001
   6
CONTINUOUS
  62
7
  10
 286.019
  20
 291.981
  30
0.0
  11
 286.467
  21
 293.655
  31
0.0
   0
LINE
   8
LEVEL001
   6
CONTINUOUS
  62
7
  10
 286.467
  20
 293.655
  30
0.0
  11
 285.242
  21
 294.879
  31
0.0
   0
LINE
   8
LEVEL001
   6
CONTINUOUS
  62
7
  10
 285.242
  20
 294.879
  30
0.0
  11
 283.569
  21
 294.431
  31
0.0
   0
CIRCLE
   8
LEVEL001
   6
CONTINUOUS
  62
7
  10
 251.206
  20
 293.206
  30
0.0
  40
 4.00000
   0
CIRCLE
   8
LEVEL001
   6
CONTINUOUS
  62
7
  10
 251.206
  20
 293.206
  30
0.0
  40
 3.50000
   0
LINE
   8
LEVEL001
   6
CONTINUOUS
  62
7
  10
 252.431
  20
 294.431
  30
0.0
  11
 250.758
  21
 294.879
  31
0.0
   0
LINE
   8
LEVEL001
   6
CONTINUOUS
  62
7
  10
 250.758
  20
 294.879
  30
0.0
  11
 249.533
  21
 293.655
  31
0.0
   0
LINE
   8
LEVEL001
   6
CONTINUOUS
  62
7
  10
 249.533
  20
 293.655
  30
0.0
  11
 249.981
  21
 291.981
  31
0.0
   0
LINE
   8
LEVEL001
   6
CONTINUOUS
  62
7
  10
 249.981
  20
 291.981
  30
0.0
  11
 251.655
  21
 291.533
  31
0.0
   0
LINE
   8
LEVEL001
   6
CONTINUOUS
  62
7
  10
 251.655
  20
 291.533
  30
0.0
  11
 252.879
  21
 292.758
  31
0.0
   0
LINE
   8
LEVEL001
   6
CONTINUOUS
  62
7
  10
 252.879
  20
 292.758
  30
0.0
  11
 252.431
  21
 294.431
  31
0.0
   0
CIRCLE
   8
LEVEL001
   6
CONTINUOUS
  62
7
  10
 291.750
  20
 310.000
  30
0.0
  40
 2.00000
   0
CIRCLE
   8
LEVEL001
   6
CONTINUOUS
  62
7
  10
 291.750
  20
 310.000
  30
0.0
  40
 1.65000
   0
CIRCLE
   8
LEVEL001
   6
CONTINUOUS
  62
7
  10
 244.250
  20
 310.000
  30
0.0
  40
 2.00000
   0
CIRCLE
   8
LEVEL001
   6
CONTINUOUS
  62
7
  10
 244.250
  20
 310.000
  30
0.0
  40
 1.65000
   0
LINE
   8
LEVEL001
   6
CONTINUOUS
  62
7
  10
 318.500
  20
 270.000
  30
0.0
  11
 318.500
  21
 266.268
  31
0.0
   0
LINE
   8
LEVEL001
   6
CONTINUOUS
  62
7
  10
 281.500
  20
 270.000
  30
0.0
  11
 281.500
  21
 266.268
  31
0.0
   0
LINE
   8
LEVEL001
   6
CONTINUOUS
  62
7
  10
 319.050
  20
 266.268
  30
0.0
  11
 280.950
  21
 266.268
  31
0.0
   0
LINE
   8
LEVEL001
   6
CONTINUOUS
  62
7
  10
 337.500
  20
 319.708
  30
0.0
  11
 337.500
  21
 270.000
  31
0.0
   0
LINE
   8
LEVEL001
   6
CONTINUOUS
  62
7
  10
 262.500
  20
 270.000
  30
0.0
  11
 337.500
  21
 270.000
  31
0.0
   0
LINE
   8
LEVEL001
   6
CONTINUOUS
  62
7
  10
 337.500
  20
 280.000
  30
0.0
  11
 261.942
  21
 280.000
  31
0.0
   0
LINE
   8
LEVEL001
   6
CONTINUOUS
  62
7
  10
 110.000
  20
 409.000
  30
0.0
  11
 90.0000
  21
 409.000
  31
0.0
   0
LINE
   8
LEVEL001
   6
CONTINUOUS
  62
7
  10
 109.000
  20
 410.000
  30
0.0
  11
 91.0000
  21
 410.000
  31
0.0
   0
LINE
   8
LEVEL001
   6
CONTINUOUS
  62
7
  10
 91.0000
  20
 410.000
  30
0.0
  11
 91.0000
  21
 392.000
  31
0.0
   0
LINE
   8
LEVEL001
   6
CONTINUOUS
  62
7
  10
 91.0000
  20
 392.000
  30
0.0
  11
 91.0000
  21
 391.000
  31
0.0
   0
ARC
   8
LEVEL001
   6
CONTINUOUS
  62
7
  10
 90.0000
  20
 391.000
  30
0.0
  40
 1.00000
  50
 270.000
  51
0.0
   0
ARC
   8
LEVEL001
   6
CONTINUOUS
  62
7
  10
 90.0000
  20
 392.000
  30
0.0
  40
 1.00000
  50
0.0
  51
 90.0000
   0
ARC
   8
LEVEL001
   6
CONTINUOUS
  62
7
  10
 88.0000
  20
 389.500
  30
0.0
  40
 0.500000
  50
 90.0000
  51
 180.000
   0
LINE
   8
LEVEL001
   6
CONTINUOUS
  62
7
  10
 82.5000
  20
 270.000
  30
0.0
  11
 81.5000
  21
 266.268
  31
0.0
   0
ARC
   8
LEVEL001
   6
CONTINUOUS
  62
7
  10
 76.1250
  20
 351.500
  30
0.0
  40
 3.00000
  50
 270.000
  51
 357.563
   0
LINE
   8
LEVEL001
   6
CONTINUOUS
  62
7
  10
 79.9590
  20
 371.043
  30
0.0
  11
 79.1220
  21
 351.372
  31
0.0
   0
ARC
   8
LEVEL001
   6
CONTINUOUS
  62
7
  10
 80.9580
  20
 371.000
  30
0.0
  40
 1.00000
  50
 90.0000
  51
 177.563
   0
LINE
   8
LEVEL001
   6
CONTINUOUS
  62
7
  10
 59.0000
  20
 348.000
  30
0.0
  11
 59.0000
  21
 340.500
  31
0.0
   0
ARC
   8
LEVEL001
   6
CONTINUOUS
  62
7
  10
 59.5000
  20
 348.000
  30
0.0
  40
 0.500000
  50
 90.0000
  51
 180.000
   0
LINE
   8
LEVEL001
   6
CONTINUOUS
  62
7
  10
 109.000
  20
 410.000
  30
0.0
  11
 109.000
  21
 392.000
  31
0.0
   0
LINE
   8
LEVEL001
   6
CONTINUOUS
  62
7
  10
 109.000
  20
 392.000
  30
0.0
  11
 109.000
  21
 391.000
  31
0.0
   0
ARC
   8
LEVEL001
   6
CONTINUOUS
  62
7
  10
 110.000
  20
 391.000
  30
0.0
  40
 1.00000
  50
 180.000
  51
 270.000
   0
ARC
   8
LEVEL001
   6
CONTINUOUS
  62
7
  10
 110.000
  20
 392.000
  30
0.0
  40
 1.00000
  50
 90.0000
  51
 180.000
   0
ARC
   8
LEVEL001
   6
CONTINUOUS
  62
7
  10
 112.000
  20
 389.500
  30
0.0
  40
 0.500000
  50
0.0
  51
 90.0000
   0
LINE
   8
LEVEL001
   6
CONTINUOUS
  62
7
  10
 117.500
  20
 270.000
  30
0.0
  11
 118.500
  21
 266.268
  31
0.0
   0
ARC
   8
LEVEL001
   6
CONTINUOUS
  62
7
  10
 123.875
  20
 351.500
  30
0.0
  40
 3.00000
  50
 182.437
  51
 270.000
   0
LINE
   8
LEVEL001
   6
CONTINUOUS
  62
7
  10
 120.041
  20
 371.043
  30
0.0
  11
 120.878
  21
 351.372
  31
0.0
   0
ARC
   8
LEVEL001
   6
CONTINUOUS
  62
7
  10
 119.042
  20
 371.000
  30
0.0
  40
 1.00000
  50
 2.43660
  51
 90.0000
   0
LINE
   8
LEVEL001
   6
CONTINUOUS
  62
7
  10
 141.000
  20
 348.000
  30
0.0
  11
 141.000
  21
 340.500
  31
0.0
   0
ARC
   8
LEVEL001
   6
CONTINUOUS
  62
7
  10
 140.500
  20
 348.000
  30
0.0
  40
 0.500000
  50
0.0
  51
 90.0000
   0
LINE
   8
LEVEL001
   6
CONTINUOUS
  62
7
  10
 91.0000
  20
 410.000
  30
0.0
  11
 90.0000
  21
 409.000
  31
0.0
   0
LINE
   8
LEVEL001
   6
CONTINUOUS
  62
7
  10
 90.0000
  20
 409.000
  30
0.0
  11
 90.0000
  21
 393.000
  31
0.0
   0
LINE
   8
LEVEL001
   6
CONTINUOUS
  62
7
  10
 109.000
  20
 410.000
  30
0.0
  11
 110.000
  21
 409.000
  31
0.0
   0
LINE
   8
LEVEL001
   6
CONTINUOUS
  62
7
  10
 95.2530
  20
 10.0000
  30
0.0
  11
 95.7030
  21
 9.55000
  31
0.0
   0
LINE
   8
LEVEL001
   6
CONTINUOUS
  62
7
  10
 104.297
  20
 9.55000
  30
0.0
  11
 104.747
  21
 10.0000
  31
0.0
   0
LINE
   8
LEVEL001
   6
CONTINUOUS
  62
7
  10
 95.7171
  20
 10.0000
  30
0.0
  11
 95.7030
  21
 9.55000
  31
0.0
   0
LINE
   8
LEVEL001
   6
CONTINUOUS
  62
7
  10
 104.283
  20
 10.0000
  30
0.0
  11
 104.297
  21
 9.55000
  31
0.0
   0
LINE
   8
LEVEL001
   6
CONTINUOUS
  62
7
  10
 95.7030
  20
 9.55000
  30
0.0
  11
 104.297
  21
 9.55000
  31
0.0
   0
LINE
   8
LEVEL001
   6
CONTINUOUS
  62
7
  10
 80.9500
  20
 266.268
  30
0.0
  11
 80.9500
  21
 14.5000
  31
0.0
   0
LINE
   8
LEVEL001
   6
CONTINUOUS
  62
7
  10
 83.0000
  20
 11.0000
  30
0.0
  11
 84.0000
  21
 10.0000
  31
0.0
   0
LINE
   8
LEVEL001
   6
CONTINUOUS
  62
7
  10
 81.0000
  20
 14.5000
  30
0.0
  11
 83.0000
  21
 12.3310
  31
0.0
   0
LINE
   8
LEVEL001
   6
CONTINUOUS
  62
7
  10
 117.000
  20
 11.0000
  30
0.0
  11
 116.000
  21
 10.0000
  31
0.0
   0
LINE
   8
LEVEL001
   6
CONTINUOUS
  62
7
  10
 119.000
  20
 14.5000
  30
0.0
  11
 117.000
  21
 12.3310
  31
0.0
   0
LINE
   8
LEVEL001
   6
CONTINUOUS
  62
7
  10
 116.000
  20
 10.0000
  30
0.0
  11
 84.0000
  21
 10.0000
  31
0.0
   0
LINE
   8
LEVEL001
   6
CONTINUOUS
  62
7
  10
 119.050
  20
 266.268
  30
0.0
  11
 119.050
  21
 14.5000
  31
0.0
   0
LINE
   8
LEVEL001
   6
CONTINUOUS
  62
7
  10
 119.050
  20
 14.5000
  30
0.0
  11
 80.9500
  21
 14.5000
  31
0.0
   0
LINE
   8
LEVEL001
   6
CONTINUOUS
  62
7
  10
 117.000
  20
 12.3310
  30
0.0
  11
 117.000
  21
 11.0000
  31
0.0
   0
LINE
   8
LEVEL001
   6
CONTINUOUS
  62
7
  10
 117.000
  20
 11.0000
  30
0.0
  11
 83.0000
  21
 11.0000
  31
0.0
   0
LINE
   8
LEVEL001
   6
CONTINUOUS
  62
7
  10
 117.000
  20
 12.3310
  30
0.0
  11
 83.0000
  21
 12.3310
  31
0.0
   0
LINE
   8
LEVEL001
   6
CONTINUOUS
  62
7
  10
 83.0000
  20
 12.3310
  30
0.0
  11
 83.0000
  21
 11.0000
  31
0.0
   0
LINE
   8
LEVEL001
   6
CONTINUOUS
  62
7
  10
 80.9580
  20
 372.000
  30
0.0
  11
 119.042
  21
 372.000
  31
0.0
   0
LINE
   8
LEVEL001
   6
CONTINUOUS
  62
7
  10
 87.5000
  20
 389.500
  30
0.0
  11
 87.5000
  21
 372.000
  31
0.0
   0
LINE
   8
LEVEL001
   6
CONTINUOUS
  62
7
  10
 112.500
  20
 389.500
  30
0.0
  11
 112.500
  21
 372.000
  31
0.0
   0
LINE
   8
LEVEL001
   6
CONTINUOUS
  62
7
  10
 59.5000
  20
 348.500
  30
0.0
  11
 140.500
  21
 348.500
  31
0.0
   0
LINE
   8
LEVEL001
   6
CONTINUOUS
  62
7
  10
 141.000
  20
 340.500
  30
0.0
  11
 59.0000
  21
 340.500
  31
0.0
   0
LINE
   8
LEVEL001
   6
CONTINUOUS
  62
7
  10
 118.500
  20
 270.000
  30
0.0
  11
 118.500
  21
 266.268
  31
0.0
   0
LINE
   8
LEVEL001
   6
CONTINUOUS
  62
7
  10
 81.5000
  20
 270.000
  30
0.0
  11
 81.5000
  21
 266.268
  31
0.0
   0
LINE
   8
LEVEL001
   6
CONTINUOUS
  62
7
  10
 119.050
  20
 266.268
  30
0.0
  11
 80.9500
  21
 266.268
  31
0.0
   0
LINE
   8
LEVEL001
   6
CONTINUOUS
  62
7
  10
 110.000
  20
 393.000
  30
0.0
  11
 90.0000
  21
 393.000
  31
0.0
   0
LINE
   8
LEVEL001
   6
CONTINUOUS
  62
7
  10
 110.000
  20
 409.000
  30
0.0
  11
 110.000
  21
 393.000
  31
0.0
   0
LINE
   8
LEVEL001
   6
CONTINUOUS
  62
7
  10
 112.000
  20
 390.000
  30
0.0
  11
 88.0000
  21
 390.000
  31
0.0
   0
LINE
   8
LEVEL001
   6
CONTINUOUS
  62
7
  10
 120.670
  20
 356.250
  30
0.0
  11
 121.350
  21
 356.250
  31
0.0
   0
LINE
   8
LEVEL001
   6
CONTINUOUS
  62
7
  10
 121.350
  20
 361.750
  30
0.0
  11
 120.436
  21
 361.750
  31
0.0
   0
LINE
   8
LEVEL001
   6
CONTINUOUS
  62
7
  10
 120.330
  20
 364.250
  30
0.0
  11
 121.350
  21
 364.250
  31
0.0
   0
LINE
   8
LEVEL001
   6
CONTINUOUS
  62
7
  10
 121.350
  20
 369.750
  30
0.0
  11
 120.096
  21
 369.750
  31
0.0
   0
LINE
   8
LEVEL001
   6
CONTINUOUS
  62
7
  10
 121.500
  20
 369.490
  30
0.0
  11
 121.350
  21
 369.750
  31
0.0
   0
LINE
   8
LEVEL001
   6
CONTINUOUS
  62
7
  10
 121.500
  20
 364.510
  30
0.0
  11
 121.500
  21
 369.490
  31
0.0
   0
LINE
   8
LEVEL001
   6
CONTINUOUS
  62
7
  10
 121.350
  20
 364.250
  30
0.0
  11
 121.500
  21
 364.510
  31
0.0
   0
LINE
   8
LEVEL001
   6
CONTINUOUS
  62
7
  10
 121.500
  20
 361.490
  30
0.0
  11
 121.350
  21
 361.750
  31
0.0
   0
LINE
   8
LEVEL001
   6
CONTINUOUS
  62
7
  10
 121.500
  20
 356.510
  30
0.0
  11
 121.500
  21
 361.490
  31
0.0
   0
LINE
   8
LEVEL001
   6
CONTINUOUS
  62
7
  10
 121.350
  20
 356.250
  30
0.0
  11
 121.500
  21
 356.510
  31
0.0
   0
LINE
   8
LEVEL001
   6
CONTINUOUS
  62
7
  10
 121.350
  20
 369.750
  30
0.0
  11
 121.350
  21
 364.250
  31
0.0
   0
LINE
   8
LEVEL001
   6
CONTINUOUS
  62
7
  10
 121.350
  20
 361.750
  30
0.0
  11
 121.350
  21
 356.250
  31
0.0
   0
LINE
   8
LEVEL001
   6
CONTINUOUS
  62
7
  10
 71.9141
  20
 352.750
  30
0.0
  11
 71.9141
  21
 348.500
  31
0.0
   0
LINE
   8
LEVEL001
   6
CONTINUOUS
  62
7
  10
 63.4141
  20
 348.500
  30
0.0
  11
 63.4141
  21
 352.750
  31
0.0
   0
LINE
   8
LEVEL001
   6
CONTINUOUS
  62
7
  10
 71.4811
  20
 353.000
  30
0.0
  11
 71.9141
  21
 352.750
  31
0.0
   0
LINE
   8
LEVEL001
   6
CONTINUOUS
  62
7
  10
 63.8471
  20
 353.000
  30
0.0
  11
 71.4811
  21
 353.000
  31
0.0
   0
LINE
   8
LEVEL001
   6
CONTINUOUS
  62
7
  10
 63.4141
  20
 352.750
  30
0.0
  11
 63.8471
  21
 353.000
  31
0.0
   0
LINE
   8
LEVEL001
   6
CONTINUOUS
  62
7
  10
 71.9141
  20
 352.750
  30
0.0
  11
 63.4141
  21
 352.750
  31
0.0
   0
LINE
   8
LEVEL001
   6
CONTINUOUS
  62
7
  10
 90.8563
  20
 352.750
  30
0.0
  11
 90.8563
  21
 348.500
  31
0.0
   0
LINE
   8
LEVEL001
   6
CONTINUOUS
  62
7
  10
 82.3563
  20
 348.500
  30
0.0
  11
 82.3563
  21
 352.750
  31
0.0
   0
LINE
   8
LEVEL001
   6
CONTINUOUS
  62
7
  10
 90.4233
  20
 353.000
  30
0.0
  11
 90.8563
  21
 352.750
  31
0.0
   0
LINE
   8
LEVEL001
   6
CONTINUOUS
  62
7
  10
 82.7893
  20
 353.000
  30
0.0
  11
 90.4233
  21
 353.000
  31
0.0
   0
LINE
   8
LEVEL001
   6
CONTINUOUS
  62
7
  10
 82.3563
  20
 352.750
  30
0.0
  11
 82.7893
  21
 353.000
  31
0.0
   0
LINE
   8
LEVEL001
   6
CONTINUOUS
  62
7
  10
 90.8563
  20
 352.750
  30
0.0
  11
 82.3563
  21
 352.750
  31
0.0
   0
LINE
   8
LEVEL001
   6
CONTINUOUS
  62
7
  10
 117.643
  20
 352.750
  30
0.0
  11
 117.643
  21
 348.500
  31
0.0
   0
LINE
   8
LEVEL001
   6
CONTINUOUS
  62
7
  10
 109.143
  20
 348.500
  30
0.0
  11
 109.143
  21
 352.750
  31
0.0
   0
LINE
   8
LEVEL001
   6
CONTINUOUS
  62
7
  10
 117.210
  20
 353.000
  30
0.0
  11
 117.643
  21
 352.750
  31
0.0
   0
LINE
   8
LEVEL001
   6
CONTINUOUS
  62
7
  10
 109.576
  20
 353.000
  30
0.0
  11
 117.210
  21
 353.000
  31
0.0
   0
LINE
   8
LEVEL001
   6
CONTINUOUS
  62
7
  10
 109.143
  20
 352.750
  30
0.0
  11
 109.576
  21
 353.000
  31
0.0
   0
LINE
   8
LEVEL001
   6
CONTINUOUS
  62
7
  10
 117.643
  20
 352.750
  30
0.0
  11
 109.143
  21
 352.750
  31
0.0
   0
LINE
   8
LEVEL001
   6
CONTINUOUS
  62
7
  10
 136.586
  20
 352.750
  30
0.0
  11
 136.586
  21
 348.500
  31
0.0
   0
LINE
   8
LEVEL001
   6
CONTINUOUS
  62
7
  10
 128.086
  20
 348.500
  30
0.0
  11
 128.086
  21
 352.750
  31
0.0
   0
LINE
   8
LEVEL001
   6
CONTINUOUS
  62
7
  10
 136.153
  20
 353.000
  30
0.0
  11
 136.586
  21
 352.750
  31
0.0
   0
LINE
   8
LEVEL001
   6
CONTINUOUS
  62
7
  10
 128.519
  20
 353.000
  30
0.0
  11
 136.153
  21
 353.000
  31
0.0
   0
LINE
   8
LEVEL001
   6
CONTINUOUS
  62
7
  10
 128.086
  20
 352.750
  30
0.0
  11
 128.519
  21
 353.000
  31
0.0
   0
LINE
   8
LEVEL001
   6
CONTINUOUS
  62
7
  10
 136.586
  20
 352.750
  30
0.0
  11
 128.086
  21
 352.750
  31
0.0
   0
LINE
   8
LEVEL001
   6
CONTINUOUS
  62
7
  10
 151.250
  20
 318.500
  30
0.0
  11
 153.838
  21
 318.500
  31
0.0
   0
LINE
   8
LEVEL001
   6
CONTINUOUS
  62
7
  10
 151.250
  20
 301.500
  30
0.0
  11
 153.838
  21
 301.500
  31
0.0
   0
LINE
   8
LEVEL001
   6
CONTINUOUS
  62
7
  10
 142.000
  20
 337.500
  30
0.0
  11
 142.000
  21
 282.500
  31
0.0
   0
LINE
   8
LEVEL001
   6
CONTINUOUS
  62
7
  10
 142.250
  20
 281.000
  30
0.0
  11
 142.250
  21
 339.000
  31
0.0
   0
LINE
   8
LEVEL001
   6
CONTINUOUS
  62
7
  10
 154.000
  20
 301.551
  30
0.0
  11
 154.000
  21
 318.449
  31
0.0
   0
LINE
   8
LEVEL001
   6
CONTINUOUS
  62
7
  10
 185.000
  20
 303.500
  30
0.0
  11
 185.000
  21
 316.500
  31
0.0
   0
ARC
   8
LEVEL001
   6
CONTINUOUS
  62
7
  10
 153.838
  20
 317.500
  30
0.0
  40
 1.00000
  50
 71.5650
  51
 90.0000
   0
LINE
   8
LEVEL001
   6
CONTINUOUS
  62
7
  10
 157.162
  20
 302.500
  30
0.0
  11
 184.000
  21
 302.500
  31
0.0
   0
ARC
   8
LEVEL001
   6
CONTINUOUS
  62
7
  10
 157.162
  20
 301.500
  30
0.0
  40
 1.00000
  50
 90.0000
  51
 108.435
   0
LINE
   8
LEVEL001
   6
CONTINUOUS
  62
7
  10
 154.154
  20
 301.551
  30
0.0
  11
 156.846
  21
 302.449
  31
0.0
   0
ARC
   8
LEVEL001
   6
CONTINUOUS
  62
7
  10
 153.838
  20
 302.500
  30
0.0
  40
 1.00000
  50
 270.000
  51
 288.435
   0
LINE
   8
LEVEL001
   6
CONTINUOUS
  62
7
  10
 184.000
  20
 302.500
  30
0.0
  11
 185.000
  21
 303.500
  31
0.0
   0
ARC
   8
LEVEL001
   6
CONTINUOUS
  62
7
  10
 150.750
  20
 338.500
  30
0.0
  40
 0.500000
  50
0.0
  51
 90.0000
   0
LINE
   8
LEVEL001
   6
CONTINUOUS
  62
7
  10
 142.250
  20
 339.000
  30
0.0
  11
 150.750
  21
 339.000
  31
0.0
   0
ARC
   8
LEVEL001
   6
CONTINUOUS
  62
7
  10
 49.2500
  20
 338.500
  30
0.0
  40
 0.500000
  50
 90.0000
  51
 180.000
   0
LINE
   8
LEVEL001
   6
CONTINUOUS
  62
7
  10
 57.7500
  20
 339.000
  30
0.0
  11
 49.2500
  21
 339.000
  31
0.0
   0
ARC
   8
LEVEL001
   6
CONTINUOUS
  62
7
  10
 49.2500
  20
 281.500
  30
0.0
  40
 0.500000
  50
 180.000
  51
 270.000
   0
LINE
   8
LEVEL001
   6
CONTINUOUS
  62
7
  10
 57.7500
  20
 281.000
  30
0.0
  11
 49.2500
  21
 281.000
  31
0.0
   0
LINE
   8
LEVEL001
   6
CONTINUOUS
  62
7
  10
 48.7500
  20
 338.500
  30
0.0
  11
 48.7500
  21
 281.500
  31
0.0
   0
LINE
   8
LEVEL001
   6
CONTINUOUS
  62
7
  10
 58.0000
  20
 282.500
  30
0.0
  11
 58.0000
  21
 337.500
  31
0.0
   0
LINE
   8
LEVEL001
   6
CONTINUOUS
  62
7
  10
 57.7500
  20
 339.000
  30
0.0
  11
 57.7500
  21
 281.000
  31
0.0
   0
LINE
   8
LEVEL001
   6
CONTINUOUS
  62
7
  10
 31.0000
  20
 270.000
  30
0.0
  11
 169.000
  21
 270.000
  31
0.0
   0
LINE
   8
LEVEL001
   6
CONTINUOUS
  62
7
  10
 31.0000
  20
 280.000
  30
0.0
  11
 31.0000
  21
 270.000
  31
0.0
   0
LINE
   8
LEVEL001
   6
CONTINUOUS
  62
7
  10
 169.000
  20
 280.000
  30
0.0
  11
 169.000
  21
 270.000
  31
0.0
   0
LINE
   8
LEVEL001
   6
CONTINUOUS
  62
7
  10
 163.000
  20
 319.500
  30
0.0
  11
 185.000
  21
 319.500
  31
0.0
   0
LINE
   8
LEVEL001
   6
CONTINUOUS
  62
7
  10
 185.000
  20
 319.500
  30
0.0
  11
 185.000
  21
 316.500
  31
0.0
   0
ARC
   8
LEVEL001
   6
CONTINUOUS
  62
7
  10
 157.162
  20
 318.071
  30
0.0
  40
 1.00000
  50
 251.565
  51
 270.000
   0
LINE
   8
LEVEL001
   6
CONTINUOUS
  62
7
  10
 154.154
  20
 318.449
  30
0.0
  11
 156.846
  21
 317.122
  31
0.0
   0
LINE
   8
LEVEL001
   6
CONTINUOUS
  62
7
  10
 184.000
  20
 317.071
  30
0.0
  11
 185.000
  21
 316.500
  31
0.0
   0
LINE
   8
LEVEL001
   6
CONTINUOUS
  62
7
  10
 163.000
  20
 319.500
  30
0.0
  11
 163.000
  21
 317.071
  31
0.0
   0
LINE
   8
LEVEL001
   6
CONTINUOUS
  62
7
  10
 184.000
  20
 302.500
  30
0.0
  11
 184.000
  21
 317.071
  31
0.0
   0
LINE
   8
LEVEL001
   6
CONTINUOUS
  62
7
  10
 157.000
  20
 302.500
  30
0.0
  11
 157.000
  21
 317.071
  31
0.0
   0
LINE
   8
LEVEL001
   6
CONTINUOUS
  62
7
  10
 157.000
  20
 317.071
  30
0.0
  11
 184.000
  21
 317.071
  31
0.0
   0
LINE
   8
LEVEL001
   6
CONTINUOUS
  62
7
  10
 151.250
  20
 301.500
  30
0.0
  11
 153.838
  21
 301.500
  31
0.0
   0
LINE
   8
LEVEL001
   6
CONTINUOUS
  62
7
  10
 151.250
  20
 318.500
  30
0.0
  11
 153.838
  21
 318.500
  31
0.0
   0
LINE
   8
LEVEL001
   6
CONTINUOUS
  62
7
  10
 154.000
  20
 318.449
  30
0.0
  11
 154.000
  21
 301.551
  31
0.0
   0
LINE
   8
LEVEL001
   6
CONTINUOUS
  62
7
  10
 185.000
  20
 316.500
  30
0.0
  11
 185.000
  21
 303.500
  31
0.0
   0
ARC
   8
LEVEL001
   6
CONTINUOUS
  62
7
  10
 153.838
  20
 302.500
  30
0.0
  40
 1.00000
  50
 270.000
  51
 288.435
   0
ARC
   8
LEVEL001
   6
CONTINUOUS
  62
7
  10
 153.838
  20
 317.500
  30
0.0
  40
 1.00000
  50
 71.5650
  51
 90.0000
   0
LINE
   8
LEVEL001
   6
CONTINUOUS
  62
7
  10
 184.000
  20
 317.071
  30
0.0
  11
 184.000
  21
 302.929
  31
0.0
   0
LINE
   8
LEVEL001
   6
CONTINUOUS
  62
7
  10
 157.000
  20
 317.071
  30
0.0
  11
 157.000
  21
 302.929
  31
0.0
   0
LINE
   8
LEVEL001
   6
CONTINUOUS
  62
7
  10
 48.7500
  20
 318.500
  30
0.0
  11
 46.1623
  21
 318.500
  31
0.0
   0
LINE
   8
LEVEL001
   6
CONTINUOUS
  62
7
  10
 48.7500
  20
 301.500
  30
0.0
  11
 46.1623
  21
 301.500
  31
0.0
   0
LINE
   8
LEVEL001
   6
CONTINUOUS
  62
7
  10
 46.0000
  20
 301.551
  30
0.0
  11
 46.0000
  21
 318.449
  31
0.0
   0
LINE
   8
LEVEL001
   6
CONTINUOUS
  62
7
  10
 15.0000
  20
 303.500
  30
0.0
  11
 15.0000
  21
 316.500
  31
0.0
   0
ARC
   8
LEVEL001
   6
CONTINUOUS
  62
7
  10
 46.1623
  20
 317.500
  30
0.0
  40
 1.00000
  50
 90.0000
  51
 108.435
   0
LINE
   8
LEVEL001
   6
CONTINUOUS
  62
7
  10
 42.8377
  20
 302.500
  30
0.0
  11
 16.0000
  21
 302.500
  31
0.0
   0
ARC
   8
LEVEL001
   6
CONTINUOUS
  62
7
  10
 42.8377
  20
 301.500
  30
0.0
  40
 1.00000
  50
 71.5650
  51
 90.0000
   0
LINE
   8
LEVEL001
   6
CONTINUOUS
  62
7
  10
 45.8460
  20
 301.551
  30
0.0
  11
 43.1540
  21
 302.449
  31
0.0
   0
ARC
   8
LEVEL001
   6
CONTINUOUS
  62
7
  10
 46.1623
  20
 302.500
  30
0.0
  40
 1.00000
  50
 251.565
  51
 270.000
   0
LINE
   8
LEVEL001
   6
CONTINUOUS
  62
7
  10
 16.0000
  20
 302.500
  30
0.0
  11
 15.0000
  21
 303.500
  31
0.0
   0
LINE
   8
LEVEL001
   6
CONTINUOUS
  62
7
  10
 37.0000
  20
 319.500
  30
0.0
  11
 15.0000
  21
 319.500
  31
0.0
   0
LINE
   8
LEVEL001
   6
CONTINUOUS
  62
7
  10
 15.0000
  20
 319.500
  30
0.0
  11
 15.0000
  21
 316.500
  31
0.0
   0
ARC
   8
LEVEL001
   6
CONTINUOUS
  62
7
  10
 42.8377
  20
 318.071
  30
0.0
  40
 1.00000
  50
 270.000
  51
 288.435
   0
LINE
   8
LEVEL001
   6
CONTINUOUS
  62
7
  10
 45.8460
  20
 318.449
  30
0.0
  11
 43.1540
  21
 317.122
  31
0.0
   0
LINE
   8
LEVEL001
   6
CONTINUOUS
  62
7
  10
 16.0000
  20
 317.071
  30
0.0
  11
 15.0000
  21
 316.500
  31
0.0
   0
LINE
   8
LEVEL001
   6
CONTINUOUS
  62
7
  10
 37.0000
  20
 319.500
  30
0.0
  11
 37.0000
  21
 317.071
  31
0.0
   0
LINE
   8
LEVEL001
   6
CONTINUOUS
  62
7
  10
 16.0000
  20
 302.500
  30
0.0
  11
 16.0000
  21
 317.071
  31
0.0
   0
LINE
   8
LEVEL001
   6
CONTINUOUS
  62
7
  10
 43.0000
  20
 302.500
  30
0.0
  11
 43.0000
  21
 317.071
  31
0.0
   0
LINE
   8
LEVEL001
   6
CONTINUOUS
  62
7
  10
 43.0000
  20
 317.071
  30
0.0
  11
 16.0000
  21
 317.071
  31
0.0
   0
LINE
   8
LEVEL001
   6
CONTINUOUS
  62
7
  10
 48.7500
  20
 301.500
  30
0.0
  11
 46.1623
  21
 301.500
  31
0.0
   0
LINE
   8
LEVEL001
   6
CONTINUOUS
  62
7
  10
 48.7500
  20
 318.500
  30
0.0
  11
 46.1623
  21
 318.500
  31
0.0
   0
LINE
   8
LEVEL001
   6
CONTINUOUS
  62
7
  10
 46.0000
  20
 318.449
  30
0.0
  11
 46.0000
  21
 301.551
  31
0.0
   0
LINE
   8
LEVEL001
   6
CONTINUOUS
  62
7
  10
 15.0000
  20
 316.500
  30
0.0
  11
 15.0000
  21
 303.500
  31
0.0
   0
ARC
   8
LEVEL001
   6
CONTINUOUS
  62
7
  10
 46.1623
  20
 302.500
  30
0.0
  40
 1.00000
  50
 251.565
  51
 270.000
   0
ARC
   8
LEVEL001
   6
CONTINUOUS
  62
7
  10
 46.1623
  20
 317.500
  30
0.0
  40
 1.00000
  50
 90.0000
  51
 108.435
   0
LINE
   8
LEVEL001
   6
CONTINUOUS
  62
7
  10
 16.0000
  20
 317.071
  30
0.0
  11
 16.0000
  21
 302.929
  31
0.0
   0
LINE
   8
LEVEL001
   6
CONTINUOUS
  62
7
  10
 43.0000
  20
 317.071
  30
0.0
  11
 43.0000
  21
 302.929
  31
0.0
   0
LINE
   8
LEVEL001
   6
CONTINUOUS
  62
7
  10
 271.914
  20
 352.750
  30
0.0
  11
 271.914
  21
 348.500
  31
0.0
   0
LINE
   8
LEVEL001
   6
CONTINUOUS
  62
7
  10
 263.414
  20
 348.500
  30
0.0
  11
 263.414
  21
 352.750
  31
0.0
   0
LINE
   8
LEVEL001
   6
CONTINUOUS
  62
7
  10
 271.481
  20
 353.000
  30
0.0
  11
 271.914
  21
 352.750
  31
0.0
   0
LINE
   8
LEVEL001
   6
CONTINUOUS
  62
7
  10
 263.847
  20
 353.000
  30
0.0
  11
 271.481
  21
 353.000
  31
0.0
   0
LINE
   8
LEVEL001
   6
CONTINUOUS
  62
7
  10
 263.414
  20
 352.750
  30
0.0
  11
 263.847
  21
 353.000
  31
0.0
   0
LINE
   8
LEVEL001
   6
CONTINUOUS
  62
7
  10
 271.914
  20
 352.750
  30
0.0
  11
 263.414
  21
 352.750
  31
0.0
   0
LINE
   8
LEVEL001
   6
CONTINUOUS
  62
7
  10
 290.856
  20
 352.750
  30
0.0
  11
 290.856
  21
 348.500
  31
0.0
   0
LINE
   8
LEVEL001
   6
CONTINUOUS
  62
7
  10
 282.356
  20
 348.500
  30
0.0
  11
 282.356
  21
 352.750
  31
0.0
   0
LINE
   8
LEVEL001
   6
CONTINUOUS
  62
7
  10
 290.423
  20
 353.000
  30
0.0
  11
 290.856
  21
 352.750
  31
0.0
   0
LINE
   8
LEVEL001
   6
CONTINUOUS
  62
7
  10
 282.789
  20
 353.000
  30
0.0
  11
 290.423
  21
 353.000
  31
0.0
   0
LINE
   8
LEVEL001
   6
CONTINUOUS
  62
7
  10
 282.356
  20
 352.750
  30
0.0
  11
 282.789
  21
 353.000
  31
0.0
   0
LINE
   8
LEVEL001
   6
CONTINUOUS
  62
7
  10
 290.856
  20
 352.750
  30
0.0
  11
 282.356
  21
 352.750
  31
0.0
   0
LINE
   8
LEVEL001
   6
CONTINUOUS
  62
7
  10
 317.644
  20
 352.750
  30
0.0
  11
 317.644
  21
 348.500
  31
0.0
   0
LINE
   8
LEVEL001
   6
CONTINUOUS
  62
7
  10
 309.144
  20
 348.500
  30
0.0
  11
 309.144
  21
 352.750
  31
0.0
   0
LINE
   8
LEVEL001
   6
CONTINUOUS
  62
7
  10
 317.211
  20
 353.000
  30
0.0
  11
 317.644
  21
 352.750
  31
0.0
   0
LINE
   8
LEVEL001
   6
CONTINUOUS
  62
7
  10
 309.577
  20
 353.000
  30
0.0
  11
 317.211
  21
 353.000
  31
0.0
   0
LINE
   8
LEVEL001
   6
CONTINUOUS
  62
7
  10
 309.144
  20
 352.750
  30
0.0
  11
 309.577
  21
 353.000
  31
0.0
   0
LINE
   8
LEVEL001
   6
CONTINUOUS
  62
7
  10
 317.644
  20
 352.750
  30
0.0
  11
 309.144
  21
 352.750
  31
0.0
   0
LINE
   8
LEVEL001
   6
CONTINUOUS
  62
7
  10
 336.586
  20
 352.750
  30
0.0
  11
 336.586
  21
 348.500
  31
0.0
   0
LINE
   8
LEVEL001
   6
CONTINUOUS
  62
7
  10
 328.086
  20
 348.500
  30
0.0
  11
 328.086
  21
 352.750
  31
0.0
   0
LINE
   8
LEVEL001
   6
CONTINUOUS
  62
7
  10
 336.153
  20
 353.000
  30
0.0
  11
 336.586
  21
 352.750
  31
0.0
   0
LINE
   8
LEVEL001
   6
CONTINUOUS
  62
7
  10
 328.519
  20
 353.000
  30
0.0
  11
 336.153
  21
 353.000
  31
0.0
   0
LINE
   8
LEVEL001
   6
CONTINUOUS
  62
7
  10
 328.086
  20
 352.750
  30
0.0
  11
 328.519
  21
 353.000
  31
0.0
   0
LINE
   8
LEVEL001
   6
CONTINUOUS
  62
7
  10
 336.586
  20
 352.750
  30
0.0
  11
 328.086
  21
 352.750
  31
0.0
   0
LINE
   8
LEVEL001
   6
CONTINUOUS
  62
7
  10
 140.000
  20
 340.000
  30
0.0
  11
 140.000
  21
 337.548
  31
0.0
   0
LINE
   8
LEVEL001
   6
CONTINUOUS
  62
7
  10
 60.0000
  20
 340.000
  30
0.0
  11
 140.000
  21
 340.000
  31
0.0
   0
LINE
   8
LEVEL001
   6
CONTINUOUS
  62
7
  10
 60.0000
  20
 340.000
  30
0.0
  11
 60.0000
  21
 337.548
  31
0.0
   0
LINE
   8
LEVEL001
   6
CONTINUOUS
  62
7
  10
 111.893
  20
 335.929
  30
0.0
  11
 105.266
  21
 335.419
  31
0.0
   0
LINE
   8
LEVEL001
   6
CONTINUOUS
  62
7
  10
 121.586
  20
 337.986
  30
0.0
  11
 142.000
  21
 337.500
  31
0.0
   0
LINE
   8
LEVEL001
   6
CONTINUOUS
  62
7
  10
 119.812
  20
 337.610
  30
0.0
  11
 111.893
  21
 335.929
  31
0.0
   0
LINE
   8
LEVEL001
   6
CONTINUOUS
  62
7
  10
 88.1068
  20
 335.929
  30
0.0
  11
 94.7343
  21
 335.419
  31
0.0
   0
LINE
   8
LEVEL001
   6
CONTINUOUS
  62
7
  10
 78.4140
  20
 337.986
  30
0.0
  11
 58.0000
  21
 337.500
  31
0.0
   0
LINE
   8
LEVEL001
   6
CONTINUOUS
  62
7
  10
 80.1880
  20
 337.610
  30
0.0
  11
 88.1068
  21
 335.929
  31
0.0
   0
ARC
   8
LEVEL001
   6
CONTINUOUS
  62
7
  10
 145.061
  20
 271.688
  30
0.0
  40
 11.2363
  50
 105.809
  51
 132.292
   0
ARC
   8
LEVEL001
   6
CONTINUOUS
  62
7
  10
 54.9389
  20
 271.688
  30
0.0
  40
 11.2363
  50
 47.7077
  51
 74.1910
   0
LINE
   8
LEVEL001
   6
CONTINUOUS
  62
7
  10
 296.137
  20
 329.302
  30
0.0
  11
 336.979
  21
 329.302
  31
0.0
   0
LINE
   8
LEVEL001
   6
CONTINUOUS
  62
7
  10
 299.050
  20
 321.885
  30
0.0
  11
 334.963
  21
 321.885
  31
0.0
   0
LINE
   8
LEVEL001
   6
CONTINUOUS
  62
7
  10
 151.250
  20
 281.500
  30
0.0
  11
 151.250
  21
 338.500
  31
0.0
   0
LINE
   8
LEVEL001
   6
CONTINUOUS
  62
7
  10
 142.250
  20
 281.000
  30
0.0
  11
 150.750
  21
 281.000
  31
0.0
   0
ARC
   8
LEVEL001
   6
CONTINUOUS
  62
7
  10
 150.750
  20
 281.500
  30
0.0
  40
 0.500000
  50
 270.000
  51
0.0
   0
LINE
   8
LEVEL001
   6
CONTINUOUS
  62
7
  10
 31.0000
  20
 280.000
  30
0.0
  11
 169.000
  21
 280.000
  31
0.0
   0
LINE
   8
LEVEL001
   6
CONTINUOUS
  62
7
  10
 297.000
  20
 280.000
  30
0.0
  11
 297.000
  21
 279.000
  31
0.0
   0
LINE
   8
LEVEL001
   6
CONTINUOUS
  62
7
  10
 303.000
  20
 280.000
  30
0.0
  11
 303.000
  21
 279.000
  31
0.0
   0
LINE
   8
LEVEL001
   6
CONTINUOUS
  62
7
  10
 297.000
  20
 279.000
  30
0.0
  11
 303.000
  21
 279.000
  31
0.0
   0
LINE
   8
LEVEL001
   6
CONTINUOUS
  62
7
  10
 316.500
  20
 279.300
  30
0.0
  11
 316.500
  21
 270.873
  31
0.0
   0
LINE
   8
LEVEL001
   6
CONTINUOUS
  62
7
  10
 283.500
  20
 279.158
  30
0.0
  11
 283.500
  21
 270.944
  31
0.0
   0
LINE
   8
LEVEL001
   6
CONTINUOUS
  62
7
  10
 94.2265
  20
 310.000
  30
0.0
  11
 97.1132
  21
 305.000
  31
0.0
   0
LINE
   8
LEVEL001
   6
CONTINUOUS
  62
7
  10
 97.1132
  20
 305.000
  30
0.0
  11
 102.887
  21
 305.000
  31
0.0
   0
LINE
   8
LEVEL001
   6
CONTINUOUS
  62
7
  10
 102.887
  20
 305.000
  30
0.0
  11
 105.774
  21
 310.000
  31
0.0
   0
LINE
   8
LEVEL001
   6
CONTINUOUS
  62
7
  10
 102.400
  20
 321.548
  30
0.0
  11
 102.391
  21
 321.628
  31
0.0
   0
LINE
   8
LEVEL001
   6
CONTINUOUS
  62
7
  10
 102.391
  20
 321.628
  30
0.0
  11
 102.364
  21
 321.707
  31
0.0
   0
LINE
   8
LEVEL001
   6
CONTINUOUS
  62
7
  10
 102.364
  20
 321.707
  30
0.0
  11
 102.318
  21
 321.786
  31
0.0
   0
LINE
   8
LEVEL001
   6
CONTINUOUS
  62
7
  10
 102.318
  20
 321.786
  30
0.0
  11
 102.255
  21
 321.862
  31
0.0
   0
LINE
   8
LEVEL001
   6
CONTINUOUS
  62
7
  10
 102.255
  20
 321.862
  30
0.0
  11
 102.175
  21
 321.936
  31
0.0
   0
LINE
   8
LEVEL001
   6
CONTINUOUS
  62
7
  10
 102.175
  20
 321.936
  30
0.0
  11
 102.078
  21
 322.007
  31
0.0
   0
LINE
   8
LEVEL001
   6
CONTINUOUS
  62
7
  10
 102.078
  20
 322.007
  30
0.0
  11
 101.966
  21
 322.075
  31
0.0
   0
LINE
   8
LEVEL001
   6
CONTINUOUS
  62
7
  10
 101.966
  20
 322.075
  30
0.0
  11
 101.839
  21
 322.138
  31
0.0
   0
LINE
   8
LEVEL001
   6
CONTINUOUS
  62
7
  10
 101.839
  20
 322.138
  30
0.0
  11
 101.697
  21
 322.197
  31
0.0
   0
LINE
   8
LEVEL001
   6
CONTINUOUS
  62
7
  10
 101.697
  20
 322.197
  30
0.0
  11
 101.543
  21
 322.252
  31
0.0
   0
LINE
   8
LEVEL001
   6
CONTINUOUS
  62
7
  10
 101.543
  20
 322.252
  30
0.0
  11
 101.377
  21
 322.300
  31
0.0
   0
LINE
   8
LEVEL001
   6
CONTINUOUS
  62
7
  10
 101.377
  20
 322.300
  30
0.0
  11
 101.200
  21
 322.343
  31
0.0
   0
LINE
   8
LEVEL001
   6
CONTINUOUS
  62
7
  10
 101.200
  20
 322.343
  30
0.0
  11
 101.014
  21
 322.380
  31
0.0
   0
LINE
   8
LEVEL001
   6
CONTINUOUS
  62
7
  10
 101.014
  20
 322.380
  30
0.0
  11
 100.821
  21
 322.411
  31
0.0
   0
LINE
   8
LEVEL001
   6
CONTINUOUS
  62
7
  10
 100.821
  20
 322.411
  30
0.0
  11
 100.621
  21
 322.435
  31
0.0
   0
LINE
   8
LEVEL001
   6
CONTINUOUS
  62
7
  10
 100.621
  20
 322.435
  30
0.0
  11
 100.417
  21
 322.452
  31
0.0
   0
LINE
   8
LEVEL001
   6
CONTINUOUS
  62
7
  10
 100.417
  20
 322.452
  30
0.0
  11
 100.209
  21
 322.463
  31
0.0
   0
LINE
   8
LEVEL001
   6
CONTINUOUS
  62
7
  10
 100.209
  20
 322.463
  30
0.0
  11
 100.000
  21
 322.466
  31
0.0
   0
LINE
   8
LEVEL001
   6
CONTINUOUS
  62
7
  10
 100.000
  20
 322.466
  30
0.0
  11
 99.7908
  21
 322.463
  31
0.0
   0
LINE
   8
LEVEL001
   6
CONTINUOUS
  62
7
  10
 99.7908
  20
 322.463
  30
0.0
  11
 99.5832
  21
 322.452
  31
0.0
   0
LINE
   8
LEVEL001
   6
CONTINUOUS
  62
7
  10
 99.5832
  20
 322.452
  30
0.0
  11
 99.3788
  21
 322.435
  31
0.0
   0
LINE
   8
LEVEL001
   6
CONTINUOUS
  62
7
  10
 99.3788
  20
 322.435
  30
0.0
  11
 99.1792
  21
 322.411
  31
0.0
   0
LINE
   8
LEVEL001
   6
CONTINUOUS
  62
7
  10
 99.1792
  20
 322.411
  30
0.0
  11
 98.9857
  21
 322.380
  31
0.0
   0
LINE
   8
LEVEL001
   6
CONTINUOUS
  62
7
  10
 98.9857
  20
 322.380
  30
0.0
  11
 98.8000
  21
 322.343
  31
0.0
   0
LINE
   8
LEVEL001
   6
CONTINUOUS
  62
7
  10
 98.8000
  20
 322.343
  30
0.0
  11
 98.6234
  21
 322.300
  31
0.0
   0
LINE
   8
LEVEL001
   6
CONTINUOUS
  62
7
  10
 98.6234
  20
 322.300
  30
0.0
  11
 98.4573
  21
 322.252
  31
0.0
   0
LINE
   8
LEVEL001
   6
CONTINUOUS
  62
7
  10
 98.4573
  20
 322.252
  30
0.0
  11
 98.3029
  21
 322.197
  31
0.0
   0
LINE
   8
LEVEL001
   6
CONTINUOUS
  62
7
  10
 98.3029
  20
 322.197
  30
0.0
  11
 98.1615
  21
 322.138
  31
0.0
   0
LINE
   8
LEVEL001
   6
CONTINUOUS
  62
7
  10
 98.1615
  20
 322.138
  30
0.0
  11
 98.0340
  21
 322.075
  31
0.0
   0
LINE
   8
LEVEL001
   6
CONTINUOUS
  62
7
  10
 98.0340
  20
 322.075
  30
0.0
  11
 97.9215
  21
 322.007
  31
0.0
   0
LINE
   8
LEVEL001
   6
CONTINUOUS
  62
7
  10
 97.9215
  20
 322.007
  30
0.0
  11
 97.8249
  21
 321.936
  31
0.0
   0
LINE
   8
LEVEL001
   6
CONTINUOUS
  62
7
  10
 97.8249
  20
 321.936
  30
0.0
  11
 97.7447
  21
 321.862
  31
0.0
   0
LINE
   8
LEVEL001
   6
CONTINUOUS
  62
7
  10
 97.7447
  20
 321.862
  30
0.0
  11
 97.6818
  21
 321.786
  31
0.0
   0
LINE
   8
LEVEL001
   6
CONTINUOUS
  62
7
  10
 97.6818
  20
 321.786
  30
0.0
  11
 97.6365
  21
 321.707
  31
0.0
   0
LINE
   8
LEVEL001
   6
CONTINUOUS
  62
7
  10
 97.6365
  20
 321.707
  30
0.0
  11
 97.6091
  21
 321.628
  31
0.0
   0
LINE
   8
LEVEL001
   6
CONTINUOUS
  62
7
  10
 97.6091
  20
 321.628
  30
0.0
  11
 97.6000
  21
 321.548
  31
0.0
   0
LINE
   8
LEVEL001
   6
CONTINUOUS
  62
7
  10
 97.6000
  20
 321.548
  30
0.0
  11
 97.6091
  21
 321.468
  31
0.0
   0
LINE
   8
LEVEL001
   6
CONTINUOUS
  62
7
  10
 97.6091
  20
 321.468
  30
0.0
  11
 97.6365
  21
 321.389
  31
0.0
   0
LINE
   8
LEVEL001
   6
CONTINUOUS
  62
7
  10
 97.6365
  20
 321.389
  30
0.0
  11
 97.6818
  21
 321.310
  31
0.0
   0
LINE
   8
LEVEL001
   6
CONTINUOUS
  62
7
  10
 97.6818
  20
 321.310
  30
0.0
  11
 97.7447
  21
 321.234
  31
0.0
   0
LINE
   8
LEVEL001
   6
CONTINUOUS
  62
7
  10
 97.7447
  20
 321.234
  30
0.0
  11
 97.8249
  21
 321.160
  31
0.0
   0
LINE
   8
LEVEL001
   6
CONTINUOUS
  62
7
  10
 97.8249
  20
 321.160
  30
0.0
  11
 97.9215
  21
 321.089
  31
0.0
   0
LINE
   8
LEVEL001
   6
CONTINUOUS
  62
7
  10
 97.9215
  20
 321.089
  30
0.0
  11
 98.0340
  21
 321.021
  31
0.0
   0
LINE
   8
LEVEL001
   6
CONTINUOUS
  62
7
  10
 98.0340
  20
 321.021
  30
0.0
  11
 98.1615
  21
 320.958
  31
0.0
   0
LINE
   8
LEVEL001
   6
CONTINUOUS
  62
7
  10
 98.1615
  20
 320.958
  30
0.0
  11
 98.3029
  21
 320.899
  31
0.0
   0
LINE
   8
LEVEL001
   6
CONTINUOUS
  62
7
  10
 98.3029
  20
 320.899
  30
0.0
  11
 98.4573
  21
 320.844
  31
0.0
   0
LINE
   8
LEVEL001
   6
CONTINUOUS
  62
7
  10
 98.4573
  20
 320.844
  30
0.0
  11
 98.6234
  21
 320.796
  31
0.0
   0
LINE
   8
LEVEL001
   6
CONTINUOUS
  62
7
  10
 98.6234
  20
 320.796
  30
0.0
  11
 98.8000
  21
 320.753
  31
0.0
   0
LINE
   8
LEVEL001
   6
CONTINUOUS
  62
7
  10
 98.8000
  20
 320.753
  30
0.0
  11
 98.9857
  21
 320.716
  31
0.0
   0
LINE
   8
LEVEL001
   6
CONTINUOUS
  62
7
  10
 98.9857
  20
 320.716
  30
0.0
  11
 99.1792
  21
 320.685
  31
0.0
   0
LINE
   8
LEVEL001
   6
CONTINUOUS
  62
7
  10
 99.1792
  20
 320.685
  30
0.0
  11
 99.3788
  21
 320.661
  31
0.0
   0
LINE
   8
LEVEL001
   6
CONTINUOUS
  62
7
  10
 99.3788
  20
 320.661
  30
0.0
  11
 99.5832
  21
 320.644
  31
0.0
   0
LINE
   8
LEVEL001
   6
CONTINUOUS
  62
7
  10
 99.5832
  20
 320.644
  30
0.0
  11
 99.7908
  21
 320.633
  31
0.0
   0
LINE
   8
LEVEL001
   6
CONTINUOUS
  62
7
  10
 99.7908
  20
 320.633
  30
0.0
  11
 100.000
  21
 320.630
  31
0.0
   0
LINE
   8
LEVEL001
   6
CONTINUOUS
  62
7
  10
 100.000
  20
 320.630
  30
0.0
  11
 100.209
  21
 320.633
  31
0.0
   0
LINE
   8
LEVEL001
   6
CONTINUOUS
  62
7
  10
 100.209
  20
 320.633
  30
0.0
  11
 100.417
  21
 320.644
  31
0.0
   0
LINE
   8
LEVEL001
   6
CONTINUOUS
  62
7
  10
 100.417
  20
 320.644
  30
0.0
  11
 100.621
  21
 320.661
  31
0.0
   0
LINE
   8
LEVEL001
   6
CONTINUOUS
  62
7
  10
 100.621
  20
 320.661
  30
0.0
  11
 100.821
  21
 320.685
  31
0.0
   0
LINE
   8
LEVEL001
   6
CONTINUOUS
  62
7
  10
 100.821
  20
 320.685
  30
0.0
  11
 101.014
  21
 320.716
  31
0.0
   0
LINE
   8
LEVEL001
   6
CONTINUOUS
  62
7
  10
 101.014
  20
 320.716
  30
0.0
  11
 101.200
  21
 320.753
  31
0.0
   0
LINE
   8
LEVEL001
   6
CONTINUOUS
  62
7
  10
 101.200
  20
 320.753
  30
0.0
  11
 101.377
  21
 320.796
  31
0.0
   0
LINE
   8
LEVEL001
   6
CONTINUOUS
  62
7
  10
 101.377
  20
 320.796
  30
0.0
  11
 101.543
  21
 320.844
  31
0.0
   0
LINE
   8
LEVEL001
   6
CONTINUOUS
  62
7
  10
 101.543
  20
 320.844
  30
0.0
  11
 101.697
  21
 320.899
  31
0.0
   0
LINE
   8
LEVEL001
   6
CONTINUOUS
  62
7
  10
 101.697
  20
 320.899
  30
0.0
  11
 101.839
  21
 320.958
  31
0.0
   0
LINE
   8
LEVEL001
   6
CONTINUOUS
  62
7
  10
 101.839
  20
 320.958
  30
0.0
  11
 101.966
  21
 321.021
  31
0.0
   0
LINE
   8
LEVEL001
   6
CONTINUOUS
  62
7
  10
 101.966
  20
 321.021
  30
0.0
  11
 102.078
  21
 321.089
  31
0.0
   0
LINE
   8
LEVEL001
   6
CONTINUOUS
  62
7
  10
 102.078
  20
 321.089
  30
0.0
  11
 102.175
  21
 321.160
  31
0.0
   0
LINE
   8
LEVEL001
   6
CONTINUOUS
  62
7
  10
 102.175
  20
 321.160
  30
0.0
  11
 102.255
  21
 321.234
  31
0.0
   0
LINE
   8
LEVEL001
   6
CONTINUOUS
  62
7
  10
 102.255
  20
 321.234
  30
0.0
  11
 102.318
  21
 321.310
  31
0.0
   0
LINE
   8
LEVEL001
   6
CONTINUOUS
  62
7
  10
 102.318
  20
 321.310
  30
0.0
  11
 102.364
  21
 321.389
  31
0.0
   0
LINE
   8
LEVEL001
   6
CONTINUOUS
  62
7
  10
 102.364
  20
 321.389
  30
0.0
  11
 102.391
  21
 321.468
  31
0.0
   0
LINE
   8
LEVEL001
   6
CONTINUOUS
  62
7
  10
 102.391
  20
 321.468
  30
0.0
  11
 102.400
  21
 321.548
  31
0.0
   0
LINE
   8
LEVEL001
   6
CONTINUOUS
  62
7
  10
 99.0000
  20
 321.548
  30
0.0
  11
 99.0010
  21
 321.531
  31
0.0
   0
LINE
   8
LEVEL001
   6
CONTINUOUS
  62
7
  10
 99.0010
  20
 321.531
  30
0.0
  11
 99.0038
  21
 321.515
  31
0.0
   0
LINE
   8
LEVEL001
   6
CONTINUOUS
  62
7
  10
 99.0038
  20
 321.515
  30
0.0
  11
 99.0086
  21
 321.498
  31
0.0
   0
LINE
   8
LEVEL001
   6
CONTINUOUS
  62
7
  10
 99.0086
  20
 321.498
  30
0.0
  11
 99.0152
  21
 321.482
  31
0.0
   0
LINE
   8
LEVEL001
   6
CONTINUOUS
  62
7
  10
 99.0152
  20
 321.482
  30
0.0
  11
 99.0237
  21
 321.465
  31
0.0
   0
LINE
   8
LEVEL001
   6
CONTINUOUS
  62
7
  10
 99.0237
  20
 321.465
  30
0.0
  11
 99.0341
  21
 321.449
  31
0.0
   0
LINE
   8
LEVEL001
   6
CONTINUOUS
  62
7
  10
 99.0341
  20
 321.449
  30
0.0
  11
 99.0463
  21
 321.433
  31
0.0
   0
LINE
   8
LEVEL001
   6
CONTINUOUS
  62
7
  10
 99.0463
  20
 321.433
  30
0.0
  11
 99.0603
  21
 321.417
  31
0.0
   0
LINE
   8
LEVEL001
   6
CONTINUOUS
  62
7
  10
 99.0603
  20
 321.417
  30
0.0
  11
 99.0761
  21
 321.402
  31
0.0
   0
LINE
   8
LEVEL001
   6
CONTINUOUS
  62
7
  10
 99.0761
  20
 321.402
  30
0.0
  11
 99.0937
  21
 321.386
  31
0.0
   0
LINE
   8
LEVEL001
   6
CONTINUOUS
  62
7
  10
 99.0937
  20
 321.386
  30
0.0
  11
 99.1130
  21
 321.371
  31
0.0
   0
LINE
   8
LEVEL001
   6
CONTINUOUS
  62
7
  10
 99.1130
  20
 321.371
  30
0.0
  11
 99.1340
  21
 321.357
  31
0.0
   0
LINE
   8
LEVEL001
   6
CONTINUOUS
  62
7
  10
 99.1340
  20
 321.357
  30
0.0
  11
 99.1566
  21
 321.342
  31
0.0
   0
LINE
   8
LEVEL001
   6
CONTINUOUS
  62
7
  10
 99.1566
  20
 321.342
  30
0.0
  11
 99.1808
  21
 321.329
  31
0.0
   0
LINE
   8
LEVEL001
   6
CONTINUOUS
  62
7
  10
 99.1808
  20
 321.329
  30
0.0
  11
 99.2066
  21
 321.315
  31
0.0
   0
LINE
   8
LEVEL001
   6
CONTINUOUS
  62
7
  10
 99.2066
  20
 321.315
  30
0.0
  11
 99.2340
  21
 321.302
  31
0.0
   0
LINE
   8
LEVEL001
   6
CONTINUOUS
  62
7
  10
 99.2340
  20
 321.302
  30
0.0
  11
 99.2627
  21
 321.289
  31
0.0
   0
LINE
   8
LEVEL001
   6
CONTINUOUS
  62
7
  10
 99.2627
  20
 321.289
  30
0.0
  11
 99.2929
  21
 321.277
  31
0.0
   0
LINE
   8
LEVEL001
   6
CONTINUOUS
  62
7
  10
 99.2929
  20
 321.277
  30
0.0
  11
 99.3244
  21
 321.266
  31
0.0
   0
LINE
   8
LEVEL001
   6
CONTINUOUS
  62
7
  10
 99.3244
  20
 321.266
  30
0.0
  11
 99.3572
  21
 321.255
  31
0.0
   0
LINE
   8
LEVEL001
   6
CONTINUOUS
  62
7
  10
 99.3572
  20
 321.255
  30
0.0
  11
 99.3912
  21
 321.244
  31
0.0
   0
LINE
   8
LEVEL001
   6
CONTINUOUS
  62
7
  10
 99.3912
  20
 321.244
  30
0.0
  11
 99.4264
  21
 321.235
  31
0.0
   0
LINE
   8
LEVEL001
   6
CONTINUOUS
  62
7
  10
 99.4264
  20
 321.235
  30
0.0
  11
 99.4627
  21
 321.225
  31
0.0
   0
LINE
   8
LEVEL001
   6
CONTINUOUS
  62
7
  10
 99.4627
  20
 321.225
  30
0.0
  11
 99.5000
  21
 321.217
  31
0.0
   0
LINE
   8
LEVEL001
   6
CONTINUOUS
  62
7
  10
 99.5000
  20
 321.217
  30
0.0
  11
 99.5383
  21
 321.209
  31
0.0
   0
LINE
   8
LEVEL001
   6
CONTINUOUS
  62
7
  10
 99.5383
  20
 321.209
  30
0.0
  11
 99.5774
  21
 321.201
  31
0.0
   0
LINE
   8
LEVEL001
   6
CONTINUOUS
  62
7
  10
 99.5774
  20
 321.201
  30
0.0
  11
 99.6173
  21
 321.194
  31
0.0
   0
LINE
   8
LEVEL001
   6
CONTINUOUS
  62
7
  10
 99.6173
  20
 321.194
  30
0.0
  11
 99.6580
  21
 321.188
  31
0.0
   0
LINE
   8
LEVEL001
   6
CONTINUOUS
  62
7
  10
 99.6580
  20
 321.188
  30
0.0
  11
 99.6993
  21
 321.183
  31
0.0
   0
LINE
   8
LEVEL001
   6
CONTINUOUS
  62
7
  10
 99.6993
  20
 321.183
  30
0.0
  11
 99.7412
  21
 321.178
  31
0.0
   0
LINE
   8
LEVEL001
   6
CONTINUOUS
  62
7
  10
 99.7412
  20
 321.178
  30
0.0
  11
 99.7836
  21
 321.174
  31
0.0
   0
LINE
   8
LEVEL001
   6
CONTINUOUS
  62
7
  10
 99.7836
  20
 321.174
  30
0.0
  11
 99.8264
  21
 321.171
  31
0.0
   0
LINE
   8
LEVEL001
   6
CONTINUOUS
  62
7
  10
 99.8264
  20
 321.171
  30
0.0
  11
 99.8695
  21
 321.169
  31
0.0
   0
LINE
   8
LEVEL001
   6
CONTINUOUS
  62
7
  10
 99.8695
  20
 321.169
  30
0.0
  11
 99.9128
  21
 321.167
  31
0.0
   0
LINE
   8
LEVEL001
   6
CONTINUOUS
  62
7
  10
 99.9128
  20
 321.167
  30
0.0
  11
 99.9564
  21
 321.166
  31
0.0
   0
LINE
   8
LEVEL001
   6
CONTINUOUS
  62
7
  10
 99.9564
  20
 321.166
  30
0.0
  11
 100.000
  21
 321.165
  31
0.0
   0
LINE
   8
LEVEL001
   6
CONTINUOUS
  62
7
  10
 100.000
  20
 321.165
  30
0.0
  11
 100.044
  21
 321.166
  31
0.0
   0
LINE
   8
LEVEL001
   6
CONTINUOUS
  62
7
  10
 100.044
  20
 321.166
  30
0.0
  11
 100.087
  21
 321.167
  31
0.0
   0
LINE
   8
LEVEL001
   6
CONTINUOUS
  62
7
  10
 100.087
  20
 321.167
  30
0.0
  11
 100.131
  21
 321.169
  31
0.0
   0
LINE
   8
LEVEL001
   6
CONTINUOUS
  62
7
  10
 100.131
  20
 321.169
  30
0.0
  11
 100.174
  21
 321.171
  31
0.0
   0
LINE
   8
LEVEL001
   6
CONTINUOUS
  62
7
  10
 100.174
  20
 321.171
  30
0.0
  11
 100.216
  21
 321.174
  31
0.0
   0
LINE
   8
LEVEL001
   6
CONTINUOUS
  62
7
  10
 100.216
  20
 321.174
  30
0.0
  11
 100.259
  21
 321.178
  31
0.0
   0
LINE
   8
LEVEL001
   6
CONTINUOUS
  62
7
  10
 100.259
  20
 321.178
  30
0.0
  11
 100.301
  21
 321.183
  31
0.0
   0
LINE
   8
LEVEL001
   6
CONTINUOUS
  62
7
  10
 100.301
  20
 321.183
  30
0.0
  11
 100.342
  21
 321.188
  31
0.0
   0
LINE
   8
LEVEL001
   6
CONTINUOUS
  62
7
  10
 100.342
  20
 321.188
  30
0.0
  11
 100.383
  21
 321.194
  31
0.0
   0
LINE
   8
LEVEL001
   6
CONTINUOUS
  62
7
  10
 100.383
  20
 321.194
  30
0.0
  11
 100.423
  21
 321.201
  31
0.0
   0
LINE
   8
LEVEL001
   6
CONTINUOUS
  62
7
  10
 100.423
  20
 321.201
  30
0.0
  11
 100.462
  21
 321.209
  31
0.0
   0
LINE
   8
LEVEL001
   6
CONTINUOUS
  62
7
  10
 100.462
  20
 321.209
  30
0.0
  11
 100.500
  21
 321.217
  31
0.0
   0
LINE
   8
LEVEL001
   6
CONTINUOUS
  62
7
  10
 100.500
  20
 321.217
  30
0.0
  11
 100.537
  21
 321.225
  31
0.0
   0
LINE
   8
LEVEL001
   6
CONTINUOUS
  62
7
  10
 100.537
  20
 321.225
  30
0.0
  11
 100.574
  21
 321.235
  31
0.0
   0
LINE
   8
LEVEL001
   6
CONTINUOUS
  62
7
  10
 100.574
  20
 321.235
  30
0.0
  11
 100.609
  21
 321.244
  31
0.0
   0
LINE
   8
LEVEL001
   6
CONTINUOUS
  62
7
  10
 100.609
  20
 321.244
  30
0.0
  11
 100.643
  21
 321.255
  31
0.0
   0
LINE
   8
LEVEL001
   6
CONTINUOUS
  62
7
  10
 100.643
  20
 321.255
  30
0.0
  11
 100.676
  21
 321.266
  31
0.0
   0
LINE
   8
LEVEL001
   6
CONTINUOUS
  62
7
  10
 100.676
  20
 321.266
  30
0.0
  11
 100.707
  21
 321.277
  31
0.0
   0
LINE
   8
LEVEL001
   6
CONTINUOUS
  62
7
  10
 100.707
  20
 321.277
  30
0.0
  11
 100.737
  21
 321.289
  31
0.0
   0
LINE
   8
LEVEL001
   6
CONTINUOUS
  62
7
  10
 100.737
  20
 321.289
  30
0.0
  11
 100.766
  21
 321.302
  31
0.0
   0
LINE
   8
LEVEL001
   6
CONTINUOUS
  62
7
  10
 100.766
  20
 321.302
  30
0.0
  11
 100.793
  21
 321.315
  31
0.0
   0
LINE
   8
LEVEL001
   6
CONTINUOUS
  62
7
  10
 100.793
  20
 321.315
  30
0.0
  11
 100.819
  21
 321.329
  31
0.0
   0
LINE
   8
LEVEL001
   6
CONTINUOUS
  62
7
  10
 100.819
  20
 321.329
  30
0.0
  11
 100.843
  21
 321.342
  31
0.0
   0
LINE
   8
LEVEL001
   6
CONTINUOUS
  62
7
  10
 100.843
  20
 321.342
  30
0.0
  11
 100.866
  21
 321.357
  31
0.0
   0
LINE
   8
LEVEL001
   6
CONTINUOUS
  62
7
  10
 100.866
  20
 321.357
  30
0.0
  11
 100.887
  21
 321.371
  31
0.0
   0
LINE
   8
LEVEL001
   6
CONTINUOUS
  62
7
  10
 100.887
  20
 321.371
  30
0.0
  11
 100.906
  21
 321.386
  31
0.0
   0
LINE
   8
LEVEL001
   6
CONTINUOUS
  62
7
  10
 100.906
  20
 321.386
  30
0.0
  11
 100.924
  21
 321.402
  31
0.0
   0
LINE
   8
LEVEL001
   6
CONTINUOUS
  62
7
  10
 100.924
  20
 321.402
  30
0.0
  11
 100.940
  21
 321.417
  31
0.0
   0
LINE
   8
LEVEL001
   6
CONTINUOUS
  62
7
  10
 100.940
  20
 321.417
  30
0.0
  11
 100.954
  21
 321.433
  31
0.0
   0
LINE
   8
LEVEL001
   6
CONTINUOUS
  62
7
  10
 100.954
  20
 321.433
  30
0.0
  11
 100.966
  21
 321.449
  31
0.0
   0
LINE
   8
LEVEL001
   6
CONTINUOUS
  62
7
  10
 100.966
  20
 321.449
  30
0.0
  11
 100.976
  21
 321.465
  31
0.0
   0
LINE
   8
LEVEL001
   6
CONTINUOUS
  62
7
  10
 100.976
  20
 321.465
  30
0.0
  11
 100.985
  21
 321.482
  31
0.0
   0
LINE
   8
LEVEL001
   6
CONTINUOUS
  62
7
  10
 100.985
  20
 321.482
  30
0.0
  11
 100.991
  21
 321.498
  31
0.0
   0
LINE
   8
LEVEL001
   6
CONTINUOUS
  62
7
  10
 100.991
  20
 321.498
  30
0.0
  11
 100.996
  21
 321.515
  31
0.0
   0
LINE
   8
LEVEL001
   6
CONTINUOUS
  62
7
  10
 100.996
  20
 321.515
  30
0.0
  11
 100.999
  21
 321.531
  31
0.0
   0
LINE
   8
LEVEL001
   6
CONTINUOUS
  62
7
  10
 100.999
  20
 321.531
  30
0.0
  11
 101.000
  21
 321.548
  31
0.0
   0
ARC
   8
LEVEL001
   6
CONTINUOUS
  62
7
  10
 100.000
  20
 321.320
  30
0.0
  40
 1.00000
  50
 11.9426
  51
 167.156
   0
LINE
   8
LEVEL001
   6
CONTINUOUS
  62
7
  10
 96.7000
  20
 319.054
  30
0.0
  11
 96.7031
  21
 318.999
  31
0.0
   0
LINE
   8
LEVEL001
   6
CONTINUOUS
  62
7
  10
 96.7031
  20
 318.999
  30
0.0
  11
 96.7126
  21
 318.944
  31
0.0
   0
LINE
   8
LEVEL001
   6
CONTINUOUS
  62
7
  10
 96.7126
  20
 318.944
  30
0.0
  11
 96.7282
  21
 318.889
  31
0.0
   0
LINE
   8
LEVEL001
   6
CONTINUOUS
  62
7
  10
 96.7282
  20
 318.889
  30
0.0
  11
 96.7501
  21
 318.835
  31
0.0
   0
LINE
   8
LEVEL001
   6
CONTINUOUS
  62
7
  10
 96.7501
  20
 318.835
  30
0.0
  11
 96.7782
  21
 318.781
  31
0.0
   0
LINE
   8
LEVEL001
   6
CONTINUOUS
  62
7
  10
 96.7782
  20
 318.781
  30
0.0
  11
 96.8124
  21
 318.727
  31
0.0
   0
LINE
   8
LEVEL001
   6
CONTINUOUS
  62
7
  10
 96.8124
  20
 318.727
  30
0.0
  11
 96.8527
  21
 318.674
  31
0.0
   0
LINE
   8
LEVEL001
   6
CONTINUOUS
  62
7
  10
 96.8527
  20
 318.674
  30
0.0
  11
 96.8990
  21
 318.622
  31
0.0
   0
LINE
   8
LEVEL001
   6
CONTINUOUS
  62
7
  10
 96.8990
  20
 318.622
  30
0.0
  11
 96.9512
  21
 318.571
  31
0.0
   0
LINE
   8
LEVEL001
   6
CONTINUOUS
  62
7
  10
 96.9512
  20
 318.571
  30
0.0
  11
 97.0092
  21
 318.520
  31
0.0
   0
LINE
   8
LEVEL001
   6
CONTINUOUS
  62
7
  10
 97.0092
  20
 318.520
  30
0.0
  11
 97.0729
  21
 318.471
  31
0.0
   0
LINE
   8
LEVEL001
   6
CONTINUOUS
  62
7
  10
 97.0729
  20
 318.471
  30
0.0
  11
 97.1421
  21
 318.423
  31
0.0
   0
LINE
   8
LEVEL001
   6
CONTINUOUS
  62
7
  10
 97.1421
  20
 318.423
  30
0.0
  11
 97.2168
  21
 318.376
  31
0.0
   0
LINE
   8
LEVEL001
   6
CONTINUOUS
  62
7
  10
 97.2168
  20
 318.376
  30
0.0
  11
 97.2968
  21
 318.330
  31
0.0
   0
LINE
   8
LEVEL001
   6
CONTINUOUS
  62
7
  10
 97.2968
  20
 318.330
  30
0.0
  11
 97.3819
  21
 318.285
  31
0.0
   0
LINE
   8
LEVEL001
   6
CONTINUOUS
  62
7
  10
 97.3819
  20
 318.285
  30
0.0
  11
 97.4721
  21
 318.242
  31
0.0
   0
LINE
   8
LEVEL001
   6
CONTINUOUS
  62
7
  10
 97.4721
  20
 318.242
  30
0.0
  11
 97.5670
  21
 318.201
  31
0.0
   0
LINE
   8
LEVEL001
   6
CONTINUOUS
  62
7
  10
 97.5670
  20
 318.201
  30
0.0
  11
 97.6665
  21
 318.161
  31
0.0
   0
LINE
   8
LEVEL001
   6
CONTINUOUS
  62
7
  10
 97.6665
  20
 318.161
  30
0.0
  11
 97.7706
  21
 318.123
  31
0.0
   0
LINE
   8
LEVEL001
   6
CONTINUOUS
  62
7
  10
 97.7706
  20
 318.123
  30
0.0
  11
 97.8788
  21
 318.087
  31
0.0
   0
LINE
   8
LEVEL001
   6
CONTINUOUS
  62
7
  10
 97.8788
  20
 318.087
  30
0.0
  11
 97.9911
  21
 318.052
  31
0.0
   0
LINE
   8
LEVEL001
   6
CONTINUOUS
  62
7
  10
 97.9911
  20
 318.052
  30
0.0
  11
 98.1072
  21
 318.020
  31
0.0
   0
LINE
   8
LEVEL001
   6
CONTINUOUS
  62
7
  10
 98.1072
  20
 318.020
  30
0.0
  11
 98.2269
  21
 317.989
  31
0.0
   0
LINE
   8
LEVEL001
   6
CONTINUOUS
  62
7
  10
 98.2269
  20
 317.989
  30
0.0
  11
 98.3500
  21
 317.960
  31
0.0
   0
LINE
   8
LEVEL001
   6
CONTINUOUS
  62
7
  10
 98.3500
  20
 317.960
  30
0.0
  11
 98.4762
  21
 317.934
  31
0.0
   0
LINE
   8
LEVEL001
   6
CONTINUOUS
  62
7
  10
 98.4762
  20
 317.934
  30
0.0
  11
 98.6054
  21
 317.910
  31
0.0
   0
LINE
   8
LEVEL001
   6
CONTINUOUS
  62
7
  10
 98.6054
  20
 317.910
  30
0.0
  11
 98.7371
  21
 317.887
  31
0.0
   0
LINE
   8
LEVEL001
   6
CONTINUOUS
  62
7
  10
 98.7371
  20
 317.887
  30
0.0
  11
 98.8713
  21
 317.867
  31
0.0
   0
LINE
   8
LEVEL001
   6
CONTINUOUS
  62
7
  10
 98.8713
  20
 317.867
  30
0.0
  11
 99.0077
  21
 317.850
  31
0.0
   0
LINE
   8
LEVEL001
   6
CONTINUOUS
  62
7
  10
 99.0077
  20
 317.850
  30
0.0
  11
 99.1459
  21
 317.834
  31
0.0
   0
LINE
   8
LEVEL001
   6
CONTINUOUS
  62
7
  10
 99.1459
  20
 317.834
  30
0.0
  11
 99.2857
  21
 317.821
  31
0.0
   0
LINE
   8
LEVEL001
   6
CONTINUOUS
  62
7
  10
 99.2857
  20
 317.821
  30
0.0
  11
 99.4270
  21
 317.810
  31
0.0
   0
LINE
   8
LEVEL001
   6
CONTINUOUS
  62
7
  10
 99.4270
  20
 317.810
  30
0.0
  11
 99.5693
  21
 317.802
  31
0.0
   0
LINE
   8
LEVEL001
   6
CONTINUOUS
  62
7
  10
 99.5693
  20
 317.802
  30
0.0
  11
 99.7124
  21
 317.796
  31
0.0
   0
LINE
   8
LEVEL001
   6
CONTINUOUS
  62
7
  10
 99.7124
  20
 317.796
  30
0.0
  11
 99.8561
  21
 317.792
  31
0.0
   0
LINE
   8
LEVEL001
   6
CONTINUOUS
  62
7
  10
 99.8561
  20
 317.792
  30
0.0
  11
 100.000
  21
 317.791
  31
0.0
   0
LINE
   8
LEVEL001
   6
CONTINUOUS
  62
7
  10
 100.000
  20
 317.791
  30
0.0
  11
 100.144
  21
 317.792
  31
0.0
   0
LINE
   8
LEVEL001
   6
CONTINUOUS
  62
7
  10
 100.144
  20
 317.792
  30
0.0
  11
 100.288
  21
 317.796
  31
0.0
   0
LINE
   8
LEVEL001
   6
CONTINUOUS
  62
7
  10
 100.288
  20
 317.796
  30
0.0
  11
 100.431
  21
 317.802
  31
0.0
   0
LINE
   8
LEVEL001
   6
CONTINUOUS
  62
7
  10
 100.431
  20
 317.802
  30
0.0
  11
 100.573
  21
 317.810
  31
0.0
   0
LINE
   8
LEVEL001
   6
CONTINUOUS
  62
7
  10
 100.573
  20
 317.810
  30
0.0
  11
 100.714
  21
 317.821
  31
0.0
   0
LINE
   8
LEVEL001
   6
CONTINUOUS
  62
7
  10
 100.714
  20
 317.821
  30
0.0
  11
 100.854
  21
 317.834
  31
0.0
   0
LINE
   8
LEVEL001
   6
CONTINUOUS
  62
7
  10
 100.854
  20
 317.834
  30
0.0
  11
 100.992
  21
 317.850
  31
0.0
   0
LINE
   8
LEVEL001
   6
CONTINUOUS
  62
7
  10
 100.992
  20
 317.850
  30
0.0
  11
 101.129
  21
 317.867
  31
0.0
   0
LINE
   8
LEVEL001
   6
CONTINUOUS
  62
7
  10
 101.129
  20
 317.867
  30
0.0
  11
 101.263
  21
 317.887
  31
0.0
   0
LINE
   8
LEVEL001
   6
CONTINUOUS
  62
7
  10
 101.263
  20
 317.887
  30
0.0
  11
 101.395
  21
 317.910
  31
0.0
   0
LINE
   8
LEVEL001
   6
CONTINUOUS
  62
7
  10
 101.395
  20
 317.910
  30
0.0
  11
 101.524
  21
 317.934
  31
0.0
   0
LINE
   8
LEVEL001
   6
CONTINUOUS
  62
7
  10
 101.524
  20
 317.934
  30
0.0
  11
 101.650
  21
 317.960
  31
0.0
   0
LINE
   8
LEVEL001
   6
CONTINUOUS
  62
7
  10
 101.650
  20
 317.960
  30
0.0
  11
 101.773
  21
 317.989
  31
0.0
   0
LINE
   8
LEVEL001
   6
CONTINUOUS
  62
7
  10
 101.773
  20
 317.989
  30
0.0
  11
 101.893
  21
 318.020
  31
0.0
   0
LINE
   8
LEVEL001
   6
CONTINUOUS
  62
7
  10
 101.893
  20
 318.020
  30
0.0
  11
 102.009
  21
 318.052
  31
0.0
   0
LINE
   8
LEVEL001
   6
CONTINUOUS
  62
7
  10
 102.009
  20
 318.052
  30
0.0
  11
 102.121
  21
 318.087
  31
0.0
   0
LINE
   8
LEVEL001
   6
CONTINUOUS
  62
7
  10
 102.121
  20
 318.087
  30
0.0
  11
 102.229
  21
 318.123
  31
0.0
   0
LINE
   8
LEVEL001
   6
CONTINUOUS
  62
7
  10
 102.229
  20
 318.123
  30
0.0
  11
 102.333
  21
 318.161
  31
0.0
   0
LINE
   8
LEVEL001
   6
CONTINUOUS
  62
7
  10
 102.333
  20
 318.161
  30
0.0
  11
 102.433
  21
 318.201
  31
0.0
   0
LINE
   8
LEVEL001
   6
CONTINUOUS
  62
7
  10
 102.433
  20
 318.201
  30
0.0
  11
 102.528
  21
 318.242
  31
0.0
   0
LINE
   8
LEVEL001
   6
CONTINUOUS
  62
7
  10
 102.528
  20
 318.242
  30
0.0
  11
 102.618
  21
 318.285
  31
0.0
   0
LINE
   8
LEVEL001
   6
CONTINUOUS
  62
7
  10
 102.618
  20
 318.285
  30
0.0
  11
 102.703
  21
 318.330
  31
0.0
   0
LINE
   8
LEVEL001
   6
CONTINUOUS
  62
7
  10
 102.703
  20
 318.330
  30
0.0
  11
 102.783
  21
 318.376
  31
0.0
   0
LINE
   8
LEVEL001
   6
CONTINUOUS
  62
7
  10
 102.783
  20
 318.376
  30
0.0
  11
 102.858
  21
 318.423
  31
0.0
   0
LINE
   8
LEVEL001
   6
CONTINUOUS
  62
7
  10
 102.858
  20
 318.423
  30
0.0
  11
 102.927
  21
 318.471
  31
0.0
   0
LINE
   8
LEVEL001
   6
CONTINUOUS
  62
7
  10
 102.927
  20
 318.471
  30
0.0
  11
 102.991
  21
 318.520
  31
0.0
   0
LINE
   8
LEVEL001
   6
CONTINUOUS
  62
7
  10
 102.991
  20
 318.520
  30
0.0
  11
 103.049
  21
 318.571
  31
0.0
   0
LINE
   8
LEVEL001
   6
CONTINUOUS
  62
7
  10
 103.049
  20
 318.571
  30
0.0
  11
 103.101
  21
 318.622
  31
0.0
   0
LINE
   8
LEVEL001
   6
CONTINUOUS
  62
7
  10
 103.101
  20
 318.622
  30
0.0
  11
 103.147
  21
 318.674
  31
0.0
   0
LINE
   8
LEVEL001
   6
CONTINUOUS
  62
7
  10
 103.147
  20
 318.674
  30
0.0
  11
 103.188
  21
 318.727
  31
0.0
   0
LINE
   8
LEVEL001
   6
CONTINUOUS
  62
7
  10
 103.188
  20
 318.727
  30
0.0
  11
 103.222
  21
 318.781
  31
0.0
   0
LINE
   8
LEVEL001
   6
CONTINUOUS
  62
7
  10
 103.222
  20
 318.781
  30
0.0
  11
 103.250
  21
 318.835
  31
0.0
   0
LINE
   8
LEVEL001
   6
CONTINUOUS
  62
7
  10
 103.250
  20
 318.835
  30
0.0
  11
 103.272
  21
 318.889
  31
0.0
   0
LINE
   8
LEVEL001
   6
CONTINUOUS
  62
7
  10
 103.272
  20
 318.889
  30
0.0
  11
 103.287
  21
 318.944
  31
0.0
   0
LINE
   8
LEVEL001
   6
CONTINUOUS
  62
7
  10
 103.287
  20
 318.944
  30
0.0
  11
 103.297
  21
 318.999
  31
0.0
   0
LINE
   8
LEVEL001
   6
CONTINUOUS
  62
7
  10
 103.297
  20
 318.999
  30
0.0
  11
 103.300
  21
 319.054
  31
0.0
   0
LINE
   8
LEVEL001
   6
CONTINUOUS
  62
7
  10
 96.7000
  20
 319.054
  30
0.0
  11
 97.6023
  21
 321.588
  31
0.0
   0
LINE
   8
LEVEL001
   6
CONTINUOUS
  62
7
  10
 103.297
  20
 318.999
  30
0.0
  11
 102.391
  21
 321.628
  31
0.0
   0
LINE
   8
LEVEL001
   6
CONTINUOUS
  62
7
  10
 97.1200
  20
 317.404
  30
0.0
  11
 97.1227
  21
 317.356
  31
0.0
   0
LINE
   8
LEVEL001
   6
CONTINUOUS
  62
7
  10
 97.1227
  20
 317.356
  30
0.0
  11
 97.1310
  21
 317.308
  31
0.0
   0
LINE
   8
LEVEL001
   6
CONTINUOUS
  62
7
  10
 97.1310
  20
 317.308
  30
0.0
  11
 97.1446
  21
 317.260
  31
0.0
   0
LINE
   8
LEVEL001
   6
CONTINUOUS
  62
7
  10
 97.1446
  20
 317.260
  30
0.0
  11
 97.1638
  21
 317.213
  31
0.0
   0
LINE
   8
LEVEL001
   6
CONTINUOUS
  62
7
  10
 97.1638
  20
 317.213
  30
0.0
  11
 97.1883
  21
 317.166
  31
0.0
   0
LINE
   8
LEVEL001
   6
CONTINUOUS
  62
7
  10
 97.1883
  20
 317.166
  30
0.0
  11
 97.2181
  21
 317.119
  31
0.0
   0
LINE
   8
LEVEL001
   6
CONTINUOUS
  62
7
  10
 97.2181
  20
 317.119
  30
0.0
  11
 97.2533
  21
 317.073
  31
0.0
   0
LINE
   8
LEVEL001
   6
CONTINUOUS
  62
7
  10
 97.2533
  20
 317.073
  30
0.0
  11
 97.2937
  21
 317.027
  31
0.0
   0
LINE
   8
LEVEL001
   6
CONTINUOUS
  62
7
  10
 97.2937
  20
 317.027
  30
0.0
  11
 97.3392
  21
 316.982
  31
0.0
   0
LINE
   8
LEVEL001
   6
CONTINUOUS
  62
7
  10
 97.3392
  20
 316.982
  30
0.0
  11
 97.3898
  21
 316.938
  31
0.0
   0
LINE
   8
LEVEL001
   6
CONTINUOUS
  62
7
  10
 97.3898
  20
 316.938
  30
0.0
  11
 97.4454
  21
 316.895
  31
0.0
   0
LINE
   8
LEVEL001
   6
CONTINUOUS
  62
7
  10
 97.4454
  20
 316.895
  30
0.0
  11
 97.5058
  21
 316.853
  31
0.0
   0
LINE
   8
LEVEL001
   6
CONTINUOUS
  62
7
  10
 97.5058
  20
 316.853
  30
0.0
  11
 97.5710
  21
 316.812
  31
0.0
   0
LINE
   8
LEVEL001
   6
CONTINUOUS
  62
7
  10
 97.5710
  20
 316.812
  30
0.0
  11
 97.6408
  21
 316.772
  31
0.0
   0
LINE
   8
LEVEL001
   6
CONTINUOUS
  62
7
  10
 97.6408
  20
 316.772
  30
0.0
  11
 97.7151
  21
 316.733
  31
0.0
   0
LINE
   8
LEVEL001
   6
CONTINUOUS
  62
7
  10
 97.7151
  20
 316.733
  30
0.0
  11
 97.7938
  21
 316.696
  31
0.0
   0
LINE
   8
LEVEL001
   6
CONTINUOUS
  62
7
  10
 97.7938
  20
 316.696
  30
0.0
  11
 97.8766
  21
 316.660
  31
0.0
   0
LINE
   8
LEVEL001
   6
CONTINUOUS
  62
7
  10
 97.8766
  20
 316.660
  30
0.0
  11
 97.9635
  21
 316.625
  31
0.0
   0
LINE
   8
LEVEL001
   6
CONTINUOUS
  62
7
  10
 97.9635
  20
 316.625
  30
0.0
  11
 98.0543
  21
 316.592
  31
0.0
   0
LINE
   8
LEVEL001
   6
CONTINUOUS
  62
7
  10
 98.0543
  20
 316.592
  30
0.0
  11
 98.1488
  21
 316.560
  31
0.0
   0
LINE
   8
LEVEL001
   6
CONTINUOUS
  62
7
  10
 98.1488
  20
 316.560
  30
0.0
  11
 98.2468
  21
 316.530
  31
0.0
   0
LINE
   8
LEVEL001
   6
CONTINUOUS
  62
7
  10
 98.2468
  20
 316.530
  30
0.0
  11
 98.3481
  21
 316.501
  31
0.0
   0
LINE
   8
LEVEL001
   6
CONTINUOUS
  62
7
  10
 98.3481
  20
 316.501
  30
0.0
  11
 98.4526
  21
 316.475
  31
0.0
   0
LINE
   8
LEVEL001
   6
CONTINUOUS
  62
7
  10
 98.4526
  20
 316.475
  30
0.0
  11
 98.5600
  21
 316.450
  31
0.0
   0
LINE
   8
LEVEL001
   6
CONTINUOUS
  62
7
  10
 98.5600
  20
 316.450
  30
0.0
  11
 98.6702
  21
 316.427
  31
0.0
   0
LINE
   8
LEVEL001
   6
CONTINUOUS
  62
7
  10
 98.6702
  20
 316.427
  30
0.0
  11
 98.7829
  21
 316.405
  31
0.0
   0
LINE
   8
LEVEL001
   6
CONTINUOUS
  62
7
  10
 98.7829
  20
 316.405
  30
0.0
  11
 98.8979
  21
 316.386
  31
0.0
   0
LINE
   8
LEVEL001
   6
CONTINUOUS
  62
7
  10
 98.8979
  20
 316.386
  30
0.0
  11
 99.0150
  21
 316.369
  31
0.0
   0
LINE
   8
LEVEL001
   6
CONTINUOUS
  62
7
  10
 99.0150
  20
 316.369
  30
0.0
  11
 99.1340
  21
 316.353
  31
0.0
   0
LINE
   8
LEVEL001
   6
CONTINUOUS
  62
7
  10
 99.1340
  20
 316.353
  30
0.0
  11
 99.2546
  21
 316.340
  31
0.0
   0
LINE
   8
LEVEL001
   6
CONTINUOUS
  62
7
  10
 99.2546
  20
 316.340
  30
0.0
  11
 99.3767
  21
 316.328
  31
0.0
   0
LINE
   8
LEVEL001
   6
CONTINUOUS
  62
7
  10
 99.3767
  20
 316.328
  30
0.0
  11
 99.4999
  21
 316.319
  31
0.0
   0
LINE
   8
LEVEL001
   6
CONTINUOUS
  62
7
  10
 99.4999
  20
 316.319
  30
0.0
  11
 99.6241
  21
 316.312
  31
0.0
   0
LINE
   8
LEVEL001
   6
CONTINUOUS
  62
7
  10
 99.6241
  20
 316.312
  30
0.0
  11
 99.7490
  21
 316.306
  31
0.0
   0
LINE
   8
LEVEL001
   6
CONTINUOUS
  62
7
  10
 99.7490
  20
 316.306
  30
0.0
  11
 99.8744
  21
 316.303
  31
0.0
   0
LINE
   8
LEVEL001
   6
CONTINUOUS
  62
7
  10
 99.8744
  20
 316.303
  30
0.0
  11
 100.000
  21
 316.302
  31
0.0
   0
LINE
   8
LEVEL001
   6
CONTINUOUS
  62
7
  10
 100.000
  20
 316.302
  30
0.0
  11
 100.126
  21
 316.303
  31
0.0
   0
LINE
   8
LEVEL001
   6
CONTINUOUS
  62
7
  10
 100.126
  20
 316.303
  30
0.0
  11
 100.251
  21
 316.306
  31
0.0
   0
LINE
   8
LEVEL001
   6
CONTINUOUS
  62
7
  10
 100.251
  20
 316.306
  30
0.0
  11
 100.376
  21
 316.312
  31
0.0
   0
LINE
   8
LEVEL001
   6
CONTINUOUS
  62
7
  10
 100.376
  20
 316.312
  30
0.0
  11
 100.500
  21
 316.319
  31
0.0
   0
LINE
   8
LEVEL001
   6
CONTINUOUS
  62
7
  10
 100.500
  20
 316.319
  30
0.0
  11
 100.623
  21
 316.328
  31
0.0
   0
LINE
   8
LEVEL001
   6
CONTINUOUS
  62
7
  10
 100.623
  20
 316.328
  30
0.0
  11
 100.745
  21
 316.340
  31
0.0
   0
LINE
   8
LEVEL001
   6
CONTINUOUS
  62
7
  10
 100.745
  20
 316.340
  30
0.0
  11
 100.866
  21
 316.353
  31
0.0
   0
LINE
   8
LEVEL001
   6
CONTINUOUS
  62
7
  10
 100.866
  20
 316.353
  30
0.0
  11
 100.985
  21
 316.369
  31
0.0
   0
LINE
   8
LEVEL001
   6
CONTINUOUS
  62
7
  10
 100.985
  20
 316.369
  30
0.0
  11
 101.102
  21
 316.386
  31
0.0
   0
LINE
   8
LEVEL001
   6
CONTINUOUS
  62
7
  10
 101.102
  20
 316.386
  30
0.0
  11
 101.217
  21
 316.405
  31
0.0
   0
LINE
   8
LEVEL001
   6
CONTINUOUS
  62
7
  10
 101.217
  20
 316.405
  30
0.0
  11
 101.330
  21
 316.427
  31
0.0
   0
LINE
   8
LEVEL001
   6
CONTINUOUS
  62
7
  10
 101.330
  20
 316.427
  30
0.0
  11
 101.440
  21
 316.450
  31
0.0
   0
LINE
   8
LEVEL001
   6
CONTINUOUS
  62
7
  10
 101.440
  20
 316.450
  30
0.0
  11
 101.547
  21
 316.475
  31
0.0
   0
LINE
   8
LEVEL001
   6
CONTINUOUS
  62
7
  10
 101.547
  20
 316.475
  30
0.0
  11
 101.652
  21
 316.501
  31
0.0
   0
LINE
   8
LEVEL001
   6
CONTINUOUS
  62
7
  10
 101.652
  20
 316.501
  30
0.0
  11
 101.753
  21
 316.530
  31
0.0
   0
LINE
   8
LEVEL001
   6
CONTINUOUS
  62
7
  10
 101.753
  20
 316.530
  30
0.0
  11
 101.851
  21
 316.560
  31
0.0
   0
LINE
   8
LEVEL001
   6
CONTINUOUS
  62
7
  10
 101.851
  20
 316.560
  30
0.0
  11
 101.946
  21
 316.592
  31
0.0
   0
LINE
   8
LEVEL001
   6
CONTINUOUS
  62
7
  10
 101.946
  20
 316.592
  30
0.0
  11
 102.036
  21
 316.625
  31
0.0
   0
LINE
   8
LEVEL001
   6
CONTINUOUS
  62
7
  10
 102.036
  20
 316.625
  30
0.0
  11
 102.123
  21
 316.660
  31
0.0
   0
LINE
   8
LEVEL001
   6
CONTINUOUS
  62
7
  10
 102.123
  20
 316.660
  30
0.0
  11
 102.206
  21
 316.696
  31
0.0
   0
LINE
   8
LEVEL001
   6
CONTINUOUS
  62
7
  10
 102.206
  20
 316.696
  30
0.0
  11
 102.285
  21
 316.733
  31
0.0
   0
LINE
   8
LEVEL001
   6
CONTINUOUS
  62
7
  10
 102.285
  20
 316.733
  30
0.0
  11
 102.359
  21
 316.772
  31
0.0
   0
LINE
   8
LEVEL001
   6
CONTINUOUS
  62
7
  10
 102.359
  20
 316.772
  30
0.0
  11
 102.429
  21
 316.812
  31
0.0
   0
LINE
   8
LEVEL001
   6
CONTINUOUS
  62
7
  10
 102.429
  20
 316.812
  30
0.0
  11
 102.494
  21
 316.853
  31
0.0
   0
LINE
   8
LEVEL001
   6
CONTINUOUS
  62
7
  10
 102.494
  20
 316.853
  30
0.0
  11
 102.555
  21
 316.895
  31
0.0
   0
LINE
   8
LEVEL001
   6
CONTINUOUS
  62
7
  10
 102.555
  20
 316.895
  30
0.0
  11
 102.610
  21
 316.938
  31
0.0
   0
LINE
   8
LEVEL001
   6
CONTINUOUS
  62
7
  10
 102.610
  20
 316.938
  30
0.0
  11
 102.661
  21
 316.982
  31
0.0
   0
LINE
   8
LEVEL001
   6
CONTINUOUS
  62
7
  10
 102.661
  20
 316.982
  30
0.0
  11
 102.706
  21
 317.027
  31
0.0
   0
LINE
   8
LEVEL001
   6
CONTINUOUS
  62
7
  10
 102.706
  20
 317.027
  30
0.0
  11
 102.747
  21
 317.073
  31
0.0
   0
LINE
   8
LEVEL001
   6
CONTINUOUS
  62
7
  10
 102.747
  20
 317.073
  30
0.0
  11
 102.782
  21
 317.119
  31
0.0
   0
LINE
   8
LEVEL001
   6
CONTINUOUS
  62
7
  10
 102.782
  20
 317.119
  30
0.0
  11
 102.812
  21
 317.166
  31
0.0
   0
LINE
   8
LEVEL001
   6
CONTINUOUS
  62
7
  10
 102.812
  20
 317.166
  30
0.0
  11
 102.836
  21
 317.213
  31
0.0
   0
LINE
   8
LEVEL001
   6
CONTINUOUS
  62
7
  10
 102.836
  20
 317.213
  30
0.0
  11
 102.855
  21
 317.260
  31
0.0
   0
LINE
   8
LEVEL001
   6
CONTINUOUS
  62
7
  10
 102.855
  20
 317.260
  30
0.0
  11
 102.869
  21
 317.308
  31
0.0
   0
LINE
   8
LEVEL001
   6
CONTINUOUS
  62
7
  10
 102.869
  20
 317.308
  30
0.0
  11
 102.877
  21
 317.356
  31
0.0
   0
LINE
   8
LEVEL001
   6
CONTINUOUS
  62
7
  10
 102.877
  20
 317.356
  30
0.0
  11
 102.880
  21
 317.404
  31
0.0
   0
LINE
   8
LEVEL001
   6
CONTINUOUS
  62
7
  10
 96.5400
  20
 316.282
  30
0.0
  11
 96.5433
  21
 316.225
  31
0.0
   0
LINE
   8
LEVEL001
   6
CONTINUOUS
  62
7
  10
 96.5433
  20
 316.225
  30
0.0
  11
 96.5532
  21
 316.167
  31
0.0
   0
LINE
   8
LEVEL001
   6
CONTINUOUS
  62
7
  10
 96.5532
  20
 316.167
  30
0.0
  11
 96.5696
  21
 316.110
  31
0.0
   0
LINE
   8
LEVEL001
   6
CONTINUOUS
  62
7
  10
 96.5696
  20
 316.110
  30
0.0
  11
 96.5926
  21
 316.053
  31
0.0
   0
LINE
   8
LEVEL001
   6
CONTINUOUS
  62
7
  10
 96.5926
  20
 316.053
  30
0.0
  11
 96.6220
  21
 315.996
  31
0.0
   0
LINE
   8
LEVEL001
   6
CONTINUOUS
  62
7
  10
 96.6220
  20
 315.996
  30
0.0
  11
 96.6579
  21
 315.940
  31
0.0
   0
LINE
   8
LEVEL001
   6
CONTINUOUS
  62
7
  10
 96.6579
  20
 315.940
  30
0.0
  11
 96.7001
  21
 315.884
  31
0.0
   0
LINE
   8
LEVEL001
   6
CONTINUOUS
  62
7
  10
 96.7001
  20
 315.884
  30
0.0
  11
 96.7487
  21
 315.830
  31
0.0
   0
LINE
   8
LEVEL001
   6
CONTINUOUS
  62
7
  10
 96.7487
  20
 315.830
  30
0.0
  11
 96.8034
  21
 315.776
  31
0.0
   0
LINE
   8
LEVEL001
   6
CONTINUOUS
  62
7
  10
 96.8034
  20
 315.776
  30
0.0
  11
 96.8642
  21
 315.723
  31
0.0
   0
LINE
   8
LEVEL001
   6
CONTINUOUS
  62
7
  10
 96.8642
  20
 315.723
  30
0.0
  11
 96.9309
  21
 315.671
  31
0.0
   0
LINE
   8
LEVEL001
   6
CONTINUOUS
  62
7
  10
 96.9309
  20
 315.671
  30
0.0
  11
 97.0036
  21
 315.620
  31
0.0
   0
LINE
   8
LEVEL001
   6
CONTINUOUS
  62
7
  10
 97.0036
  20
 315.620
  30
0.0
  11
 97.0819
  21
 315.571
  31
0.0
   0
LINE
   8
LEVEL001
   6
CONTINUOUS
  62
7
  10
 97.0819
  20
 315.571
  30
0.0
  11
 97.1657
  21
 315.523
  31
0.0
   0
LINE
   8
LEVEL001
   6
CONTINUOUS
  62
7
  10
 97.1657
  20
 315.523
  30
0.0
  11
 97.2550
  21
 315.476
  31
0.0
   0
LINE
   8
LEVEL001
   6
CONTINUOUS
  62
7
  10
 97.2550
  20
 315.476
  30
0.0
  11
 97.3495
  21
 315.431
  31
0.0
   0
LINE
   8
LEVEL001
   6
CONTINUOUS
  62
7
  10
 97.3495
  20
 315.431
  30
0.0
  11
 97.4490
  21
 315.388
  31
0.0
   0
LINE
   8
LEVEL001
   6
CONTINUOUS
  62
7
  10
 97.4490
  20
 315.388
  30
0.0
  11
 97.5534
  21
 315.346
  31
0.0
   0
LINE
   8
LEVEL001
   6
CONTINUOUS
  62
7
  10
 97.5534
  20
 315.346
  30
0.0
  11
 97.6625
  21
 315.306
  31
0.0
   0
LINE
   8
LEVEL001
   6
CONTINUOUS
  62
7
  10
 97.6625
  20
 315.306
  30
0.0
  11
 97.7760
  21
 315.268
  31
0.0
   0
LINE
   8
LEVEL001
   6
CONTINUOUS
  62
7
  10
 97.7760
  20
 315.268
  30
0.0
  11
 97.8937
  21
 315.232
  31
0.0
   0
LINE
   8
LEVEL001
   6
CONTINUOUS
  62
7
  10
 97.8937
  20
 315.232
  30
0.0
  11
 98.0154
  21
 315.198
  31
0.0
   0
LINE
   8
LEVEL001
   6
CONTINUOUS
  62
7
  10
 98.0154
  20
 315.198
  30
0.0
  11
 98.1409
  21
 315.166
  31
0.0
   0
LINE
   8
LEVEL001
   6
CONTINUOUS
  62
7
  10
 98.1409
  20
 315.166
  30
0.0
  11
 98.2700
  21
 315.136
  31
0.0
   0
LINE
   8
LEVEL001
   6
CONTINUOUS
  62
7
  10
 98.2700
  20
 315.136
  30
0.0
  11
 98.4023
  21
 315.108
  31
0.0
   0
LINE
   8
LEVEL001
   6
CONTINUOUS
  62
7
  10
 98.4023
  20
 315.108
  30
0.0
  11
 98.5377
  21
 315.082
  31
0.0
   0
LINE
   8
LEVEL001
   6
CONTINUOUS
  62
7
  10
 98.5377
  20
 315.082
  30
0.0
  11
 98.6759
  21
 315.059
  31
0.0
   0
LINE
   8
LEVEL001
   6
CONTINUOUS
  62
7
  10
 98.6759
  20
 315.059
  30
0.0
  11
 98.8166
  21
 315.038
  31
0.0
   0
LINE
   8
LEVEL001
   6
CONTINUOUS
  62
7
  10
 98.8166
  20
 315.038
  30
0.0
  11
 98.9596
  21
 315.020
  31
0.0
   0
LINE
   8
LEVEL001
   6
CONTINUOUS
  62
7
  10
 98.9596
  20
 315.020
  30
0.0
  11
 99.1045
  21
 315.004
  31
0.0
   0
LINE
   8
LEVEL001
   6
CONTINUOUS
  62
7
  10
 99.1045
  20
 315.004
  30
0.0
  11
 99.2511
  21
 314.990
  31
0.0
   0
LINE
   8
LEVEL001
   6
CONTINUOUS
  62
7
  10
 99.2511
  20
 314.990
  30
0.0
  11
 99.3992
  21
 314.979
  31
0.0
   0
LINE
   8
LEVEL001
   6
CONTINUOUS
  62
7
  10
 99.3992
  20
 314.979
  30
0.0
  11
 99.5484
  21
 314.970
  31
0.0
   0
LINE
   8
LEVEL001
   6
CONTINUOUS
  62
7
  10
 99.5484
  20
 314.970
  30
0.0
  11
 99.6984
  21
 314.963
  31
0.0
   0
LINE
   8
LEVEL001
   6
CONTINUOUS
  62
7
  10
 99.6984
  20
 314.963
  30
0.0
  11
 99.8491
  21
 314.960
  31
0.0
   0
LINE
   8
LEVEL001
   6
CONTINUOUS
  62
7
  10
 99.8491
  20
 314.960
  30
0.0
  11
 100.000
  21
 314.958
  31
0.0
   0
LINE
   8
LEVEL001
   6
CONTINUOUS
  62
7
  10
 100.000
  20
 314.958
  30
0.0
  11
 100.151
  21
 314.960
  31
0.0
   0
LINE
   8
LEVEL001
   6
CONTINUOUS
  62
7
  10
 100.151
  20
 314.960
  30
0.0
  11
 100.302
  21
 314.963
  31
0.0
   0
LINE
   8
LEVEL001
   6
CONTINUOUS
  62
7
  10
 100.302
  20
 314.963
  30
0.0
  11
 100.452
  21
 314.970
  31
0.0
   0
LINE
   8
LEVEL001
   6
CONTINUOUS
  62
7
  10
 100.452
  20
 314.970
  30
0.0
  11
 100.601
  21
 314.979
  31
0.0
   0
LINE
   8
LEVEL001
   6
CONTINUOUS
  62
7
  10
 100.601
  20
 314.979
  30
0.0
  11
 100.749
  21
 314.990
  31
0.0
   0
LINE
   8
LEVEL001
   6
CONTINUOUS
  62
7
  10
 100.749
  20
 314.990
  30
0.0
  11
 100.896
  21
 315.004
  31
0.0
   0
LINE
   8
LEVEL001
   6
CONTINUOUS
  62
7
  10
 100.896
  20
 315.004
  30
0.0
  11
 101.040
  21
 315.020
  31
0.0
   0
LINE
   8
LEVEL001
   6
CONTINUOUS
  62
7
  10
 101.040
  20
 315.020
  30
0.0
  11
 101.183
  21
 315.038
  31
0.0
   0
LINE
   8
LEVEL001
   6
CONTINUOUS
  62
7
  10
 101.183
  20
 315.038
  30
0.0
  11
 101.324
  21
 315.059
  31
0.0
   0
LINE
   8
LEVEL001
   6
CONTINUOUS
  62
7
  10
 101.324
  20
 315.059
  30
0.0
  11
 101.462
  21
 315.082
  31
0.0
   0
LINE
   8
LEVEL001
   6
CONTINUOUS
  62
7
  10
 101.462
  20
 315.082
  30
0.0
  11
 101.598
  21
 315.108
  31
0.0
   0
LINE
   8
LEVEL001
   6
CONTINUOUS
  62
7
  10
 101.598
  20
 315.108
  30
0.0
  11
 101.730
  21
 315.136
  31
0.0
   0
LINE
   8
LEVEL001
   6
CONTINUOUS
  62
7
  10
 101.730
  20
 315.136
  30
0.0
  11
 101.859
  21
 315.166
  31
0.0
   0
LINE
   8
LEVEL001
   6
CONTINUOUS
  62
7
  10
 101.859
  20
 315.166
  30
0.0
  11
 101.985
  21
 315.198
  31
0.0
   0
LINE
   8
LEVEL001
   6
CONTINUOUS
  62
7
  10
 101.985
  20
 315.198
  30
0.0
  11
 102.106
  21
 315.232
  31
0.0
   0
LINE
   8
LEVEL001
   6
CONTINUOUS
  62
7
  10
 102.106
  20
 315.232
  30
0.0
  11
 102.224
  21
 315.268
  31
0.0
   0
LINE
   8
LEVEL001
   6
CONTINUOUS
  62
7
  10
 102.224
  20
 315.268
  30
0.0
  11
 102.338
  21
 315.306
  31
0.0
   0
LINE
   8
LEVEL001
   6
CONTINUOUS
  62
7
  10
 102.338
  20
 315.306
  30
0.0
  11
 102.447
  21
 315.346
  31
0.0
   0
LINE
   8
LEVEL001
   6
CONTINUOUS
  62
7
  10
 102.447
  20
 315.346
  30
0.0
  11
 102.551
  21
 315.388
  31
0.0
   0
LINE
   8
LEVEL001
   6
CONTINUOUS
  62
7
  10
 102.551
  20
 315.388
  30
0.0
  11
 102.651
  21
 315.431
  31
0.0
   0
LINE
   8
LEVEL001
   6
CONTINUOUS
  62
7
  10
 102.651
  20
 315.431
  30
0.0
  11
 102.745
  21
 315.476
  31
0.0
   0
LINE
   8
LEVEL001
   6
CONTINUOUS
  62
7
  10
 102.745
  20
 315.476
  30
0.0
  11
 102.834
  21
 315.523
  31
0.0
   0
LINE
   8
LEVEL001
   6
CONTINUOUS
  62
7
  10
 102.834
  20
 315.523
  30
0.0
  11
 102.918
  21
 315.571
  31
0.0
   0
LINE
   8
LEVEL001
   6
CONTINUOUS
  62
7
  10
 102.918
  20
 315.571
  30
0.0
  11
 102.996
  21
 315.620
  31
0.0
   0
LINE
   8
LEVEL001
   6
CONTINUOUS
  62
7
  10
 102.996
  20
 315.620
  30
0.0
  11
 103.069
  21
 315.671
  31
0.0
   0
LINE
   8
LEVEL001
   6
CONTINUOUS
  62
7
  10
 103.069
  20
 315.671
  30
0.0
  11
 103.136
  21
 315.723
  31
0.0
   0
LINE
   8
LEVEL001
   6
CONTINUOUS
  62
7
  10
 103.136
  20
 315.723
  30
0.0
  11
 103.197
  21
 315.776
  31
0.0
   0
LINE
   8
LEVEL001
   6
CONTINUOUS
  62
7
  10
 103.197
  20
 315.776
  30
0.0
  11
 103.251
  21
 315.830
  31
0.0
   0
LINE
   8
LEVEL001
   6
CONTINUOUS
  62
7
  10
 103.251
  20
 315.830
  30
0.0
  11
 103.300
  21
 315.884
  31
0.0
   0
LINE
   8
LEVEL001
   6
CONTINUOUS
  62
7
  10
 103.300
  20
 315.884
  30
0.0
  11
 103.342
  21
 315.940
  31
0.0
   0
LINE
   8
LEVEL001
   6
CONTINUOUS
  62
7
  10
 103.342
  20
 315.940
  30
0.0
  11
 103.378
  21
 315.996
  31
0.0
   0
LINE
   8
LEVEL001
   6
CONTINUOUS
  62
7
  10
 103.378
  20
 315.996
  30
0.0
  11
 103.407
  21
 316.053
  31
0.0
   0
LINE
   8
LEVEL001
   6
CONTINUOUS
  62
7
  10
 103.407
  20
 316.053
  30
0.0
  11
 103.430
  21
 316.110
  31
0.0
   0
LINE
   8
LEVEL001
   6
CONTINUOUS
  62
7
  10
 103.430
  20
 316.110
  30
0.0
  11
 103.447
  21
 316.167
  31
0.0
   0
LINE
   8
LEVEL001
   6
CONTINUOUS
  62
7
  10
 103.447
  20
 316.167
  30
0.0
  11
 103.457
  21
 316.225
  31
0.0
   0
LINE
   8
LEVEL001
   6
CONTINUOUS
  62
7
  10
 103.457
  20
 316.225
  30
0.0
  11
 103.460
  21
 316.282
  31
0.0
   0
ARC
   8
LEVEL001
   6
CONTINUOUS
  62
7
  10
 97.0615
  20
 319.768
  30
0.0
  40
 6.28019
  50
 337.893
  51
 352.464
   0
ARC
   8
LEVEL001
   6
CONTINUOUS
  62
7
  10
 104.013
  20
 317.279
  30
0.0
  40
 1.13965
  50
 173.696
  51
 240.986
   0
ARC
   8
LEVEL001
   6
CONTINUOUS
  62
7
  10
 102.939
  20
 319.768
  30
0.0
  40
 6.28019
  50
 187.536
  51
 202.107
   0
ARC
   8
LEVEL001
   6
CONTINUOUS
  62
7
  10
 95.9872
  20
 317.279
  30
0.0
  40
 1.13965
  50
 299.014
  51
 6.30441
   0
LINE
   8
LEVEL001
   6
CONTINUOUS
  62
7
  10
 103.464
  20
 315.509
  30
0.0
  11
 100.000
  21
 314.736
  31
0.0
   0
LINE
   8
LEVEL001
   6
CONTINUOUS
  62
7
  10
 100.000
  20
 314.736
  30
0.0
  11
 96.5359
  21
 315.509
  31
0.0
   0
LINE
   8
LEVEL001
   6
CONTINUOUS
  62
7
  10
 96.5359
  20
 317.056
  30
0.0
  11
 97.1232
  21
 317.187
  31
0.0
   0
LINE
   8
LEVEL001
   6
CONTINUOUS
  62
7
  10
 102.877
  20
 317.187
  30
0.0
  11
 103.464
  21
 317.056
  31
0.0
   0
LINE
   8
LEVEL001
   6
CONTINUOUS
  62
7
  10
 96.5359
  20
 317.056
  30
0.0
  11
 96.5359
  21
 313.292
  31
0.0
   0
LINE
   8
LEVEL001
   6
CONTINUOUS
  62
7
  10
 103.464
  20
 313.292
  30
0.0
  11
 103.464
  21
 317.056
  31
0.0
   0
LINE
   8
LEVEL001
   6
CONTINUOUS
  62
7
  10
 96.5359
  20
 313.292
  30
0.0
  11
 100.000
  21
 312.519
  31
0.0
   0
LINE
   8
LEVEL001
   6
CONTINUOUS
  62
7
  10
 100.000
  20
 312.519
  30
0.0
  11
 103.464
  21
 313.292
  31
0.0
   0
ARC
   8
LEVEL001
   6
CONTINUOUS
  62
7
  10
 100.000
  20
 310.000
  30
0.0
  40
 5.00000
  50
 133.854
  51
 46.1462
   0
LINE
   8
LEVEL001
   6
CONTINUOUS
  62
7
  10
 105.774
  20
 310.000
  30
0.0
  11
 103.464
  21
 314.000
  31
0.0
   0
LINE
   8
LEVEL001
   6
CONTINUOUS
  62
7
  10
 96.5359
  20
 314.000
  30
0.0
  11
 94.2265
  21
 310.000
  31
0.0
   0
CIRCLE
   8
LEVEL001
   6
CONTINUOUS
  62
7
  10
 300.000
  20
 367.000
  30
0.0
  40
 3.25000
   0
CIRCLE
   8
LEVEL001
   6
CONTINUOUS
  62
7
  10
 300.000
  20
 367.000
  30
0.0
  40
 2.75000
   0
LINE
   8
LEVEL001
   6
CONTINUOUS
  62
7
  10
 300.000
  20
 368.443
  30
0.0
  11
 298.750
  21
 367.722
  31
0.0
   0
LINE
   8
LEVEL001
   6
CONTINUOUS
  62
7
  10
 298.750
  20
 367.722
  30
0.0
  11
 298.750
  21
 366.278
  31
0.0
   0
LINE
   8
LEVEL001
   6
CONTINUOUS
  62
7
  10
 298.750
  20
 366.278
  30
0.0
  11
 300.000
  21
 365.557
  31
0.0
   0
LINE
   8
LEVEL001
   6
CONTINUOUS
  62
7
  10
 300.000
  20
 365.557
  30
0.0
  11
 301.250
  21
 366.278
  31
0.0
   0
LINE
   8
LEVEL001
   6
CONTINUOUS
  62
7
  10
 301.250
  20
 366.278
  30
0.0
  11
 301.250
  21
 367.722
  31
0.0
   0
LINE
   8
LEVEL001
   6
CONTINUOUS
  62
7
  10
 301.250
  20
 367.722
  30
0.0
  11
 300.000
  21
 368.443
  31
0.0
   0
CIRCLE
   8
LEVEL001
   6
CONTINUOUS
  62
7
  10
 300.000
  20
 359.000
  30
0.0
  40
 3.25000
   0
CIRCLE
   8
LEVEL001
   6
CONTINUOUS
  62
7
  10
 300.000
  20
 359.000
  30
0.0
  40
 2.75000
   0
LINE
   8
LEVEL001
   6
CONTINUOUS
  62
7
  10
 300.000
  20
 360.443
  30
0.0
  11
 298.750
  21
 359.722
  31
0.0
   0
LINE
   8
LEVEL001
   6
CONTINUOUS
  62
7
  10
 298.750
  20
 359.722
  30
0.0
  11
 298.750
  21
 358.278
  31
0.0
   0
LINE
   8
LEVEL001
   6
CONTINUOUS
  62
7
  10
 298.750
  20
 358.278
  30
0.0
  11
 300.000
  21
 357.557
  31
0.0
   0
LINE
   8
LEVEL001
   6
CONTINUOUS
  62
7
  10
 300.000
  20
 357.557
  30
0.0
  11
 301.250
  21
 358.278
  31
0.0
   0
LINE
   8
LEVEL001
   6
CONTINUOUS
  62
7
  10
 301.250
  20
 358.278
  30
0.0
  11
 301.250
  21
 359.722
  31
0.0
   0
LINE
   8
LEVEL001
   6
CONTINUOUS
  62
7
  10
 301.250
  20
 359.722
  30
0.0
  11
 300.000
  21
 360.443
  31
0.0
   0
LINE
   8
LEVEL001
   6
DASHDOT
  62
1
  10
 190.000
  20
 310.000
  30
0.0
  11
 10.0000
  21
 310.000
  31
0.0
   0
LINE
   8
LEVEL001
   6
DASHDOT
  62
1
  10
 100.000
  20
 416.000
  30
0.0
  11
 100.000
  21
0.0
  31
0.0
   0
LINE
   8
LEVEL001
   6
DASHDOT
  62
1
  10
 157.500
  20
 290.734
  30
0.0
  11
 157.500
  21
 258.400
  31
0.0
   0
LINE
   8
LEVEL001
   6
DASHDOT
  62
1
  10
 42.5000
  20
 290.734
  30
0.0
  11
 42.5000
  21
 258.400
  31
0.0
   0
LINE
   8
LEVEL001
   6
DASHDOT
  62
1
  10
 340.000
  20
 310.000
  30
0.0
  11
 233.206
  21
 310.000
  31
0.0
   0
LINE
   8
LEVEL001
   6
DASHDOT
  62
1
  10
 300.000
  20
 416.000
  30
0.0
  11
 300.000
  21
0.0
  31
0.0
   0
LINE
   8
LEVEL001
   6
DASHDOT
  62
1
  10
 268.000
  20
 340.500
  30
0.0
  11
 268.000
  21
 277.883
  31
0.0
   0
CIRCLE
   8
LEVEL001
   6
CONTINUOUS
  62
7
  10
 86.6061
  20
 492.664
  30
0.0
  40
 3.81699
   0
CIRCLE
   8
LEVEL001
   6
CONTINUOUS
  62
7
  10
 86.6061
  20
 492.664
  30
0.0
  40
 4.25000
   0
CIRCLE
   8
LEVEL001
   6
CONTINUOUS
  62
7
  10
 67.6642
  20
 511.606
  30
0.0
  40
 3.81699
   0
CIRCLE
   8
LEVEL001
   6
CONTINUOUS
  62
7
  10
 67.6642
  20
 511.606
  30
0.0
  40
 4.25000
   0
CIRCLE
   8
LEVEL001
   6
CONTINUOUS
  62
7
  10
 67.6642
  20
 538.394
  30
0.0
  40
 3.81699
   0
CIRCLE
   8
LEVEL001
   6
CONTINUOUS
  62
7
  10
 67.6642
  20
 538.394
  30
0.0
  40
 4.25000
   0
CIRCLE
   8
LEVEL001
   6
CONTINUOUS
  62
7
  10
 86.6061
  20
 557.336
  30
0.0
  40
 3.81699
   0
CIRCLE
   8
LEVEL001
   6
CONTINUOUS
  62
7
  10
 86.6061
  20
 557.336
  30
0.0
  40
 4.25000
   0
CIRCLE
   8
LEVEL001
   6
CONTINUOUS
  62
7
  10
 113.394
  20
 557.336
  30
0.0
  40
 3.81699
   0
CIRCLE
   8
LEVEL001
   6
CONTINUOUS
  62
7
  10
 113.394
  20
 557.336
  30
0.0
  40
 4.25000
   0
CIRCLE
   8
LEVEL001
   6
CONTINUOUS
  62
7
  10
 132.336
  20
 538.394
  30
0.0
  40
 3.81699
   0
CIRCLE
   8
LEVEL001
   6
CONTINUOUS
  62
7
  10
 132.336
  20
 538.394
  30
0.0
  40
 4.25000
   0
LINE
   8
LEVEL001
   6
CONTINUOUS
  62
7
  10
 72.7513
  20
 500.251
  30
0.0
  11
 77.7513
  21
 500.251
  31
0.0
   0
LINE
   8
LEVEL001
   6
CONTINUOUS
  62
7
  10
 75.2513
  20
 497.751
  30
0.0
  11
 75.2513
  21
 502.751
  31
0.0
   0
CIRCLE
   8
LEVEL001
   6
CONTINUOUS
  62
7
  10
 75.2513
  20
 500.251
  30
0.0
  40
 2.50000
   0
LINE
   8
LEVEL001
   6
CONTINUOUS
  62
7
  10
 122.249
  20
 549.749
  30
0.0
  11
 127.249
  21
 549.749
  31
0.0
   0
LINE
   8
LEVEL001
   6
CONTINUOUS
  62
7
  10
 124.749
  20
 547.249
  30
0.0
  11
 124.749
  21
 552.249
  31
0.0
   0
CIRCLE
   8
LEVEL001
   6
CONTINUOUS
  62
7
  10
 124.749
  20
 549.749
  30
0.0
  40
 2.50000
   0
CIRCLE
   8
LEVEL001
   6
CONTINUOUS
  62
7
  10
 75.2513
  20
 549.749
  30
0.0
  40
 2.50000
   0
CIRCLE
   8
LEVEL001
   6
CONTINUOUS
  62
7
  10
 75.2513
  20
 549.749
  30
0.0
  40
 2.10000
   0
ARC
   8
LEVEL001
   6
CONTINUOUS
  62
7
  10
 42.5000
  20
 525.000
  30
0.0
  40
 11.0000
  50
 195.827
  51
 304.624
   0
ARC
   8
LEVEL001
   6
CONTINUOUS
  62
7
  10
 42.5000
  20
 525.000
  30
0.0
  40
 11.0000
  50
 344.173
  51
 164.173
   0
ARC
   8
LEVEL001
   6
CONTINUOUS
  62
7
  10
 56.5199
  20
 526.315
  30
0.0
  40
 6.00000
  50
 284.282
  51
 296.540
   0
LINE
   8
LEVEL001
   6
CONTINUOUS
  62
7
  10
 48.7500
  20
 484.500
  30
0.0
  11
 46.1623
  21
 484.500
  31
0.0
   0
LINE
   8
LEVEL001
   6
CONTINUOUS
  62
7
  10
 48.7500
  20
 501.500
  30
0.0
  11
 46.1623
  21
 501.500
  31
0.0
   0
LINE
   8
LEVEL001
   6
CONTINUOUS
  62
7
  10
 58.0000
  20
 465.500
  30
0.0
  11
 58.0000
  21
 520.500
  31
0.0
   0
LINE
   8
LEVEL001
   6
CONTINUOUS
  62
7
  10
 57.7500
  20
 522.000
  30
0.0
  11
 57.7500
  21
 464.000
  31
0.0
   0
LINE
   8
LEVEL001
   6
CONTINUOUS
  62
7
  10
 48.7500
  20
 521.500
  30
0.0
  11
 48.7500
  21
 464.500
  31
0.0
   0
LINE
   8
LEVEL001
   6
CONTINUOUS
  62
7
  10
 100.000
  20
 464.500
  30
0.0
  11
 58.0000
  21
 465.500
  31
0.0
   0
LINE
   8
LEVEL001
   6
CONTINUOUS
  62
7
  10
 37.0000
  20
 495.500
  30
0.0
  11
 37.0000
  21
 490.500
  31
0.0
   0
LINE
   8
LEVEL001
   6
CONTINUOUS
  62
7
  10
 46.0000
  20
 501.449
  30
0.0
  11
 46.0000
  21
 484.551
  31
0.0
   0
LINE
   8
LEVEL001
   6
CONTINUOUS
  62
7
  10
 43.0000
  20
 485.500
  30
0.0
  11
 43.0000
  21
 490.500
  31
0.0
   0
LINE
   8
LEVEL001
   6
CONTINUOUS
  62
7
  10
 43.0000
  20
 500.500
  30
0.0
  11
 43.0000
  21
 495.500
  31
0.0
   0
LINE
   8
LEVEL001
   6
CONTINUOUS
  62
7
  10
 45.2820
  20
 495.500
  30
0.0
  11
 45.2820
  21
 490.500
  31
0.0
   0
LINE
   8
LEVEL001
   6
CONTINUOUS
  62
7
  10
 45.2820
  20
 490.500
  30
0.0
  11
 15.0000
  21
 490.500
  31
0.0
   0
LINE
   8
LEVEL001
   6
CONTINUOUS
  62
7
  10
 45.2820
  20
 495.500
  30
0.0
  11
 15.0000
  21
 495.500
  31
0.0
   0
LINE
   8
LEVEL001
   6
CONTINUOUS
  62
7
  10
 42.8377
  20
 485.500
  30
0.0
  11
 16.0000
  21
 485.500
  31
0.0
   0
ARC
   8
LEVEL001
   6
CONTINUOUS
  62
7
  10
 42.8377
  20
 484.500
  30
0.0
  40
 1.00000
  50
 71.5651
  51
 90.0000
   0
LINE
   8
LEVEL001
   6
CONTINUOUS
  62
7
  10
 45.8460
  20
 484.551
  30
0.0
  11
 43.1540
  21
 485.449
  31
0.0
   0
ARC
   8
LEVEL001
   6
CONTINUOUS
  62
7
  10
 46.1623
  20
 485.500
  30
0.0
  40
 1.00000
  50
 251.565
  51
 270.000
   0
LINE
   8
LEVEL001
   6
CONTINUOUS
  62
7
  10
 42.8377
  20
 500.500
  30
0.0
  11
 16.0000
  21
 500.500
  31
0.0
   0
ARC
   8
LEVEL001
   6
CONTINUOUS
  62
7
  10
 42.8377
  20
 501.500
  30
0.0
  40
 1.00000
  50
 270.000
  51
 288.435
   0
LINE
   8
LEVEL001
   6
CONTINUOUS
  62
7
  10
 45.8460
  20
 501.449
  30
0.0
  11
 43.1540
  21
 500.551
  31
0.0
   0
ARC
   8
LEVEL001
   6
CONTINUOUS
  62
7
  10
 46.1623
  20
 500.500
  30
0.0
  40
 1.00000
  50
 90.0000
  51
 108.435
   0
ARC
   8
LEVEL001
   6
CONTINUOUS
  62
7
  10
 49.2500
  20
 464.500
  30
0.0
  40
 0.500000
  50
 180.000
  51
 270.000
   0
LINE
   8
LEVEL001
   6
CONTINUOUS
  62
7
  10
 57.7500
  20
 464.000
  30
0.0
  11
 49.2500
  21
 464.000
  31
0.0
   0
ARC
   8
LEVEL001
   6
CONTINUOUS
  62
7
  10
 49.2500
  20
 521.500
  30
0.0
  40
 0.500000
  50
 90.0000
  51
 180.000
   0
LINE
   8
LEVEL001
   6
CONTINUOUS
  62
7
  10
 57.7500
  20
 522.000
  30
0.0
  11
 49.2500
  21
 522.000
  31
0.0
   0
LINE
   8
LEVEL001
   6
CONTINUOUS
  62
7
  10
 163.000
  20
 495.500
  30
0.0
  11
 163.000
  21
 490.500
  31
0.0
   0
LINE
   8
LEVEL001
   6
CONTINUOUS
  62
7
  10
 154.000
  20
 501.449
  30
0.0
  11
 154.000
  21
 484.551
  31
0.0
   0
LINE
   8
LEVEL001
   6
CONTINUOUS
  62
7
  10
 157.000
  20
 485.500
  30
0.0
  11
 157.000
  21
 490.500
  31
0.0
   0
LINE
   8
LEVEL001
   6
CONTINUOUS
  62
7
  10
 157.000
  20
 500.500
  30
0.0
  11
 157.000
  21
 495.500
  31
0.0
   0
LINE
   8
LEVEL001
   6
CONTINUOUS
  62
7
  10
 154.718
  20
 495.500
  30
0.0
  11
 154.718
  21
 490.500
  31
0.0
   0
LINE
   8
LEVEL001
   6
CONTINUOUS
  62
7
  10
 154.718
  20
 490.500
  30
0.0
  11
 185.000
  21
 490.500
  31
0.0
   0
LINE
   8
LEVEL001
   6
CONTINUOUS
  62
7
  10
 154.718
  20
 495.500
  30
0.0
  11
 185.000
  21
 495.500
  31
0.0
   0
LINE
   8
LEVEL001
   6
CONTINUOUS
  62
7
  10
 185.000
  20
 499.500
  30
0.0
  11
 185.000
  21
 486.500
  31
0.0
   0
ARC
   8
LEVEL001
   6
CONTINUOUS
  62
7
  10
 150.750
  20
 464.500
  30
0.0
  40
 0.500000
  50
 270.000
  51
0.0
   0
LINE
   8
LEVEL001
   6
CONTINUOUS
  62
7
  10
 142.250
  20
 464.000
  30
0.0
  11
 150.750
  21
 464.000
  31
0.0
   0
LINE
   8
LEVEL001
   6
CONTINUOUS
  62
7
  10
 157.162
  20
 485.500
  30
0.0
  11
 184.000
  21
 485.500
  31
0.0
   0
ARC
   8
LEVEL001
   6
CONTINUOUS
  62
7
  10
 157.162
  20
 484.500
  30
0.0
  40
 1.00000
  50
 90.0000
  51
 108.435
   0
LINE
   8
LEVEL001
   6
CONTINUOUS
  62
7
  10
 154.154
  20
 484.551
  30
0.0
  11
 156.846
  21
 485.449
  31
0.0
   0
ARC
   8
LEVEL001
   6
CONTINUOUS
  62
7
  10
 153.838
  20
 485.500
  30
0.0
  40
 1.00000
  50
 270.000
  51
 288.435
   0
LINE
   8
LEVEL001
   6
CONTINUOUS
  62
7
  10
 184.000
  20
 485.500
  30
0.0
  11
 185.000
  21
 486.500
  31
0.0
   0
ARC
   8
LEVEL001
   6
CONTINUOUS
  62
7
  10
 157.500
  20
 525.000
  30
0.0
  40
 11.0000
  50
 235.376
  51
 344.173
   0
ARC
   8
LEVEL001
   6
CONTINUOUS
  62
7
  10
 157.500
  20
 525.000
  30
0.0
  40
 11.0000
  50
 15.8269
  51
 195.827
   0
ARC
   8
LEVEL001
   6
CONTINUOUS
  62
7
  10
 150.750
  20
 521.500
  30
0.0
  40
 0.500000
  50
0.0
  51
 90.0000
   0
LINE
   8
LEVEL001
   6
CONTINUOUS
  62
7
  10
 142.250
  20
 522.000
  30
0.0
  11
 150.750
  21
 522.000
  31
0.0
   0
LINE
   8
LEVEL001
   6
CONTINUOUS
  62
7
  10
 157.162
  20
 500.500
  30
0.0
  11
 184.000
  21
 500.500
  31
0.0
   0
ARC
   8
LEVEL001
   6
CONTINUOUS
  62
7
  10
 157.162
  20
 501.500
  30
0.0
  40
 1.00000
  50
 251.565
  51
 270.000
   0
LINE
   8
LEVEL001
   6
CONTINUOUS
  62
7
  10
 154.154
  20
 501.449
  30
0.0
  11
 156.846
  21
 500.551
  31
0.0
   0
ARC
   8
LEVEL001
   6
CONTINUOUS
  62
7
  10
 153.838
  20
 500.500
  30
0.0
  40
 1.00000
  50
 71.5651
  51
 90.0000
   0
LINE
   8
LEVEL001
   6
CONTINUOUS
  62
7
  10
 184.000
  20
 500.500
  30
0.0
  11
 185.000
  21
 499.500
  31
0.0
   0
TEXT
   8
LEVEL001
  62
7
  10
 104.417
  20
 548.728
  30
0.0
  40
 6.30000
   1
１
  50
 345.000
  41
 0.496032
   7
STANDARD
   0
TEXT
   8
LEVEL001
  62
7
  10
 100.229
  20
 549.134
  30
0.0
  40
 6.30000
   1
０
  50
 355.000
  41
 0.496032
   7
STANDARD
   0
TEXT
   8
LEVEL001
  62
7
  10
 96.0351
  20
 548.808
  30
0.0
  40
 6.30000
   1
Ｊ
  50
 5.00000
  41
 0.496032
   7
STANDARD
   0
TEXT
   8
LEVEL001
  62
7
  10
 91.9609
  20
 547.758
  30
0.0
  40
 6.30000
   1
Ｗ
  50
 15.0000
  41
 0.496032
   7
STANDARD
   0
LINE
   8
LEVEL001
   6
CONTINUOUS
  62
7
  10
 93.2750
  20
 494.750
  30
0.0
  11
 92.4090
  21
 493.250
  31
0.0
   0
CIRCLE
   8
LEVEL001
   6
CONTINUOUS
  62
7
  10
 97.7500
  20
 498.000
  30
0.0
  40
 2.25000
   0
LINE
   8
LEVEL001
   6
CONTINUOUS
  62
7
  10
 160.800
  20
 544.237
  30
0.0
  11
 127.597
  21
 555.322
  31
0.0
   0
LINE
   8
LEVEL001
   6
CONTINUOUS
  62
7
  10
 39.2002
  20
 544.237
  30
0.0
  11
 72.4029
  21
 555.322
  31
0.0
   0
LINE
   8
LEVEL001
   6
CONTINUOUS
  62
7
  10
 31.9170
  20
 522.000
  30
0.0
  11
 31.0000
  21
 522.000
  31
0.0
   0
LINE
   8
LEVEL001
   6
CONTINUOUS
  62
7
  10
 31.9170
  20
 528.000
  30
0.0
  11
 31.0000
  21
 528.000
  31
0.0
   0
ARC
   8
LEVEL001
   6
CONTINUOUS
  62
7
  10
 43.0000
  20
 517.145
  30
0.0
  40
 12.0000
  50
 180.000
  51
 251.539
   0
LINE
   8
LEVEL001
   6
CONTINUOUS
  62
7
  10
 31.0000
  20
 532.855
  30
0.0
  11
 31.0000
  21
 517.145
  31
0.0
   0
ARC
   8
LEVEL001
   6
CONTINUOUS
  62
7
  10
 43.0000
  20
 532.855
  30
0.0
  40
 12.0000
  50
 108.461
  51
 180.000
   0
CIRCLE
   8
LEVEL001
   6
CONTINUOUS
  62
7
  10
 42.5000
  20
 525.000
  30
0.0
  40
 5.50000
   0
LINE
   8
LEVEL001
   6
CONTINUOUS
  62
7
  10
 168.083
  20
 522.000
  30
0.0
  11
 169.000
  21
 522.000
  31
0.0
   0
LINE
   8
LEVEL001
   6
CONTINUOUS
  62
7
  10
 168.083
  20
 528.000
  30
0.0
  11
 169.000
  21
 528.000
  31
0.0
   0
ARC
   8
LEVEL001
   6
CONTINUOUS
  62
7
  10
 157.000
  20
 517.145
  30
0.0
  40
 12.0000
  50
 288.461
  51
0.0
   0
LINE
   8
LEVEL001
   6
CONTINUOUS
  62
7
  10
 169.000
  20
 532.855
  30
0.0
  11
 169.000
  21
 517.145
  31
0.0
   0
ARC
   8
LEVEL001
   6
CONTINUOUS
  62
7
  10
 157.000
  20
 532.855
  30
0.0
  40
 12.0000
  50
 0.217126E-11
  51
 71.5394
   0
CIRCLE
   8
LEVEL001
   6
CONTINUOUS
  62
7
  10
 157.500
  20
 525.000
  30
0.0
  40
 5.50000
   0
LINE
   8
LEVEL001
   6
CONTINUOUS
  62
7
  10
 85.7223
  20
 490.531
  30
0.0
  11
 84.3164
  21
 492.363
  31
0.0
   0
LINE
   8
LEVEL001
   6
CONTINUOUS
  62
7
  10
 84.3164
  20
 492.363
  30
0.0
  11
 85.2002
  21
 494.496
  31
0.0
   0
LINE
   8
LEVEL001
   6
CONTINUOUS
  62
7
  10
 85.2002
  20
 494.496
  30
0.0
  11
 87.4898
  21
 494.798
  31
0.0
   0
LINE
   8
LEVEL001
   6
CONTINUOUS
  62
7
  10
 87.4898
  20
 494.798
  30
0.0
  11
 88.8960
  21
 492.966
  31
0.0
   0
LINE
   8
LEVEL001
   6
CONTINUOUS
  62
7
  10
 88.8960
  20
 492.966
  30
0.0
  11
 88.0120
  21
 490.832
  31
0.0
   0
LINE
   8
LEVEL001
   6
CONTINUOUS
  62
7
  10
 88.0120
  20
 490.832
  30
0.0
  11
 85.7223
  21
 490.531
  31
0.0
   0
LINE
   8
LEVEL001
   6
CONTINUOUS
  62
7
  10
 65.5306
  20
 510.722
  30
0.0
  11
 65.8320
  21
 513.012
  31
0.0
   0
LINE
   8
LEVEL001
   6
CONTINUOUS
  62
7
  10
 65.8320
  20
 513.012
  30
0.0
  11
 67.9657
  21
 513.896
  31
0.0
   0
LINE
   8
LEVEL001
   6
CONTINUOUS
  62
7
  10
 67.9657
  20
 513.896
  30
0.0
  11
 69.7978
  21
 512.490
  31
0.0
   0
LINE
   8
LEVEL001
   6
CONTINUOUS
  62
7
  10
 69.7978
  20
 512.490
  30
0.0
  11
 69.4964
  21
 510.200
  31
0.0
   0
LINE
   8
LEVEL001
   6
CONTINUOUS
  62
7
  10
 69.4964
  20
 510.200
  30
0.0
  11
 67.3628
  21
 509.316
  31
0.0
   0
LINE
   8
LEVEL001
   6
CONTINUOUS
  62
7
  10
 67.3628
  20
 509.316
  30
0.0
  11
 65.5306
  21
 510.722
  31
0.0
   0
LINE
   8
LEVEL001
   6
CONTINUOUS
  62
7
  10
 65.5306
  20
 539.278
  30
0.0
  11
 67.3628
  21
 540.684
  31
0.0
   0
LINE
   8
LEVEL001
   6
CONTINUOUS
  62
7
  10
 67.3628
  20
 540.684
  30
0.0
  11
 69.4964
  21
 539.800
  31
0.0
   0
LINE
   8
LEVEL001
   6
CONTINUOUS
  62
7
  10
 69.4964
  20
 539.800
  30
0.0
  11
 69.7978
  21
 537.510
  31
0.0
   0
LINE
   8
LEVEL001
   6
CONTINUOUS
  62
7
  10
 69.7978
  20
 537.510
  30
0.0
  11
 67.9657
  21
 536.104
  31
0.0
   0
LINE
   8
LEVEL001
   6
CONTINUOUS
  62
7
  10
 67.9657
  20
 536.104
  30
0.0
  11
 65.8320
  21
 536.988
  31
0.0
   0
LINE
   8
LEVEL001
   6
CONTINUOUS
  62
7
  10
 65.8320
  20
 536.988
  30
0.0
  11
 65.5306
  21
 539.278
  31
0.0
   0
LINE
   8
LEVEL001
   6
CONTINUOUS
  62
7
  10
 85.7223
  20
 559.469
  30
0.0
  11
 88.0120
  21
 559.168
  31
0.0
   0
LINE
   8
LEVEL001
   6
CONTINUOUS
  62
7
  10
 88.0120
  20
 559.168
  30
0.0
  11
 88.8960
  21
 557.034
  31
0.0
   0
LINE
   8
LEVEL001
   6
CONTINUOUS
  62
7
  10
 88.8960
  20
 557.034
  30
0.0
  11
 87.4898
  21
 555.202
  31
0.0
   0
LINE
   8
LEVEL001
   6
CONTINUOUS
  62
7
  10
 87.4898
  20
 555.202
  30
0.0
  11
 85.2002
  21
 555.504
  31
0.0
   0
LINE
   8
LEVEL001
   6
CONTINUOUS
  62
7
  10
 85.2002
  20
 555.504
  30
0.0
  11
 84.3164
  21
 557.637
  31
0.0
   0
LINE
   8
LEVEL001
   6
CONTINUOUS
  62
7
  10
 84.3164
  20
 557.637
  30
0.0
  11
 85.7223
  21
 559.469
  31
0.0
   0
LINE
   8
LEVEL001
   6
CONTINUOUS
  62
7
  10
 114.278
  20
 559.469
  30
0.0
  11
 115.684
  21
 557.637
  31
0.0
   0
LINE
   8
LEVEL001
   6
CONTINUOUS
  62
7
  10
 115.684
  20
 557.637
  30
0.0
  11
 114.800
  21
 555.504
  31
0.0
   0
LINE
   8
LEVEL001
   6
CONTINUOUS
  62
7
  10
 114.800
  20
 555.504
  30
0.0
  11
 112.510
  21
 555.202
  31
0.0
   0
LINE
   8
LEVEL001
   6
CONTINUOUS
  62
7
  10
 112.510
  20
 555.202
  30
0.0
  11
 111.104
  21
 557.034
  31
0.0
   0
LINE
   8
LEVEL001
   6
CONTINUOUS
  62
7
  10
 111.104
  20
 557.034
  30
0.0
  11
 111.988
  21
 559.168
  31
0.0
   0
LINE
   8
LEVEL001
   6
CONTINUOUS
  62
7
  10
 111.988
  20
 559.168
  30
0.0
  11
 114.278
  21
 559.469
  31
0.0
   0
LINE
   8
LEVEL001
   6
CONTINUOUS
  62
7
  10
 134.469
  20
 539.278
  30
0.0
  11
 134.168
  21
 536.988
  31
0.0
   0
LINE
   8
LEVEL001
   6
CONTINUOUS
  62
7
  10
 134.168
  20
 536.988
  30
0.0
  11
 132.034
  21
 536.104
  31
0.0
   0
LINE
   8
LEVEL001
   6
CONTINUOUS
  62
7
  10
 132.034
  20
 536.104
  30
0.0
  11
 130.202
  21
 537.510
  31
0.0
   0
LINE
   8
LEVEL001
   6
CONTINUOUS
  62
7
  10
 130.202
  20
 537.510
  30
0.0
  11
 130.504
  21
 539.800
  31
0.0
   0
LINE
   8
LEVEL001
   6
CONTINUOUS
  62
7
  10
 130.504
  20
 539.800
  30
0.0
  11
 132.637
  21
 540.684
  31
0.0
   0
LINE
   8
LEVEL001
   6
CONTINUOUS
  62
7
  10
 132.637
  20
 540.684
  30
0.0
  11
 134.469
  21
 539.278
  31
0.0
   0
LINE
   8
LEVEL001
   6
CONTINUOUS
  62
7
  10
 102.750
  20
 500.250
  30
0.0
  11
 107.250
  21
 500.250
  31
0.0
   0
LINE
   8
LEVEL001
   6
CONTINUOUS
  62
7
  10
 99.5745
  20
 494.750
  30
0.0
  11
 102.750
  21
 500.250
  31
0.0
   0
LINE
   8
LEVEL001
   6
CONTINUOUS
  62
7
  10
 93.2750
  20
 494.750
  30
0.0
  11
 99.5745
  21
 494.750
  31
0.0
   0
LINE
   8
LEVEL001
   6
CONTINUOUS
  62
7
  10
 107.250
  20
 500.250
  30
0.0
  11
 103.209
  21
 493.250
  31
0.0
   0
LINE
   8
LEVEL001
   6
CONTINUOUS
  62
7
  10
 92.4090
  20
 493.250
  30
0.0
  11
 103.209
  21
 493.250
  31
0.0
   0
CIRCLE
   8
LEVEL001
   6
CONTINUOUS
  62
7
  10
 100.000
  20
 525.000
  30
0.0
  40
 9.00000
   0
CIRCLE
   8
LEVEL001
   6
CONTINUOUS
  62
7
  10
 100.000
  20
 525.000
  30
0.0
  40
 10.0000
   0
CIRCLE
   8
LEVEL001
   6
CONTINUOUS
  62
7
  10
 100.000
  20
 525.000
  30
0.0
  40
 20.0000
   0
CIRCLE
   8
LEVEL001
   6
CONTINUOUS
  62
7
  10
 100.000
  20
 525.000
  30
0.0
  40
 41.0000
   0
LINE
   8
LEVEL001
   6
CONTINUOUS
  62
7
  10
 100.000
  20
 464.500
  30
0.0
  11
 142.000
  21
 465.500
  31
0.0
   0
LINE
   8
LEVEL001
   6
CONTINUOUS
  62
7
  10
 151.250
  20
 464.500
  30
0.0
  11
 151.250
  21
 521.500
  31
0.0
   0
LINE
   8
LEVEL001
   6
CONTINUOUS
  62
7
  10
 151.250
  20
 501.500
  30
0.0
  11
 153.838
  21
 501.500
  31
0.0
   0
LINE
   8
LEVEL001
   6
CONTINUOUS
  62
7
  10
 151.250
  20
 484.500
  30
0.0
  11
 153.838
  21
 484.500
  31
0.0
   0
LINE
   8
LEVEL001
   6
CONTINUOUS
  62
7
  10
 142.000
  20
 520.500
  30
0.0
  11
 142.000
  21
 465.500
  31
0.0
   0
LINE
   8
LEVEL001
   6
CONTINUOUS
  62
7
  10
 142.250
  20
 464.000
  30
0.0
  11
 142.250
  21
 522.000
  31
0.0
   0
CIRCLE
   8
LEVEL001
   6
CONTINUOUS
  62
7
  10
 132.336
  20
 511.606
  30
0.0
  40
 3.81699
   0
CIRCLE
   8
LEVEL001
   6
CONTINUOUS
  62
7
  10
 132.336
  20
 511.606
  30
0.0
  40
 4.25000
   0
CIRCLE
   8
LEVEL001
   6
CONTINUOUS
  62
7
  10
 113.394
  20
 492.664
  30
0.0
  40
 3.81699
   0
CIRCLE
   8
LEVEL001
   6
CONTINUOUS
  62
7
  10
 113.394
  20
 492.664
  30
0.0
  40
 4.25000
   0
CIRCLE
   8
LEVEL001
   6
CONTINUOUS
  62
7
  10
 124.749
  20
 500.251
  30
0.0
  40
 2.50000
   0
CIRCLE
   8
LEVEL001
   6
CONTINUOUS
  62
7
  10
 124.749
  20
 500.251
  30
0.0
  40
 2.10000
   0
LINE
   8
LEVEL001
   6
CONTINUOUS
  62
7
  10
 134.469
  20
 510.722
  30
0.0
  11
 132.637
  21
 509.316
  31
0.0
   0
LINE
   8
LEVEL001
   6
CONTINUOUS
  62
7
  10
 132.637
  20
 509.316
  30
0.0
  11
 130.504
  21
 510.200
  31
0.0
   0
LINE
   8
LEVEL001
   6
CONTINUOUS
  62
7
  10
 130.504
  20
 510.200
  30
0.0
  11
 130.202
  21
 512.490
  31
0.0
   0
LINE
   8
LEVEL001
   6
CONTINUOUS
  62
7
  10
 130.202
  20
 512.490
  30
0.0
  11
 132.034
  21
 513.896
  31
0.0
   0
LINE
   8
LEVEL001
   6
CONTINUOUS
  62
7
  10
 132.034
  20
 513.896
  30
0.0
  11
 134.168
  21
 513.012
  31
0.0
   0
LINE
   8
LEVEL001
   6
CONTINUOUS
  62
7
  10
 134.168
  20
 513.012
  30
0.0
  11
 134.469
  21
 510.722
  31
0.0
   0
LINE
   8
LEVEL001
   6
CONTINUOUS
  62
7
  10
 114.278
  20
 490.531
  30
0.0
  11
 111.988
  21
 490.832
  31
0.0
   0
LINE
   8
LEVEL001
   6
CONTINUOUS
  62
7
  10
 111.988
  20
 490.832
  30
0.0
  11
 111.104
  21
 492.966
  31
0.0
   0
LINE
   8
LEVEL001
   6
CONTINUOUS
  62
7
  10
 111.104
  20
 492.966
  30
0.0
  11
 112.510
  21
 494.798
  31
0.0
   0
LINE
   8
LEVEL001
   6
CONTINUOUS
  62
7
  10
 112.510
  20
 494.798
  30
0.0
  11
 114.800
  21
 494.496
  31
0.0
   0
LINE
   8
LEVEL001
   6
CONTINUOUS
  62
7
  10
 114.800
  20
 494.496
  30
0.0
  11
 115.684
  21
 492.363
  31
0.0
   0
LINE
   8
LEVEL001
   6
CONTINUOUS
  62
7
  10
 115.684
  20
 492.363
  30
0.0
  11
 114.278
  21
 490.531
  31
0.0
   0
ARC
   8
LEVEL001
   6
CONTINUOUS
  62
7
  10
 143.480
  20
 526.315
  30
0.0
  40
 6.00000
  50
 243.461
  51
 255.718
   0
LINE
   8
LEVEL001
   6
CONTINUOUS
  62
7
  10
 115.500
  20
 529.000
  30
0.0
  11
 115.500
  21
 521.000
  31
0.0
   0
LINE
   8
LEVEL001
   6
CONTINUOUS
  62
7
  10
 109.164
  20
 529.000
  30
0.0
  11
 115.500
  21
 529.000
  31
0.0
   0
LINE
   8
LEVEL001
   6
CONTINUOUS
  62
7
  10
 109.165
  20
 521.000
  30
0.0
  11
 115.500
  21
 521.000
  31
0.0
   0
ARC
   8
LEVEL001
   6
CONTINUOUS
  62
7
  10
 100.000
  20
 525.000
  30
0.0
  40
 12.5000
  50
 18.6629
  51
 341.337
   0
LINE
   8
LEVEL001
   6
CONTINUOUS
  62
7
  10
 39.2002
  20
 505.763
  30
0.0
  11
 48.7550
  21
 502.572
  31
0.0
   0
LINE
   8
LEVEL001
   6
CONTINUOUS
  62
7
  10
 184.000
  20
 485.500
  30
0.0
  11
 184.000
  21
 490.500
  31
0.0
   0
LINE
   8
LEVEL001
   6
CONTINUOUS
  62
7
  10
 184.000
  20
 495.500
  30
0.0
  11
 184.000
  21
 500.500
  31
0.0
   0
LINE
   8
LEVEL001
   6
CONTINUOUS
  62
7
  10
 160.800
  20
 505.763
  30
0.0
  11
 150.927
  21
 502.466
  31
0.0
   0
LINE
   8
LEVEL001
   6
CONTINUOUS
  62
7
  10
 121.500
  20
 527.490
  30
0.0
  11
 121.350
  21
 527.750
  31
0.0
   0
LINE
   8
LEVEL001
   6
CONTINUOUS
  62
7
  10
 121.500
  20
 522.510
  30
0.0
  11
 121.500
  21
 527.490
  31
0.0
   0
LINE
   8
LEVEL001
   6
CONTINUOUS
  62
7
  10
 121.350
  20
 522.250
  30
0.0
  11
 121.500
  21
 522.510
  31
0.0
   0
LINE
   8
LEVEL001
   6
CONTINUOUS
  62
7
  10
 121.350
  20
 527.750
  30
0.0
  11
 121.350
  21
 522.250
  31
0.0
   0
LINE
   8
LEVEL001
   6
CONTINUOUS
  62
7
  10
 120.287
  20
 527.750
  30
0.0
  11
 120.280
  21
 527.848
  31
0.0
   0
LINE
   8
LEVEL001
   6
CONTINUOUS
  62
7
  10
 120.280
  20
 527.848
  30
0.0
  11
 120.272
  21
 527.936
  31
0.0
   0
LINE
   8
LEVEL001
   6
CONTINUOUS
  62
7
  10
 120.272
  20
 527.936
  30
0.0
  11
 120.265
  21
 528.013
  31
0.0
   0
LINE
   8
LEVEL001
   6
CONTINUOUS
  62
7
  10
 120.265
  20
 528.013
  30
0.0
  11
 120.257
  21
 528.080
  31
0.0
   0
LINE
   8
LEVEL001
   6
CONTINUOUS
  62
7
  10
 120.257
  20
 528.080
  30
0.0
  11
 120.249
  21
 528.136
  31
0.0
   0
LINE
   8
LEVEL001
   6
CONTINUOUS
  62
7
  10
 120.249
  20
 528.136
  30
0.0
  11
 120.241
  21
 528.181
  31
0.0
   0
LINE
   8
LEVEL001
   6
CONTINUOUS
  62
7
  10
 120.241
  20
 528.181
  30
0.0
  11
 120.233
  21
 528.215
  31
0.0
   0
LINE
   8
LEVEL001
   6
CONTINUOUS
  62
7
  10
 120.233
  20
 528.215
  30
0.0
  11
 120.225
  21
 528.237
  31
0.0
   0
LINE
   8
LEVEL001
   6
CONTINUOUS
  62
7
  10
 120.225
  20
 528.237
  30
0.0
  11
 120.217
  21
 528.249
  31
0.0
   0
LINE
   8
LEVEL001
   6
CONTINUOUS
  62
7
  10
 120.217
  20
 528.249
  30
0.0
  11
 120.209
  21
 528.248
  31
0.0
   0
LINE
   8
LEVEL001
   6
CONTINUOUS
  62
7
  10
 120.209
  20
 528.248
  30
0.0
  11
 120.201
  21
 528.237
  31
0.0
   0
LINE
   8
LEVEL001
   6
CONTINUOUS
  62
7
  10
 120.201
  20
 528.237
  30
0.0
  11
 120.193
  21
 528.214
  31
0.0
   0
LINE
   8
LEVEL001
   6
CONTINUOUS
  62
7
  10
 120.193
  20
 528.214
  30
0.0
  11
 120.185
  21
 528.180
  31
0.0
   0
LINE
   8
LEVEL001
   6
CONTINUOUS
  62
7
  10
 120.185
  20
 528.180
  30
0.0
  11
 120.177
  21
 528.135
  31
0.0
   0
LINE
   8
LEVEL001
   6
CONTINUOUS
  62
7
  10
 120.177
  20
 528.135
  30
0.0
  11
 120.169
  21
 528.078
  31
0.0
   0
LINE
   8
LEVEL001
   6
CONTINUOUS
  62
7
  10
 120.169
  20
 528.078
  30
0.0
  11
 120.161
  21
 528.011
  31
0.0
   0
LINE
   8
LEVEL001
   6
CONTINUOUS
  62
7
  10
 120.161
  20
 528.011
  30
0.0
  11
 120.154
  21
 527.933
  31
0.0
   0
LINE
   8
LEVEL001
   6
CONTINUOUS
  62
7
  10
 120.154
  20
 527.933
  30
0.0
  11
 120.146
  21
 527.845
  31
0.0
   0
LINE
   8
LEVEL001
   6
CONTINUOUS
  62
7
  10
 120.146
  20
 527.845
  30
0.0
  11
 120.139
  21
 527.747
  31
0.0
   0
LINE
   8
LEVEL001
   6
CONTINUOUS
  62
7
  10
 120.139
  20
 527.747
  30
0.0
  11
 120.133
  21
 527.640
  31
0.0
   0
LINE
   8
LEVEL001
   6
CONTINUOUS
  62
7
  10
 120.133
  20
 527.640
  30
0.0
  11
 120.126
  21
 527.523
  31
0.0
   0
LINE
   8
LEVEL001
   6
CONTINUOUS
  62
7
  10
 120.126
  20
 527.523
  30
0.0
  11
 120.120
  21
 527.397
  31
0.0
   0
LINE
   8
LEVEL001
   6
CONTINUOUS
  62
7
  10
 120.120
  20
 527.397
  30
0.0
  11
 120.114
  21
 527.263
  31
0.0
   0
LINE
   8
LEVEL001
   6
CONTINUOUS
  62
7
  10
 120.114
  20
 527.263
  30
0.0
  11
 120.108
  21
 527.121
  31
0.0
   0
LINE
   8
LEVEL001
   6
CONTINUOUS
  62
7
  10
 120.108
  20
 527.121
  30
0.0
  11
 120.103
  21
 526.971
  31
0.0
   0
LINE
   8
LEVEL001
   6
CONTINUOUS
  62
7
  10
 120.103
  20
 526.971
  30
0.0
  11
 120.099
  21
 526.815
  31
0.0
   0
LINE
   8
LEVEL001
   6
CONTINUOUS
  62
7
  10
 120.099
  20
 526.815
  30
0.0
  11
 120.094
  21
 526.652
  31
0.0
   0
LINE
   8
LEVEL001
   6
CONTINUOUS
  62
7
  10
 120.094
  20
 526.652
  30
0.0
  11
 120.090
  21
 526.483
  31
0.0
   0
LINE
   8
LEVEL001
   6
CONTINUOUS
  62
7
  10
 120.090
  20
 526.483
  30
0.0
  11
 120.087
  21
 526.310
  31
0.0
   0
LINE
   8
LEVEL001
   6
CONTINUOUS
  62
7
  10
 120.087
  20
 526.310
  30
0.0
  11
 120.084
  21
 526.131
  31
0.0
   0
LINE
   8
LEVEL001
   6
CONTINUOUS
  62
7
  10
 120.084
  20
 526.131
  30
0.0
  11
 120.081
  21
 525.949
  31
0.0
   0
LINE
   8
LEVEL001
   6
CONTINUOUS
  62
7
  10
 120.081
  20
 525.949
  30
0.0
  11
 120.079
  21
 525.763
  31
0.0
   0
LINE
   8
LEVEL001
   6
CONTINUOUS
  62
7
  10
 120.079
  20
 525.763
  30
0.0
  11
 120.077
  21
 525.575
  31
0.0
   0
LINE
   8
LEVEL001
   6
CONTINUOUS
  62
7
  10
 120.077
  20
 525.575
  30
0.0
  11
 120.076
  21
 525.384
  31
0.0
   0
LINE
   8
LEVEL001
   6
CONTINUOUS
  62
7
  10
 120.076
  20
 525.384
  30
0.0
  11
 120.075
  21
 525.193
  31
0.0
   0
LINE
   8
LEVEL001
   6
CONTINUOUS
  62
7
  10
 120.075
  20
 525.193
  30
0.0
  11
 120.075
  21
 525.000
  31
0.0
   0
LINE
   8
LEVEL001
   6
CONTINUOUS
  62
7
  10
 120.075
  20
 525.000
  30
0.0
  11
 120.075
  21
 524.808
  31
0.0
   0
LINE
   8
LEVEL001
   6
CONTINUOUS
  62
7
  10
 120.075
  20
 524.808
  30
0.0
  11
 120.076
  21
 524.616
  31
0.0
   0
LINE
   8
LEVEL001
   6
CONTINUOUS
  62
7
  10
 120.076
  20
 524.616
  30
0.0
  11
 120.077
  21
 524.426
  31
0.0
   0
LINE
   8
LEVEL001
   6
CONTINUOUS
  62
7
  10
 120.077
  20
 524.426
  30
0.0
  11
 120.079
  21
 524.237
  31
0.0
   0
LINE
   8
LEVEL001
   6
CONTINUOUS
  62
7
  10
 120.079
  20
 524.237
  30
0.0
  11
 120.081
  21
 524.051
  31
0.0
   0
LINE
   8
LEVEL001
   6
CONTINUOUS
  62
7
  10
 120.081
  20
 524.051
  30
0.0
  11
 120.084
  21
 523.869
  31
0.0
   0
LINE
   8
LEVEL001
   6
CONTINUOUS
  62
7
  10
 120.084
  20
 523.869
  30
0.0
  11
 120.087
  21
 523.691
  31
0.0
   0
LINE
   8
LEVEL001
   6
CONTINUOUS
  62
7
  10
 120.087
  20
 523.691
  30
0.0
  11
 120.090
  21
 523.517
  31
0.0
   0
LINE
   8
LEVEL001
   6
CONTINUOUS
  62
7
  10
 120.090
  20
 523.517
  30
0.0
  11
 120.094
  21
 523.348
  31
0.0
   0
LINE
   8
LEVEL001
   6
CONTINUOUS
  62
7
  10
 120.094
  20
 523.348
  30
0.0
  11
 120.099
  21
 523.185
  31
0.0
   0
LINE
   8
LEVEL001
   6
CONTINUOUS
  62
7
  10
 120.099
  20
 523.185
  30
0.0
  11
 120.103
  21
 523.029
  31
0.0
   0
LINE
   8
LEVEL001
   6
CONTINUOUS
  62
7
  10
 120.103
  20
 523.029
  30
0.0
  11
 120.108
  21
 522.879
  31
0.0
   0
LINE
   8
LEVEL001
   6
CONTINUOUS
  62
7
  10
 120.108
  20
 522.879
  30
0.0
  11
 120.114
  21
 522.737
  31
0.0
   0
LINE
   8
LEVEL001
   6
CONTINUOUS
  62
7
  10
 120.114
  20
 522.737
  30
0.0
  11
 120.120
  21
 522.603
  31
0.0
   0
LINE
   8
LEVEL001
   6
CONTINUOUS
  62
7
  10
 120.120
  20
 522.603
  30
0.0
  11
 120.126
  21
 522.477
  31
0.0
   0
LINE
   8
LEVEL001
   6
CONTINUOUS
  62
7
  10
 120.126
  20
 522.477
  30
0.0
  11
 120.133
  21
 522.360
  31
0.0
   0
LINE
   8
LEVEL001
   6
CONTINUOUS
  62
7
  10
 120.133
  20
 522.360
  30
0.0
  11
 120.139
  21
 522.253
  31
0.0
   0
LINE
   8
LEVEL001
   6
CONTINUOUS
  62
7
  10
 120.139
  20
 522.253
  30
0.0
  11
 120.146
  21
 522.155
  31
0.0
   0
LINE
   8
LEVEL001
   6
CONTINUOUS
  62
7
  10
 120.146
  20
 522.155
  30
0.0
  11
 120.154
  21
 522.067
  31
0.0
   0
LINE
   8
LEVEL001
   6
CONTINUOUS
  62
7
  10
 120.154
  20
 522.067
  30
0.0
  11
 120.161
  21
 521.989
  31
0.0
   0
LINE
   8
LEVEL001
   6
CONTINUOUS
  62
7
  10
 120.161
  20
 521.989
  30
0.0
  11
 120.169
  21
 521.922
  31
0.0
   0
LINE
   8
LEVEL001
   6
CONTINUOUS
  62
7
  10
 120.169
  20
 521.922
  30
0.0
  11
 120.177
  21
 521.866
  31
0.0
   0
LINE
   8
LEVEL001
   6
CONTINUOUS
  62
7
  10
 120.177
  20
 521.866
  30
0.0
  11
 120.185
  21
 521.820
  31
0.0
   0
LINE
   8
LEVEL001
   6
CONTINUOUS
  62
7
  10
 120.185
  20
 521.820
  30
0.0
  11
 120.193
  21
 521.786
  31
0.0
   0
LINE
   8
LEVEL001
   6
CONTINUOUS
  62
7
  10
 120.193
  20
 521.786
  30
0.0
  11
 120.201
  21
 521.763
  31
0.0
   0
LINE
   8
LEVEL001
   6
CONTINUOUS
  62
7
  10
 120.201
  20
 521.763
  30
0.0
  11
 120.209
  21
 521.752
  31
0.0
   0
LINE
   8
LEVEL001
   6
CONTINUOUS
  62
7
  10
 120.209
  20
 521.752
  30
0.0
  11
 120.217
  21
 521.751
  31
0.0
   0
LINE
   8
LEVEL001
   6
CONTINUOUS
  62
7
  10
 120.217
  20
 521.751
  30
0.0
  11
 120.225
  21
 521.763
  31
0.0
   0
LINE
   8
LEVEL001
   6
CONTINUOUS
  62
7
  10
 120.225
  20
 521.763
  30
0.0
  11
 120.233
  21
 521.785
  31
0.0
   0
LINE
   8
LEVEL001
   6
CONTINUOUS
  62
7
  10
 120.233
  20
 521.785
  30
0.0
  11
 120.241
  21
 521.819
  31
0.0
   0
LINE
   8
LEVEL001
   6
CONTINUOUS
  62
7
  10
 120.241
  20
 521.819
  30
0.0
  11
 120.249
  21
 521.864
  31
0.0
   0
LINE
   8
LEVEL001
   6
CONTINUOUS
  62
7
  10
 120.249
  20
 521.864
  30
0.0
  11
 120.257
  21
 521.920
  31
0.0
   0
LINE
   8
LEVEL001
   6
CONTINUOUS
  62
7
  10
 120.257
  20
 521.920
  30
0.0
  11
 120.265
  21
 521.987
  31
0.0
   0
LINE
   8
LEVEL001
   6
CONTINUOUS
  62
7
  10
 120.265
  20
 521.987
  30
0.0
  11
 120.272
  21
 522.064
  31
0.0
   0
LINE
   8
LEVEL001
   6
CONTINUOUS
  62
7
  10
 120.272
  20
 522.064
  30
0.0
  11
 120.280
  21
 522.152
  31
0.0
   0
LINE
   8
LEVEL001
   6
CONTINUOUS
  62
7
  10
 120.280
  20
 522.152
  30
0.0
  11
 120.287
  21
 522.250
  31
0.0
   0
LINE
   8
LEVEL001
   6
CONTINUOUS
  62
7
  10
 120.140
  20
 522.250
  30
0.0
  11
 121.350
  21
 522.250
  31
0.0
   0
LINE
   8
LEVEL001
   6
CONTINUOUS
  62
7
  10
 121.350
  20
 527.750
  30
0.0
  11
 120.140
  21
 527.750
  31
0.0
   0
LINE
   8
LEVEL001
   6
CONTINUOUS
  62
7
  10
 120.624
  20
 527.750
  30
0.0
  11
 120.622
  21
 527.777
  31
0.0
   0
LINE
   8
LEVEL001
   6
CONTINUOUS
  62
7
  10
 120.622
  20
 527.777
  30
0.0
  11
 120.620
  21
 527.803
  31
0.0
   0
LINE
   8
LEVEL001
   6
CONTINUOUS
  62
7
  10
 120.620
  20
 527.803
  30
0.0
  11
 120.618
  21
 527.828
  31
0.0
   0
LINE
   8
LEVEL001
   6
CONTINUOUS
  62
7
  10
 120.618
  20
 527.828
  30
0.0
  11
 120.616
  21
 527.853
  31
0.0
   0
LINE
   8
LEVEL001
   6
CONTINUOUS
  62
7
  10
 120.616
  20
 527.853
  30
0.0
  11
 120.614
  21
 527.877
  31
0.0
   0
LINE
   8
LEVEL001
   6
CONTINUOUS
  62
7
  10
 120.614
  20
 527.877
  30
0.0
  11
 120.612
  21
 527.900
  31
0.0
   0
LINE
   8
LEVEL001
   6
CONTINUOUS
  62
7
  10
 120.612
  20
 527.900
  30
0.0
  11
 120.610
  21
 527.923
  31
0.0
   0
LINE
   8
LEVEL001
   6
CONTINUOUS
  62
7
  10
 120.610
  20
 527.923
  30
0.0
  11
 120.608
  21
 527.944
  31
0.0
   0
LINE
   8
LEVEL001
   6
CONTINUOUS
  62
7
  10
 120.608
  20
 527.944
  30
0.0
  11
 120.606
  21
 527.965
  31
0.0
   0
LINE
   8
LEVEL001
   6
CONTINUOUS
  62
7
  10
 120.606
  20
 527.965
  30
0.0
  11
 120.604
  21
 527.986
  31
0.0
   0
LINE
   8
LEVEL001
   6
CONTINUOUS
  62
7
  10
 120.604
  20
 527.986
  30
0.0
  11
 120.602
  21
 528.006
  31
0.0
   0
LINE
   8
LEVEL001
   6
CONTINUOUS
  62
7
  10
 120.602
  20
 528.006
  30
0.0
  11
 120.601
  21
 528.024
  31
0.0
   0
LINE
   8
LEVEL001
   6
CONTINUOUS
  62
7
  10
 120.601
  20
 528.024
  30
0.0
  11
 120.598
  21
 528.043
  31
0.0
   0
LINE
   8
LEVEL001
   6
CONTINUOUS
  62
7
  10
 120.598
  20
 528.043
  30
0.0
  11
 120.596
  21
 528.060
  31
0.0
   0
LINE
   8
LEVEL001
   6
CONTINUOUS
  62
7
  10
 120.596
  20
 528.060
  30
0.0
  11
 120.594
  21
 528.077
  31
0.0
   0
LINE
   8
LEVEL001
   6
CONTINUOUS
  62
7
  10
 120.594
  20
 528.077
  30
0.0
  11
 120.592
  21
 528.093
  31
0.0
   0
LINE
   8
LEVEL001
   6
CONTINUOUS
  62
7
  10
 120.592
  20
 528.093
  30
0.0
  11
 120.590
  21
 528.108
  31
0.0
   0
LINE
   8
LEVEL001
   6
CONTINUOUS
  62
7
  10
 120.590
  20
 528.108
  30
0.0
  11
 120.588
  21
 528.122
  31
0.0
   0
LINE
   8
LEVEL001
   6
CONTINUOUS
  62
7
  10
 120.588
  20
 528.122
  30
0.0
  11
 120.586
  21
 528.136
  31
0.0
   0
LINE
   8
LEVEL001
   6
CONTINUOUS
  62
7
  10
 120.586
  20
 528.136
  30
0.0
  11
 120.584
  21
 528.149
  31
0.0
   0
LINE
   8
LEVEL001
   6
CONTINUOUS
  62
7
  10
 120.584
  20
 528.149
  30
0.0
  11
 120.582
  21
 528.161
  31
0.0
   0
LINE
   8
LEVEL001
   6
CONTINUOUS
  62
7
  10
 120.582
  20
 528.161
  30
0.0
  11
 120.580
  21
 528.173
  31
0.0
   0
LINE
   8
LEVEL001
   6
CONTINUOUS
  62
7
  10
 120.580
  20
 528.173
  30
0.0
  11
 120.578
  21
 528.183
  31
0.0
   0
LINE
   8
LEVEL001
   6
CONTINUOUS
  62
7
  10
 120.578
  20
 528.183
  30
0.0
  11
 120.576
  21
 528.193
  31
0.0
   0
LINE
   8
LEVEL001
   6
CONTINUOUS
  62
7
  10
 120.576
  20
 528.193
  30
0.0
  11
 120.574
  21
 528.202
  31
0.0
   0
LINE
   8
LEVEL001
   6
CONTINUOUS
  62
7
  10
 120.574
  20
 528.202
  30
0.0
  11
 120.571
  21
 528.210
  31
0.0
   0
LINE
   8
LEVEL001
   6
CONTINUOUS
  62
7
  10
 120.571
  20
 528.210
  30
0.0
  11
 120.569
  21
 528.218
  31
0.0
   0
LINE
   8
LEVEL001
   6
CONTINUOUS
  62
7
  10
 120.569
  20
 528.218
  30
0.0
  11
 120.567
  21
 528.225
  31
0.0
   0
LINE
   8
LEVEL001
   6
CONTINUOUS
  62
7
  10
 120.567
  20
 528.225
  30
0.0
  11
 120.565
  21
 528.231
  31
0.0
   0
LINE
   8
LEVEL001
   6
CONTINUOUS
  62
7
  10
 120.565
  20
 528.231
  30
0.0
  11
 120.563
  21
 528.236
  31
0.0
   0
LINE
   8
LEVEL001
   6
CONTINUOUS
  62
7
  10
 120.563
  20
 528.236
  30
0.0
  11
 120.561
  21
 528.240
  31
0.0
   0
LINE
   8
LEVEL001
   6
CONTINUOUS
  62
7
  10
 120.561
  20
 528.240
  30
0.0
  11
 120.559
  21
 528.244
  31
0.0
   0
LINE
   8
LEVEL001
   6
CONTINUOUS
  62
7
  10
 120.559
  20
 528.244
  30
0.0
  11
 120.556
  21
 528.246
  31
0.0
   0
LINE
   8
LEVEL001
   6
CONTINUOUS
  62
7
  10
 120.556
  20
 528.246
  30
0.0
  11
 120.554
  21
 528.248
  31
0.0
   0
LINE
   8
LEVEL001
   6
CONTINUOUS
  62
7
  10
 120.554
  20
 528.248
  30
0.0
  11
 120.552
  21
 528.250
  31
0.0
   0
LINE
   8
LEVEL001
   6
CONTINUOUS
  62
7
  10
 120.552
  20
 528.250
  30
0.0
  11
 120.550
  21
 528.250
  31
0.0
   0
LINE
   8
LEVEL001
   6
CONTINUOUS
  62
7
  10
 120.550
  20
 528.250
  30
0.0
  11
 120.548
  21
 528.250
  31
0.0
   0
LINE
   8
LEVEL001
   6
CONTINUOUS
  62
7
  10
 120.548
  20
 528.250
  30
0.0
  11
 120.546
  21
 528.248
  31
0.0
   0
LINE
   8
LEVEL001
   6
CONTINUOUS
  62
7
  10
 120.546
  20
 528.248
  30
0.0
  11
 120.544
  21
 528.246
  31
0.0
   0
LINE
   8
LEVEL001
   6
CONTINUOUS
  62
7
  10
 120.544
  20
 528.246
  30
0.0
  11
 120.541
  21
 528.244
  31
0.0
   0
LINE
   8
LEVEL001
   6
CONTINUOUS
  62
7
  10
 120.541
  20
 528.244
  30
0.0
  11
 120.539
  21
 528.240
  31
0.0
   0
LINE
   8
LEVEL001
   6
CONTINUOUS
  62
7
  10
 120.539
  20
 528.240
  30
0.0
  11
 120.537
  21
 528.236
  31
0.0
   0
LINE
   8
LEVEL001
   6
CONTINUOUS
  62
7
  10
 120.537
  20
 528.236
  30
0.0
  11
 120.535
  21
 528.231
  31
0.0
   0
LINE
   8
LEVEL001
   6
CONTINUOUS
  62
7
  10
 120.535
  20
 528.231
  30
0.0
  11
 120.533
  21
 528.225
  31
0.0
   0
LINE
   8
LEVEL001
   6
CONTINUOUS
  62
7
  10
 120.533
  20
 528.225
  30
0.0
  11
 120.531
  21
 528.218
  31
0.0
   0
LINE
   8
LEVEL001
   6
CONTINUOUS
  62
7
  10
 120.531
  20
 528.218
  30
0.0
  11
 120.529
  21
 528.211
  31
0.0
   0
LINE
   8
LEVEL001
   6
CONTINUOUS
  62
7
  10
 120.529
  20
 528.211
  30
0.0
  11
 120.526
  21
 528.202
  31
0.0
   0
LINE
   8
LEVEL001
   6
CONTINUOUS
  62
7
  10
 120.526
  20
 528.202
  30
0.0
  11
 120.524
  21
 528.193
  31
0.0
   0
LINE
   8
LEVEL001
   6
CONTINUOUS
  62
7
  10
 120.524
  20
 528.193
  30
0.0
  11
 120.522
  21
 528.183
  31
0.0
   0
LINE
   8
LEVEL001
   6
CONTINUOUS
  62
7
  10
 120.522
  20
 528.183
  30
0.0
  11
 120.520
  21
 528.173
  31
0.0
   0
LINE
   8
LEVEL001
   6
CONTINUOUS
  62
7
  10
 120.520
  20
 528.173
  30
0.0
  11
 120.518
  21
 528.161
  31
0.0
   0
LINE
   8
LEVEL001
   6
CONTINUOUS
  62
7
  10
 120.518
  20
 528.161
  30
0.0
  11
 120.516
  21
 528.149
  31
0.0
   0
LINE
   8
LEVEL001
   6
CONTINUOUS
  62
7
  10
 120.516
  20
 528.149
  30
0.0
  11
 120.514
  21
 528.136
  31
0.0
   0
LINE
   8
LEVEL001
   6
CONTINUOUS
  62
7
  10
 120.514
  20
 528.136
  30
0.0
  11
 120.512
  21
 528.123
  31
0.0
   0
LINE
   8
LEVEL001
   6
CONTINUOUS
  62
7
  10
 120.512
  20
 528.123
  30
0.0
  11
 120.510
  21
 528.108
  31
0.0
   0
LINE
   8
LEVEL001
   6
CONTINUOUS
  62
7
  10
 120.510
  20
 528.108
  30
0.0
  11
 120.508
  21
 528.093
  31
0.0
   0
LINE
   8
LEVEL001
   6
CONTINUOUS
  62
7
  10
 120.508
  20
 528.093
  30
0.0
  11
 120.506
  21
 528.077
  31
0.0
   0
LINE
   8
LEVEL001
   6
CONTINUOUS
  62
7
  10
 120.506
  20
 528.077
  30
0.0
  11
 120.504
  21
 528.060
  31
0.0
   0
LINE
   8
LEVEL001
   6
CONTINUOUS
  62
7
  10
 120.504
  20
 528.060
  30
0.0
  11
 120.502
  21
 528.043
  31
0.0
   0
LINE
   8
LEVEL001
   6
CONTINUOUS
  62
7
  10
 120.502
  20
 528.043
  30
0.0
  11
 120.500
  21
 528.025
  31
0.0
   0
LINE
   8
LEVEL001
   6
CONTINUOUS
  62
7
  10
 120.500
  20
 528.025
  30
0.0
  11
 120.498
  21
 528.006
  31
0.0
   0
LINE
   8
LEVEL001
   6
CONTINUOUS
  62
7
  10
 120.498
  20
 528.006
  30
0.0
  11
 120.496
  21
 527.986
  31
0.0
   0
LINE
   8
LEVEL001
   6
CONTINUOUS
  62
7
  10
 120.496
  20
 527.986
  30
0.0
  11
 120.494
  21
 527.966
  31
0.0
   0
LINE
   8
LEVEL001
   6
CONTINUOUS
  62
7
  10
 120.494
  20
 527.966
  30
0.0
  11
 120.492
  21
 527.945
  31
0.0
   0
LINE
   8
LEVEL001
   6
CONTINUOUS
  62
7
  10
 120.492
  20
 527.945
  30
0.0
  11
 120.490
  21
 527.923
  31
0.0
   0
LINE
   8
LEVEL001
   6
CONTINUOUS
  62
7
  10
 120.490
  20
 527.923
  30
0.0
  11
 120.488
  21
 527.900
  31
0.0
   0
LINE
   8
LEVEL001
   6
CONTINUOUS
  62
7
  10
 120.488
  20
 527.900
  30
0.0
  11
 120.486
  21
 527.877
  31
0.0
   0
LINE
   8
LEVEL001
   6
CONTINUOUS
  62
7
  10
 120.486
  20
 527.877
  30
0.0
  11
 120.484
  21
 527.853
  31
0.0
   0
LINE
   8
LEVEL001
   6
CONTINUOUS
  62
7
  10
 120.484
  20
 527.853
  30
0.0
  11
 120.482
  21
 527.829
  31
0.0
   0
LINE
   8
LEVEL001
   6
CONTINUOUS
  62
7
  10
 120.482
  20
 527.829
  30
0.0
  11
 120.480
  21
 527.803
  31
0.0
   0
LINE
   8
LEVEL001
   6
CONTINUOUS
  62
7
  10
 120.480
  20
 527.803
  30
0.0
  11
 120.478
  21
 527.777
  31
0.0
   0
LINE
   8
LEVEL001
   6
CONTINUOUS
  62
7
  10
 120.478
  20
 527.777
  30
0.0
  11
 120.477
  21
 527.750
  31
0.0
   0
LINE
   8
LEVEL001
   6
CONTINUOUS
  62
7
  10
 120.476
  20
 522.250
  30
0.0
  11
 120.478
  21
 522.223
  31
0.0
   0
LINE
   8
LEVEL001
   6
CONTINUOUS
  62
7
  10
 120.478
  20
 522.223
  30
0.0
  11
 120.480
  21
 522.197
  31
0.0
   0
LINE
   8
LEVEL001
   6
CONTINUOUS
  62
7
  10
 120.480
  20
 522.197
  30
0.0
  11
 120.482
  21
 522.172
  31
0.0
   0
LINE
   8
LEVEL001
   6
CONTINUOUS
  62
7
  10
 120.482
  20
 522.172
  30
0.0
  11
 120.484
  21
 522.147
  31
0.0
   0
LINE
   8
LEVEL001
   6
CONTINUOUS
  62
7
  10
 120.484
  20
 522.147
  30
0.0
  11
 120.486
  21
 522.123
  31
0.0
   0
LINE
   8
LEVEL001
   6
CONTINUOUS
  62
7
  10
 120.486
  20
 522.123
  30
0.0
  11
 120.488
  21
 522.100
  31
0.0
   0
LINE
   8
LEVEL001
   6
CONTINUOUS
  62
7
  10
 120.488
  20
 522.100
  30
0.0
  11
 120.490
  21
 522.078
  31
0.0
   0
LINE
   8
LEVEL001
   6
CONTINUOUS
  62
7
  10
 120.490
  20
 522.078
  30
0.0
  11
 120.492
  21
 522.056
  31
0.0
   0
LINE
   8
LEVEL001
   6
CONTINUOUS
  62
7
  10
 120.492
  20
 522.056
  30
0.0
  11
 120.494
  21
 522.035
  31
0.0
   0
LINE
   8
LEVEL001
   6
CONTINUOUS
  62
7
  10
 120.494
  20
 522.035
  30
0.0
  11
 120.496
  21
 522.014
  31
0.0
   0
LINE
   8
LEVEL001
   6
CONTINUOUS
  62
7
  10
 120.496
  20
 522.014
  30
0.0
  11
 120.498
  21
 521.994
  31
0.0
   0
LINE
   8
LEVEL001
   6
CONTINUOUS
  62
7
  10
 120.498
  20
 521.994
  30
0.0
  11
 120.499
  21
 521.976
  31
0.0
   0
LINE
   8
LEVEL001
   6
CONTINUOUS
  62
7
  10
 120.499
  20
 521.976
  30
0.0
  11
 120.502
  21
 521.957
  31
0.0
   0
LINE
   8
LEVEL001
   6
CONTINUOUS
  62
7
  10
 120.502
  20
 521.957
  30
0.0
  11
 120.504
  21
 521.940
  31
0.0
   0
LINE
   8
LEVEL001
   6
CONTINUOUS
  62
7
  10
 120.504
  20
 521.940
  30
0.0
  11
 120.506
  21
 521.923
  31
0.0
   0
LINE
   8
LEVEL001
   6
CONTINUOUS
  62
7
  10
 120.506
  20
 521.923
  30
0.0
  11
 120.508
  21
 521.907
  31
0.0
   0
LINE
   8
LEVEL001
   6
CONTINUOUS
  62
7
  10
 120.508
  20
 521.907
  30
0.0
  11
 120.510
  21
 521.892
  31
0.0
   0
LINE
   8
LEVEL001
   6
CONTINUOUS
  62
7
  10
 120.510
  20
 521.892
  30
0.0
  11
 120.512
  21
 521.878
  31
0.0
   0
LINE
   8
LEVEL001
   6
CONTINUOUS
  62
7
  10
 120.512
  20
 521.878
  30
0.0
  11
 120.514
  21
 521.864
  31
0.0
   0
LINE
   8
LEVEL001
   6
CONTINUOUS
  62
7
  10
 120.514
  20
 521.864
  30
0.0
  11
 120.516
  21
 521.851
  31
0.0
   0
LINE
   8
LEVEL001
   6
CONTINUOUS
  62
7
  10
 120.516
  20
 521.851
  30
0.0
  11
 120.518
  21
 521.839
  31
0.0
   0
LINE
   8
LEVEL001
   6
CONTINUOUS
  62
7
  10
 120.518
  20
 521.839
  30
0.0
  11
 120.520
  21
 521.827
  31
0.0
   0
LINE
   8
LEVEL001
   6
CONTINUOUS
  62
7
  10
 120.520
  20
 521.827
  30
0.0
  11
 120.522
  21
 521.817
  31
0.0
   0
LINE
   8
LEVEL001
   6
CONTINUOUS
  62
7
  10
 120.522
  20
 521.817
  30
0.0
  11
 120.524
  21
 521.807
  31
0.0
   0
LINE
   8
LEVEL001
   6
CONTINUOUS
  62
7
  10
 120.524
  20
 521.807
  30
0.0
  11
 120.526
  21
 521.798
  31
0.0
   0
LINE
   8
LEVEL001
   6
CONTINUOUS
  62
7
  10
 120.526
  20
 521.798
  30
0.0
  11
 120.529
  21
 521.790
  31
0.0
   0
LINE
   8
LEVEL001
   6
CONTINUOUS
  62
7
  10
 120.529
  20
 521.790
  30
0.0
  11
 120.531
  21
 521.782
  31
0.0
   0
LINE
   8
LEVEL001
   6
CONTINUOUS
  62
7
  10
 120.531
  20
 521.782
  30
0.0
  11
 120.533
  21
 521.775
  31
0.0
   0
LINE
   8
LEVEL001
   6
CONTINUOUS
  62
7
  10
 120.533
  20
 521.775
  30
0.0
  11
 120.535
  21
 521.769
  31
0.0
   0
LINE
   8
LEVEL001
   6
CONTINUOUS
  62
7
  10
 120.535
  20
 521.769
  30
0.0
  11
 120.537
  21
 521.764
  31
0.0
   0
LINE
   8
LEVEL001
   6
CONTINUOUS
  62
7
  10
 120.537
  20
 521.764
  30
0.0
  11
 120.539
  21
 521.760
  31
0.0
   0
LINE
   8
LEVEL001
   6
CONTINUOUS
  62
7
  10
 120.539
  20
 521.760
  30
0.0
  11
 120.541
  21
 521.756
  31
0.0
   0
LINE
   8
LEVEL001
   6
CONTINUOUS
  62
7
  10
 120.541
  20
 521.756
  30
0.0
  11
 120.544
  21
 521.754
  31
0.0
   0
LINE
   8
LEVEL001
   6
CONTINUOUS
  62
7
  10
 120.544
  20
 521.754
  30
0.0
  11
 120.546
  21
 521.752
  31
0.0
   0
LINE
   8
LEVEL001
   6
CONTINUOUS
  62
7
  10
 120.546
  20
 521.752
  30
0.0
  11
 120.548
  21
 521.750
  31
0.0
   0
LINE
   8
LEVEL001
   6
CONTINUOUS
  62
7
  10
 120.548
  20
 521.750
  30
0.0
  11
 120.550
  21
 521.750
  31
0.0
   0
LINE
   8
LEVEL001
   6
CONTINUOUS
  62
7
  10
 120.550
  20
 521.750
  30
0.0
  11
 120.552
  21
 521.750
  31
0.0
   0
LINE
   8
LEVEL001
   6
CONTINUOUS
  62
7
  10
 120.552
  20
 521.750
  30
0.0
  11
 120.554
  21
 521.752
  31
0.0
   0
LINE
   8
LEVEL001
   6
CONTINUOUS
  62
7
  10
 120.554
  20
 521.752
  30
0.0
  11
 120.556
  21
 521.754
  31
0.0
   0
LINE
   8
LEVEL001
   6
CONTINUOUS
  62
7
  10
 120.556
  20
 521.754
  30
0.0
  11
 120.559
  21
 521.756
  31
0.0
   0
LINE
   8
LEVEL001
   6
CONTINUOUS
  62
7
  10
 120.559
  20
 521.756
  30
0.0
  11
 120.561
  21
 521.760
  31
0.0
   0
LINE
   8
LEVEL001
   6
CONTINUOUS
  62
7
  10
 120.561
  20
 521.760
  30
0.0
  11
 120.563
  21
 521.764
  31
0.0
   0
LINE
   8
LEVEL001
   6
CONTINUOUS
  62
7
  10
 120.563
  20
 521.764
  30
0.0
  11
 120.565
  21
 521.769
  31
0.0
   0
LINE
   8
LEVEL001
   6
CONTINUOUS
  62
7
  10
 120.565
  20
 521.769
  30
0.0
  11
 120.567
  21
 521.775
  31
0.0
   0
LINE
   8
LEVEL001
   6
CONTINUOUS
  62
7
  10
 120.567
  20
 521.775
  30
0.0
  11
 120.569
  21
 521.782
  31
0.0
   0
LINE
   8
LEVEL001
   6
CONTINUOUS
  62
7
  10
 120.569
  20
 521.782
  30
0.0
  11
 120.571
  21
 521.789
  31
0.0
   0
LINE
   8
LEVEL001
   6
CONTINUOUS
  62
7
  10
 120.571
  20
 521.789
  30
0.0
  11
 120.574
  21
 521.798
  31
0.0
   0
LINE
   8
LEVEL001
   6
CONTINUOUS
  62
7
  10
 120.574
  20
 521.798
  30
0.0
  11
 120.576
  21
 521.807
  31
0.0
   0
LINE
   8
LEVEL001
   6
CONTINUOUS
  62
7
  10
 120.576
  20
 521.807
  30
0.0
  11
 120.578
  21
 521.817
  31
0.0
   0
LINE
   8
LEVEL001
   6
CONTINUOUS
  62
7
  10
 120.578
  20
 521.817
  30
0.0
  11
 120.580
  21
 521.827
  31
0.0
   0
LINE
   8
LEVEL001
   6
CONTINUOUS
  62
7
  10
 120.580
  20
 521.827
  30
0.0
  11
 120.582
  21
 521.839
  31
0.0
   0
LINE
   8
LEVEL001
   6
CONTINUOUS
  62
7
  10
 120.582
  20
 521.839
  30
0.0
  11
 120.584
  21
 521.851
  31
0.0
   0
LINE
   8
LEVEL001
   6
CONTINUOUS
  62
7
  10
 120.584
  20
 521.851
  30
0.0
  11
 120.586
  21
 521.864
  31
0.0
   0
LINE
   8
LEVEL001
   6
CONTINUOUS
  62
7
  10
 120.586
  20
 521.864
  30
0.0
  11
 120.588
  21
 521.877
  31
0.0
   0
LINE
   8
LEVEL001
   6
CONTINUOUS
  62
7
  10
 120.588
  20
 521.877
  30
0.0
  11
 120.590
  21
 521.892
  31
0.0
   0
LINE
   8
LEVEL001
   6
CONTINUOUS
  62
7
  10
 120.590
  20
 521.892
  30
0.0
  11
 120.592
  21
 521.907
  31
0.0
   0
LINE
   8
LEVEL001
   6
CONTINUOUS
  62
7
  10
 120.592
  20
 521.907
  30
0.0
  11
 120.594
  21
 521.923
  31
0.0
   0
LINE
   8
LEVEL001
   6
CONTINUOUS
  62
7
  10
 120.594
  20
 521.923
  30
0.0
  11
 120.596
  21
 521.940
  31
0.0
   0
LINE
   8
LEVEL001
   6
CONTINUOUS
  62
7
  10
 120.596
  20
 521.940
  30
0.0
  11
 120.598
  21
 521.957
  31
0.0
   0
LINE
   8
LEVEL001
   6
CONTINUOUS
  62
7
  10
 120.598
  20
 521.957
  30
0.0
  11
 120.600
  21
 521.975
  31
0.0
   0
LINE
   8
LEVEL001
   6
CONTINUOUS
  62
7
  10
 120.600
  20
 521.975
  30
0.0
  11
 120.602
  21
 521.994
  31
0.0
   0
LINE
   8
LEVEL001
   6
CONTINUOUS
  62
7
  10
 120.602
  20
 521.994
  30
0.0
  11
 120.604
  21
 522.014
  31
0.0
   0
LINE
   8
LEVEL001
   6
CONTINUOUS
  62
7
  10
 120.604
  20
 522.014
  30
0.0
  11
 120.606
  21
 522.034
  31
0.0
   0
LINE
   8
LEVEL001
   6
CONTINUOUS
  62
7
  10
 120.606
  20
 522.034
  30
0.0
  11
 120.608
  21
 522.055
  31
0.0
   0
LINE
   8
LEVEL001
   6
CONTINUOUS
  62
7
  10
 120.608
  20
 522.055
  30
0.0
  11
 120.610
  21
 522.077
  31
0.0
   0
LINE
   8
LEVEL001
   6
CONTINUOUS
  62
7
  10
 120.610
  20
 522.077
  30
0.0
  11
 120.612
  21
 522.100
  31
0.0
   0
LINE
   8
LEVEL001
   6
CONTINUOUS
  62
7
  10
 120.612
  20
 522.100
  30
0.0
  11
 120.614
  21
 522.123
  31
0.0
   0
LINE
   8
LEVEL001
   6
CONTINUOUS
  62
7
  10
 120.614
  20
 522.123
  30
0.0
  11
 120.616
  21
 522.147
  31
0.0
   0
LINE
   8
LEVEL001
   6
CONTINUOUS
  62
7
  10
 120.616
  20
 522.147
  30
0.0
  11
 120.618
  21
 522.172
  31
0.0
   0
LINE
   8
LEVEL001
   6
CONTINUOUS
  62
7
  10
 120.618
  20
 522.172
  30
0.0
  11
 120.620
  21
 522.197
  31
0.0
   0
LINE
   8
LEVEL001
   6
CONTINUOUS
  62
7
  10
 120.620
  20
 522.197
  30
0.0
  11
 120.622
  21
 522.223
  31
0.0
   0
LINE
   8
LEVEL001
   6
CONTINUOUS
  62
7
  10
 120.622
  20
 522.223
  30
0.0
  11
 120.624
  21
 522.250
  31
0.0
   0
LINE
   8
LEVEL001
   6
CONTINUOUS
  62
7
  10
 104.283
  20
 464.500
  30
0.0
  11
 95.7158
  21
 464.500
  31
0.0
   0
LINE
   8
LEVEL001
   6
CONTINUOUS
  62
7
  10
 95.1170
  20
 463.900
  30
0.0
  11
 95.7158
  21
 464.500
  31
0.0
   0
LINE
   8
LEVEL001
   6
CONTINUOUS
  62
7
  10
 105.773
  20
 460.747
  30
0.0
  11
 105.773
  21
 463.454
  31
0.0
   0
LINE
   8
LEVEL001
   6
CONTINUOUS
  62
7
  10
 105.000
  20
 460.300
  30
0.0
  11
 105.773
  21
 460.747
  31
0.0
   0
LINE
   8
LEVEL001
   6
CONTINUOUS
  62
7
  10
 95.0000
  20
 460.300
  30
0.0
  11
 105.000
  21
 460.300
  31
0.0
   0
LINE
   8
LEVEL001
   6
CONTINUOUS
  62
7
  10
 94.2270
  20
 460.747
  30
0.0
  11
 95.0000
  21
 460.300
  31
0.0
   0
LINE
   8
LEVEL001
   6
CONTINUOUS
  62
7
  10
 94.2270
  20
 463.454
  30
0.0
  11
 94.2270
  21
 460.747
  31
0.0
   0
LINE
   8
LEVEL001
   6
CONTINUOUS
  62
7
  10
 95.0000
  20
 463.900
  30
0.0
  11
 94.2270
  21
 463.454
  31
0.0
   0
LINE
   8
LEVEL001
   6
CONTINUOUS
  62
7
  10
 105.000
  20
 463.900
  30
0.0
  11
 95.0000
  21
 463.900
  31
0.0
   0
LINE
   8
LEVEL001
   6
CONTINUOUS
  62
7
  10
 105.773
  20
 463.454
  30
0.0
  11
 105.000
  21
 463.900
  31
0.0
   0
LINE
   8
LEVEL001
   6
CONTINUOUS
  62
7
  10
 104.883
  20
 463.900
  30
0.0
  11
 104.283
  21
 464.500
  31
0.0
   0
ARC
   8
LEVEL001
   6
CONTINUOUS
  62
7
  10
 104.910
  20
 459.101
  30
0.0
  40
 4.80000
  50
 88.9304
  51
 114.935
   0
ARC
   8
LEVEL001
   6
CONTINUOUS
  62
7
  10
 95.0900
  20
 459.101
  30
0.0
  40
 4.80000
  50
 65.0648
  51
 91.0696
   0
ARC
   8
LEVEL001
   6
CONTINUOUS
  62
7
  10
 100.000
  20
 454.347
  30
0.0
  40
 9.55316
  50
 72.4116
  51
 107.588
   0
LINE
   8
LEVEL001
   6
CONTINUOUS
  62
7
  10
 102.887
  20
 463.454
  30
0.0
  11
 102.887
  21
 460.747
  31
0.0
   0
LINE
   8
LEVEL001
   6
CONTINUOUS
  62
7
  10
 97.1130
  20
 463.454
  30
0.0
  11
 97.1130
  21
 460.747
  31
0.0
   0
ARC
   8
LEVEL001
   6
CONTINUOUS
  62
7
  10
 100.000
  20
 455.444
  30
0.0
  40
 5.62228
  50
 308.501
  51
 332.788
   0
ARC
   8
LEVEL001
   6
CONTINUOUS
  62
7
  10
 100.000
  20
 455.444
  30
0.0
  40
 5.62228
  50
 207.212
  51
 231.499
   0
LINE
   8
LEVEL001
   6
CONTINUOUS
  62
7
  10
 105.000
  20
 460.300
  30
0.0
  11
 105.000
  21
 452.873
  31
0.0
   0
LINE
   8
LEVEL001
   6
CONTINUOUS
  62
7
  10
 95.0000
  20
 452.873
  30
0.0
  11
 95.0000
  21
 460.300
  31
0.0
   0
ARC
   8
LEVEL001
   6
CONTINUOUS
  62
7
  10
 100.000
  20
 469.854
  30
0.0
  40
 9.55313
  50
 252.412
  51
 287.588
   0
ARC
   8
LEVEL001
   6
CONTINUOUS
  62
7
  10
 104.910
  20
 465.100
  30
0.0
  40
 4.80000
  50
 245.065
  51
 271.070
   0
ARC
   8
LEVEL001
   6
CONTINUOUS
  62
7
  10
 95.0900
  20
 465.100
  30
0.0
  40
 4.80000
  50
 268.930
  51
 294.935
   0
LINE
   8
LEVEL001
   6
CONTINUOUS
  62
7
  10
 100.000
  20
 457.493
  30
0.0
  11
 100.000
  21
 456.575
  31
0.0
   0
LINE
   8
LEVEL001
   6
CONTINUOUS
  62
7
  10
 96.5006
  20
 455.626
  30
0.0
  11
 96.5006
  21
 454.707
  31
0.0
   0
LINE
   8
LEVEL001
   6
CONTINUOUS
  62
7
  10
 103.499
  20
 455.626
  30
0.0
  11
 103.499
  21
 454.707
  31
0.0
   0
LINE
   8
LEVEL001
   6
CONTINUOUS
  62
7
  10
 100.000
  20
 457.493
  30
0.0
  11
 96.5006
  21
 455.626
  31
0.0
   0
LINE
   8
LEVEL001
   6
CONTINUOUS
  62
7
  10
 100.000
  20
 457.493
  30
0.0
  11
 103.499
  21
 455.626
  31
0.0
   0
LINE
   8
LEVEL001
   6
CONTINUOUS
  62
7
  10
 96.5006
  20
 450.974
  30
0.0
  11
 96.8491
  21
 450.788
  31
0.0
   0
LINE
   8
LEVEL001
   6
CONTINUOUS
  62
7
  10
 103.137
  20
 450.780
  30
0.0
  11
 103.499
  21
 450.974
  31
0.0
   0
LINE
   8
LEVEL001
   6
CONTINUOUS
  62
7
  10
 103.499
  20
 450.974
  30
0.0
  11
 103.499
  21
 454.707
  31
0.0
   0
LINE
   8
LEVEL001
   6
CONTINUOUS
  62
7
  10
 96.5006
  20
 454.707
  30
0.0
  11
 96.5006
  21
 450.974
  31
0.0
   0
LINE
   8
LEVEL001
   6
CONTINUOUS
  62
7
  10
 100.000
  20
 456.575
  30
0.0
  11
 96.5006
  21
 454.707
  31
0.0
   0
LINE
   8
LEVEL001
   6
CONTINUOUS
  62
7
  10
 100.000
  20
 456.575
  30
0.0
  11
 103.499
  21
 454.707
  31
0.0
   0
LINE
   8
LEVEL001
   6
CONTINUOUS
  62
7
  10
 103.277
  20
 451.704
  30
0.0
  11
 103.338
  21
 451.868
  31
0.0
   0
LINE
   8
LEVEL001
   6
CONTINUOUS
  62
7
  10
 103.338
  20
 451.868
  30
0.0
  11
 103.389
  21
 452.034
  31
0.0
   0
LINE
   8
LEVEL001
   6
CONTINUOUS
  62
7
  10
 103.389
  20
 452.034
  30
0.0
  11
 103.431
  21
 452.203
  31
0.0
   0
LINE
   8
LEVEL001
   6
CONTINUOUS
  62
7
  10
 103.431
  20
 452.203
  30
0.0
  11
 103.463
  21
 452.374
  31
0.0
   0
LINE
   8
LEVEL001
   6
CONTINUOUS
  62
7
  10
 103.463
  20
 452.374
  30
0.0
  11
 103.485
  21
 452.546
  31
0.0
   0
LINE
   8
LEVEL001
   6
CONTINUOUS
  62
7
  10
 103.485
  20
 452.546
  30
0.0
  11
 103.498
  21
 452.719
  31
0.0
   0
LINE
   8
LEVEL001
   6
CONTINUOUS
  62
7
  10
 103.498
  20
 452.719
  30
0.0
  11
 103.500
  21
 452.893
  31
0.0
   0
LINE
   8
LEVEL001
   6
CONTINUOUS
  62
7
  10
 103.500
  20
 452.893
  30
0.0
  11
 103.491
  21
 453.066
  31
0.0
   0
LINE
   8
LEVEL001
   6
CONTINUOUS
  62
7
  10
 103.491
  20
 453.066
  30
0.0
  11
 103.473
  21
 453.238
  31
0.0
   0
LINE
   8
LEVEL001
   6
CONTINUOUS
  62
7
  10
 103.473
  20
 453.238
  30
0.0
  11
 103.445
  21
 453.410
  31
0.0
   0
LINE
   8
LEVEL001
   6
CONTINUOUS
  62
7
  10
 103.445
  20
 453.410
  30
0.0
  11
 103.407
  21
 453.580
  31
0.0
   0
LINE
   8
LEVEL001
   6
CONTINUOUS
  62
7
  10
 103.407
  20
 453.580
  30
0.0
  11
 103.360
  21
 453.747
  31
0.0
   0
LINE
   8
LEVEL001
   6
CONTINUOUS
  62
7
  10
 103.360
  20
 453.747
  30
0.0
  11
 103.302
  21
 453.912
  31
0.0
   0
LINE
   8
LEVEL001
   6
CONTINUOUS
  62
7
  10
 103.302
  20
 453.912
  30
0.0
  11
 103.235
  21
 454.074
  31
0.0
   0
LINE
   8
LEVEL001
   6
CONTINUOUS
  62
7
  10
 103.235
  20
 454.074
  30
0.0
  11
 103.159
  21
 454.233
  31
0.0
   0
LINE
   8
LEVEL001
   6
CONTINUOUS
  62
7
  10
 103.159
  20
 454.233
  30
0.0
  11
 103.074
  21
 454.387
  31
0.0
   0
LINE
   8
LEVEL001
   6
CONTINUOUS
  62
7
  10
 103.074
  20
 454.387
  30
0.0
  11
 102.980
  21
 454.537
  31
0.0
   0
LINE
   8
LEVEL001
   6
CONTINUOUS
  62
7
  10
 102.980
  20
 454.537
  30
0.0
  11
 102.877
  21
 454.682
  31
0.0
   0
LINE
   8
LEVEL001
   6
CONTINUOUS
  62
7
  10
 102.877
  20
 454.682
  30
0.0
  11
 102.766
  21
 454.822
  31
0.0
   0
LINE
   8
LEVEL001
   6
CONTINUOUS
  62
7
  10
 102.766
  20
 454.822
  30
0.0
  11
 102.647
  21
 454.956
  31
0.0
   0
LINE
   8
LEVEL001
   6
CONTINUOUS
  62
7
  10
 102.647
  20
 454.956
  30
0.0
  11
 102.520
  21
 455.084
  31
0.0
   0
LINE
   8
LEVEL001
   6
CONTINUOUS
  62
7
  10
 102.520
  20
 455.084
  30
0.0
  11
 102.387
  21
 455.206
  31
0.0
   0
LINE
   8
LEVEL001
   6
CONTINUOUS
  62
7
  10
 102.387
  20
 455.206
  30
0.0
  11
 102.246
  21
 455.321
  31
0.0
   0
LINE
   8
LEVEL001
   6
CONTINUOUS
  62
7
  10
 102.246
  20
 455.321
  30
0.0
  11
 102.099
  21
 455.428
  31
0.0
   0
LINE
   8
LEVEL001
   6
CONTINUOUS
  62
7
  10
 102.099
  20
 455.428
  30
0.0
  11
 101.946
  21
 455.529
  31
0.0
   0
LINE
   8
LEVEL001
   6
CONTINUOUS
  62
7
  10
 101.946
  20
 455.529
  30
0.0
  11
 101.787
  21
 455.621
  31
0.0
   0
LINE
   8
LEVEL001
   6
CONTINUOUS
  62
7
  10
 101.787
  20
 455.621
  30
0.0
  11
 101.623
  21
 455.706
  31
0.0
   0
LINE
   8
LEVEL001
   6
CONTINUOUS
  62
7
  10
 101.623
  20
 455.706
  30
0.0
  11
 101.455
  21
 455.782
  31
0.0
   0
LINE
   8
LEVEL001
   6
CONTINUOUS
  62
7
  10
 101.455
  20
 455.782
  30
0.0
  11
 101.282
  21
 455.850
  31
0.0
   0
LINE
   8
LEVEL001
   6
CONTINUOUS
  62
7
  10
 101.282
  20
 455.850
  30
0.0
  11
 101.105
  21
 455.909
  31
0.0
   0
LINE
   8
LEVEL001
   6
CONTINUOUS
  62
7
  10
 101.105
  20
 455.909
  30
0.0
  11
 100.926
  21
 455.959
  31
0.0
   0
LINE
   8
LEVEL001
   6
CONTINUOUS
  62
7
  10
 100.926
  20
 455.959
  30
0.0
  11
 100.744
  21
 456.000
  31
0.0
   0
LINE
   8
LEVEL001
   6
CONTINUOUS
  62
7
  10
 100.744
  20
 456.000
  30
0.0
  11
 100.559
  21
 456.033
  31
0.0
   0
LINE
   8
LEVEL001
   6
CONTINUOUS
  62
7
  10
 100.559
  20
 456.033
  30
0.0
  11
 100.373
  21
 456.056
  31
0.0
   0
LINE
   8
LEVEL001
   6
CONTINUOUS
  62
7
  10
 100.373
  20
 456.056
  30
0.0
  11
 100.186
  21
 456.070
  31
0.0
   0
LINE
   8
LEVEL001
   6
CONTINUOUS
  62
7
  10
 100.186
  20
 456.070
  30
0.0
  11
 99.9985
  21
 456.074
  31
0.0
   0
LINE
   8
LEVEL001
   6
CONTINUOUS
  62
7
  10
 99.9985
  20
 456.074
  30
0.0
  11
 99.8109
  21
 456.070
  31
0.0
   0
LINE
   8
LEVEL001
   6
CONTINUOUS
  62
7
  10
 99.8109
  20
 456.070
  30
0.0
  11
 99.6239
  21
 456.056
  31
0.0
   0
LINE
   8
LEVEL001
   6
CONTINUOUS
  62
7
  10
 99.6239
  20
 456.056
  30
0.0
  11
 99.4379
  21
 456.032
  31
0.0
   0
LINE
   8
LEVEL001
   6
CONTINUOUS
  62
7
  10
 99.4379
  20
 456.032
  30
0.0
  11
 99.2536
  21
 456.000
  31
0.0
   0
LINE
   8
LEVEL001
   6
CONTINUOUS
  62
7
  10
 99.2536
  20
 456.000
  30
0.0
  11
 99.0714
  21
 455.958
  31
0.0
   0
LINE
   8
LEVEL001
   6
CONTINUOUS
  62
7
  10
 99.0714
  20
 455.958
  30
0.0
  11
 98.8918
  21
 455.908
  31
0.0
   0
LINE
   8
LEVEL001
   6
CONTINUOUS
  62
7
  10
 98.8918
  20
 455.908
  30
0.0
  11
 98.7155
  21
 455.849
  31
0.0
   0
LINE
   8
LEVEL001
   6
CONTINUOUS
  62
7
  10
 98.7155
  20
 455.849
  30
0.0
  11
 98.5428
  21
 455.781
  31
0.0
   0
LINE
   8
LEVEL001
   6
CONTINUOUS
  62
7
  10
 98.5428
  20
 455.781
  30
0.0
  11
 98.3743
  21
 455.704
  31
0.0
   0
LINE
   8
LEVEL001
   6
CONTINUOUS
  62
7
  10
 98.3743
  20
 455.704
  30
0.0
  11
 98.2105
  21
 455.620
  31
0.0
   0
LINE
   8
LEVEL001
   6
CONTINUOUS
  62
7
  10
 98.2105
  20
 455.620
  30
0.0
  11
 98.0519
  21
 455.527
  31
0.0
   0
LINE
   8
LEVEL001
   6
CONTINUOUS
  62
7
  10
 98.0519
  20
 455.527
  30
0.0
  11
 97.8988
  21
 455.427
  31
0.0
   0
LINE
   8
LEVEL001
   6
CONTINUOUS
  62
7
  10
 97.8988
  20
 455.427
  30
0.0
  11
 97.7518
  21
 455.319
  31
0.0
   0
LINE
   8
LEVEL001
   6
CONTINUOUS
  62
7
  10
 97.7518
  20
 455.319
  30
0.0
  11
 97.6113
  21
 455.204
  31
0.0
   0
LINE
   8
LEVEL001
   6
CONTINUOUS
  62
7
  10
 97.6113
  20
 455.204
  30
0.0
  11
 97.4776
  21
 455.082
  31
0.0
   0
LINE
   8
LEVEL001
   6
CONTINUOUS
  62
7
  10
 97.4776
  20
 455.082
  30
0.0
  11
 97.3512
  21
 454.954
  31
0.0
   0
LINE
   8
LEVEL001
   6
CONTINUOUS
  62
7
  10
 97.3512
  20
 454.954
  30
0.0
  11
 97.2323
  21
 454.820
  31
0.0
   0
LINE
   8
LEVEL001
   6
CONTINUOUS
  62
7
  10
 97.2323
  20
 454.820
  30
0.0
  11
 97.1215
  21
 454.680
  31
0.0
   0
LINE
   8
LEVEL001
   6
CONTINUOUS
  62
7
  10
 97.1215
  20
 454.680
  30
0.0
  11
 97.0189
  21
 454.535
  31
0.0
   0
LINE
   8
LEVEL001
   6
CONTINUOUS
  62
7
  10
 97.0189
  20
 454.535
  30
0.0
  11
 96.9249
  21
 454.385
  31
0.0
   0
LINE
   8
LEVEL001
   6
CONTINUOUS
  62
7
  10
 96.9249
  20
 454.385
  30
0.0
  11
 96.8397
  21
 454.230
  31
0.0
   0
LINE
   8
LEVEL001
   6
CONTINUOUS
  62
7
  10
 96.8397
  20
 454.230
  30
0.0
  11
 96.7636
  21
 454.072
  31
0.0
   0
LINE
   8
LEVEL001
   6
CONTINUOUS
  62
7
  10
 96.7636
  20
 454.072
  30
0.0
  11
 96.6969
  21
 453.910
  31
0.0
   0
LINE
   8
LEVEL001
   6
CONTINUOUS
  62
7
  10
 96.6969
  20
 453.910
  30
0.0
  11
 96.6396
  21
 453.745
  31
0.0
   0
LINE
   8
LEVEL001
   6
CONTINUOUS
  62
7
  10
 96.6396
  20
 453.745
  30
0.0
  11
 96.5920
  21
 453.577
  31
0.0
   0
LINE
   8
LEVEL001
   6
CONTINUOUS
  62
7
  10
 96.5920
  20
 453.577
  30
0.0
  11
 96.5541
  21
 453.407
  31
0.0
   0
LINE
   8
LEVEL001
   6
CONTINUOUS
  62
7
  10
 96.5541
  20
 453.407
  30
0.0
  11
 96.5262
  21
 453.236
  31
0.0
   0
LINE
   8
LEVEL001
   6
CONTINUOUS
  62
7
  10
 96.5262
  20
 453.236
  30
0.0
  11
 96.5083
  21
 453.063
  31
0.0
   0
LINE
   8
LEVEL001
   6
CONTINUOUS
  62
7
  10
 96.5083
  20
 453.063
  30
0.0
  11
 96.5004
  21
 452.890
  31
0.0
   0
LINE
   8
LEVEL001
   6
CONTINUOUS
  62
7
  10
 96.5004
  20
 452.890
  30
0.0
  11
 96.5026
  21
 452.717
  31
0.0
   0
LINE
   8
LEVEL001
   6
CONTINUOUS
  62
7
  10
 96.5026
  20
 452.717
  30
0.0
  11
 96.5148
  21
 452.544
  31
0.0
   0
LINE
   8
LEVEL001
   6
CONTINUOUS
  62
7
  10
 96.5148
  20
 452.544
  30
0.0
  11
 96.5370
  21
 452.371
  31
0.0
   0
LINE
   8
LEVEL001
   6
CONTINUOUS
  62
7
  10
 96.5370
  20
 452.371
  30
0.0
  11
 96.5693
  21
 452.201
  31
0.0
   0
LINE
   8
LEVEL001
   6
CONTINUOUS
  62
7
  10
 96.5693
  20
 452.201
  30
0.0
  11
 96.6113
  21
 452.032
  31
0.0
   0
LINE
   8
LEVEL001
   6
CONTINUOUS
  62
7
  10
 96.6113
  20
 452.032
  30
0.0
  11
 96.6631
  21
 451.865
  31
0.0
   0
LINE
   8
LEVEL001
   6
CONTINUOUS
  62
7
  10
 96.6631
  20
 451.865
  30
0.0
  11
 96.7245
  21
 451.701
  31
0.0
   0
LINE
   8
LEVEL001
   6
CONTINUOUS
  62
7
  10
 101.527
  20
 448.990
  30
0.0
  11
 101.736
  21
 449.100
  31
0.0
   0
LINE
   8
LEVEL001
   6
CONTINUOUS
  62
7
  10
 101.736
  20
 449.100
  30
0.0
  11
 101.936
  21
 449.224
  31
0.0
   0
LINE
   8
LEVEL001
   6
CONTINUOUS
  62
7
  10
 101.936
  20
 449.224
  30
0.0
  11
 102.126
  21
 449.361
  31
0.0
   0
LINE
   8
LEVEL001
   6
CONTINUOUS
  62
7
  10
 102.126
  20
 449.361
  30
0.0
  11
 102.305
  21
 449.511
  31
0.0
   0
LINE
   8
LEVEL001
   6
CONTINUOUS
  62
7
  10
 102.305
  20
 449.511
  30
0.0
  11
 102.471
  21
 449.672
  31
0.0
   0
LINE
   8
LEVEL001
   6
CONTINUOUS
  62
7
  10
 102.471
  20
 449.672
  30
0.0
  11
 102.624
  21
 449.844
  31
0.0
   0
LINE
   8
LEVEL001
   6
CONTINUOUS
  62
7
  10
 102.624
  20
 449.844
  30
0.0
  11
 102.763
  21
 450.026
  31
0.0
   0
LINE
   8
LEVEL001
   6
CONTINUOUS
  62
7
  10
 102.763
  20
 450.026
  30
0.0
  11
 102.887
  21
 450.216
  31
0.0
   0
LINE
   8
LEVEL001
   6
CONTINUOUS
  62
7
  10
 102.887
  20
 450.216
  30
0.0
  11
 102.996
  21
 450.415
  31
0.0
   0
LINE
   8
LEVEL001
   6
CONTINUOUS
  62
7
  10
 102.996
  20
 450.415
  30
0.0
  11
 103.089
  21
 450.620
  31
0.0
   0
LINE
   8
LEVEL001
   6
CONTINUOUS
  62
7
  10
 103.089
  20
 450.620
  30
0.0
  11
 103.166
  21
 450.832
  31
0.0
   0
LINE
   8
LEVEL001
   6
CONTINUOUS
  62
7
  10
 103.166
  20
 450.832
  30
0.0
  11
 103.225
  21
 451.047
  31
0.0
   0
LINE
   8
LEVEL001
   6
CONTINUOUS
  62
7
  10
 103.225
  20
 451.047
  30
0.0
  11
 103.268
  21
 451.267
  31
0.0
   0
LINE
   8
LEVEL001
   6
CONTINUOUS
  62
7
  10
 103.268
  20
 451.267
  30
0.0
  11
 103.293
  21
 451.488
  31
0.0
   0
LINE
   8
LEVEL001
   6
CONTINUOUS
  62
7
  10
 103.293
  20
 451.488
  30
0.0
  11
 103.300
  21
 451.711
  31
0.0
   0
LINE
   8
LEVEL001
   6
CONTINUOUS
  62
7
  10
 103.300
  20
 451.711
  30
0.0
  11
 103.290
  21
 451.933
  31
0.0
   0
LINE
   8
LEVEL001
   6
CONTINUOUS
  62
7
  10
 103.290
  20
 451.933
  30
0.0
  11
 103.262
  21
 452.154
  31
0.0
   0
LINE
   8
LEVEL001
   6
CONTINUOUS
  62
7
  10
 103.262
  20
 452.154
  30
0.0
  11
 103.217
  21
 452.373
  31
0.0
   0
LINE
   8
LEVEL001
   6
CONTINUOUS
  62
7
  10
 103.217
  20
 452.373
  30
0.0
  11
 103.154
  21
 452.588
  31
0.0
   0
LINE
   8
LEVEL001
   6
CONTINUOUS
  62
7
  10
 103.154
  20
 452.588
  30
0.0
  11
 103.075
  21
 452.798
  31
0.0
   0
LINE
   8
LEVEL001
   6
CONTINUOUS
  62
7
  10
 103.075
  20
 452.798
  30
0.0
  11
 102.980
  21
 453.003
  31
0.0
   0
LINE
   8
LEVEL001
   6
CONTINUOUS
  62
7
  10
 102.980
  20
 453.003
  30
0.0
  11
 102.868
  21
 453.200
  31
0.0
   0
LINE
   8
LEVEL001
   6
CONTINUOUS
  62
7
  10
 102.868
  20
 453.200
  30
0.0
  11
 102.742
  21
 453.390
  31
0.0
   0
LINE
   8
LEVEL001
   6
CONTINUOUS
  62
7
  10
 102.742
  20
 453.390
  30
0.0
  11
 102.600
  21
 453.570
  31
0.0
   0
LINE
   8
LEVEL001
   6
CONTINUOUS
  62
7
  10
 102.600
  20
 453.570
  30
0.0
  11
 102.445
  21
 453.740
  31
0.0
   0
LINE
   8
LEVEL001
   6
CONTINUOUS
  62
7
  10
 102.445
  20
 453.740
  30
0.0
  11
 102.277
  21
 453.900
  31
0.0
   0
LINE
   8
LEVEL001
   6
CONTINUOUS
  62
7
  10
 102.277
  20
 453.900
  30
0.0
  11
 102.096
  21
 454.047
  31
0.0
   0
LINE
   8
LEVEL001
   6
CONTINUOUS
  62
7
  10
 102.096
  20
 454.047
  30
0.0
  11
 101.905
  21
 454.182
  31
0.0
   0
LINE
   8
LEVEL001
   6
CONTINUOUS
  62
7
  10
 101.905
  20
 454.182
  30
0.0
  11
 101.703
  21
 454.304
  31
0.0
   0
LINE
   8
LEVEL001
   6
CONTINUOUS
  62
7
  10
 101.703
  20
 454.304
  30
0.0
  11
 101.492
  21
 454.412
  31
0.0
   0
LINE
   8
LEVEL001
   6
CONTINUOUS
  62
7
  10
 101.492
  20
 454.412
  30
0.0
  11
 101.273
  21
 454.505
  31
0.0
   0
LINE
   8
LEVEL001
   6
CONTINUOUS
  62
7
  10
 101.273
  20
 454.505
  30
0.0
  11
 101.047
  21
 454.584
  31
0.0
   0
LINE
   8
LEVEL001
   6
CONTINUOUS
  62
7
  10
 101.047
  20
 454.584
  30
0.0
  11
 100.816
  21
 454.647
  31
0.0
   0
LINE
   8
LEVEL001
   6
CONTINUOUS
  62
7
  10
 100.816
  20
 454.647
  30
0.0
  11
 100.581
  21
 454.694
  31
0.0
   0
LINE
   8
LEVEL001
   6
CONTINUOUS
  62
7
  10
 100.581
  20
 454.694
  30
0.0
  11
 100.342
  21
 454.725
  31
0.0
   0
LINE
   8
LEVEL001
   6
CONTINUOUS
  62
7
  10
 100.342
  20
 454.725
  30
0.0
  11
 100.102
  21
 454.740
  31
0.0
   0
LINE
   8
LEVEL001
   6
CONTINUOUS
  62
7
  10
 100.102
  20
 454.740
  30
0.0
  11
 99.8606
  21
 454.739
  31
0.0
   0
LINE
   8
LEVEL001
   6
CONTINUOUS
  62
7
  10
 99.8606
  20
 454.739
  30
0.0
  11
 99.6203
  21
 454.721
  31
0.0
   0
LINE
   8
LEVEL001
   6
CONTINUOUS
  62
7
  10
 99.6203
  20
 454.721
  30
0.0
  11
 99.3821
  21
 454.688
  31
0.0
   0
LINE
   8
LEVEL001
   6
CONTINUOUS
  62
7
  10
 99.3821
  20
 454.688
  30
0.0
  11
 99.1471
  21
 454.638
  31
0.0
   0
LINE
   8
LEVEL001
   6
CONTINUOUS
  62
7
  10
 99.1471
  20
 454.638
  30
0.0
  11
 98.9167
  21
 454.573
  31
0.0
   0
LINE
   8
LEVEL001
   6
CONTINUOUS
  62
7
  10
 98.9167
  20
 454.573
  30
0.0
  11
 98.6921
  21
 454.492
  31
0.0
   0
LINE
   8
LEVEL001
   6
CONTINUOUS
  62
7
  10
 98.6921
  20
 454.492
  30
0.0
  11
 98.4744
  21
 454.396
  31
0.0
   0
LINE
   8
LEVEL001
   6
CONTINUOUS
  62
7
  10
 98.4744
  20
 454.396
  30
0.0
  11
 98.2649
  21
 454.286
  31
0.0
   0
LINE
   8
LEVEL001
   6
CONTINUOUS
  62
7
  10
 98.2649
  20
 454.286
  30
0.0
  11
 98.0647
  21
 454.162
  31
0.0
   0
LINE
   8
LEVEL001
   6
CONTINUOUS
  62
7
  10
 98.0647
  20
 454.162
  30
0.0
  11
 97.8747
  21
 454.025
  31
0.0
   0
LINE
   8
LEVEL001
   6
CONTINUOUS
  62
7
  10
 97.8747
  20
 454.025
  30
0.0
  11
 97.6962
  21
 453.876
  31
0.0
   0
LINE
   8
LEVEL001
   6
CONTINUOUS
  62
7
  10
 97.6962
  20
 453.876
  30
0.0
  11
 97.5299
  21
 453.714
  31
0.0
   0
LINE
   8
LEVEL001
   6
CONTINUOUS
  62
7
  10
 97.5299
  20
 453.714
  30
0.0
  11
 97.3767
  21
 453.542
  31
0.0
   0
LINE
   8
LEVEL001
   6
CONTINUOUS
  62
7
  10
 97.3767
  20
 453.542
  30
0.0
  11
 97.2376
  21
 453.361
  31
0.0
   0
LINE
   8
LEVEL001
   6
CONTINUOUS
  62
7
  10
 97.2376
  20
 453.361
  30
0.0
  11
 97.1132
  21
 453.170
  31
0.0
   0
LINE
   8
LEVEL001
   6
CONTINUOUS
  62
7
  10
 97.1132
  20
 453.170
  30
0.0
  11
 97.0042
  21
 452.971
  31
0.0
   0
LINE
   8
LEVEL001
   6
CONTINUOUS
  62
7
  10
 97.0042
  20
 452.971
  30
0.0
  11
 96.9112
  21
 452.766
  31
0.0
   0
LINE
   8
LEVEL001
   6
CONTINUOUS
  62
7
  10
 96.9112
  20
 452.766
  30
0.0
  11
 96.8346
  21
 452.555
  31
0.0
   0
LINE
   8
LEVEL001
   6
CONTINUOUS
  62
7
  10
 96.8346
  20
 452.555
  30
0.0
  11
 96.7750
  21
 452.339
  31
0.0
   0
LINE
   8
LEVEL001
   6
CONTINUOUS
  62
7
  10
 96.7750
  20
 452.339
  30
0.0
  11
 96.7325
  21
 452.120
  31
0.0
   0
LINE
   8
LEVEL001
   6
CONTINUOUS
  62
7
  10
 96.7325
  20
 452.120
  30
0.0
  11
 96.7075
  21
 451.898
  31
0.0
   0
LINE
   8
LEVEL001
   6
CONTINUOUS
  62
7
  10
 96.7075
  20
 451.898
  30
0.0
  11
 96.7001
  21
 451.676
  31
0.0
   0
LINE
   8
LEVEL001
   6
CONTINUOUS
  62
7
  10
 96.7001
  20
 451.676
  30
0.0
  11
 96.7102
  21
 451.453
  31
0.0
   0
LINE
   8
LEVEL001
   6
CONTINUOUS
  62
7
  10
 96.7102
  20
 451.453
  30
0.0
  11
 96.7379
  21
 451.232
  31
0.0
   0
LINE
   8
LEVEL001
   6
CONTINUOUS
  62
7
  10
 96.7379
  20
 451.232
  30
0.0
  11
 96.7830
  21
 451.013
  31
0.0
   0
LINE
   8
LEVEL001
   6
CONTINUOUS
  62
7
  10
 96.7830
  20
 451.013
  30
0.0
  11
 96.8452
  21
 450.798
  31
0.0
   0
LINE
   8
LEVEL001
   6
CONTINUOUS
  62
7
  10
 96.8452
  20
 450.798
  30
0.0
  11
 96.9243
  21
 450.588
  31
0.0
   0
LINE
   8
LEVEL001
   6
CONTINUOUS
  62
7
  10
 96.9243
  20
 450.588
  30
0.0
  11
 97.0198
  21
 450.383
  31
0.0
   0
LINE
   8
LEVEL001
   6
CONTINUOUS
  62
7
  10
 97.0198
  20
 450.383
  30
0.0
  11
 97.1312
  21
 450.186
  31
0.0
   0
LINE
   8
LEVEL001
   6
CONTINUOUS
  62
7
  10
 97.1312
  20
 450.186
  30
0.0
  11
 97.2579
  21
 449.996
  31
0.0
   0
LINE
   8
LEVEL001
   6
CONTINUOUS
  62
7
  10
 97.2579
  20
 449.996
  30
0.0
  11
 97.3992
  21
 449.816
  31
0.0
   0
LINE
   8
LEVEL001
   6
CONTINUOUS
  62
7
  10
 97.3992
  20
 449.816
  30
0.0
  11
 97.5544
  21
 449.646
  31
0.0
   0
LINE
   8
LEVEL001
   6
CONTINUOUS
  62
7
  10
 97.5544
  20
 449.646
  30
0.0
  11
 97.7226
  21
 449.486
  31
0.0
   0
LINE
   8
LEVEL001
   6
CONTINUOUS
  62
7
  10
 97.7226
  20
 449.486
  30
0.0
  11
 97.9030
  21
 449.339
  31
0.0
   0
LINE
   8
LEVEL001
   6
CONTINUOUS
  62
7
  10
 97.9030
  20
 449.339
  30
0.0
  11
 98.0946
  21
 449.203
  31
0.0
   0
LINE
   8
LEVEL001
   6
CONTINUOUS
  62
7
  10
 98.0946
  20
 449.203
  30
0.0
  11
 98.2963
  21
 449.082
  31
0.0
   0
LINE
   8
LEVEL001
   6
CONTINUOUS
  62
7
  10
 102.400
  20
 450.660
  30
0.0
  11
 102.391
  21
 450.853
  31
0.0
   0
LINE
   8
LEVEL001
   6
CONTINUOUS
  62
7
  10
 102.391
  20
 450.853
  30
0.0
  11
 102.364
  21
 451.045
  31
0.0
   0
LINE
   8
LEVEL001
   6
CONTINUOUS
  62
7
  10
 102.364
  20
 451.045
  30
0.0
  11
 102.318
  21
 451.234
  31
0.0
   0
LINE
   8
LEVEL001
   6
CONTINUOUS
  62
7
  10
 102.318
  20
 451.234
  30
0.0
  11
 102.255
  21
 451.418
  31
0.0
   0
LINE
   8
LEVEL001
   6
CONTINUOUS
  62
7
  10
 102.255
  20
 451.418
  30
0.0
  11
 102.175
  21
 451.597
  31
0.0
   0
LINE
   8
LEVEL001
   6
CONTINUOUS
  62
7
  10
 102.175
  20
 451.597
  30
0.0
  11
 102.078
  21
 451.768
  31
0.0
   0
LINE
   8
LEVEL001
   6
CONTINUOUS
  62
7
  10
 102.078
  20
 451.768
  30
0.0
  11
 101.966
  21
 451.931
  31
0.0
   0
LINE
   8
LEVEL001
   6
CONTINUOUS
  62
7
  10
 101.966
  20
 451.931
  30
0.0
  11
 101.839
  21
 452.085
  31
0.0
   0
LINE
   8
LEVEL001
   6
CONTINUOUS
  62
7
  10
 101.839
  20
 452.085
  30
0.0
  11
 101.697
  21
 452.228
  31
0.0
   0
LINE
   8
LEVEL001
   6
CONTINUOUS
  62
7
  10
 101.697
  20
 452.228
  30
0.0
  11
 101.543
  21
 452.358
  31
0.0
   0
LINE
   8
LEVEL001
   6
CONTINUOUS
  62
7
  10
 101.543
  20
 452.358
  30
0.0
  11
 101.377
  21
 452.476
  31
0.0
   0
LINE
   8
LEVEL001
   6
CONTINUOUS
  62
7
  10
 101.377
  20
 452.476
  30
0.0
  11
 101.200
  21
 452.580
  31
0.0
   0
LINE
   8
LEVEL001
   6
CONTINUOUS
  62
7
  10
 101.200
  20
 452.580
  30
0.0
  11
 101.014
  21
 452.669
  31
0.0
   0
LINE
   8
LEVEL001
   6
CONTINUOUS
  62
7
  10
 101.014
  20
 452.669
  30
0.0
  11
 100.821
  21
 452.743
  31
0.0
   0
LINE
   8
LEVEL001
   6
CONTINUOUS
  62
7
  10
 100.821
  20
 452.743
  30
0.0
  11
 100.621
  21
 452.801
  31
0.0
   0
LINE
   8
LEVEL001
   6
CONTINUOUS
  62
7
  10
 100.621
  20
 452.801
  30
0.0
  11
 100.417
  21
 452.843
  31
0.0
   0
LINE
   8
LEVEL001
   6
CONTINUOUS
  62
7
  10
 100.417
  20
 452.843
  30
0.0
  11
 100.209
  21
 452.869
  31
0.0
   0
LINE
   8
LEVEL001
   6
CONTINUOUS
  62
7
  10
 100.209
  20
 452.869
  30
0.0
  11
 100.000
  21
 452.877
  31
0.0
   0
LINE
   8
LEVEL001
   6
CONTINUOUS
  62
7
  10
 100.000
  20
 452.877
  30
0.0
  11
 99.7908
  21
 452.869
  31
0.0
   0
LINE
   8
LEVEL001
   6
CONTINUOUS
  62
7
  10
 99.7908
  20
 452.869
  30
0.0
  11
 99.5832
  21
 452.843
  31
0.0
   0
LINE
   8
LEVEL001
   6
CONTINUOUS
  62
7
  10
 99.5832
  20
 452.843
  30
0.0
  11
 99.3788
  21
 452.801
  31
0.0
   0
LINE
   8
LEVEL001
   6
CONTINUOUS
  62
7
  10
 99.3788
  20
 452.801
  30
0.0
  11
 99.1792
  21
 452.743
  31
0.0
   0
LINE
   8
LEVEL001
   6
CONTINUOUS
  62
7
  10
 99.1792
  20
 452.743
  30
0.0
  11
 98.9857
  21
 452.669
  31
0.0
   0
LINE
   8
LEVEL001
   6
CONTINUOUS
  62
7
  10
 98.9857
  20
 452.669
  30
0.0
  11
 98.8000
  21
 452.580
  31
0.0
   0
LINE
   8
LEVEL001
   6
CONTINUOUS
  62
7
  10
 98.8000
  20
 452.580
  30
0.0
  11
 98.6234
  21
 452.476
  31
0.0
   0
LINE
   8
LEVEL001
   6
CONTINUOUS
  62
7
  10
 98.6234
  20
 452.476
  30
0.0
  11
 98.4573
  21
 452.358
  31
0.0
   0
LINE
   8
LEVEL001
   6
CONTINUOUS
  62
7
  10
 98.4573
  20
 452.358
  30
0.0
  11
 98.3029
  21
 452.228
  31
0.0
   0
LINE
   8
LEVEL001
   6
CONTINUOUS
  62
7
  10
 98.3029
  20
 452.228
  30
0.0
  11
 98.1615
  21
 452.085
  31
0.0
   0
LINE
   8
LEVEL001
   6
CONTINUOUS
  62
7
  10
 98.1615
  20
 452.085
  30
0.0
  11
 98.0340
  21
 451.931
  31
0.0
   0
LINE
   8
LEVEL001
   6
CONTINUOUS
  62
7
  10
 98.0340
  20
 451.931
  30
0.0
  11
 97.9215
  21
 451.768
  31
0.0
   0
LINE
   8
LEVEL001
   6
CONTINUOUS
  62
7
  10
 97.9215
  20
 451.768
  30
0.0
  11
 97.8249
  21
 451.597
  31
0.0
   0
LINE
   8
LEVEL001
   6
CONTINUOUS
  62
7
  10
 97.8249
  20
 451.597
  30
0.0
  11
 97.7447
  21
 451.418
  31
0.0
   0
LINE
   8
LEVEL001
   6
CONTINUOUS
  62
7
  10
 97.7447
  20
 451.418
  30
0.0
  11
 97.6818
  21
 451.234
  31
0.0
   0
LINE
   8
LEVEL001
   6
CONTINUOUS
  62
7
  10
 97.6818
  20
 451.234
  30
0.0
  11
 97.6365
  21
 451.045
  31
0.0
   0
LINE
   8
LEVEL001
   6
CONTINUOUS
  62
7
  10
 97.6365
  20
 451.045
  30
0.0
  11
 97.6091
  21
 450.853
  31
0.0
   0
LINE
   8
LEVEL001
   6
CONTINUOUS
  62
7
  10
 97.6091
  20
 450.853
  30
0.0
  11
 97.6000
  21
 450.660
  31
0.0
   0
LINE
   8
LEVEL001
   6
CONTINUOUS
  62
7
  10
 97.6000
  20
 450.660
  30
0.0
  11
 97.6091
  21
 450.466
  31
0.0
   0
LINE
   8
LEVEL001
   6
CONTINUOUS
  62
7
  10
 97.6091
  20
 450.466
  30
0.0
  11
 97.6365
  21
 450.275
  31
0.0
   0
LINE
   8
LEVEL001
   6
CONTINUOUS
  62
7
  10
 97.6365
  20
 450.275
  30
0.0
  11
 97.6818
  21
 450.086
  31
0.0
   0
LINE
   8
LEVEL001
   6
CONTINUOUS
  62
7
  10
 97.6818
  20
 450.086
  30
0.0
  11
 97.7447
  21
 449.901
  31
0.0
   0
LINE
   8
LEVEL001
   6
CONTINUOUS
  62
7
  10
 97.7447
  20
 449.901
  30
0.0
  11
 97.8249
  21
 449.723
  31
0.0
   0
LINE
   8
LEVEL001
   6
CONTINUOUS
  62
7
  10
 97.8249
  20
 449.723
  30
0.0
  11
 97.9215
  21
 449.551
  31
0.0
   0
LINE
   8
LEVEL001
   6
CONTINUOUS
  62
7
  10
 97.9215
  20
 449.551
  30
0.0
  11
 98.0340
  21
 449.388
  31
0.0
   0
LINE
   8
LEVEL001
   6
CONTINUOUS
  62
7
  10
 98.0340
  20
 449.388
  30
0.0
  11
 98.1615
  21
 449.234
  31
0.0
   0
LINE
   8
LEVEL001
   6
CONTINUOUS
  62
7
  10
 98.1615
  20
 449.234
  30
0.0
  11
 98.3029
  21
 449.092
  31
0.0
   0
LINE
   8
LEVEL001
   6
CONTINUOUS
  62
7
  10
 98.3029
  20
 449.092
  30
0.0
  11
 98.4573
  21
 448.961
  31
0.0
   0
LINE
   8
LEVEL001
   6
CONTINUOUS
  62
7
  10
 98.4573
  20
 448.961
  30
0.0
  11
 98.6234
  21
 448.843
  31
0.0
   0
LINE
   8
LEVEL001
   6
CONTINUOUS
  62
7
  10
 98.6234
  20
 448.843
  30
0.0
  11
 98.8000
  21
 448.739
  31
0.0
   0
LINE
   8
LEVEL001
   6
CONTINUOUS
  62
7
  10
 98.8000
  20
 448.739
  30
0.0
  11
 98.9857
  21
 448.650
  31
0.0
   0
LINE
   8
LEVEL001
   6
CONTINUOUS
  62
7
  10
 98.9857
  20
 448.650
  30
0.0
  11
 99.1792
  21
 448.576
  31
0.0
   0
LINE
   8
LEVEL001
   6
CONTINUOUS
  62
7
  10
 99.1792
  20
 448.576
  30
0.0
  11
 99.3788
  21
 448.518
  31
0.0
   0
LINE
   8
LEVEL001
   6
CONTINUOUS
  62
7
  10
 99.3788
  20
 448.518
  30
0.0
  11
 99.5832
  21
 448.476
  31
0.0
   0
LINE
   8
LEVEL001
   6
CONTINUOUS
  62
7
  10
 99.5832
  20
 448.476
  30
0.0
  11
 99.7908
  21
 448.451
  31
0.0
   0
LINE
   8
LEVEL001
   6
CONTINUOUS
  62
7
  10
 99.7908
  20
 448.451
  30
0.0
  11
 100.000
  21
 448.442
  31
0.0
   0
LINE
   8
LEVEL001
   6
CONTINUOUS
  62
7
  10
 100.000
  20
 448.442
  30
0.0
  11
 100.209
  21
 448.451
  31
0.0
   0
LINE
   8
LEVEL001
   6
CONTINUOUS
  62
7
  10
 100.209
  20
 448.451
  30
0.0
  11
 100.417
  21
 448.476
  31
0.0
   0
LINE
   8
LEVEL001
   6
CONTINUOUS
  62
7
  10
 100.417
  20
 448.476
  30
0.0
  11
 100.621
  21
 448.518
  31
0.0
   0
LINE
   8
LEVEL001
   6
CONTINUOUS
  62
7
  10
 100.621
  20
 448.518
  30
0.0
  11
 100.821
  21
 448.576
  31
0.0
   0
LINE
   8
LEVEL001
   6
CONTINUOUS
  62
7
  10
 100.821
  20
 448.576
  30
0.0
  11
 101.014
  21
 448.650
  31
0.0
   0
LINE
   8
LEVEL001
   6
CONTINUOUS
  62
7
  10
 101.014
  20
 448.650
  30
0.0
  11
 101.200
  21
 448.739
  31
0.0
   0
LINE
   8
LEVEL001
   6
CONTINUOUS
  62
7
  10
 101.200
  20
 448.739
  30
0.0
  11
 101.377
  21
 448.843
  31
0.0
   0
LINE
   8
LEVEL001
   6
CONTINUOUS
  62
7
  10
 101.377
  20
 448.843
  30
0.0
  11
 101.543
  21
 448.961
  31
0.0
   0
LINE
   8
LEVEL001
   6
CONTINUOUS
  62
7
  10
 101.543
  20
 448.961
  30
0.0
  11
 101.697
  21
 449.092
  31
0.0
   0
LINE
   8
LEVEL001
   6
CONTINUOUS
  62
7
  10
 101.697
  20
 449.092
  30
0.0
  11
 101.839
  21
 449.234
  31
0.0
   0
LINE
   8
LEVEL001
   6
CONTINUOUS
  62
7
  10
 101.839
  20
 449.234
  30
0.0
  11
 101.966
  21
 449.388
  31
0.0
   0
LINE
   8
LEVEL001
   6
CONTINUOUS
  62
7
  10
 101.966
  20
 449.388
  30
0.0
  11
 102.078
  21
 449.551
  31
0.0
   0
LINE
   8
LEVEL001
   6
CONTINUOUS
  62
7
  10
 102.078
  20
 449.551
  30
0.0
  11
 102.175
  21
 449.723
  31
0.0
   0
LINE
   8
LEVEL001
   6
CONTINUOUS
  62
7
  10
 102.175
  20
 449.723
  30
0.0
  11
 102.255
  21
 449.901
  31
0.0
   0
LINE
   8
LEVEL001
   6
CONTINUOUS
  62
7
  10
 102.255
  20
 449.901
  30
0.0
  11
 102.318
  21
 450.086
  31
0.0
   0
LINE
   8
LEVEL001
   6
CONTINUOUS
  62
7
  10
 102.318
  20
 450.086
  30
0.0
  11
 102.364
  21
 450.275
  31
0.0
   0
LINE
   8
LEVEL001
   6
CONTINUOUS
  62
7
  10
 102.364
  20
 450.275
  30
0.0
  11
 102.391
  21
 450.466
  31
0.0
   0
LINE
   8
LEVEL001
   6
CONTINUOUS
  62
7
  10
 102.391
  20
 450.466
  30
0.0
  11
 102.400
  21
 450.660
  31
0.0
   0
LINE
   8
LEVEL001
   6
CONTINUOUS
  62
7
  10
 95.7170
  20
 464.500
  30
0.0
  11
 95.7196
  21
 464.602
  31
0.0
   0
LINE
   8
LEVEL001
   6
CONTINUOUS
  62
7
  10
 95.1395
  20
 464.616
  30
0.0
  11
 95.1170
  21
 463.900
  31
0.0
   0
LINE
   8
LEVEL001
   6
CONTINUOUS
  62
7
  10
 104.283
  20
 464.500
  30
0.0
  11
 104.280
  21
 464.602
  31
0.0
   0
LINE
   8
LEVEL001
   6
CONTINUOUS
  62
7
  10
 104.883
  20
 463.900
  30
0.0
  11
 104.860
  21
 464.616
  31
0.0
   0
ARC
   8
LEVEL001
   6
CONTINUOUS
  62
7
  10
 100.000
  20
 450.660
  30
0.0
  40
 1.00000
  50
 180.020
  51
 0.201250E-1
   0
LINE
   8
LEVEL001
   6
CONTINUOUS
  62
7
  10
 100.999
  20
 450.660
  30
0.0
  11
 100.998
  21
 450.701
  31
0.0
   0
LINE
   8
LEVEL001
   6
CONTINUOUS
  62
7
  10
 100.998
  20
 450.701
  30
0.0
  11
 100.996
  21
 450.741
  31
0.0
   0
LINE
   8
LEVEL001
   6
CONTINUOUS
  62
7
  10
 100.996
  20
 450.741
  30
0.0
  11
 100.991
  21
 450.781
  31
0.0
   0
LINE
   8
LEVEL001
   6
CONTINUOUS
  62
7
  10
 100.991
  20
 450.781
  30
0.0
  11
 100.984
  21
 450.821
  31
0.0
   0
LINE
   8
LEVEL001
   6
CONTINUOUS
  62
7
  10
 100.984
  20
 450.821
  30
0.0
  11
 100.976
  21
 450.860
  31
0.0
   0
LINE
   8
LEVEL001
   6
CONTINUOUS
  62
7
  10
 100.976
  20
 450.860
  30
0.0
  11
 100.965
  21
 450.899
  31
0.0
   0
LINE
   8
LEVEL001
   6
CONTINUOUS
  62
7
  10
 100.965
  20
 450.899
  30
0.0
  11
 100.953
  21
 450.938
  31
0.0
   0
LINE
   8
LEVEL001
   6
CONTINUOUS
  62
7
  10
 100.953
  20
 450.938
  30
0.0
  11
 100.939
  21
 450.976
  31
0.0
   0
LINE
   8
LEVEL001
   6
CONTINUOUS
  62
7
  10
 100.939
  20
 450.976
  30
0.0
  11
 100.923
  21
 451.014
  31
0.0
   0
LINE
   8
LEVEL001
   6
CONTINUOUS
  62
7
  10
 100.923
  20
 451.014
  30
0.0
  11
 100.906
  21
 451.051
  31
0.0
   0
LINE
   8
LEVEL001
   6
CONTINUOUS
  62
7
  10
 100.906
  20
 451.051
  30
0.0
  11
 100.886
  21
 451.087
  31
0.0
   0
LINE
   8
LEVEL001
   6
CONTINUOUS
  62
7
  10
 100.886
  20
 451.087
  30
0.0
  11
 100.865
  21
 451.122
  31
0.0
   0
LINE
   8
LEVEL001
   6
CONTINUOUS
  62
7
  10
 100.865
  20
 451.122
  30
0.0
  11
 100.843
  21
 451.157
  31
0.0
   0
LINE
   8
LEVEL001
   6
CONTINUOUS
  62
7
  10
 100.843
  20
 451.157
  30
0.0
  11
 100.818
  21
 451.190
  31
0.0
   0
LINE
   8
LEVEL001
   6
CONTINUOUS
  62
7
  10
 100.818
  20
 451.190
  30
0.0
  11
 100.793
  21
 451.223
  31
0.0
   0
LINE
   8
LEVEL001
   6
CONTINUOUS
  62
7
  10
 100.793
  20
 451.223
  30
0.0
  11
 100.765
  21
 451.254
  31
0.0
   0
LINE
   8
LEVEL001
   6
CONTINUOUS
  62
7
  10
 100.765
  20
 451.254
  30
0.0
  11
 100.736
  21
 451.284
  31
0.0
   0
LINE
   8
LEVEL001
   6
CONTINUOUS
  62
7
  10
 100.736
  20
 451.284
  30
0.0
  11
 100.706
  21
 451.313
  31
0.0
   0
LINE
   8
LEVEL001
   6
CONTINUOUS
  62
7
  10
 100.706
  20
 451.313
  30
0.0
  11
 100.675
  21
 451.341
  31
0.0
   0
LINE
   8
LEVEL001
   6
CONTINUOUS
  62
7
  10
 100.675
  20
 451.341
  30
0.0
  11
 100.642
  21
 451.368
  31
0.0
   0
LINE
   8
LEVEL001
   6
CONTINUOUS
  62
7
  10
 100.642
  20
 451.368
  30
0.0
  11
 100.608
  21
 451.393
  31
0.0
   0
LINE
   8
LEVEL001
   6
CONTINUOUS
  62
7
  10
 100.608
  20
 451.393
  30
0.0
  11
 100.573
  21
 451.417
  31
0.0
   0
LINE
   8
LEVEL001
   6
CONTINUOUS
  62
7
  10
 100.573
  20
 451.417
  30
0.0
  11
 100.536
  21
 451.439
  31
0.0
   0
LINE
   8
LEVEL001
   6
CONTINUOUS
  62
7
  10
 100.536
  20
 451.439
  30
0.0
  11
 100.499
  21
 451.460
  31
0.0
   0
LINE
   8
LEVEL001
   6
CONTINUOUS
  62
7
  10
 100.499
  20
 451.460
  30
0.0
  11
 100.461
  21
 451.480
  31
0.0
   0
LINE
   8
LEVEL001
   6
CONTINUOUS
  62
7
  10
 100.461
  20
 451.480
  30
0.0
  11
 100.422
  21
 451.497
  31
0.0
   0
LINE
   8
LEVEL001
   6
CONTINUOUS
  62
7
  10
 100.422
  20
 451.497
  30
0.0
  11
 100.382
  21
 451.514
  31
0.0
   0
LINE
   8
LEVEL001
   6
CONTINUOUS
  62
7
  10
 100.382
  20
 451.514
  30
0.0
  11
 100.341
  21
 451.528
  31
0.0
   0
LINE
   8
LEVEL001
   6
CONTINUOUS
  62
7
  10
 100.341
  20
 451.528
  30
0.0
  11
 100.300
  21
 451.541
  31
0.0
   0
LINE
   8
LEVEL001
   6
CONTINUOUS
  62
7
  10
 100.300
  20
 451.541
  30
0.0
  11
 100.258
  21
 451.552
  31
0.0
   0
LINE
   8
LEVEL001
   6
CONTINUOUS
  62
7
  10
 100.258
  20
 451.552
  30
0.0
  11
 100.216
  21
 451.562
  31
0.0
   0
LINE
   8
LEVEL001
   6
CONTINUOUS
  62
7
  10
 100.216
  20
 451.562
  30
0.0
  11
 100.173
  21
 451.570
  31
0.0
   0
LINE
   8
LEVEL001
   6
CONTINUOUS
  62
7
  10
 100.173
  20
 451.570
  30
0.0
  11
 100.130
  21
 451.576
  31
0.0
   0
LINE
   8
LEVEL001
   6
CONTINUOUS
  62
7
  10
 100.130
  20
 451.576
  30
0.0
  11
 100.086
  21
 451.580
  31
0.0
   0
LINE
   8
LEVEL001
   6
CONTINUOUS
  62
7
  10
 100.086
  20
 451.580
  30
0.0
  11
 100.043
  21
 451.583
  31
0.0
   0
LINE
   8
LEVEL001
   6
CONTINUOUS
  62
7
  10
 100.043
  20
 451.583
  30
0.0
  11
 99.9991
  21
 451.584
  31
0.0
   0
LINE
   8
LEVEL001
   6
CONTINUOUS
  62
7
  10
 99.9991
  20
 451.584
  30
0.0
  11
 99.9555
  21
 451.583
  31
0.0
   0
LINE
   8
LEVEL001
   6
CONTINUOUS
  62
7
  10
 99.9555
  20
 451.583
  30
0.0
  11
 99.9120
  21
 451.580
  31
0.0
   0
LINE
   8
LEVEL001
   6
CONTINUOUS
  62
7
  10
 99.9120
  20
 451.580
  30
0.0
  11
 99.8686
  21
 451.576
  31
0.0
   0
LINE
   8
LEVEL001
   6
CONTINUOUS
  62
7
  10
 99.8686
  20
 451.576
  30
0.0
  11
 99.8255
  21
 451.570
  31
0.0
   0
LINE
   8
LEVEL001
   6
CONTINUOUS
  62
7
  10
 99.8255
  20
 451.570
  30
0.0
  11
 99.7827
  21
 451.562
  31
0.0
   0
LINE
   8
LEVEL001
   6
CONTINUOUS
  62
7
  10
 99.7827
  20
 451.562
  30
0.0
  11
 99.7404
  21
 451.552
  31
0.0
   0
LINE
   8
LEVEL001
   6
CONTINUOUS
  62
7
  10
 99.7404
  20
 451.552
  30
0.0
  11
 99.6985
  21
 451.541
  31
0.0
   0
LINE
   8
LEVEL001
   6
CONTINUOUS
  62
7
  10
 99.6985
  20
 451.541
  30
0.0
  11
 99.6572
  21
 451.528
  31
0.0
   0
LINE
   8
LEVEL001
   6
CONTINUOUS
  62
7
  10
 99.6572
  20
 451.528
  30
0.0
  11
 99.6165
  21
 451.513
  31
0.0
   0
LINE
   8
LEVEL001
   6
CONTINUOUS
  62
7
  10
 99.6165
  20
 451.513
  30
0.0
  11
 99.5766
  21
 451.497
  31
0.0
   0
LINE
   8
LEVEL001
   6
CONTINUOUS
  62
7
  10
 99.5766
  20
 451.497
  30
0.0
  11
 99.5375
  21
 451.479
  31
0.0
   0
LINE
   8
LEVEL001
   6
CONTINUOUS
  62
7
  10
 99.5375
  20
 451.479
  30
0.0
  11
 99.4992
  21
 451.460
  31
0.0
   0
LINE
   8
LEVEL001
   6
CONTINUOUS
  62
7
  10
 99.4992
  20
 451.460
  30
0.0
  11
 99.4619
  21
 451.439
  31
0.0
   0
LINE
   8
LEVEL001
   6
CONTINUOUS
  62
7
  10
 99.4619
  20
 451.439
  30
0.0
  11
 99.4257
  21
 451.417
  31
0.0
   0
LINE
   8
LEVEL001
   6
CONTINUOUS
  62
7
  10
 99.4257
  20
 451.417
  30
0.0
  11
 99.3905
  21
 451.393
  31
0.0
   0
LINE
   8
LEVEL001
   6
CONTINUOUS
  62
7
  10
 99.3905
  20
 451.393
  30
0.0
  11
 99.3565
  21
 451.368
  31
0.0
   0
LINE
   8
LEVEL001
   6
CONTINUOUS
  62
7
  10
 99.3565
  20
 451.368
  30
0.0
  11
 99.3237
  21
 451.341
  31
0.0
   0
LINE
   8
LEVEL001
   6
CONTINUOUS
  62
7
  10
 99.3237
  20
 451.341
  30
0.0
  11
 99.2922
  21
 451.313
  31
0.0
   0
LINE
   8
LEVEL001
   6
CONTINUOUS
  62
7
  10
 99.2922
  20
 451.313
  30
0.0
  11
 99.2620
  21
 451.284
  31
0.0
   0
LINE
   8
LEVEL001
   6
CONTINUOUS
  62
7
  10
 99.2620
  20
 451.284
  30
0.0
  11
 99.2332
  21
 451.254
  31
0.0
   0
LINE
   8
LEVEL001
   6
CONTINUOUS
  62
7
  10
 99.2332
  20
 451.254
  30
0.0
  11
 99.2059
  21
 451.222
  31
0.0
   0
LINE
   8
LEVEL001
   6
CONTINUOUS
  62
7
  10
 99.2059
  20
 451.222
  30
0.0
  11
 99.1802
  21
 451.190
  31
0.0
   0
LINE
   8
LEVEL001
   6
CONTINUOUS
  62
7
  10
 99.1802
  20
 451.190
  30
0.0
  11
 99.1559
  21
 451.156
  31
0.0
   0
LINE
   8
LEVEL001
   6
CONTINUOUS
  62
7
  10
 99.1559
  20
 451.156
  30
0.0
  11
 99.1333
  21
 451.122
  31
0.0
   0
LINE
   8
LEVEL001
   6
CONTINUOUS
  62
7
  10
 99.1333
  20
 451.122
  30
0.0
  11
 99.1123
  21
 451.087
  31
0.0
   0
LINE
   8
LEVEL001
   6
CONTINUOUS
  62
7
  10
 99.1123
  20
 451.087
  30
0.0
  11
 99.0930
  21
 451.050
  31
0.0
   0
LINE
   8
LEVEL001
   6
CONTINUOUS
  62
7
  10
 99.0930
  20
 451.050
  30
0.0
  11
 99.0754
  21
 451.014
  31
0.0
   0
LINE
   8
LEVEL001
   6
CONTINUOUS
  62
7
  10
 99.0754
  20
 451.014
  30
0.0
  11
 99.0596
  21
 450.976
  31
0.0
   0
LINE
   8
LEVEL001
   6
CONTINUOUS
  62
7
  10
 99.0596
  20
 450.976
  30
0.0
  11
 99.0456
  21
 450.938
  31
0.0
   0
LINE
   8
LEVEL001
   6
CONTINUOUS
  62
7
  10
 99.0456
  20
 450.938
  30
0.0
  11
 99.0334
  21
 450.899
  31
0.0
   0
LINE
   8
LEVEL001
   6
CONTINUOUS
  62
7
  10
 99.0334
  20
 450.899
  30
0.0
  11
 99.0230
  21
 450.860
  31
0.0
   0
LINE
   8
LEVEL001
   6
CONTINUOUS
  62
7
  10
 99.0230
  20
 450.860
  30
0.0
  11
 99.0145
  21
 450.820
  31
0.0
   0
LINE
   8
LEVEL001
   6
CONTINUOUS
  62
7
  10
 99.0145
  20
 450.820
  30
0.0
  11
 99.0079
  21
 450.781
  31
0.0
   0
LINE
   8
LEVEL001
   6
CONTINUOUS
  62
7
  10
 99.0079
  20
 450.781
  30
0.0
  11
 99.0032
  21
 450.741
  31
0.0
   0
LINE
   8
LEVEL001
   6
CONTINUOUS
  62
7
  10
 99.0032
  20
 450.741
  30
0.0
  11
 99.0003
  21
 450.700
  31
0.0
   0
LINE
   8
LEVEL001
   6
CONTINUOUS
  62
7
  10
 99.0003
  20
 450.700
  30
0.0
  11
 98.9993
  21
 450.660
  31
0.0
   0
LINE
   8
LEVEL001
   6
DASHDOT
  62
1
  10
 25.0000
  20
 525.000
  30
0.0
  11
 175.000
  21
 525.000
  31
0.0
   0
LINE
   8
LEVEL001
   6
DASHDOT
  62
1
  10
 10.0000
  20
 493.000
  30
0.0
  11
 190.000
  21
 493.000
  31
0.0
   0
LINE
   8
LEVEL001
   6
DASHDOT
  62
1
  10
 42.5000
  20
 541.500
  30
0.0
  11
 42.5000
  21
 508.500
  31
0.0
   0
LINE
   8
LEVEL001
   6
DASHDOT
  62
1
  10
 157.500
  20
 541.500
  30
0.0
  11
 157.500
  21
 508.500
  31
0.0
   0
LINE
   8
LEVEL001
   6
CONTINUOUS
  62
7
  10
 15.0000
  20
 499.500
  30
0.0
  11
 15.0000
  21
 486.500
  31
0.0
   0
LINE
   8
LEVEL001
   6
CONTINUOUS
  62
7
  10
 16.0000
  20
 485.500
  30
0.0
  11
 15.0000
  21
 486.500
  31
0.0
   0
LINE
   8
LEVEL001
   6
CONTINUOUS
  62
7
  10
 16.0000
  20
 500.500
  30
0.0
  11
 15.0000
  21
 499.500
  31
0.0
   0
LINE
   8
LEVEL001
   6
CONTINUOUS
  62
7
  10
 16.0000
  20
 485.500
  30
0.0
  11
 16.0000
  21
 490.500
  31
0.0
   0
LINE
   8
LEVEL001
   6
CONTINUOUS
  62
7
  10
 16.0000
  20
 495.500
  30
0.0
  11
 16.0000
  21
 500.500
  31
0.0
   0
LINE
   8
LEVEL001
   6
DASHDOT
  62
1
  10
 100.000
  20
 570.000
  30
0.0
  11
 100.000
  21
 445.000
  31
0.0
   0
TEXT
   8
LEVEL003
  62
7
  10
 385.889
  20
 29.2226
  30
0.0
  40
 20.0000
   1
ＯＳＡＫＡ ＪＡＣＫ
   7
STANDARD
   0
CIRCLE
   8
LEVEL003
   6
CONTINUOUS
  62
7
  10
 361.943
  20
 43.3240
  30
0.0
  40
 6.00000
   0
LINE
   8
LEVEL003
   6
CONTINUOUS
  62
7
  10
 373.719
  20
 49.3240
  30
0.0
  11
 366.101
  21
 36.1240
  31
0.0
   0
LINE
   8
LEVEL003
   6
CONTINUOUS
  62
7
  10
 366.101
  20
 36.1240
  30
0.0
  11
 350.859
  21
 36.1240
  31
0.0
   0
LINE
   8
LEVEL003
   6
CONTINUOUS
  62
7
  10
 349.125
  20
 33.1240
  30
0.0
  11
 376.367
  21
 33.1240
  31
0.0
   0
LINE
   8
LEVEL003
   6
CONTINUOUS
  62
7
  10
 376.367
  20
 33.1240
  30
0.0
  11
 385.719
  21
 49.3240
  31
0.0
   0
LINE
   8
LEVEL003
   6
CONTINUOUS
  62
7
  10
 385.719
  20
 49.3240
  30
0.0
  11
 373.719
  21
 49.3240
  31
0.0
   0
LINE
   8
LEVEL003
   6
CONTINUOUS
  62
7
  10
 350.859
  20
 36.1240
  30
0.0
  11
 349.125
  21
 33.1240
  31
0.0
   0
TEXT
   8
LEVEL003
  62
7
  10
 391.711
  20
 63.0094
  30
0.0
  40
 12.0000
   1
Model : ＷＪ０１Ｕ
   7
STANDARD
   0
LINE
   8
LEVEL003
   6
CONTINUOUS
  62
3
  10
 170.000
  20
 270.000
  30
0.0
  11
 187.000
  21
 270.000
  31
0.0
   0
LINE
   8
LEVEL003
   6
CONTINUOUS
  62
3
  10
 117.000
  20
 10.0000
  30
0.0
  11
 187.000
  21
 10.0000
  31
0.0
   0
LINE
   8
LEVEL003
   6
CONTINUOUS
  62
3
  10
 185.000
  20
 270.000
  30
0.0
  11
 185.000
  21
 10.0000
  31
0.0
   0
LINE
   8
LEVEL003
   6
CONTINUOUS
  62
3
  10
 185.000
  20
 270.000
  30
0.0
  11
 184.196
  21
 267.000
  31
0.0
   0
LINE
   8
LEVEL003
   6
CONTINUOUS
  62
3
  10
 185.000
  20
 270.000
  30
0.0
  11
 185.804
  21
 267.000
  31
0.0
   0
LINE
   8
LEVEL003
   6
CONTINUOUS
  62
3
  10
 185.000
  20
 10.0000
  30
0.0
  11
 185.804
  21
 13.0000
  31
0.0
   0
LINE
   8
LEVEL003
   6
CONTINUOUS
  62
3
  10
 185.000
  20
 10.0000
  30
0.0
  11
 184.196
  21
 13.0000
  31
0.0
   0
TEXT
   8
LEVEL003
  62
3
  10
 183.286
  20
 127.000
  30
0.0
  40
 4.00000
   1
10+ストローク
  50
 90.0000
   7
STANDARD
  72
1
  11
 183.286
  21
 140.000
  31
0.0
   0
LINE
   8
LEVEL003
   6
CONTINUOUS
  62
3
  10
 163.000
  20
 320.500
  30
0.0
  11
 163.000
  21
 332.000
  31
0.0
   0
LINE
   8
LEVEL003
   6
CONTINUOUS
  62
3
  10
 185.000
  20
 320.500
  30
0.0
  11
 185.000
  21
 332.000
  31
0.0
   0
LINE
   8
LEVEL003
   6
CONTINUOUS
  62
3
  10
 163.000
  20
 330.000
  30
0.0
  11
 185.000
  21
 330.000
  31
0.0
   0
LINE
   8
LEVEL003
   6
CONTINUOUS
  62
3
  10
 163.000
  20
 330.000
  30
0.0
  11
 166.000
  21
 329.196
  31
0.0
   0
LINE
   8
LEVEL003
   6
CONTINUOUS
  62
3
  10
 163.000
  20
 330.000
  30
0.0
  11
 166.000
  21
 330.804
  31
0.0
   0
LINE
   8
LEVEL003
   6
CONTINUOUS
  62
3
  10
 185.000
  20
 330.000
  30
0.0
  11
 182.000
  21
 330.804
  31
0.0
   0
LINE
   8
LEVEL003
   6
CONTINUOUS
  62
3
  10
 185.000
  20
 330.000
  30
0.0
  11
 182.000
  21
 329.196
  31
0.0
   0
TEXT
   8
LEVEL003
  62
3
  10
 172.000
  20
 331.714
  30
0.0
  40
 4.00000
   1
22
  41
 0.500000
   7
STANDARD
  72
1
  11
 174.000
  21
 331.714
  31
0.0
   0
LINE
   8
LEVEL003
   6
CONTINUOUS
  62
3
  10
 157.000
  20
 318.071
  30
0.0
  11
 157.000
  21
 347.000
  31
0.0
   0
LINE
   8
LEVEL003
   6
CONTINUOUS
  62
3
  10
 185.000
  20
 320.500
  30
0.0
  11
 185.000
  21
 347.000
  31
0.0
   0
LINE
   8
LEVEL003
   6
CONTINUOUS
  62
3
  10
 157.000
  20
 345.000
  30
0.0
  11
 185.000
  21
 345.000
  31
0.0
   0
LINE
   8
LEVEL003
   6
CONTINUOUS
  62
3
  10
 157.000
  20
 345.000
  30
0.0
  11
 160.000
  21
 344.196
  31
0.0
   0
LINE
   8
LEVEL003
   6
CONTINUOUS
  62
3
  10
 157.000
  20
 345.000
  30
0.0
  11
 160.000
  21
 345.804
  31
0.0
   0
LINE
   8
LEVEL003
   6
CONTINUOUS
  62
3
  10
 185.000
  20
 345.000
  30
0.0
  11
 182.000
  21
 345.804
  31
0.0
   0
LINE
   8
LEVEL003
   6
CONTINUOUS
  62
3
  10
 185.000
  20
 345.000
  30
0.0
  11
 182.000
  21
 344.196
  31
0.0
   0
TEXT
   8
LEVEL003
  62
3
  10
 169.000
  20
 346.714
  30
0.0
  40
 4.00000
   1
28
  41
 0.500000
   7
STANDARD
  72
1
  11
 171.000
  21
 346.714
  31
0.0
   0
LINE
   8
LEVEL003
   6
CONTINUOUS
  62
3
  10
 262.500
  20
 269.000
  30
0.0
  11
 262.500
  21
 228.000
  31
0.0
   0
LINE
   8
LEVEL003
   6
CONTINUOUS
  62
3
  10
 337.500
  20
 269.000
  30
0.0
  11
 337.500
  21
 228.000
  31
0.0
   0
LINE
   8
LEVEL003
   6
CONTINUOUS
  62
3
  10
 262.500
  20
 230.000
  30
0.0
  11
 337.500
  21
 230.000
  31
0.0
   0
LINE
   8
LEVEL003
   6
CONTINUOUS
  62
3
  10
 262.500
  20
 230.000
  30
0.0
  11
 265.500
  21
 229.196
  31
0.0
   0
LINE
   8
LEVEL003
   6
CONTINUOUS
  62
3
  10
 262.500
  20
 230.000
  30
0.0
  11
 265.500
  21
 230.804
  31
0.0
   0
LINE
   8
LEVEL003
   6
CONTINUOUS
  62
3
  10
 337.500
  20
 230.000
  30
0.0
  11
 334.500
  21
 230.804
  31
0.0
   0
LINE
   8
LEVEL003
   6
CONTINUOUS
  62
3
  10
 337.500
  20
 230.000
  30
0.0
  11
 334.500
  21
 229.196
  31
0.0
   0
TEXT
   8
LEVEL003
  62
3
  10
 298.000
  20
 231.714
  30
0.0
  40
 4.00000
   1
75
  41
 0.500000
   7
STANDARD
  72
1
  11
 300.000
  21
 231.714
  31
0.0
   0
LINE
   8
LEVEL003
   6
CONTINUOUS
  62
3
  10
 310.000
  20
 410.000
  30
0.0
  11
 332.000
  21
 410.000
  31
0.0
   0
LINE
   8
LEVEL003
   6
CONTINUOUS
  62
3
  10
 313.000
  20
 390.000
  30
0.0
  11
 332.000
  21
 390.000
  31
0.0
   0
LINE
   8
LEVEL003
   6
CONTINUOUS
  62
3
  10
 330.000
  20
 410.000
  30
0.0
  11
 330.000
  21
 390.000
  31
0.0
   0
LINE
   8
LEVEL003
   6
CONTINUOUS
  62
3
  10
 330.000
  20
 410.000
  30
0.0
  11
 329.196
  21
 407.000
  31
0.0
   0
LINE
   8
LEVEL003
   6
CONTINUOUS
  62
3
  10
 330.000
  20
 410.000
  30
0.0
  11
 330.804
  21
 407.000
  31
0.0
   0
LINE
   8
LEVEL003
   6
CONTINUOUS
  62
3
  10
 330.000
  20
 390.000
  30
0.0
  11
 330.804
  21
 393.000
  31
0.0
   0
LINE
   8
LEVEL003
   6
CONTINUOUS
  62
3
  10
 330.000
  20
 390.000
  30
0.0
  11
 329.196
  21
 393.000
  31
0.0
   0
TEXT
   8
LEVEL003
  62
3
  10
 328.286
  20
 398.000
  30
0.0
  40
 4.00000
   1
20
  50
 90.0000
  41
 0.500000
   7
STANDARD
  72
1
  11
 328.286
  21
 400.000
  31
0.0
   0
LINE
   8
LEVEL003
   6
CONTINUOUS
  62
3
  10
 310.000
  20
 410.000
  30
0.0
  11
 377.000
  21
 410.000
  31
0.0
   0
LINE
   8
LEVEL003
   6
CONTINUOUS
  62
3
  10
 338.500
  20
 270.000
  30
0.0
  11
 377.000
  21
 270.000
  31
0.0
   0
LINE
   8
LEVEL003
   6
CONTINUOUS
  62
3
  10
 375.000
  20
 410.000
  30
0.0
  11
 375.000
  21
 270.000
  31
0.0
   0
LINE
   8
LEVEL003
   6
CONTINUOUS
  62
3
  10
 375.000
  20
 410.000
  30
0.0
  11
 374.196
  21
 407.000
  31
0.0
   0
LINE
   8
LEVEL003
   6
CONTINUOUS
  62
3
  10
 375.000
  20
 410.000
  30
0.0
  11
 375.804
  21
 407.000
  31
0.0
   0
LINE
   8
LEVEL003
   6
CONTINUOUS
  62
3
  10
 375.000
  20
 270.000
  30
0.0
  11
 375.804
  21
 273.000
  31
0.0
   0
LINE
   8
LEVEL003
   6
CONTINUOUS
  62
3
  10
 375.000
  20
 270.000
  30
0.0
  11
 374.196
  21
 273.000
  31
0.0
   0
TEXT
   8
LEVEL003
  62
3
  10
 373.286
  20
 337.000
  30
0.0
  40
 4.00000
   1
140
  50
 90.0000
  41
 0.500000
   7
STANDARD
  72
1
  11
 373.286
  21
 340.000
  31
0.0
   0
LINE
   8
LEVEL003
   6
CONTINUOUS
  62
3
  10
 312.000
  20
 279.000
  30
0.0
  11
 357.000
  21
 279.000
  31
0.0
   0
LINE
   8
LEVEL003
   6
CONTINUOUS
  62
3
  10
 338.500
  20
 270.000
  30
0.0
  11
 357.000
  21
 270.000
  31
0.0
   0
LINE
   8
LEVEL003
   6
CONTINUOUS
  62
3
  10
 355.000
  20
 279.000
  30
0.0
  11
 355.000
  21
 270.000
  31
0.0
   0
LINE
   8
LEVEL003
   6
CONTINUOUS
  62
3
  10
 355.000
  20
 279.000
  30
0.0
  11
 354.196
  21
 276.000
  31
0.0
   0
LINE
   8
LEVEL003
   6
CONTINUOUS
  62
3
  10
 355.000
  20
 279.000
  30
0.0
  11
 355.804
  21
 276.000
  31
0.0
   0
LINE
   8
LEVEL003
   6
CONTINUOUS
  62
3
  10
 355.000
  20
 270.000
  30
0.0
  11
 355.804
  21
 273.000
  31
0.0
   0
LINE
   8
LEVEL003
   6
CONTINUOUS
  62
3
  10
 355.000
  20
 270.000
  30
0.0
  11
 354.196
  21
 273.000
  31
0.0
   0
TEXT
   8
LEVEL003
  62
3
  10
 353.286
  20
 273.500
  30
0.0
  40
 4.00000
   1
9
  50
 90.0000
  41
 0.500000
   7
STANDARD
  72
1
  11
 353.286
  21
 274.500
  31
0.0
   0
LINE
   8
LEVEL003
   6
CONTINUOUS
  62
3
  10
 338.500
  20
 270.000
  30
0.0
  11
 367.000
  21
 270.000
  31
0.0
   0
LINE
   8
LEVEL003
   6
CONTINUOUS
  62
3
  10
 341.000
  20
 310.000
  30
0.0
  11
 367.000
  21
 310.000
  31
0.0
   0
LINE
   8
LEVEL003
   6
CONTINUOUS
  62
3
  10
 365.000
  20
 270.000
  30
0.0
  11
 365.000
  21
 310.000
  31
0.0
   0
LINE
   8
LEVEL003
   6
CONTINUOUS
  62
3
  10
 365.000
  20
 270.000
  30
0.0
  11
 365.804
  21
 273.000
  31
0.0
   0
LINE
   8
LEVEL003
   6
CONTINUOUS
  62
3
  10
 365.000
  20
 270.000
  30
0.0
  11
 364.196
  21
 273.000
  31
0.0
   0
LINE
   8
LEVEL003
   6
CONTINUOUS
  62
3
  10
 365.000
  20
 310.000
  30
0.0
  11
 364.196
  21
 307.000
  31
0.0
   0
LINE
   8
LEVEL003
   6
CONTINUOUS
  62
3
  10
 365.000
  20
 310.000
  30
0.0
  11
 365.804
  21
 307.000
  31
0.0
   0
TEXT
   8
LEVEL003
  62
3
  10
 363.286
  20
 288.000
  30
0.0
  40
 4.00000
   1
40
  50
 90.0000
  41
 0.500000
   7
STANDARD
  72
1
  11
 363.286
  21
 290.000
  31
0.0
   0
LINE
   8
LEVEL003
   6
CONTINUOUS
  62
3
  10
 290.000
  20
 410.000
  30
0.0
  11
 290.000
  21
 427.000
  31
0.0
   0
LINE
   8
LEVEL003
   6
CONTINUOUS
  62
3
  10
 310.000
  20
 410.000
  30
0.0
  11
 310.000
  21
 427.000
  31
0.0
   0
LINE
   8
LEVEL003
   6
CONTINUOUS
  62
3
  10
 290.000
  20
 425.000
  30
0.0
  11
 310.000
  21
 425.000
  31
0.0
   0
LINE
   8
LEVEL003
   6
CONTINUOUS
  62
3
  10
 290.000
  20
 425.000
  30
0.0
  11
 293.000
  21
 424.196
  31
0.0
   0
LINE
   8
LEVEL003
   6
CONTINUOUS
  62
3
  10
 290.000
  20
 425.000
  30
0.0
  11
 293.000
  21
 425.804
  31
0.0
   0
LINE
   8
LEVEL003
   6
CONTINUOUS
  62
3
  10
 310.000
  20
 425.000
  30
0.0
  11
 307.000
  21
 425.804
  31
0.0
   0
LINE
   8
LEVEL003
   6
CONTINUOUS
  62
3
  10
 310.000
  20
 425.000
  30
0.0
  11
 307.000
  21
 424.196
  31
0.0
   0
TEXT
   8
LEVEL003
  62
3
  10
 294.000
  20
 426.714
  30
0.0
  40
 4.00000
   1
M20×2
   7
STANDARD
  72
1
  11
 300.000
  21
 426.714
  31
0.0
   0
LINE
   8
LEVEL003
   6
CONTINUOUS
  62
3
  10
 42.5000
  20
 542.500
  30
0.0
  11
 42.5000
  21
 577.000
  31
0.0
   0
LINE
   8
LEVEL003
   6
CONTINUOUS
  62
3
  10
 157.500
  20
 542.500
  30
0.0
  11
 157.500
  21
 577.000
  31
0.0
   0
LINE
   8
LEVEL003
   6
CONTINUOUS
  62
3
  10
 42.5000
  20
 575.000
  30
0.0
  11
 157.500
  21
 575.000
  31
0.0
   0
LINE
   8
LEVEL003
   6
CONTINUOUS
  62
3
  10
 42.5000
  20
 575.000
  30
0.0
  11
 45.5000
  21
 574.196
  31
0.0
   0
LINE
   8
LEVEL003
   6
CONTINUOUS
  62
3
  10
 42.5000
  20
 575.000
  30
0.0
  11
 45.5000
  21
 575.804
  31
0.0
   0
LINE
   8
LEVEL003
   6
CONTINUOUS
  62
3
  10
 157.500
  20
 575.000
  30
0.0
  11
 154.500
  21
 575.804
  31
0.0
   0
LINE
   8
LEVEL003
   6
CONTINUOUS
  62
3
  10
 157.500
  20
 575.000
  30
0.0
  11
 154.500
  21
 574.196
  31
0.0
   0
TEXT
   8
LEVEL003
  62
3
  10
 97.0000
  20
 576.714
  30
0.0
  40
 4.00000
   1
115
  41
 0.500000
   7
STANDARD
  72
1
  11
 100.000
  21
 576.714
  31
0.0
   0
LINE
   8
LEVEL003
   6
CONTINUOUS
  62
3
  10
 31.0000
  20
 533.855
  30
0.0
  11
 31.0000
  21
 592.000
  31
0.0
   0
LINE
   8
LEVEL003
   6
CONTINUOUS
  62
3
  10
 169.000
  20
 533.855
  30
0.0
  11
 169.000
  21
 592.000
  31
0.0
   0
LINE
   8
LEVEL003
   6
CONTINUOUS
  62
3
  10
 31.0000
  20
 590.000
  30
0.0
  11
 169.000
  21
 590.000
  31
0.0
   0
LINE
   8
LEVEL003
   6
CONTINUOUS
  62
3
  10
 31.0000
  20
 590.000
  30
0.0
  11
 34.0000
  21
 589.196
  31
0.0
   0
LINE
   8
LEVEL003
   6
CONTINUOUS
  62
3
  10
 31.0000
  20
 590.000
  30
0.0
  11
 34.0000
  21
 590.804
  31
0.0
   0
LINE
   8
LEVEL003
   6
CONTINUOUS
  62
3
  10
 169.000
  20
 590.000
  30
0.0
  11
 166.000
  21
 590.804
  31
0.0
   0
LINE
   8
LEVEL003
   6
CONTINUOUS
  62
3
  10
 169.000
  20
 590.000
  30
0.0
  11
 166.000
  21
 589.196
  31
0.0
   0
TEXT
   8
LEVEL003
  62
3
  10
 97.0000
  20
 591.714
  30
0.0
  40
 4.00000
   1
138
  41
 0.500000
   7
STANDARD
  72
1
  11
 100.000
  21
 591.714
  31
0.0
   0
LINE
   8
LEVEL003
   6
CONTINUOUS
  62
3
  10
 185.000
  20
 485.500
  30
0.0
  11
 185.000
  21
 433.000
  31
0.0
   0
LINE
   8
LEVEL003
   6
CONTINUOUS
  62
3
  10
 15.0000
  20
 485.500
  30
0.0
  11
 15.0000
  21
 433.000
  31
0.0
   0
LINE
   8
LEVEL003
   6
CONTINUOUS
  62
3
  10
 185.000
  20
 435.000
  30
0.0
  11
 15.0000
  21
 435.000
  31
0.0
   0
LINE
   8
LEVEL003
   6
CONTINUOUS
  62
3
  10
 185.000
  20
 435.000
  30
0.0
  11
 182.000
  21
 435.804
  31
0.0
   0
LINE
   8
LEVEL003
   6
CONTINUOUS
  62
3
  10
 185.000
  20
 435.000
  30
0.0
  11
 182.000
  21
 434.196
  31
0.0
   0
LINE
   8
LEVEL003
   6
CONTINUOUS
  62
3
  10
 15.0000
  20
 435.000
  30
0.0
  11
 18.0000
  21
 434.196
  31
0.0
   0
LINE
   8
LEVEL003
   6
CONTINUOUS
  62
3
  10
 15.0000
  20
 435.000
  30
0.0
  11
 18.0000
  21
 435.804
  31
0.0
   0
TEXT
   8
LEVEL003
  62
3
  10
 97.0000
  20
 436.714
  30
0.0
  40
 4.00000
   1
170
  41
 0.500000
   7
STANDARD
  72
1
  11
 100.000
  21
 436.714
  31
0.0
   0
LINE
   8
LEVEL004
   6
DOT
  62
3
  10
 311.000
  20
 280.000
  30
0.0
  11
 311.000
  21
 279.000
  31
0.0
   0
LINE
   8
LEVEL004
   6
DOT
  62
3
  10
 311.000
  20
 279.000
  30
0.0
  11
 289.000
  21
 279.000
  31
0.0
   0
LINE
   8
LEVEL004
   6
DOT
  62
3
  10
 289.000
  20
 280.000
  30
0.0
  11
 289.000
  21
 279.000
  31
0.0
   0
ENDSEC
   0
EOF
