   0
SECTION
   2
HEADER
   9
$LIMMIN
  10
0.0
  20
0.0
   9
$LIMMAX
  10
 1188.00
  20
 840.000
   9
$EXTMIN
  10
0.0
  20
0.0
   9
$EXTMAX
  10
 1188.00
  20
 840.000
   9
$LTSCALE
  40
 23.7600
   0
ENDSEC
   0
SECTION
   2
TABLES
  0
TABLE
  2
LTYPE
 70
    25
  0
LTYPE
  2
CONTINUOUS
 70
    64
  3
Solid line
 72
    65
 73
     0
 40
0.0
  0
LTYPE
  2
BORDER
 70
    64
  3
__ __ . __ __ . __ __ . __ __ . __ __ . __ __ .
 72
    65
 73
     6
 40
1.75
 49
0.5
 49
-0.25
 49
0.5
 49
-0.25
 49
0.0
 49
-0.25
  0
LTYPE
  2
BORDER2
 70
    64
  3
__.__.__.__.__.__.__.__.__.__.__.__.__.__.__.__
 72
    65
 73
     6
 40
0.875
 49
0.25
 49
-0.125
 49
0.25
 49
-0.125
 49
0.0
 49
-0.125
  0
LTYPE
  2
BORDERX2
 70
    64
  3
____  ____  .  ____  ____  .  ____  ____  .  __
 72
    65
 73
     6
 40
3.5
 49
1.0
 49
-0.5
 49
1.0
 49
-0.5
 49
0.0
 49
-0.5
  0
LTYPE
  2
CENTER
 70
    64
  3
____ _ ____ _ ____ _ ____ _ ____ _ ____ _ ____ 
 72
    65
 73
     4
 40
2.0
 49
1.25
 49
-0.25
 49
0.25
 49
-0.25
  0
LTYPE
  2
CENTER2
 70
    64
  3
___ _ ___ _ ___ _ ___ _ ___ _ ___ _ ___ _ ___ _
 72
    65
 73
     4
 40
1.125
 49
0.75
 49
-0.125
 49
0.125
 49
-0.125
  0
LTYPE
  2
CENTERX2
 70
    64
  3
________  __  ________  __  ________  __  _____
 72
    65
 73
     4
 40
4.0
 49
2.5
 49
-0.5
 49
0.5
 49
-0.5
  0
LTYPE
  2
DASHDOT
 70
    64
  3
__ . __ . __ . __ . __ . __ . __ . __ . __ . __
 72
    65
 73
     4
 40
1.0
 49
0.5
 49
-0.25
 49
0.0
 49
-0.25
  0
LTYPE
  2
DASHDOT2
 70
    64
  3
_._._._._._._._._._._._._._._._._._._._._._._._
 72
    65
 73
     4
 40
0.5
 49
0.25
 49
-0.125
 49
0.0
 49
-0.125
  0
LTYPE
  2
DASHDOTX2
 70
    64
  3
____  .  ____  .  ____  .  ____  .  ____  .  __
 72
    65
 73
     4
 40
2.0
 49
1.0
 49
-0.5
 49
0.0
 49
-0.5
  0
LTYPE
  2
DASHED
 70
    64
  3
__ __ __ __ __ __ __ __ __ __ __ __ __ __ __ __
 72
    65
 73
     2
 40
0.75
 49
0.5
 49
-0.25
  0
LTYPE
  2
DASHED2
 70
    64
  3
_ _ _ _ _ _ _ _ _ _ _ _ _ _ _ _ _ _ _ _ _ _ _ _
 72
    65
 73
     2
 40
0.375
 49
0.25
 49
-0.125
  0
LTYPE
  2
DASHEDX2
 70
    64
  3
____  ____  ____  ____  ____  ____  ____  ____ 
 72
    65
 73
     2
 40
1.5
 49
1.0
 49
-0.5
  0
LTYPE
  2
DIVIDE
 70
    64
  3
____ . . ____ . . ____ . . ____ . . ____ . . __
 72
    65
 73
     6
 40
1.25
 49
0.5
 49
-0.25
 49
0.0
 49
-0.25
 49
0.0
 49
-0.25
  0
LTYPE
  2
DIVIDE2
 70
    64
  3
__..__..__..__..__..__..__..__..__..__..__..__.
 72
    65
 73
     6
 40
0.625
 49
0.25
 49
-0.125
 49
0.0
 49
-0.125
 49
0.0
 49
-0.125
  0
LTYPE
  2
DIVIDEX2
 70
    64
  3
________  .  .  ________  .  .  ________  .  . 
 72
    65
 73
     6
 40
2.5
 49
1.0
 49
-0.5
 49
0.0
 49
-0.5
 49
0.0
 49
-0.5
  0
LTYPE
  2
DOT
 70
    64
  3
. . . . . . . . . . . . . . . . . . . . . . . .
 72
    65
 73
     2
 40
0.25
 49
0.0
 49
-0.25
  0
LTYPE
  2
DOT2
 70
    64
  3
...............................................
 72
    65
 73
     2
 40
0.125
 49
0.0
 49
-0.125
  0
LTYPE
  2
DOTX2
 70
    64
  3
.  .  .  .  .  .  .  .  .  .  .  .  .  .  .  . 
 72
    65
 73
     2
 40
0.5
 49
0.0
 49
-0.5
  0
LTYPE
  2
HIDDEN
 70
    64
  3
__ __ __ __ __ __ __ __ __ __ __ __ __ __ __ __
 72
    65
 73
     2
 40
0.375
 49
0.25
 49
-0.125
  0
LTYPE
  2
HIDDEN2
 70
    64
  3
_ _ _ _ _ _ _ _ _ _ _ _ _ _ _ _ _ _ _ _ _ _ _ _
 72
    65
 73
     2
 40
0.1875
 49
0.125
 49
-0.0625
  0
LTYPE
  2
HIDDENX2
 70
    64
  3
____ ____ ____ ____ ____ ____ ____ ____ ____ __
 72
    65
 73
     2
 40
0.75
 49
0.5
 49
-0.25
  0
LTYPE
  2
PHANTOM
 70
    64
  3
______  __  __  ______  __  __  ______  __  __ 
 72
    65
 73
     6
 40
2.5
 49
1.25
 49
-0.25
 49
0.25
 49
-0.25
 49
0.25
 49
-0.25
  0
LTYPE
  2
PHANTOM2
 70
    64
  3
___ _ _ ___ _ _ ___ _ _ ___ _ _ ___ _ _ ___ _ _
 72
    65
 73
     6
 40
1.25
 49
0.625
 49
-0.125
 49
0.125
 49
-0.125
 49
0.125
 49
-0.125
  0
LTYPE
  2
PHANTOMX2
 70
    64
  3
____________    ____    ____    ____________   
 72
    65
 73
     6
 40
5.0
 49
2.5
 49
-0.5
 49
0.5
 49
-0.5
 49
0.5
 49
-0.5
  0
ENDTAB
  0
TABLE
  2
STYLE
 70
     2
  0
STYLE
  2
STANDARD
 70
0
 40
0.0
 41
1.0
 50
0.0
 71
0
 42
0.2
  3
TXT
  4
BIGFONT
  0
STYLE
  2
STANDARD1
 70
     4
 40
0.0
 41
1.0
 50
0.0
 71
     0
 42
0.2
  3
TXT
  4
BIGFONT
  0
ENDTAB
   0
TABLE
   2
LAYER
  70
4
   0
LAYER
   2
0
  70
0
  62
7
   6
CONTINUOUS
   0
LAYER
   2
LEVEL001
  70
0
  62
7
   6
CONTINUOUS
   0
LAYER
   2
LEVEL003
  70
0
  62
7
   6
CONTINUOUS
   0
LAYER
   2
LEVEL004
  70
0
  62
7
   6
CONTINUOUS
   0
ENDTAB
   0
ENDSEC
   0
SECTION
   2
ENTITIES
   0
LINE
   8
LEVEL001
   6
CONTINUOUS
  62
7
  10
 255.000
  20
 493.500
  30
0.0
  11
 144.853
  21
 493.500
  31
0.0
   0
LINE
   8
LEVEL001
   6
CONTINUOUS
  62
7
  10
 256.000
  20
 485.000
  30
0.0
  11
 144.000
  21
 485.000
  31
0.0
   0
LINE
   8
LEVEL001
   6
CONTINUOUS
  62
7
  10
 143.000
  20
 485.500
  30
0.0
  11
 257.000
  21
 485.500
  31
0.0
   0
LINE
   8
LEVEL001
   6
CONTINUOUS
  62
7
  10
 143.000
  20
 491.500
  30
0.0
  11
 143.000
  21
 485.500
  31
0.0
   0
LINE
   8
LEVEL001
   6
CONTINUOUS
  62
7
  10
 225.619
  20
 518.000
  30
0.0
  11
 174.381
  21
 518.000
  31
0.0
   0
LINE
   8
LEVEL001
   6
CONTINUOUS
  62
7
  10
 229.000
  20
 385.000
  30
0.0
  11
 171.000
  21
 385.000
  31
0.0
   0
LINE
   8
LEVEL001
   6
CONTINUOUS
  62
7
  10
 177.000
  20
 383.000
  30
0.0
  11
 177.000
  21
 381.000
  31
0.0
   0
LINE
   8
LEVEL001
   6
CONTINUOUS
  62
7
  10
 223.000
  20
 383.000
  30
0.0
  11
 223.000
  21
 381.000
  31
0.0
   0
LINE
   8
LEVEL001
   6
CONTINUOUS
  62
7
  10
 224.000
  20
 381.000
  30
0.0
  11
 176.000
  21
 381.000
  31
0.0
   0
LINE
   8
LEVEL001
   6
CONTINUOUS
  62
7
  10
 177.000
  20
 381.000
  30
0.0
  11
 176.000
  21
 377.268
  31
0.0
   0
LINE
   8
LEVEL001
   6
CONTINUOUS
  62
7
  10
 173.000
  20
 383.000
  30
0.0
  11
 227.000
  21
 383.000
  31
0.0
   0
LINE
   8
LEVEL001
   6
CONTINUOUS
  62
7
  10
 176.000
  20
 383.000
  30
0.0
  11
 176.000
  21
 377.268
  31
0.0
   0
LINE
   8
LEVEL001
   6
CONTINUOUS
  62
7
  10
 224.300
  20
 377.268
  30
0.0
  11
 175.700
  21
 377.268
  31
0.0
   0
LINE
   8
LEVEL001
   6
CONTINUOUS
  62
7
  10
 223.000
  20
 381.000
  30
0.0
  11
 224.000
  21
 377.268
  31
0.0
   0
LINE
   8
LEVEL001
   6
CONTINUOUS
  62
7
  10
 224.000
  20
 383.000
  30
0.0
  11
 224.000
  21
 377.268
  31
0.0
   0
LINE
   8
LEVEL001
   6
CONTINUOUS
  62
7
  10
 229.000
  20
 385.000
  30
0.0
  11
 227.000
  21
 383.000
  31
0.0
   0
LINE
   8
LEVEL001
   6
CONTINUOUS
  62
7
  10
 215.000
  20
 572.000
  30
0.0
  11
 185.000
  21
 572.000
  31
0.0
   0
LINE
   8
LEVEL001
   6
CONTINUOUS
  62
7
  10
 183.250
  20
 521.000
  30
0.0
  11
 183.250
  21
 518.000
  31
0.0
   0
LINE
   8
LEVEL001
   6
CONTINUOUS
  62
7
  10
 216.750
  20
 521.000
  30
0.0
  11
 216.750
  21
 518.000
  31
0.0
   0
LINE
   8
LEVEL001
   6
CONTINUOUS
  62
7
  10
 183.000
  20
 542.500
  30
0.0
  11
 183.000
  21
 521.000
  31
0.0
   0
LINE
   8
LEVEL001
   6
CONTINUOUS
  62
7
  10
 215.000
  20
 548.000
  30
0.0
  11
 185.000
  21
 548.000
  31
0.0
   0
LINE
   8
LEVEL001
   6
CONTINUOUS
  62
7
  10
 216.500
  20
 543.000
  30
0.0
  11
 183.500
  21
 543.000
  31
0.0
   0
LINE
   8
LEVEL001
   6
CONTINUOUS
  62
7
  10
 214.000
  20
 573.000
  30
0.0
  11
 186.000
  21
 573.000
  31
0.0
   0
LINE
   8
LEVEL001
   6
CONTINUOUS
  62
7
  10
 171.000
  20
 395.000
  30
0.0
  11
 171.000
  21
 385.000
  31
0.0
   0
ARC
   8
LEVEL001
   6
CONTINUOUS
  62
7
  10
 168.000
  20
 395.000
  30
0.0
  40
 3.00000
  50
0.0
  51
 90.0000
   0
LINE
   8
LEVEL001
   6
CONTINUOUS
  62
7
  10
 171.000
  20
 385.000
  30
0.0
  11
 173.000
  21
 383.000
  31
0.0
   0
ARC
   8
LEVEL001
   6
CONTINUOUS
  62
7
  10
 183.500
  20
 542.500
  30
0.0
  40
 0.500000
  50
 90.0000
  51
 180.000
   0
LINE
   8
LEVEL001
   6
CONTINUOUS
  62
7
  10
 186.000
  20
 573.000
  30
0.0
  11
 186.000
  21
 547.000
  31
0.0
   0
LINE
   8
LEVEL001
   6
CONTINUOUS
  62
7
  10
 186.000
  20
 547.000
  30
0.0
  11
 186.000
  21
 544.000
  31
0.0
   0
ARC
   8
LEVEL001
   6
CONTINUOUS
  62
7
  10
 185.000
  20
 544.000
  30
0.0
  40
 1.00000
  50
 270.000
  51
0.0
   0
ARC
   8
LEVEL001
   6
CONTINUOUS
  62
7
  10
 185.000
  20
 547.000
  30
0.0
  40
 1.00000
  50
0.0
  51
 90.0000
   0
ARC
   8
LEVEL001
   6
CONTINUOUS
  62
7
  10
 174.381
  20
 516.000
  30
0.0
  40
 2.00000
  50
 90.0000
  51
 176.496
   0
ARC
   8
LEVEL001
   6
CONTINUOUS
  62
7
  10
 145.000
  20
 491.500
  30
0.0
  40
 2.00000
  50
 90.0000
  51
 180.000
   0
ARC
   8
LEVEL001
   6
CONTINUOUS
  62
7
  10
 216.500
  20
 542.500
  30
0.0
  40
 0.500000
  50
0.0
  51
 90.0000
   0
LINE
   8
LEVEL001
   6
CONTINUOUS
  62
7
  10
 214.000
  20
 573.000
  30
0.0
  11
 214.000
  21
 547.000
  31
0.0
   0
LINE
   8
LEVEL001
   6
CONTINUOUS
  62
7
  10
 214.000
  20
 547.000
  30
0.0
  11
 214.000
  21
 544.000
  31
0.0
   0
ARC
   8
LEVEL001
   6
CONTINUOUS
  62
7
  10
 215.000
  20
 544.000
  30
0.0
  40
 1.00000
  50
 180.000
  51
 270.000
   0
ARC
   8
LEVEL001
   6
CONTINUOUS
  62
7
  10
 215.000
  20
 547.000
  30
0.0
  40
 1.00000
  50
 90.0000
  51
 180.000
   0
ARC
   8
LEVEL001
   6
CONTINUOUS
  62
7
  10
 225.619
  20
 516.000
  30
0.0
  40
 2.00000
  50
 3.50350
  51
 90.0000
   0
LINE
   8
LEVEL001
   6
CONTINUOUS
  62
7
  10
 257.000
  20
 491.500
  30
0.0
  11
 257.000
  21
 485.500
  31
0.0
   0
ARC
   8
LEVEL001
   6
CONTINUOUS
  62
7
  10
 255.000
  20
 491.500
  30
0.0
  40
 2.00000
  50
0.0
  51
 90.0000
   0
LINE
   8
LEVEL001
   6
CONTINUOUS
  62
7
  10
 229.000
  20
 395.000
  30
0.0
  11
 229.000
  21
 385.000
  31
0.0
   0
ARC
   8
LEVEL001
   6
CONTINUOUS
  62
7
  10
 232.000
  20
 395.000
  30
0.0
  40
 3.00000
  50
 90.0000
  51
 180.000
   0
LINE
   8
LEVEL001
   6
CONTINUOUS
  62
7
  10
 175.700
  20
 377.268
  30
0.0
  11
 175.700
  21
 22.5000
  31
0.0
   0
LINE
   8
LEVEL001
   6
CONTINUOUS
  62
7
  10
 175.700
  20
 22.5000
  30
0.0
  11
 224.300
  21
 22.5000
  31
0.0
   0
LINE
   8
LEVEL001
   6
CONTINUOUS
  62
7
  10
 224.300
  20
 377.268
  30
0.0
  11
 224.300
  21
 22.5000
  31
0.0
   0
LINE
   8
LEVEL001
   6
CONTINUOUS
  62
7
  10
 191.803
  20
 18.0000
  30
0.0
  11
 192.503
  21
 17.3000
  31
0.0
   0
LINE
   8
LEVEL001
   6
CONTINUOUS
  62
7
  10
 207.497
  20
 17.3000
  30
0.0
  11
 208.197
  21
 18.0000
  31
0.0
   0
LINE
   8
LEVEL001
   6
CONTINUOUS
  62
7
  10
 192.503
  20
 17.3000
  30
0.0
  11
 192.525
  21
 18.0000
  31
0.0
   0
LINE
   8
LEVEL001
   6
CONTINUOUS
  62
7
  10
 207.497
  20
 17.3000
  30
0.0
  11
 207.475
  21
 18.0000
  31
0.0
   0
LINE
   8
LEVEL001
   6
CONTINUOUS
  62
7
  10
 177.500
  20
 18.0000
  30
0.0
  11
 222.500
  21
 18.0000
  31
0.0
   0
LINE
   8
LEVEL001
   6
CONTINUOUS
  62
7
  10
 192.503
  20
 17.3000
  30
0.0
  11
 207.497
  21
 17.3000
  31
0.0
   0
LINE
   8
LEVEL001
   6
CONTINUOUS
  62
7
  10
 175.700
  20
 22.5000
  30
0.0
  11
 177.500
  21
 18.0000
  31
0.0
   0
LINE
   8
LEVEL001
   6
CONTINUOUS
  62
7
  10
 224.300
  20
 22.5000
  30
0.0
  11
 222.500
  21
 18.0000
  31
0.0
   0
LINE
   8
LEVEL001
   6
DASHDOT
  62
7
  10
 171.866
  20
 500.541
  30
0.0
  11
 172.559
  21
 500.141
  31
0.0
   0
LINE
   8
LEVEL001
   6
CONTINUOUS
  62
7
  10
 240.441
  20
 500.100
  30
0.0
  11
 227.441
  21
 500.100
  31
0.0
   0
LINE
   8
LEVEL001
   6
CONTINUOUS
  62
7
  10
 228.134
  20
 500.500
  30
0.0
  11
 239.748
  21
 500.500
  31
0.0
   0
LINE
   8
LEVEL001
   6
CONTINUOUS
  62
7
  10
 239.748
  20
 500.500
  30
0.0
  11
 240.441
  21
 500.100
  31
0.0
   0
LINE
   8
LEVEL001
   6
CONTINUOUS
  62
7
  10
 172.559
  20
 500.141
  30
0.0
  11
 159.559
  21
 500.141
  31
0.0
   0
LINE
   8
LEVEL001
   6
CONTINUOUS
  62
7
  10
 159.559
  20
 500.141
  30
0.0
  11
 160.252
  21
 500.541
  31
0.0
   0
LINE
   8
LEVEL001
   6
CONTINUOUS
  62
7
  10
 160.252
  20
 500.541
  30
0.0
  11
 171.866
  21
 500.541
  31
0.0
   0
LINE
   8
LEVEL001
   6
CONTINUOUS
  62
7
  10
 240.441
  20
 500.100
  30
0.0
  11
 240.441
  21
 493.500
  31
0.0
   0
LINE
   8
LEVEL001
   6
CONTINUOUS
  62
7
  10
 227.441
  20
 493.500
  30
0.0
  11
 227.441
  21
 500.100
  31
0.0
   0
LINE
   8
LEVEL001
   6
CONTINUOUS
  62
7
  10
 159.559
  20
 493.500
  30
0.0
  11
 159.559
  21
 500.141
  31
0.0
   0
LINE
   8
LEVEL001
   6
CONTINUOUS
  62
7
  10
 172.559
  20
 500.141
  30
0.0
  11
 172.559
  21
 493.500
  31
0.0
   0
LINE
   8
LEVEL001
   6
CONTINUOUS
  62
7
  10
 171.431
  20
 500.541
  30
0.0
  11
 172.385
  21
 516.122
  31
0.0
   0
LINE
   8
LEVEL001
   6
CONTINUOUS
  62
7
  10
 245.000
  20
 408.000
  30
0.0
  11
 245.000
  21
 398.000
  31
0.0
   0
LINE
   8
LEVEL001
   6
CONTINUOUS
  62
7
  10
 245.000
  20
 398.000
  30
0.0
  11
 155.000
  21
 398.000
  31
0.0
   0
LINE
   8
LEVEL001
   6
CONTINUOUS
  62
7
  10
 155.000
  20
 398.000
  30
0.0
  11
 155.000
  21
 408.000
  31
0.0
   0
LINE
   8
LEVEL001
   6
CONTINUOUS
  62
7
  10
 217.000
  20
 521.000
  30
0.0
  11
 183.000
  21
 521.000
  31
0.0
   0
LINE
   8
LEVEL001
   6
CONTINUOUS
  62
7
  10
 217.000
  20
 542.500
  30
0.0
  11
 217.000
  21
 521.000
  31
0.0
   0
LINE
   8
LEVEL001
   6
CONTINUOUS
  62
7
  10
 228.000
  20
 514.154
  30
0.0
  11
 227.800
  21
 514.500
  31
0.0
   0
LINE
   8
LEVEL001
   6
CONTINUOUS
  62
7
  10
 227.800
  20
 514.500
  30
0.0
  11
 227.714
  21
 514.500
  31
0.0
   0
LINE
   8
LEVEL001
   6
CONTINUOUS
  62
7
  10
 227.800
  20
 514.500
  30
0.0
  11
 227.800
  21
 513.100
  31
0.0
   0
LINE
   8
LEVEL001
   6
CONTINUOUS
  62
7
  10
 228.000
  20
 509.655
  30
0.0
  11
 228.000
  21
 514.154
  31
0.0
   0
LINE
   8
LEVEL001
   6
CONTINUOUS
  62
7
  10
 227.441
  20
 500.100
  30
0.0
  11
 228.134
  21
 500.500
  31
0.0
   0
LINE
   8
LEVEL001
   6
CONTINUOUS
  62
7
  10
 228.571
  20
 500.500
  30
0.0
  11
 227.615
  21
 516.122
  31
0.0
   0
LINE
   8
LEVEL001
   6
CONTINUOUS
  62
7
  10
 134.500
  20
 430.000
  30
0.0
  11
 134.079
  21
 430.000
  31
0.0
   0
LINE
   8
LEVEL001
   6
CONTINUOUS
  62
7
  10
 134.500
  20
 450.000
  30
0.0
  11
 134.079
  21
 450.000
  31
0.0
   0
LINE
   8
LEVEL001
   6
CONTINUOUS
  62
7
  10
 134.500
  20
 408.000
  30
0.0
  11
 134.500
  21
 472.000
  31
0.0
   0
ARC
   8
LEVEL001
   6
CONTINUOUS
  62
7
  10
 136.500
  20
 472.000
  30
0.0
  40
 2.00000
  50
 90.0000
  51
 180.000
   0
LINE
   8
LEVEL001
   6
CONTINUOUS
  62
7
  10
 133.800
  20
 449.855
  30
0.0
  11
 133.800
  21
 430.145
  31
0.0
   0
LINE
   8
LEVEL001
   6
CONTINUOUS
  62
7
  10
 102.500
  20
 447.000
  30
0.0
  11
 102.500
  21
 433.000
  31
0.0
   0
ARC
   8
LEVEL001
   6
CONTINUOUS
  62
7
  10
 134.079
  20
 431.000
  30
0.0
  40
 1.00000
  50
 238.782
  51
 270.000
   0
LINE
   8
LEVEL001
   6
CONTINUOUS
  62
7
  10
 133.561
  20
 430.145
  30
0.0
  11
 130.739
  21
 431.855
  31
0.0
   0
LINE
   8
LEVEL001
   6
CONTINUOUS
  62
7
  10
 103.500
  20
 432.000
  30
0.0
  11
 102.500
  21
 433.000
  31
0.0
   0
ARC
   8
LEVEL001
   6
CONTINUOUS
  62
7
  10
 134.079
  20
 449.000
  30
0.0
  40
 1.00000
  50
 90.0000
  51
 121.218
   0
ARC
   8
LEVEL001
   6
CONTINUOUS
  62
7
  10
 136.500
  20
 408.000
  30
0.0
  40
 2.00000
  50
 180.000
  51
 270.000
   0
LINE
   8
LEVEL001
   6
CONTINUOUS
  62
7
  10
 145.500
  20
 406.000
  30
0.0
  11
 136.500
  21
 406.000
  31
0.0
   0
ARC
   8
LEVEL001
   6
CONTINUOUS
  62
7
  10
 263.500
  20
 408.000
  30
0.0
  40
 2.00000
  50
 270.000
  51
0.0
   0
LINE
   8
LEVEL001
   6
CONTINUOUS
  62
7
  10
 254.500
  20
 406.000
  30
0.0
  11
 263.500
  21
 406.000
  31
0.0
   0
ARC
   8
LEVEL001
   6
CONTINUOUS
  62
7
  10
 263.500
  20
 472.000
  30
0.0
  40
 2.00000
  50
0.0
  51
 90.0000
   0
LINE
   8
LEVEL001
   6
CONTINUOUS
  62
7
  10
 265.500
  20
 408.000
  30
0.0
  11
 265.500
  21
 472.122
  31
0.0
   0
LINE
   8
LEVEL001
   6
CONTINUOUS
  62
7
  10
 145.500
  20
 406.000
  30
0.0
  11
 145.500
  21
 474.000
  31
0.0
   0
LINE
   8
LEVEL001
   6
CONTINUOUS
  62
7
  10
 145.750
  20
 473.000
  30
0.0
  11
 145.750
  21
 407.000
  31
0.0
   0
LINE
   8
LEVEL001
   6
CONTINUOUS
  62
7
  10
 145.500
  20
 474.000
  30
0.0
  11
 136.500
  21
 474.000
  31
0.0
   0
LINE
   8
LEVEL001
   6
CONTINUOUS
  62
7
  10
 254.500
  20
 406.000
  30
0.0
  11
 254.500
  21
 474.000
  31
0.0
   0
LINE
   8
LEVEL001
   6
CONTINUOUS
  62
7
  10
 254.500
  20
 474.000
  30
0.0
  11
 263.500
  21
 474.000
  31
0.0
   0
LINE
   8
LEVEL001
   6
CONTINUOUS
  62
7
  10
 254.250
  20
 473.000
  30
0.0
  11
 254.250
  21
 407.000
  31
0.0
   0
LINE
   8
LEVEL001
   6
CONTINUOUS
  62
7
  10
 256.000
  20
 485.000
  30
0.0
  11
 256.000
  21
 474.000
  31
0.0
   0
LINE
   8
LEVEL001
   6
CONTINUOUS
  62
7
  10
 130.500
  20
 447.599
  30
0.0
  11
 133.561
  21
 449.855
  31
0.0
   0
LINE
   8
LEVEL001
   6
CONTINUOUS
  62
7
  10
 130.500
  20
 447.599
  30
0.0
  11
 130.500
  21
 432.000
  31
0.0
   0
LINE
   8
LEVEL001
   6
CONTINUOUS
  62
7
  10
 265.500
  20
 430.000
  30
0.0
  11
 265.921
  21
 430.000
  31
0.0
   0
LINE
   8
LEVEL001
   6
CONTINUOUS
  62
7
  10
 265.500
  20
 450.000
  30
0.0
  11
 265.921
  21
 450.000
  31
0.0
   0
LINE
   8
LEVEL001
   6
CONTINUOUS
  62
7
  10
 266.200
  20
 449.855
  30
0.0
  11
 266.200
  21
 430.145
  31
0.0
   0
LINE
   8
LEVEL001
   6
CONTINUOUS
  62
7
  10
 297.500
  20
 447.000
  30
0.0
  11
 297.500
  21
 433.000
  31
0.0
   0
ARC
   8
LEVEL001
   6
CONTINUOUS
  62
7
  10
 265.921
  20
 431.000
  30
0.0
  40
 1.00000
  50
 270.000
  51
 301.218
   0
LINE
   8
LEVEL001
   6
CONTINUOUS
  62
7
  10
 266.439
  20
 430.145
  30
0.0
  11
 269.261
  21
 431.855
  31
0.0
   0
LINE
   8
LEVEL001
   6
CONTINUOUS
  62
7
  10
 296.500
  20
 432.000
  30
0.0
  11
 297.500
  21
 433.000
  31
0.0
   0
ARC
   8
LEVEL001
   6
CONTINUOUS
  62
7
  10
 265.921
  20
 449.000
  30
0.0
  40
 1.00000
  50
 58.7820
  51
 90.0000
   0
LINE
   8
LEVEL001
   6
CONTINUOUS
  62
7
  10
 269.500
  20
 447.599
  30
0.0
  11
 266.439
  21
 449.855
  31
0.0
   0
LINE
   8
LEVEL001
   6
CONTINUOUS
  62
7
  10
 269.500
  20
 447.599
  30
0.0
  11
 269.500
  21
 432.000
  31
0.0
   0
LINE
   8
LEVEL001
   6
CONTINUOUS
  62
7
  10
 269.779
  20
 432.000
  30
0.0
  11
 296.500
  21
 432.000
  31
0.0
   0
ARC
   8
LEVEL001
   6
CONTINUOUS
  62
7
  10
 269.779
  20
 431.000
  30
0.0
  40
 1.00000
  50
 90.0000
  51
 121.218
   0
LINE
   8
LEVEL001
   6
CONTINUOUS
  62
7
  10
 130.221
  20
 432.000
  30
0.0
  11
 103.500
  21
 432.000
  31
0.0
   0
ARC
   8
LEVEL001
   6
CONTINUOUS
  62
7
  10
 130.221
  20
 431.000
  30
0.0
  40
 1.00000
  50
 58.7816
  51
 90.0000
   0
LINE
   8
LEVEL001
   6
CONTINUOUS
  62
7
  10
 145.750
  20
 407.000
  30
0.0
  11
 155.000
  21
 406.829
  31
0.0
   0
LINE
   8
LEVEL001
   6
CONTINUOUS
  62
7
  10
 245.000
  20
 406.829
  30
0.0
  11
 254.250
  21
 407.000
  31
0.0
   0
ARC
   8
LEVEL001
   6
CONTINUOUS
  62
7
  10
 208.000
  20
 411.975
  30
0.0
  40
 4.00000
  50
 180.000
  51
 270.000
   0
ARC
   8
LEVEL001
   6
CONTINUOUS
  62
7
  10
 192.000
  20
 412.000
  30
0.0
  40
 4.00000
  50
 270.000
  51
0.0
   0
LINE
   8
LEVEL001
   6
CONTINUOUS
  62
7
  10
 155.000
  20
 408.000
  30
0.0
  11
 192.000
  21
 408.000
  31
0.0
   0
LINE
   8
LEVEL001
   6
CONTINUOUS
  62
7
  10
 208.000
  20
 408.000
  30
0.0
  11
 245.000
  21
 408.000
  31
0.0
   0
ARC
   8
LEVEL001
   6
CONTINUOUS
  62
7
  10
 194.000
  20
 444.000
  30
0.0
  40
 2.00001
  50
 359.835
  51
 89.3991
   0
ARC
   8
LEVEL001
   6
CONTINUOUS
  62
7
  10
 206.000
  20
 444.000
  30
0.0
  40
 2.00001
  50
 88.7596
  51
 180.165
   0
LINE
   8
LEVEL001
   6
CONTINUOUS
  62
7
  10
 204.000
  20
 443.994
  30
0.0
  11
 204.000
  21
 411.975
  31
0.0
   0
LINE
   8
LEVEL001
   6
CONTINUOUS
  62
7
  10
 196.000
  20
 443.994
  30
0.0
  11
 196.000
  21
 412.000
  31
0.0
   0
LINE
   8
LEVEL001
   6
CONTINUOUS
  62
7
  10
 144.000
  20
 485.000
  30
0.0
  11
 144.000
  21
 474.000
  31
0.0
   0
LINE
   8
LEVEL001
   6
CONTINUOUS
  62
7
  10
 208.226
  20
 440.000
  30
0.0
  11
 211.113
  21
 435.000
  31
0.0
   0
LINE
   8
LEVEL001
   6
CONTINUOUS
  62
7
  10
 211.113
  20
 435.000
  30
0.0
  11
 216.887
  21
 435.000
  31
0.0
   0
LINE
   8
LEVEL001
   6
CONTINUOUS
  62
7
  10
 216.887
  20
 435.000
  30
0.0
  11
 219.774
  21
 440.000
  31
0.0
   0
LINE
   8
LEVEL001
   6
CONTINUOUS
  62
7
  10
 216.400
  20
 451.548
  30
0.0
  11
 216.391
  21
 451.628
  31
0.0
   0
LINE
   8
LEVEL001
   6
CONTINUOUS
  62
7
  10
 216.391
  20
 451.628
  30
0.0
  11
 216.364
  21
 451.707
  31
0.0
   0
LINE
   8
LEVEL001
   6
CONTINUOUS
  62
7
  10
 216.364
  20
 451.707
  30
0.0
  11
 216.318
  21
 451.786
  31
0.0
   0
LINE
   8
LEVEL001
   6
CONTINUOUS
  62
7
  10
 216.318
  20
 451.786
  30
0.0
  11
 216.255
  21
 451.862
  31
0.0
   0
LINE
   8
LEVEL001
   6
CONTINUOUS
  62
7
  10
 216.255
  20
 451.862
  30
0.0
  11
 216.175
  21
 451.936
  31
0.0
   0
LINE
   8
LEVEL001
   6
CONTINUOUS
  62
7
  10
 216.175
  20
 451.936
  30
0.0
  11
 216.078
  21
 452.007
  31
0.0
   0
LINE
   8
LEVEL001
   6
CONTINUOUS
  62
7
  10
 216.078
  20
 452.007
  30
0.0
  11
 215.966
  21
 452.075
  31
0.0
   0
LINE
   8
LEVEL001
   6
CONTINUOUS
  62
7
  10
 215.966
  20
 452.075
  30
0.0
  11
 215.839
  21
 452.138
  31
0.0
   0
LINE
   8
LEVEL001
   6
CONTINUOUS
  62
7
  10
 215.839
  20
 452.138
  30
0.0
  11
 215.697
  21
 452.197
  31
0.0
   0
LINE
   8
LEVEL001
   6
CONTINUOUS
  62
7
  10
 215.697
  20
 452.197
  30
0.0
  11
 215.543
  21
 452.252
  31
0.0
   0
LINE
   8
LEVEL001
   6
CONTINUOUS
  62
7
  10
 215.543
  20
 452.252
  30
0.0
  11
 215.377
  21
 452.300
  31
0.0
   0
LINE
   8
LEVEL001
   6
CONTINUOUS
  62
7
  10
 215.377
  20
 452.300
  30
0.0
  11
 215.200
  21
 452.343
  31
0.0
   0
LINE
   8
LEVEL001
   6
CONTINUOUS
  62
7
  10
 215.200
  20
 452.343
  30
0.0
  11
 215.014
  21
 452.380
  31
0.0
   0
LINE
   8
LEVEL001
   6
CONTINUOUS
  62
7
  10
 215.014
  20
 452.380
  30
0.0
  11
 214.821
  21
 452.411
  31
0.0
   0
LINE
   8
LEVEL001
   6
CONTINUOUS
  62
7
  10
 214.821
  20
 452.411
  30
0.0
  11
 214.621
  21
 452.435
  31
0.0
   0
LINE
   8
LEVEL001
   6
CONTINUOUS
  62
7
  10
 214.621
  20
 452.435
  30
0.0
  11
 214.417
  21
 452.452
  31
0.0
   0
LINE
   8
LEVEL001
   6
CONTINUOUS
  62
7
  10
 214.417
  20
 452.452
  30
0.0
  11
 214.209
  21
 452.463
  31
0.0
   0
LINE
   8
LEVEL001
   6
CONTINUOUS
  62
7
  10
 214.209
  20
 452.463
  30
0.0
  11
 214.000
  21
 452.466
  31
0.0
   0
LINE
   8
LEVEL001
   6
CONTINUOUS
  62
7
  10
 214.000
  20
 452.466
  30
0.0
  11
 213.791
  21
 452.463
  31
0.0
   0
LINE
   8
LEVEL001
   6
CONTINUOUS
  62
7
  10
 213.791
  20
 452.463
  30
0.0
  11
 213.583
  21
 452.452
  31
0.0
   0
LINE
   8
LEVEL001
   6
CONTINUOUS
  62
7
  10
 213.583
  20
 452.452
  30
0.0
  11
 213.379
  21
 452.435
  31
0.0
   0
LINE
   8
LEVEL001
   6
CONTINUOUS
  62
7
  10
 213.379
  20
 452.435
  30
0.0
  11
 213.179
  21
 452.411
  31
0.0
   0
LINE
   8
LEVEL001
   6
CONTINUOUS
  62
7
  10
 213.179
  20
 452.411
  30
0.0
  11
 212.986
  21
 452.380
  31
0.0
   0
LINE
   8
LEVEL001
   6
CONTINUOUS
  62
7
  10
 212.986
  20
 452.380
  30
0.0
  11
 212.800
  21
 452.343
  31
0.0
   0
LINE
   8
LEVEL001
   6
CONTINUOUS
  62
7
  10
 212.800
  20
 452.343
  30
0.0
  11
 212.623
  21
 452.300
  31
0.0
   0
LINE
   8
LEVEL001
   6
CONTINUOUS
  62
7
  10
 212.623
  20
 452.300
  30
0.0
  11
 212.457
  21
 452.252
  31
0.0
   0
LINE
   8
LEVEL001
   6
CONTINUOUS
  62
7
  10
 212.457
  20
 452.252
  30
0.0
  11
 212.303
  21
 452.197
  31
0.0
   0
LINE
   8
LEVEL001
   6
CONTINUOUS
  62
7
  10
 212.303
  20
 452.197
  30
0.0
  11
 212.161
  21
 452.138
  31
0.0
   0
LINE
   8
LEVEL001
   6
CONTINUOUS
  62
7
  10
 212.161
  20
 452.138
  30
0.0
  11
 212.034
  21
 452.075
  31
0.0
   0
LINE
   8
LEVEL001
   6
CONTINUOUS
  62
7
  10
 212.034
  20
 452.075
  30
0.0
  11
 211.922
  21
 452.007
  31
0.0
   0
LINE
   8
LEVEL001
   6
CONTINUOUS
  62
7
  10
 211.922
  20
 452.007
  30
0.0
  11
 211.825
  21
 451.936
  31
0.0
   0
LINE
   8
LEVEL001
   6
CONTINUOUS
  62
7
  10
 211.825
  20
 451.936
  30
0.0
  11
 211.745
  21
 451.862
  31
0.0
   0
LINE
   8
LEVEL001
   6
CONTINUOUS
  62
7
  10
 211.745
  20
 451.862
  30
0.0
  11
 211.682
  21
 451.786
  31
0.0
   0
LINE
   8
LEVEL001
   6
CONTINUOUS
  62
7
  10
 211.682
  20
 451.786
  30
0.0
  11
 211.636
  21
 451.707
  31
0.0
   0
LINE
   8
LEVEL001
   6
CONTINUOUS
  62
7
  10
 211.636
  20
 451.707
  30
0.0
  11
 211.609
  21
 451.628
  31
0.0
   0
LINE
   8
LEVEL001
   6
CONTINUOUS
  62
7
  10
 211.609
  20
 451.628
  30
0.0
  11
 211.600
  21
 451.548
  31
0.0
   0
LINE
   8
LEVEL001
   6
CONTINUOUS
  62
7
  10
 211.600
  20
 451.548
  30
0.0
  11
 211.609
  21
 451.468
  31
0.0
   0
LINE
   8
LEVEL001
   6
CONTINUOUS
  62
7
  10
 211.609
  20
 451.468
  30
0.0
  11
 211.636
  21
 451.389
  31
0.0
   0
LINE
   8
LEVEL001
   6
CONTINUOUS
  62
7
  10
 211.636
  20
 451.389
  30
0.0
  11
 211.682
  21
 451.310
  31
0.0
   0
LINE
   8
LEVEL001
   6
CONTINUOUS
  62
7
  10
 211.682
  20
 451.310
  30
0.0
  11
 211.745
  21
 451.234
  31
0.0
   0
LINE
   8
LEVEL001
   6
CONTINUOUS
  62
7
  10
 211.745
  20
 451.234
  30
0.0
  11
 211.825
  21
 451.160
  31
0.0
   0
LINE
   8
LEVEL001
   6
CONTINUOUS
  62
7
  10
 211.825
  20
 451.160
  30
0.0
  11
 211.922
  21
 451.089
  31
0.0
   0
LINE
   8
LEVEL001
   6
CONTINUOUS
  62
7
  10
 211.922
  20
 451.089
  30
0.0
  11
 212.034
  21
 451.021
  31
0.0
   0
LINE
   8
LEVEL001
   6
CONTINUOUS
  62
7
  10
 212.034
  20
 451.021
  30
0.0
  11
 212.161
  21
 450.958
  31
0.0
   0
LINE
   8
LEVEL001
   6
CONTINUOUS
  62
7
  10
 212.161
  20
 450.958
  30
0.0
  11
 212.303
  21
 450.899
  31
0.0
   0
LINE
   8
LEVEL001
   6
CONTINUOUS
  62
7
  10
 212.303
  20
 450.899
  30
0.0
  11
 212.457
  21
 450.844
  31
0.0
   0
LINE
   8
LEVEL001
   6
CONTINUOUS
  62
7
  10
 212.457
  20
 450.844
  30
0.0
  11
 212.623
  21
 450.796
  31
0.0
   0
LINE
   8
LEVEL001
   6
CONTINUOUS
  62
7
  10
 212.623
  20
 450.796
  30
0.0
  11
 212.800
  21
 450.753
  31
0.0
   0
LINE
   8
LEVEL001
   6
CONTINUOUS
  62
7
  10
 212.800
  20
 450.753
  30
0.0
  11
 212.986
  21
 450.716
  31
0.0
   0
LINE
   8
LEVEL001
   6
CONTINUOUS
  62
7
  10
 212.986
  20
 450.716
  30
0.0
  11
 213.179
  21
 450.685
  31
0.0
   0
LINE
   8
LEVEL001
   6
CONTINUOUS
  62
7
  10
 213.179
  20
 450.685
  30
0.0
  11
 213.379
  21
 450.661
  31
0.0
   0
LINE
   8
LEVEL001
   6
CONTINUOUS
  62
7
  10
 213.379
  20
 450.661
  30
0.0
  11
 213.583
  21
 450.644
  31
0.0
   0
LINE
   8
LEVEL001
   6
CONTINUOUS
  62
7
  10
 213.583
  20
 450.644
  30
0.0
  11
 213.791
  21
 450.633
  31
0.0
   0
LINE
   8
LEVEL001
   6
CONTINUOUS
  62
7
  10
 213.791
  20
 450.633
  30
0.0
  11
 214.000
  21
 450.630
  31
0.0
   0
LINE
   8
LEVEL001
   6
CONTINUOUS
  62
7
  10
 214.000
  20
 450.630
  30
0.0
  11
 214.209
  21
 450.633
  31
0.0
   0
LINE
   8
LEVEL001
   6
CONTINUOUS
  62
7
  10
 214.209
  20
 450.633
  30
0.0
  11
 214.417
  21
 450.644
  31
0.0
   0
LINE
   8
LEVEL001
   6
CONTINUOUS
  62
7
  10
 214.417
  20
 450.644
  30
0.0
  11
 214.621
  21
 450.661
  31
0.0
   0
LINE
   8
LEVEL001
   6
CONTINUOUS
  62
7
  10
 214.621
  20
 450.661
  30
0.0
  11
 214.821
  21
 450.685
  31
0.0
   0
LINE
   8
LEVEL001
   6
CONTINUOUS
  62
7
  10
 214.821
  20
 450.685
  30
0.0
  11
 215.014
  21
 450.716
  31
0.0
   0
LINE
   8
LEVEL001
   6
CONTINUOUS
  62
7
  10
 215.014
  20
 450.716
  30
0.0
  11
 215.200
  21
 450.753
  31
0.0
   0
LINE
   8
LEVEL001
   6
CONTINUOUS
  62
7
  10
 215.200
  20
 450.753
  30
0.0
  11
 215.377
  21
 450.796
  31
0.0
   0
LINE
   8
LEVEL001
   6
CONTINUOUS
  62
7
  10
 215.377
  20
 450.796
  30
0.0
  11
 215.543
  21
 450.844
  31
0.0
   0
LINE
   8
LEVEL001
   6
CONTINUOUS
  62
7
  10
 215.543
  20
 450.844
  30
0.0
  11
 215.697
  21
 450.899
  31
0.0
   0
LINE
   8
LEVEL001
   6
CONTINUOUS
  62
7
  10
 215.697
  20
 450.899
  30
0.0
  11
 215.839
  21
 450.958
  31
0.0
   0
LINE
   8
LEVEL001
   6
CONTINUOUS
  62
7
  10
 215.839
  20
 450.958
  30
0.0
  11
 215.966
  21
 451.021
  31
0.0
   0
LINE
   8
LEVEL001
   6
CONTINUOUS
  62
7
  10
 215.966
  20
 451.021
  30
0.0
  11
 216.078
  21
 451.089
  31
0.0
   0
LINE
   8
LEVEL001
   6
CONTINUOUS
  62
7
  10
 216.078
  20
 451.089
  30
0.0
  11
 216.175
  21
 451.160
  31
0.0
   0
LINE
   8
LEVEL001
   6
CONTINUOUS
  62
7
  10
 216.175
  20
 451.160
  30
0.0
  11
 216.255
  21
 451.234
  31
0.0
   0
LINE
   8
LEVEL001
   6
CONTINUOUS
  62
7
  10
 216.255
  20
 451.234
  30
0.0
  11
 216.318
  21
 451.310
  31
0.0
   0
LINE
   8
LEVEL001
   6
CONTINUOUS
  62
7
  10
 216.318
  20
 451.310
  30
0.0
  11
 216.364
  21
 451.389
  31
0.0
   0
LINE
   8
LEVEL001
   6
CONTINUOUS
  62
7
  10
 216.364
  20
 451.389
  30
0.0
  11
 216.391
  21
 451.468
  31
0.0
   0
LINE
   8
LEVEL001
   6
CONTINUOUS
  62
7
  10
 216.391
  20
 451.468
  30
0.0
  11
 216.400
  21
 451.548
  31
0.0
   0
LINE
   8
LEVEL001
   6
CONTINUOUS
  62
7
  10
 213.000
  20
 451.548
  30
0.0
  11
 213.001
  21
 451.531
  31
0.0
   0
LINE
   8
LEVEL001
   6
CONTINUOUS
  62
7
  10
 213.001
  20
 451.531
  30
0.0
  11
 213.004
  21
 451.515
  31
0.0
   0
LINE
   8
LEVEL001
   6
CONTINUOUS
  62
7
  10
 213.004
  20
 451.515
  30
0.0
  11
 213.009
  21
 451.498
  31
0.0
   0
LINE
   8
LEVEL001
   6
CONTINUOUS
  62
7
  10
 213.009
  20
 451.498
  30
0.0
  11
 213.015
  21
 451.482
  31
0.0
   0
LINE
   8
LEVEL001
   6
CONTINUOUS
  62
7
  10
 213.015
  20
 451.482
  30
0.0
  11
 213.024
  21
 451.465
  31
0.0
   0
LINE
   8
LEVEL001
   6
CONTINUOUS
  62
7
  10
 213.024
  20
 451.465
  30
0.0
  11
 213.034
  21
 451.449
  31
0.0
   0
LINE
   8
LEVEL001
   6
CONTINUOUS
  62
7
  10
 213.034
  20
 451.449
  30
0.0
  11
 213.046
  21
 451.433
  31
0.0
   0
LINE
   8
LEVEL001
   6
CONTINUOUS
  62
7
  10
 213.046
  20
 451.433
  30
0.0
  11
 213.060
  21
 451.417
  31
0.0
   0
LINE
   8
LEVEL001
   6
CONTINUOUS
  62
7
  10
 213.060
  20
 451.417
  30
0.0
  11
 213.076
  21
 451.402
  31
0.0
   0
LINE
   8
LEVEL001
   6
CONTINUOUS
  62
7
  10
 213.076
  20
 451.402
  30
0.0
  11
 213.094
  21
 451.386
  31
0.0
   0
LINE
   8
LEVEL001
   6
CONTINUOUS
  62
7
  10
 213.094
  20
 451.386
  30
0.0
  11
 213.113
  21
 451.371
  31
0.0
   0
LINE
   8
LEVEL001
   6
CONTINUOUS
  62
7
  10
 213.113
  20
 451.371
  30
0.0
  11
 213.134
  21
 451.357
  31
0.0
   0
LINE
   8
LEVEL001
   6
CONTINUOUS
  62
7
  10
 213.134
  20
 451.357
  30
0.0
  11
 213.157
  21
 451.342
  31
0.0
   0
LINE
   8
LEVEL001
   6
CONTINUOUS
  62
7
  10
 213.157
  20
 451.342
  30
0.0
  11
 213.181
  21
 451.329
  31
0.0
   0
LINE
   8
LEVEL001
   6
CONTINUOUS
  62
7
  10
 213.181
  20
 451.329
  30
0.0
  11
 213.207
  21
 451.315
  31
0.0
   0
LINE
   8
LEVEL001
   6
CONTINUOUS
  62
7
  10
 213.207
  20
 451.315
  30
0.0
  11
 213.234
  21
 451.302
  31
0.0
   0
LINE
   8
LEVEL001
   6
CONTINUOUS
  62
7
  10
 213.234
  20
 451.302
  30
0.0
  11
 213.263
  21
 451.289
  31
0.0
   0
LINE
   8
LEVEL001
   6
CONTINUOUS
  62
7
  10
 213.263
  20
 451.289
  30
0.0
  11
 213.293
  21
 451.277
  31
0.0
   0
LINE
   8
LEVEL001
   6
CONTINUOUS
  62
7
  10
 213.293
  20
 451.277
  30
0.0
  11
 213.324
  21
 451.266
  31
0.0
   0
LINE
   8
LEVEL001
   6
CONTINUOUS
  62
7
  10
 213.324
  20
 451.266
  30
0.0
  11
 213.357
  21
 451.255
  31
0.0
   0
LINE
   8
LEVEL001
   6
CONTINUOUS
  62
7
  10
 213.357
  20
 451.255
  30
0.0
  11
 213.391
  21
 451.244
  31
0.0
   0
LINE
   8
LEVEL001
   6
CONTINUOUS
  62
7
  10
 213.391
  20
 451.244
  30
0.0
  11
 213.426
  21
 451.235
  31
0.0
   0
LINE
   8
LEVEL001
   6
CONTINUOUS
  62
7
  10
 213.426
  20
 451.235
  30
0.0
  11
 213.463
  21
 451.225
  31
0.0
   0
LINE
   8
LEVEL001
   6
CONTINUOUS
  62
7
  10
 213.463
  20
 451.225
  30
0.0
  11
 213.500
  21
 451.217
  31
0.0
   0
LINE
   8
LEVEL001
   6
CONTINUOUS
  62
7
  10
 213.500
  20
 451.217
  30
0.0
  11
 213.538
  21
 451.209
  31
0.0
   0
LINE
   8
LEVEL001
   6
CONTINUOUS
  62
7
  10
 213.538
  20
 451.209
  30
0.0
  11
 213.577
  21
 451.201
  31
0.0
   0
LINE
   8
LEVEL001
   6
CONTINUOUS
  62
7
  10
 213.577
  20
 451.201
  30
0.0
  11
 213.617
  21
 451.194
  31
0.0
   0
LINE
   8
LEVEL001
   6
CONTINUOUS
  62
7
  10
 213.617
  20
 451.194
  30
0.0
  11
 213.658
  21
 451.188
  31
0.0
   0
LINE
   8
LEVEL001
   6
CONTINUOUS
  62
7
  10
 213.658
  20
 451.188
  30
0.0
  11
 213.699
  21
 451.183
  31
0.0
   0
LINE
   8
LEVEL001
   6
CONTINUOUS
  62
7
  10
 213.699
  20
 451.183
  30
0.0
  11
 213.741
  21
 451.178
  31
0.0
   0
LINE
   8
LEVEL001
   6
CONTINUOUS
  62
7
  10
 213.741
  20
 451.178
  30
0.0
  11
 213.784
  21
 451.174
  31
0.0
   0
LINE
   8
LEVEL001
   6
CONTINUOUS
  62
7
  10
 213.784
  20
 451.174
  30
0.0
  11
 213.826
  21
 451.171
  31
0.0
   0
LINE
   8
LEVEL001
   6
CONTINUOUS
  62
7
  10
 213.826
  20
 451.171
  30
0.0
  11
 213.869
  21
 451.169
  31
0.0
   0
LINE
   8
LEVEL001
   6
CONTINUOUS
  62
7
  10
 213.869
  20
 451.169
  30
0.0
  11
 213.913
  21
 451.167
  31
0.0
   0
LINE
   8
LEVEL001
   6
CONTINUOUS
  62
7
  10
 213.913
  20
 451.167
  30
0.0
  11
 213.956
  21
 451.166
  31
0.0
   0
LINE
   8
LEVEL001
   6
CONTINUOUS
  62
7
  10
 213.956
  20
 451.166
  30
0.0
  11
 214.000
  21
 451.165
  31
0.0
   0
LINE
   8
LEVEL001
   6
CONTINUOUS
  62
7
  10
 214.000
  20
 451.165
  30
0.0
  11
 214.044
  21
 451.166
  31
0.0
   0
LINE
   8
LEVEL001
   6
CONTINUOUS
  62
7
  10
 214.044
  20
 451.166
  30
0.0
  11
 214.087
  21
 451.167
  31
0.0
   0
LINE
   8
LEVEL001
   6
CONTINUOUS
  62
7
  10
 214.087
  20
 451.167
  30
0.0
  11
 214.131
  21
 451.169
  31
0.0
   0
LINE
   8
LEVEL001
   6
CONTINUOUS
  62
7
  10
 214.131
  20
 451.169
  30
0.0
  11
 214.174
  21
 451.171
  31
0.0
   0
LINE
   8
LEVEL001
   6
CONTINUOUS
  62
7
  10
 214.174
  20
 451.171
  30
0.0
  11
 214.216
  21
 451.174
  31
0.0
   0
LINE
   8
LEVEL001
   6
CONTINUOUS
  62
7
  10
 214.216
  20
 451.174
  30
0.0
  11
 214.259
  21
 451.178
  31
0.0
   0
LINE
   8
LEVEL001
   6
CONTINUOUS
  62
7
  10
 214.259
  20
 451.178
  30
0.0
  11
 214.301
  21
 451.183
  31
0.0
   0
LINE
   8
LEVEL001
   6
CONTINUOUS
  62
7
  10
 214.301
  20
 451.183
  30
0.0
  11
 214.342
  21
 451.188
  31
0.0
   0
LINE
   8
LEVEL001
   6
CONTINUOUS
  62
7
  10
 214.342
  20
 451.188
  30
0.0
  11
 214.383
  21
 451.194
  31
0.0
   0
LINE
   8
LEVEL001
   6
CONTINUOUS
  62
7
  10
 214.383
  20
 451.194
  30
0.0
  11
 214.423
  21
 451.201
  31
0.0
   0
LINE
   8
LEVEL001
   6
CONTINUOUS
  62
7
  10
 214.423
  20
 451.201
  30
0.0
  11
 214.462
  21
 451.209
  31
0.0
   0
LINE
   8
LEVEL001
   6
CONTINUOUS
  62
7
  10
 214.462
  20
 451.209
  30
0.0
  11
 214.500
  21
 451.217
  31
0.0
   0
LINE
   8
LEVEL001
   6
CONTINUOUS
  62
7
  10
 214.500
  20
 451.217
  30
0.0
  11
 214.537
  21
 451.225
  31
0.0
   0
LINE
   8
LEVEL001
   6
CONTINUOUS
  62
7
  10
 214.537
  20
 451.225
  30
0.0
  11
 214.574
  21
 451.235
  31
0.0
   0
LINE
   8
LEVEL001
   6
CONTINUOUS
  62
7
  10
 214.574
  20
 451.235
  30
0.0
  11
 214.609
  21
 451.244
  31
0.0
   0
LINE
   8
LEVEL001
   6
CONTINUOUS
  62
7
  10
 214.609
  20
 451.244
  30
0.0
  11
 214.643
  21
 451.255
  31
0.0
   0
LINE
   8
LEVEL001
   6
CONTINUOUS
  62
7
  10
 214.643
  20
 451.255
  30
0.0
  11
 214.676
  21
 451.266
  31
0.0
   0
LINE
   8
LEVEL001
   6
CONTINUOUS
  62
7
  10
 214.676
  20
 451.266
  30
0.0
  11
 214.707
  21
 451.277
  31
0.0
   0
LINE
   8
LEVEL001
   6
CONTINUOUS
  62
7
  10
 214.707
  20
 451.277
  30
0.0
  11
 214.737
  21
 451.289
  31
0.0
   0
LINE
   8
LEVEL001
   6
CONTINUOUS
  62
7
  10
 214.737
  20
 451.289
  30
0.0
  11
 214.766
  21
 451.302
  31
0.0
   0
LINE
   8
LEVEL001
   6
CONTINUOUS
  62
7
  10
 214.766
  20
 451.302
  30
0.0
  11
 214.793
  21
 451.315
  31
0.0
   0
LINE
   8
LEVEL001
   6
CONTINUOUS
  62
7
  10
 214.793
  20
 451.315
  30
0.0
  11
 214.819
  21
 451.329
  31
0.0
   0
LINE
   8
LEVEL001
   6
CONTINUOUS
  62
7
  10
 214.819
  20
 451.329
  30
0.0
  11
 214.843
  21
 451.342
  31
0.0
   0
LINE
   8
LEVEL001
   6
CONTINUOUS
  62
7
  10
 214.843
  20
 451.342
  30
0.0
  11
 214.866
  21
 451.357
  31
0.0
   0
LINE
   8
LEVEL001
   6
CONTINUOUS
  62
7
  10
 214.866
  20
 451.357
  30
0.0
  11
 214.887
  21
 451.371
  31
0.0
   0
LINE
   8
LEVEL001
   6
CONTINUOUS
  62
7
  10
 214.887
  20
 451.371
  30
0.0
  11
 214.906
  21
 451.386
  31
0.0
   0
LINE
   8
LEVEL001
   6
CONTINUOUS
  62
7
  10
 214.906
  20
 451.386
  30
0.0
  11
 214.924
  21
 451.402
  31
0.0
   0
LINE
   8
LEVEL001
   6
CONTINUOUS
  62
7
  10
 214.924
  20
 451.402
  30
0.0
  11
 214.940
  21
 451.417
  31
0.0
   0
LINE
   8
LEVEL001
   6
CONTINUOUS
  62
7
  10
 214.940
  20
 451.417
  30
0.0
  11
 214.954
  21
 451.433
  31
0.0
   0
LINE
   8
LEVEL001
   6
CONTINUOUS
  62
7
  10
 214.954
  20
 451.433
  30
0.0
  11
 214.966
  21
 451.449
  31
0.0
   0
LINE
   8
LEVEL001
   6
CONTINUOUS
  62
7
  10
 214.966
  20
 451.449
  30
0.0
  11
 214.976
  21
 451.465
  31
0.0
   0
LINE
   8
LEVEL001
   6
CONTINUOUS
  62
7
  10
 214.976
  20
 451.465
  30
0.0
  11
 214.985
  21
 451.482
  31
0.0
   0
LINE
   8
LEVEL001
   6
CONTINUOUS
  62
7
  10
 214.985
  20
 451.482
  30
0.0
  11
 214.991
  21
 451.498
  31
0.0
   0
LINE
   8
LEVEL001
   6
CONTINUOUS
  62
7
  10
 214.991
  20
 451.498
  30
0.0
  11
 214.996
  21
 451.515
  31
0.0
   0
LINE
   8
LEVEL001
   6
CONTINUOUS
  62
7
  10
 214.996
  20
 451.515
  30
0.0
  11
 214.999
  21
 451.531
  31
0.0
   0
LINE
   8
LEVEL001
   6
CONTINUOUS
  62
7
  10
 214.999
  20
 451.531
  30
0.0
  11
 215.000
  21
 451.548
  31
0.0
   0
ARC
   8
LEVEL001
   6
CONTINUOUS
  62
7
  10
 214.000
  20
 451.320
  30
0.0
  40
 1.00000
  50
 11.9426
  51
 167.156
   0
LINE
   8
LEVEL001
   6
CONTINUOUS
  62
7
  10
 210.700
  20
 449.054
  30
0.0
  11
 210.703
  21
 448.999
  31
0.0
   0
LINE
   8
LEVEL001
   6
CONTINUOUS
  62
7
  10
 210.703
  20
 448.999
  30
0.0
  11
 210.713
  21
 448.944
  31
0.0
   0
LINE
   8
LEVEL001
   6
CONTINUOUS
  62
7
  10
 210.713
  20
 448.944
  30
0.0
  11
 210.728
  21
 448.889
  31
0.0
   0
LINE
   8
LEVEL001
   6
CONTINUOUS
  62
7
  10
 210.728
  20
 448.889
  30
0.0
  11
 210.750
  21
 448.835
  31
0.0
   0
LINE
   8
LEVEL001
   6
CONTINUOUS
  62
7
  10
 210.750
  20
 448.835
  30
0.0
  11
 210.778
  21
 448.781
  31
0.0
   0
LINE
   8
LEVEL001
   6
CONTINUOUS
  62
7
  10
 210.778
  20
 448.781
  30
0.0
  11
 210.812
  21
 448.727
  31
0.0
   0
LINE
   8
LEVEL001
   6
CONTINUOUS
  62
7
  10
 210.812
  20
 448.727
  30
0.0
  11
 210.853
  21
 448.674
  31
0.0
   0
LINE
   8
LEVEL001
   6
CONTINUOUS
  62
7
  10
 210.853
  20
 448.674
  30
0.0
  11
 210.899
  21
 448.622
  31
0.0
   0
LINE
   8
LEVEL001
   6
CONTINUOUS
  62
7
  10
 210.899
  20
 448.622
  30
0.0
  11
 210.951
  21
 448.571
  31
0.0
   0
LINE
   8
LEVEL001
   6
CONTINUOUS
  62
7
  10
 210.951
  20
 448.571
  30
0.0
  11
 211.009
  21
 448.520
  31
0.0
   0
LINE
   8
LEVEL001
   6
CONTINUOUS
  62
7
  10
 211.009
  20
 448.520
  30
0.0
  11
 211.073
  21
 448.471
  31
0.0
   0
LINE
   8
LEVEL001
   6
CONTINUOUS
  62
7
  10
 211.073
  20
 448.471
  30
0.0
  11
 211.142
  21
 448.423
  31
0.0
   0
LINE
   8
LEVEL001
   6
CONTINUOUS
  62
7
  10
 211.142
  20
 448.423
  30
0.0
  11
 211.217
  21
 448.376
  31
0.0
   0
LINE
   8
LEVEL001
   6
CONTINUOUS
  62
7
  10
 211.217
  20
 448.376
  30
0.0
  11
 211.297
  21
 448.330
  31
0.0
   0
LINE
   8
LEVEL001
   6
CONTINUOUS
  62
7
  10
 211.297
  20
 448.330
  30
0.0
  11
 211.382
  21
 448.285
  31
0.0
   0
LINE
   8
LEVEL001
   6
CONTINUOUS
  62
7
  10
 211.382
  20
 448.285
  30
0.0
  11
 211.472
  21
 448.242
  31
0.0
   0
LINE
   8
LEVEL001
   6
CONTINUOUS
  62
7
  10
 211.472
  20
 448.242
  30
0.0
  11
 211.567
  21
 448.201
  31
0.0
   0
LINE
   8
LEVEL001
   6
CONTINUOUS
  62
7
  10
 211.567
  20
 448.201
  30
0.0
  11
 211.667
  21
 448.161
  31
0.0
   0
LINE
   8
LEVEL001
   6
CONTINUOUS
  62
7
  10
 211.667
  20
 448.161
  30
0.0
  11
 211.771
  21
 448.123
  31
0.0
   0
LINE
   8
LEVEL001
   6
CONTINUOUS
  62
7
  10
 211.771
  20
 448.123
  30
0.0
  11
 211.879
  21
 448.087
  31
0.0
   0
LINE
   8
LEVEL001
   6
CONTINUOUS
  62
7
  10
 211.879
  20
 448.087
  30
0.0
  11
 211.991
  21
 448.052
  31
0.0
   0
LINE
   8
LEVEL001
   6
CONTINUOUS
  62
7
  10
 211.991
  20
 448.052
  30
0.0
  11
 212.107
  21
 448.020
  31
0.0
   0
LINE
   8
LEVEL001
   6
CONTINUOUS
  62
7
  10
 212.107
  20
 448.020
  30
0.0
  11
 212.227
  21
 447.989
  31
0.0
   0
LINE
   8
LEVEL001
   6
CONTINUOUS
  62
7
  10
 212.227
  20
 447.989
  30
0.0
  11
 212.350
  21
 447.960
  31
0.0
   0
LINE
   8
LEVEL001
   6
CONTINUOUS
  62
7
  10
 212.350
  20
 447.960
  30
0.0
  11
 212.476
  21
 447.934
  31
0.0
   0
LINE
   8
LEVEL001
   6
CONTINUOUS
  62
7
  10
 212.476
  20
 447.934
  30
0.0
  11
 212.605
  21
 447.910
  31
0.0
   0
LINE
   8
LEVEL001
   6
CONTINUOUS
  62
7
  10
 212.605
  20
 447.910
  30
0.0
  11
 212.737
  21
 447.887
  31
0.0
   0
LINE
   8
LEVEL001
   6
CONTINUOUS
  62
7
  10
 212.737
  20
 447.887
  30
0.0
  11
 212.871
  21
 447.867
  31
0.0
   0
LINE
   8
LEVEL001
   6
CONTINUOUS
  62
7
  10
 212.871
  20
 447.867
  30
0.0
  11
 213.008
  21
 447.850
  31
0.0
   0
LINE
   8
LEVEL001
   6
CONTINUOUS
  62
7
  10
 213.008
  20
 447.850
  30
0.0
  11
 213.146
  21
 447.834
  31
0.0
   0
LINE
   8
LEVEL001
   6
CONTINUOUS
  62
7
  10
 213.146
  20
 447.834
  30
0.0
  11
 213.286
  21
 447.821
  31
0.0
   0
LINE
   8
LEVEL001
   6
CONTINUOUS
  62
7
  10
 213.286
  20
 447.821
  30
0.0
  11
 213.427
  21
 447.810
  31
0.0
   0
LINE
   8
LEVEL001
   6
CONTINUOUS
  62
7
  10
 213.427
  20
 447.810
  30
0.0
  11
 213.569
  21
 447.802
  31
0.0
   0
LINE
   8
LEVEL001
   6
CONTINUOUS
  62
7
  10
 213.569
  20
 447.802
  30
0.0
  11
 213.712
  21
 447.796
  31
0.0
   0
LINE
   8
LEVEL001
   6
CONTINUOUS
  62
7
  10
 213.712
  20
 447.796
  30
0.0
  11
 213.856
  21
 447.792
  31
0.0
   0
LINE
   8
LEVEL001
   6
CONTINUOUS
  62
7
  10
 213.856
  20
 447.792
  30
0.0
  11
 214.000
  21
 447.791
  31
0.0
   0
LINE
   8
LEVEL001
   6
CONTINUOUS
  62
7
  10
 214.000
  20
 447.791
  30
0.0
  11
 214.144
  21
 447.792
  31
0.0
   0
LINE
   8
LEVEL001
   6
CONTINUOUS
  62
7
  10
 214.144
  20
 447.792
  30
0.0
  11
 214.288
  21
 447.796
  31
0.0
   0
LINE
   8
LEVEL001
   6
CONTINUOUS
  62
7
  10
 214.288
  20
 447.796
  30
0.0
  11
 214.431
  21
 447.802
  31
0.0
   0
LINE
   8
LEVEL001
   6
CONTINUOUS
  62
7
  10
 214.431
  20
 447.802
  30
0.0
  11
 214.573
  21
 447.810
  31
0.0
   0
LINE
   8
LEVEL001
   6
CONTINUOUS
  62
7
  10
 214.573
  20
 447.810
  30
0.0
  11
 214.714
  21
 447.821
  31
0.0
   0
LINE
   8
LEVEL001
   6
CONTINUOUS
  62
7
  10
 214.714
  20
 447.821
  30
0.0
  11
 214.854
  21
 447.834
  31
0.0
   0
LINE
   8
LEVEL001
   6
CONTINUOUS
  62
7
  10
 214.854
  20
 447.834
  30
0.0
  11
 214.992
  21
 447.850
  31
0.0
   0
LINE
   8
LEVEL001
   6
CONTINUOUS
  62
7
  10
 214.992
  20
 447.850
  30
0.0
  11
 215.129
  21
 447.867
  31
0.0
   0
LINE
   8
LEVEL001
   6
CONTINUOUS
  62
7
  10
 215.129
  20
 447.867
  30
0.0
  11
 215.263
  21
 447.887
  31
0.0
   0
LINE
   8
LEVEL001
   6
CONTINUOUS
  62
7
  10
 215.263
  20
 447.887
  30
0.0
  11
 215.395
  21
 447.910
  31
0.0
   0
LINE
   8
LEVEL001
   6
CONTINUOUS
  62
7
  10
 215.395
  20
 447.910
  30
0.0
  11
 215.524
  21
 447.934
  31
0.0
   0
LINE
   8
LEVEL001
   6
CONTINUOUS
  62
7
  10
 215.524
  20
 447.934
  30
0.0
  11
 215.650
  21
 447.960
  31
0.0
   0
LINE
   8
LEVEL001
   6
CONTINUOUS
  62
7
  10
 215.650
  20
 447.960
  30
0.0
  11
 215.773
  21
 447.989
  31
0.0
   0
LINE
   8
LEVEL001
   6
CONTINUOUS
  62
7
  10
 215.773
  20
 447.989
  30
0.0
  11
 215.893
  21
 448.020
  31
0.0
   0
LINE
   8
LEVEL001
   6
CONTINUOUS
  62
7
  10
 215.893
  20
 448.020
  30
0.0
  11
 216.009
  21
 448.052
  31
0.0
   0
LINE
   8
LEVEL001
   6
CONTINUOUS
  62
7
  10
 216.009
  20
 448.052
  30
0.0
  11
 216.121
  21
 448.087
  31
0.0
   0
LINE
   8
LEVEL001
   6
CONTINUOUS
  62
7
  10
 216.121
  20
 448.087
  30
0.0
  11
 216.229
  21
 448.123
  31
0.0
   0
LINE
   8
LEVEL001
   6
CONTINUOUS
  62
7
  10
 216.229
  20
 448.123
  30
0.0
  11
 216.333
  21
 448.161
  31
0.0
   0
LINE
   8
LEVEL001
   6
CONTINUOUS
  62
7
  10
 216.333
  20
 448.161
  30
0.0
  11
 216.433
  21
 448.201
  31
0.0
   0
LINE
   8
LEVEL001
   6
CONTINUOUS
  62
7
  10
 216.433
  20
 448.201
  30
0.0
  11
 216.528
  21
 448.242
  31
0.0
   0
LINE
   8
LEVEL001
   6
CONTINUOUS
  62
7
  10
 216.528
  20
 448.242
  30
0.0
  11
 216.618
  21
 448.285
  31
0.0
   0
LINE
   8
LEVEL001
   6
CONTINUOUS
  62
7
  10
 216.618
  20
 448.285
  30
0.0
  11
 216.703
  21
 448.330
  31
0.0
   0
LINE
   8
LEVEL001
   6
CONTINUOUS
  62
7
  10
 216.703
  20
 448.330
  30
0.0
  11
 216.783
  21
 448.376
  31
0.0
   0
LINE
   8
LEVEL001
   6
CONTINUOUS
  62
7
  10
 216.783
  20
 448.376
  30
0.0
  11
 216.858
  21
 448.423
  31
0.0
   0
LINE
   8
LEVEL001
   6
CONTINUOUS
  62
7
  10
 216.858
  20
 448.423
  30
0.0
  11
 216.927
  21
 448.471
  31
0.0
   0
LINE
   8
LEVEL001
   6
CONTINUOUS
  62
7
  10
 216.927
  20
 448.471
  30
0.0
  11
 216.991
  21
 448.520
  31
0.0
   0
LINE
   8
LEVEL001
   6
CONTINUOUS
  62
7
  10
 216.991
  20
 448.520
  30
0.0
  11
 217.049
  21
 448.571
  31
0.0
   0
LINE
   8
LEVEL001
   6
CONTINUOUS
  62
7
  10
 217.049
  20
 448.571
  30
0.0
  11
 217.101
  21
 448.622
  31
0.0
   0
LINE
   8
LEVEL001
   6
CONTINUOUS
  62
7
  10
 217.101
  20
 448.622
  30
0.0
  11
 217.147
  21
 448.674
  31
0.0
   0
LINE
   8
LEVEL001
   6
CONTINUOUS
  62
7
  10
 217.147
  20
 448.674
  30
0.0
  11
 217.188
  21
 448.727
  31
0.0
   0
LINE
   8
LEVEL001
   6
CONTINUOUS
  62
7
  10
 217.188
  20
 448.727
  30
0.0
  11
 217.222
  21
 448.781
  31
0.0
   0
LINE
   8
LEVEL001
   6
CONTINUOUS
  62
7
  10
 217.222
  20
 448.781
  30
0.0
  11
 217.250
  21
 448.835
  31
0.0
   0
LINE
   8
LEVEL001
   6
CONTINUOUS
  62
7
  10
 217.250
  20
 448.835
  30
0.0
  11
 217.272
  21
 448.889
  31
0.0
   0
LINE
   8
LEVEL001
   6
CONTINUOUS
  62
7
  10
 217.272
  20
 448.889
  30
0.0
  11
 217.287
  21
 448.944
  31
0.0
   0
LINE
   8
LEVEL001
   6
CONTINUOUS
  62
7
  10
 217.287
  20
 448.944
  30
0.0
  11
 217.297
  21
 448.999
  31
0.0
   0
LINE
   8
LEVEL001
   6
CONTINUOUS
  62
7
  10
 217.297
  20
 448.999
  30
0.0
  11
 217.300
  21
 449.054
  31
0.0
   0
LINE
   8
LEVEL001
   6
CONTINUOUS
  62
7
  10
 210.700
  20
 449.054
  30
0.0
  11
 211.602
  21
 451.588
  31
0.0
   0
LINE
   8
LEVEL001
   6
CONTINUOUS
  62
7
  10
 217.297
  20
 448.999
  30
0.0
  11
 216.391
  21
 451.628
  31
0.0
   0
LINE
   8
LEVEL001
   6
CONTINUOUS
  62
7
  10
 211.120
  20
 447.404
  30
0.0
  11
 211.123
  21
 447.356
  31
0.0
   0
LINE
   8
LEVEL001
   6
CONTINUOUS
  62
7
  10
 211.123
  20
 447.356
  30
0.0
  11
 211.131
  21
 447.308
  31
0.0
   0
LINE
   8
LEVEL001
   6
CONTINUOUS
  62
7
  10
 211.131
  20
 447.308
  30
0.0
  11
 211.145
  21
 447.260
  31
0.0
   0
LINE
   8
LEVEL001
   6
CONTINUOUS
  62
7
  10
 211.145
  20
 447.260
  30
0.0
  11
 211.164
  21
 447.213
  31
0.0
   0
LINE
   8
LEVEL001
   6
CONTINUOUS
  62
7
  10
 211.164
  20
 447.213
  30
0.0
  11
 211.188
  21
 447.166
  31
0.0
   0
LINE
   8
LEVEL001
   6
CONTINUOUS
  62
7
  10
 211.188
  20
 447.166
  30
0.0
  11
 211.218
  21
 447.119
  31
0.0
   0
LINE
   8
LEVEL001
   6
CONTINUOUS
  62
7
  10
 211.218
  20
 447.119
  30
0.0
  11
 211.253
  21
 447.073
  31
0.0
   0
LINE
   8
LEVEL001
   6
CONTINUOUS
  62
7
  10
 211.253
  20
 447.073
  30
0.0
  11
 211.294
  21
 447.027
  31
0.0
   0
LINE
   8
LEVEL001
   6
CONTINUOUS
  62
7
  10
 211.294
  20
 447.027
  30
0.0
  11
 211.339
  21
 446.982
  31
0.0
   0
LINE
   8
LEVEL001
   6
CONTINUOUS
  62
7
  10
 211.339
  20
 446.982
  30
0.0
  11
 211.390
  21
 446.938
  31
0.0
   0
LINE
   8
LEVEL001
   6
CONTINUOUS
  62
7
  10
 211.390
  20
 446.938
  30
0.0
  11
 211.445
  21
 446.895
  31
0.0
   0
LINE
   8
LEVEL001
   6
CONTINUOUS
  62
7
  10
 211.445
  20
 446.895
  30
0.0
  11
 211.506
  21
 446.853
  31
0.0
   0
LINE
   8
LEVEL001
   6
CONTINUOUS
  62
7
  10
 211.506
  20
 446.853
  30
0.0
  11
 211.571
  21
 446.812
  31
0.0
   0
LINE
   8
LEVEL001
   6
CONTINUOUS
  62
7
  10
 211.571
  20
 446.812
  30
0.0
  11
 211.641
  21
 446.772
  31
0.0
   0
LINE
   8
LEVEL001
   6
CONTINUOUS
  62
7
  10
 211.641
  20
 446.772
  30
0.0
  11
 211.715
  21
 446.733
  31
0.0
   0
LINE
   8
LEVEL001
   6
CONTINUOUS
  62
7
  10
 211.715
  20
 446.733
  30
0.0
  11
 211.794
  21
 446.696
  31
0.0
   0
LINE
   8
LEVEL001
   6
CONTINUOUS
  62
7
  10
 211.794
  20
 446.696
  30
0.0
  11
 211.877
  21
 446.660
  31
0.0
   0
LINE
   8
LEVEL001
   6
CONTINUOUS
  62
7
  10
 211.877
  20
 446.660
  30
0.0
  11
 211.964
  21
 446.625
  31
0.0
   0
LINE
   8
LEVEL001
   6
CONTINUOUS
  62
7
  10
 211.964
  20
 446.625
  30
0.0
  11
 212.054
  21
 446.592
  31
0.0
   0
LINE
   8
LEVEL001
   6
CONTINUOUS
  62
7
  10
 212.054
  20
 446.592
  30
0.0
  11
 212.149
  21
 446.560
  31
0.0
   0
LINE
   8
LEVEL001
   6
CONTINUOUS
  62
7
  10
 212.149
  20
 446.560
  30
0.0
  11
 212.247
  21
 446.530
  31
0.0
   0
LINE
   8
LEVEL001
   6
CONTINUOUS
  62
7
  10
 212.247
  20
 446.530
  30
0.0
  11
 212.348
  21
 446.501
  31
0.0
   0
LINE
   8
LEVEL001
   6
CONTINUOUS
  62
7
  10
 212.348
  20
 446.501
  30
0.0
  11
 212.453
  21
 446.475
  31
0.0
   0
LINE
   8
LEVEL001
   6
CONTINUOUS
  62
7
  10
 212.453
  20
 446.475
  30
0.0
  11
 212.560
  21
 446.450
  31
0.0
   0
LINE
   8
LEVEL001
   6
CONTINUOUS
  62
7
  10
 212.560
  20
 446.450
  30
0.0
  11
 212.670
  21
 446.427
  31
0.0
   0
LINE
   8
LEVEL001
   6
CONTINUOUS
  62
7
  10
 212.670
  20
 446.427
  30
0.0
  11
 212.783
  21
 446.405
  31
0.0
   0
LINE
   8
LEVEL001
   6
CONTINUOUS
  62
7
  10
 212.783
  20
 446.405
  30
0.0
  11
 212.898
  21
 446.386
  31
0.0
   0
LINE
   8
LEVEL001
   6
CONTINUOUS
  62
7
  10
 212.898
  20
 446.386
  30
0.0
  11
 213.015
  21
 446.369
  31
0.0
   0
LINE
   8
LEVEL001
   6
CONTINUOUS
  62
7
  10
 213.015
  20
 446.369
  30
0.0
  11
 213.134
  21
 446.353
  31
0.0
   0
LINE
   8
LEVEL001
   6
CONTINUOUS
  62
7
  10
 213.134
  20
 446.353
  30
0.0
  11
 213.255
  21
 446.340
  31
0.0
   0
LINE
   8
LEVEL001
   6
CONTINUOUS
  62
7
  10
 213.255
  20
 446.340
  30
0.0
  11
 213.377
  21
 446.328
  31
0.0
   0
LINE
   8
LEVEL001
   6
CONTINUOUS
  62
7
  10
 213.377
  20
 446.328
  30
0.0
  11
 213.500
  21
 446.319
  31
0.0
   0
LINE
   8
LEVEL001
   6
CONTINUOUS
  62
7
  10
 213.500
  20
 446.319
  30
0.0
  11
 213.624
  21
 446.312
  31
0.0
   0
LINE
   8
LEVEL001
   6
CONTINUOUS
  62
7
  10
 213.624
  20
 446.312
  30
0.0
  11
 213.749
  21
 446.306
  31
0.0
   0
LINE
   8
LEVEL001
   6
CONTINUOUS
  62
7
  10
 213.749
  20
 446.306
  30
0.0
  11
 213.874
  21
 446.303
  31
0.0
   0
LINE
   8
LEVEL001
   6
CONTINUOUS
  62
7
  10
 213.874
  20
 446.303
  30
0.0
  11
 214.000
  21
 446.302
  31
0.0
   0
LINE
   8
LEVEL001
   6
CONTINUOUS
  62
7
  10
 214.000
  20
 446.302
  30
0.0
  11
 214.126
  21
 446.303
  31
0.0
   0
LINE
   8
LEVEL001
   6
CONTINUOUS
  62
7
  10
 214.126
  20
 446.303
  30
0.0
  11
 214.251
  21
 446.306
  31
0.0
   0
LINE
   8
LEVEL001
   6
CONTINUOUS
  62
7
  10
 214.251
  20
 446.306
  30
0.0
  11
 214.376
  21
 446.312
  31
0.0
   0
LINE
   8
LEVEL001
   6
CONTINUOUS
  62
7
  10
 214.376
  20
 446.312
  30
0.0
  11
 214.500
  21
 446.319
  31
0.0
   0
LINE
   8
LEVEL001
   6
CONTINUOUS
  62
7
  10
 214.500
  20
 446.319
  30
0.0
  11
 214.623
  21
 446.328
  31
0.0
   0
LINE
   8
LEVEL001
   6
CONTINUOUS
  62
7
  10
 214.623
  20
 446.328
  30
0.0
  11
 214.745
  21
 446.340
  31
0.0
   0
LINE
   8
LEVEL001
   6
CONTINUOUS
  62
7
  10
 214.745
  20
 446.340
  30
0.0
  11
 214.866
  21
 446.353
  31
0.0
   0
LINE
   8
LEVEL001
   6
CONTINUOUS
  62
7
  10
 214.866
  20
 446.353
  30
0.0
  11
 214.985
  21
 446.369
  31
0.0
   0
LINE
   8
LEVEL001
   6
CONTINUOUS
  62
7
  10
 214.985
  20
 446.369
  30
0.0
  11
 215.102
  21
 446.386
  31
0.0
   0
LINE
   8
LEVEL001
   6
CONTINUOUS
  62
7
  10
 215.102
  20
 446.386
  30
0.0
  11
 215.217
  21
 446.405
  31
0.0
   0
LINE
   8
LEVEL001
   6
CONTINUOUS
  62
7
  10
 215.217
  20
 446.405
  30
0.0
  11
 215.330
  21
 446.427
  31
0.0
   0
LINE
   8
LEVEL001
   6
CONTINUOUS
  62
7
  10
 215.330
  20
 446.427
  30
0.0
  11
 215.440
  21
 446.450
  31
0.0
   0
LINE
   8
LEVEL001
   6
CONTINUOUS
  62
7
  10
 215.440
  20
 446.450
  30
0.0
  11
 215.547
  21
 446.475
  31
0.0
   0
LINE
   8
LEVEL001
   6
CONTINUOUS
  62
7
  10
 215.547
  20
 446.475
  30
0.0
  11
 215.652
  21
 446.501
  31
0.0
   0
LINE
   8
LEVEL001
   6
CONTINUOUS
  62
7
  10
 215.652
  20
 446.501
  30
0.0
  11
 215.753
  21
 446.530
  31
0.0
   0
LINE
   8
LEVEL001
   6
CONTINUOUS
  62
7
  10
 215.753
  20
 446.530
  30
0.0
  11
 215.851
  21
 446.560
  31
0.0
   0
LINE
   8
LEVEL001
   6
CONTINUOUS
  62
7
  10
 215.851
  20
 446.560
  30
0.0
  11
 215.946
  21
 446.592
  31
0.0
   0
LINE
   8
LEVEL001
   6
CONTINUOUS
  62
7
  10
 215.946
  20
 446.592
  30
0.0
  11
 216.036
  21
 446.625
  31
0.0
   0
LINE
   8
LEVEL001
   6
CONTINUOUS
  62
7
  10
 216.036
  20
 446.625
  30
0.0
  11
 216.123
  21
 446.660
  31
0.0
   0
LINE
   8
LEVEL001
   6
CONTINUOUS
  62
7
  10
 216.123
  20
 446.660
  30
0.0
  11
 216.206
  21
 446.696
  31
0.0
   0
LINE
   8
LEVEL001
   6
CONTINUOUS
  62
7
  10
 216.206
  20
 446.696
  30
0.0
  11
 216.285
  21
 446.733
  31
0.0
   0
LINE
   8
LEVEL001
   6
CONTINUOUS
  62
7
  10
 216.285
  20
 446.733
  30
0.0
  11
 216.359
  21
 446.772
  31
0.0
   0
LINE
   8
LEVEL001
   6
CONTINUOUS
  62
7
  10
 216.359
  20
 446.772
  30
0.0
  11
 216.429
  21
 446.812
  31
0.0
   0
LINE
   8
LEVEL001
   6
CONTINUOUS
  62
7
  10
 216.429
  20
 446.812
  30
0.0
  11
 216.494
  21
 446.853
  31
0.0
   0
LINE
   8
LEVEL001
   6
CONTINUOUS
  62
7
  10
 216.494
  20
 446.853
  30
0.0
  11
 216.555
  21
 446.895
  31
0.0
   0
LINE
   8
LEVEL001
   6
CONTINUOUS
  62
7
  10
 216.555
  20
 446.895
  30
0.0
  11
 216.610
  21
 446.938
  31
0.0
   0
LINE
   8
LEVEL001
   6
CONTINUOUS
  62
7
  10
 216.610
  20
 446.938
  30
0.0
  11
 216.661
  21
 446.982
  31
0.0
   0
LINE
   8
LEVEL001
   6
CONTINUOUS
  62
7
  10
 216.661
  20
 446.982
  30
0.0
  11
 216.706
  21
 447.027
  31
0.0
   0
LINE
   8
LEVEL001
   6
CONTINUOUS
  62
7
  10
 216.706
  20
 447.027
  30
0.0
  11
 216.747
  21
 447.073
  31
0.0
   0
LINE
   8
LEVEL001
   6
CONTINUOUS
  62
7
  10
 216.747
  20
 447.073
  30
0.0
  11
 216.782
  21
 447.119
  31
0.0
   0
LINE
   8
LEVEL001
   6
CONTINUOUS
  62
7
  10
 216.782
  20
 447.119
  30
0.0
  11
 216.812
  21
 447.166
  31
0.0
   0
LINE
   8
LEVEL001
   6
CONTINUOUS
  62
7
  10
 216.812
  20
 447.166
  30
0.0
  11
 216.836
  21
 447.213
  31
0.0
   0
LINE
   8
LEVEL001
   6
CONTINUOUS
  62
7
  10
 216.836
  20
 447.213
  30
0.0
  11
 216.855
  21
 447.260
  31
0.0
   0
LINE
   8
LEVEL001
   6
CONTINUOUS
  62
7
  10
 216.855
  20
 447.260
  30
0.0
  11
 216.869
  21
 447.308
  31
0.0
   0
LINE
   8
LEVEL001
   6
CONTINUOUS
  62
7
  10
 216.869
  20
 447.308
  30
0.0
  11
 216.877
  21
 447.356
  31
0.0
   0
LINE
   8
LEVEL001
   6
CONTINUOUS
  62
7
  10
 216.877
  20
 447.356
  30
0.0
  11
 216.880
  21
 447.404
  31
0.0
   0
LINE
   8
LEVEL001
   6
CONTINUOUS
  62
7
  10
 210.540
  20
 446.282
  30
0.0
  11
 210.543
  21
 446.225
  31
0.0
   0
LINE
   8
LEVEL001
   6
CONTINUOUS
  62
7
  10
 210.543
  20
 446.225
  30
0.0
  11
 210.553
  21
 446.167
  31
0.0
   0
LINE
   8
LEVEL001
   6
CONTINUOUS
  62
7
  10
 210.553
  20
 446.167
  30
0.0
  11
 210.570
  21
 446.110
  31
0.0
   0
LINE
   8
LEVEL001
   6
CONTINUOUS
  62
7
  10
 210.570
  20
 446.110
  30
0.0
  11
 210.593
  21
 446.053
  31
0.0
   0
LINE
   8
LEVEL001
   6
CONTINUOUS
  62
7
  10
 210.593
  20
 446.053
  30
0.0
  11
 210.622
  21
 445.996
  31
0.0
   0
LINE
   8
LEVEL001
   6
CONTINUOUS
  62
7
  10
 210.622
  20
 445.996
  30
0.0
  11
 210.658
  21
 445.940
  31
0.0
   0
LINE
   8
LEVEL001
   6
CONTINUOUS
  62
7
  10
 210.658
  20
 445.940
  30
0.0
  11
 210.700
  21
 445.884
  31
0.0
   0
LINE
   8
LEVEL001
   6
CONTINUOUS
  62
7
  10
 210.700
  20
 445.884
  30
0.0
  11
 210.749
  21
 445.830
  31
0.0
   0
LINE
   8
LEVEL001
   6
CONTINUOUS
  62
7
  10
 210.749
  20
 445.830
  30
0.0
  11
 210.803
  21
 445.776
  31
0.0
   0
LINE
   8
LEVEL001
   6
CONTINUOUS
  62
7
  10
 210.803
  20
 445.776
  30
0.0
  11
 210.864
  21
 445.723
  31
0.0
   0
LINE
   8
LEVEL001
   6
CONTINUOUS
  62
7
  10
 210.864
  20
 445.723
  30
0.0
  11
 210.931
  21
 445.671
  31
0.0
   0
LINE
   8
LEVEL001
   6
CONTINUOUS
  62
7
  10
 210.931
  20
 445.671
  30
0.0
  11
 211.004
  21
 445.620
  31
0.0
   0
LINE
   8
LEVEL001
   6
CONTINUOUS
  62
7
  10
 211.004
  20
 445.620
  30
0.0
  11
 211.082
  21
 445.571
  31
0.0
   0
LINE
   8
LEVEL001
   6
CONTINUOUS
  62
7
  10
 211.082
  20
 445.571
  30
0.0
  11
 211.166
  21
 445.523
  31
0.0
   0
LINE
   8
LEVEL001
   6
CONTINUOUS
  62
7
  10
 211.166
  20
 445.523
  30
0.0
  11
 211.255
  21
 445.476
  31
0.0
   0
LINE
   8
LEVEL001
   6
CONTINUOUS
  62
7
  10
 211.255
  20
 445.476
  30
0.0
  11
 211.349
  21
 445.431
  31
0.0
   0
LINE
   8
LEVEL001
   6
CONTINUOUS
  62
7
  10
 211.349
  20
 445.431
  30
0.0
  11
 211.449
  21
 445.388
  31
0.0
   0
LINE
   8
LEVEL001
   6
CONTINUOUS
  62
7
  10
 211.449
  20
 445.388
  30
0.0
  11
 211.553
  21
 445.346
  31
0.0
   0
LINE
   8
LEVEL001
   6
CONTINUOUS
  62
7
  10
 211.553
  20
 445.346
  30
0.0
  11
 211.662
  21
 445.306
  31
0.0
   0
LINE
   8
LEVEL001
   6
CONTINUOUS
  62
7
  10
 211.662
  20
 445.306
  30
0.0
  11
 211.776
  21
 445.268
  31
0.0
   0
LINE
   8
LEVEL001
   6
CONTINUOUS
  62
7
  10
 211.776
  20
 445.268
  30
0.0
  11
 211.894
  21
 445.232
  31
0.0
   0
LINE
   8
LEVEL001
   6
CONTINUOUS
  62
7
  10
 211.894
  20
 445.232
  30
0.0
  11
 212.015
  21
 445.198
  31
0.0
   0
LINE
   8
LEVEL001
   6
CONTINUOUS
  62
7
  10
 212.015
  20
 445.198
  30
0.0
  11
 212.141
  21
 445.166
  31
0.0
   0
LINE
   8
LEVEL001
   6
CONTINUOUS
  62
7
  10
 212.141
  20
 445.166
  30
0.0
  11
 212.270
  21
 445.136
  31
0.0
   0
LINE
   8
LEVEL001
   6
CONTINUOUS
  62
7
  10
 212.270
  20
 445.136
  30
0.0
  11
 212.402
  21
 445.108
  31
0.0
   0
LINE
   8
LEVEL001
   6
CONTINUOUS
  62
7
  10
 212.402
  20
 445.108
  30
0.0
  11
 212.538
  21
 445.082
  31
0.0
   0
LINE
   8
LEVEL001
   6
CONTINUOUS
  62
7
  10
 212.538
  20
 445.082
  30
0.0
  11
 212.676
  21
 445.059
  31
0.0
   0
LINE
   8
LEVEL001
   6
CONTINUOUS
  62
7
  10
 212.676
  20
 445.059
  30
0.0
  11
 212.817
  21
 445.038
  31
0.0
   0
LINE
   8
LEVEL001
   6
CONTINUOUS
  62
7
  10
 212.817
  20
 445.038
  30
0.0
  11
 212.960
  21
 445.020
  31
0.0
   0
LINE
   8
LEVEL001
   6
CONTINUOUS
  62
7
  10
 212.960
  20
 445.020
  30
0.0
  11
 213.104
  21
 445.004
  31
0.0
   0
LINE
   8
LEVEL001
   6
CONTINUOUS
  62
7
  10
 213.104
  20
 445.004
  30
0.0
  11
 213.251
  21
 444.990
  31
0.0
   0
LINE
   8
LEVEL001
   6
CONTINUOUS
  62
7
  10
 213.251
  20
 444.990
  30
0.0
  11
 213.399
  21
 444.979
  31
0.0
   0
LINE
   8
LEVEL001
   6
CONTINUOUS
  62
7
  10
 213.399
  20
 444.979
  30
0.0
  11
 213.548
  21
 444.970
  31
0.0
   0
LINE
   8
LEVEL001
   6
CONTINUOUS
  62
7
  10
 213.548
  20
 444.970
  30
0.0
  11
 213.698
  21
 444.963
  31
0.0
   0
LINE
   8
LEVEL001
   6
CONTINUOUS
  62
7
  10
 213.698
  20
 444.963
  30
0.0
  11
 213.849
  21
 444.960
  31
0.0
   0
LINE
   8
LEVEL001
   6
CONTINUOUS
  62
7
  10
 213.849
  20
 444.960
  30
0.0
  11
 214.000
  21
 444.958
  31
0.0
   0
LINE
   8
LEVEL001
   6
CONTINUOUS
  62
7
  10
 214.000
  20
 444.958
  30
0.0
  11
 214.151
  21
 444.960
  31
0.0
   0
LINE
   8
LEVEL001
   6
CONTINUOUS
  62
7
  10
 214.151
  20
 444.960
  30
0.0
  11
 214.302
  21
 444.963
  31
0.0
   0
LINE
   8
LEVEL001
   6
CONTINUOUS
  62
7
  10
 214.302
  20
 444.963
  30
0.0
  11
 214.452
  21
 444.970
  31
0.0
   0
LINE
   8
LEVEL001
   6
CONTINUOUS
  62
7
  10
 214.452
  20
 444.970
  30
0.0
  11
 214.601
  21
 444.979
  31
0.0
   0
LINE
   8
LEVEL001
   6
CONTINUOUS
  62
7
  10
 214.601
  20
 444.979
  30
0.0
  11
 214.749
  21
 444.990
  31
0.0
   0
LINE
   8
LEVEL001
   6
CONTINUOUS
  62
7
  10
 214.749
  20
 444.990
  30
0.0
  11
 214.896
  21
 445.004
  31
0.0
   0
LINE
   8
LEVEL001
   6
CONTINUOUS
  62
7
  10
 214.896
  20
 445.004
  30
0.0
  11
 215.040
  21
 445.020
  31
0.0
   0
LINE
   8
LEVEL001
   6
CONTINUOUS
  62
7
  10
 215.040
  20
 445.020
  30
0.0
  11
 215.183
  21
 445.038
  31
0.0
   0
LINE
   8
LEVEL001
   6
CONTINUOUS
  62
7
  10
 215.183
  20
 445.038
  30
0.0
  11
 215.324
  21
 445.059
  31
0.0
   0
LINE
   8
LEVEL001
   6
CONTINUOUS
  62
7
  10
 215.324
  20
 445.059
  30
0.0
  11
 215.462
  21
 445.082
  31
0.0
   0
LINE
   8
LEVEL001
   6
CONTINUOUS
  62
7
  10
 215.462
  20
 445.082
  30
0.0
  11
 215.598
  21
 445.108
  31
0.0
   0
LINE
   8
LEVEL001
   6
CONTINUOUS
  62
7
  10
 215.598
  20
 445.108
  30
0.0
  11
 215.730
  21
 445.136
  31
0.0
   0
LINE
   8
LEVEL001
   6
CONTINUOUS
  62
7
  10
 215.730
  20
 445.136
  30
0.0
  11
 215.859
  21
 445.166
  31
0.0
   0
LINE
   8
LEVEL001
   6
CONTINUOUS
  62
7
  10
 215.859
  20
 445.166
  30
0.0
  11
 215.985
  21
 445.198
  31
0.0
   0
LINE
   8
LEVEL001
   6
CONTINUOUS
  62
7
  10
 215.985
  20
 445.198
  30
0.0
  11
 216.106
  21
 445.232
  31
0.0
   0
LINE
   8
LEVEL001
   6
CONTINUOUS
  62
7
  10
 216.106
  20
 445.232
  30
0.0
  11
 216.224
  21
 445.268
  31
0.0
   0
LINE
   8
LEVEL001
   6
CONTINUOUS
  62
7
  10
 216.224
  20
 445.268
  30
0.0
  11
 216.338
  21
 445.306
  31
0.0
   0
LINE
   8
LEVEL001
   6
CONTINUOUS
  62
7
  10
 216.338
  20
 445.306
  30
0.0
  11
 216.447
  21
 445.346
  31
0.0
   0
LINE
   8
LEVEL001
   6
CONTINUOUS
  62
7
  10
 216.447
  20
 445.346
  30
0.0
  11
 216.551
  21
 445.388
  31
0.0
   0
LINE
   8
LEVEL001
   6
CONTINUOUS
  62
7
  10
 216.551
  20
 445.388
  30
0.0
  11
 216.651
  21
 445.431
  31
0.0
   0
LINE
   8
LEVEL001
   6
CONTINUOUS
  62
7
  10
 216.651
  20
 445.431
  30
0.0
  11
 216.745
  21
 445.476
  31
0.0
   0
LINE
   8
LEVEL001
   6
CONTINUOUS
  62
7
  10
 216.745
  20
 445.476
  30
0.0
  11
 216.834
  21
 445.523
  31
0.0
   0
LINE
   8
LEVEL001
   6
CONTINUOUS
  62
7
  10
 216.834
  20
 445.523
  30
0.0
  11
 216.918
  21
 445.571
  31
0.0
   0
LINE
   8
LEVEL001
   6
CONTINUOUS
  62
7
  10
 216.918
  20
 445.571
  30
0.0
  11
 216.996
  21
 445.620
  31
0.0
   0
LINE
   8
LEVEL001
   6
CONTINUOUS
  62
7
  10
 216.996
  20
 445.620
  30
0.0
  11
 217.069
  21
 445.671
  31
0.0
   0
LINE
   8
LEVEL001
   6
CONTINUOUS
  62
7
  10
 217.069
  20
 445.671
  30
0.0
  11
 217.136
  21
 445.723
  31
0.0
   0
LINE
   8
LEVEL001
   6
CONTINUOUS
  62
7
  10
 217.136
  20
 445.723
  30
0.0
  11
 217.197
  21
 445.776
  31
0.0
   0
LINE
   8
LEVEL001
   6
CONTINUOUS
  62
7
  10
 217.197
  20
 445.776
  30
0.0
  11
 217.251
  21
 445.830
  31
0.0
   0
LINE
   8
LEVEL001
   6
CONTINUOUS
  62
7
  10
 217.251
  20
 445.830
  30
0.0
  11
 217.300
  21
 445.884
  31
0.0
   0
LINE
   8
LEVEL001
   6
CONTINUOUS
  62
7
  10
 217.300
  20
 445.884
  30
0.0
  11
 217.342
  21
 445.940
  31
0.0
   0
LINE
   8
LEVEL001
   6
CONTINUOUS
  62
7
  10
 217.342
  20
 445.940
  30
0.0
  11
 217.378
  21
 445.996
  31
0.0
   0
LINE
   8
LEVEL001
   6
CONTINUOUS
  62
7
  10
 217.378
  20
 445.996
  30
0.0
  11
 217.407
  21
 446.053
  31
0.0
   0
LINE
   8
LEVEL001
   6
CONTINUOUS
  62
7
  10
 217.407
  20
 446.053
  30
0.0
  11
 217.430
  21
 446.110
  31
0.0
   0
LINE
   8
LEVEL001
   6
CONTINUOUS
  62
7
  10
 217.430
  20
 446.110
  30
0.0
  11
 217.447
  21
 446.167
  31
0.0
   0
LINE
   8
LEVEL001
   6
CONTINUOUS
  62
7
  10
 217.447
  20
 446.167
  30
0.0
  11
 217.457
  21
 446.225
  31
0.0
   0
LINE
   8
LEVEL001
   6
CONTINUOUS
  62
7
  10
 217.457
  20
 446.225
  30
0.0
  11
 217.460
  21
 446.282
  31
0.0
   0
ARC
   8
LEVEL001
   6
CONTINUOUS
  62
7
  10
 211.061
  20
 449.768
  30
0.0
  40
 6.28019
  50
 337.893
  51
 352.464
   0
ARC
   8
LEVEL001
   6
CONTINUOUS
  62
7
  10
 218.013
  20
 447.279
  30
0.0
  40
 1.13965
  50
 173.696
  51
 240.986
   0
ARC
   8
LEVEL001
   6
CONTINUOUS
  62
7
  10
 216.939
  20
 449.768
  30
0.0
  40
 6.28019
  50
 187.536
  51
 202.107
   0
ARC
   8
LEVEL001
   6
CONTINUOUS
  62
7
  10
 209.987
  20
 447.279
  30
0.0
  40
 1.13965
  50
 299.014
  51
 6.30441
   0
LINE
   8
LEVEL001
   6
CONTINUOUS
  62
7
  10
 217.464
  20
 445.509
  30
0.0
  11
 214.000
  21
 444.736
  31
0.0
   0
LINE
   8
LEVEL001
   6
CONTINUOUS
  62
7
  10
 214.000
  20
 444.736
  30
0.0
  11
 210.536
  21
 445.509
  31
0.0
   0
LINE
   8
LEVEL001
   6
CONTINUOUS
  62
7
  10
 210.536
  20
 447.056
  30
0.0
  11
 211.123
  21
 447.187
  31
0.0
   0
LINE
   8
LEVEL001
   6
CONTINUOUS
  62
7
  10
 216.877
  20
 447.187
  30
0.0
  11
 217.464
  21
 447.056
  31
0.0
   0
LINE
   8
LEVEL001
   6
CONTINUOUS
  62
7
  10
 210.536
  20
 447.056
  30
0.0
  11
 210.536
  21
 443.292
  31
0.0
   0
LINE
   8
LEVEL001
   6
CONTINUOUS
  62
7
  10
 217.464
  20
 443.292
  30
0.0
  11
 217.464
  21
 447.056
  31
0.0
   0
LINE
   8
LEVEL001
   6
CONTINUOUS
  62
7
  10
 210.536
  20
 443.292
  30
0.0
  11
 214.000
  21
 442.519
  31
0.0
   0
LINE
   8
LEVEL001
   6
CONTINUOUS
  62
7
  10
 214.000
  20
 442.519
  30
0.0
  11
 217.464
  21
 443.292
  31
0.0
   0
ARC
   8
LEVEL001
   6
CONTINUOUS
  62
7
  10
 214.000
  20
 440.000
  30
0.0
  40
 5.00000
  50
 133.854
  51
 46.1462
   0
LINE
   8
LEVEL001
   6
CONTINUOUS
  62
7
  10
 219.774
  20
 440.000
  30
0.0
  11
 217.464
  21
 444.000
  31
0.0
   0
LINE
   8
LEVEL001
   6
CONTINUOUS
  62
7
  10
 210.536
  20
 444.000
  30
0.0
  11
 208.226
  21
 440.000
  31
0.0
   0
LINE
   8
LEVEL001
   6
CONTINUOUS
  62
7
  10
 555.000
  20
 493.500
  30
0.0
  11
 444.853
  21
 493.500
  31
0.0
   0
LINE
   8
LEVEL001
   6
CONTINUOUS
  62
7
  10
 556.000
  20
 485.000
  30
0.0
  11
 444.000
  21
 485.000
  31
0.0
   0
LINE
   8
LEVEL001
   6
CONTINUOUS
  62
7
  10
 444.000
  20
 485.000
  30
0.0
  11
 444.000
  21
 477.510
  31
0.0
   0
LINE
   8
LEVEL001
   6
CONTINUOUS
  62
7
  10
 443.000
  20
 485.500
  30
0.0
  11
 557.000
  21
 485.500
  31
0.0
   0
LINE
   8
LEVEL001
   6
CONTINUOUS
  62
7
  10
 443.000
  20
 491.500
  30
0.0
  11
 443.000
  21
 485.500
  31
0.0
   0
LINE
   8
LEVEL001
   6
CONTINUOUS
  62
7
  10
 496.000
  20
 543.000
  30
0.0
  11
 496.000
  21
 518.000
  31
0.0
   0
LINE
   8
LEVEL001
   6
CONTINUOUS
  62
7
  10
 504.000
  20
 518.000
  30
0.0
  11
 504.000
  21
 543.000
  31
0.0
   0
LINE
   8
LEVEL001
   6
CONTINUOUS
  62
7
  10
 525.619
  20
 518.000
  30
0.0
  11
 474.381
  21
 518.000
  31
0.0
   0
LINE
   8
LEVEL001
   6
CONTINUOUS
  62
7
  10
 529.000
  20
 385.000
  30
0.0
  11
 471.000
  21
 385.000
  31
0.0
   0
LINE
   8
LEVEL001
   6
CONTINUOUS
  62
7
  10
 477.000
  20
 383.000
  30
0.0
  11
 477.000
  21
 381.000
  31
0.0
   0
LINE
   8
LEVEL001
   6
CONTINUOUS
  62
7
  10
 523.000
  20
 383.000
  30
0.0
  11
 523.000
  21
 381.000
  31
0.0
   0
LINE
   8
LEVEL001
   6
CONTINUOUS
  62
7
  10
 524.000
  20
 381.000
  30
0.0
  11
 476.000
  21
 381.000
  31
0.0
   0
LINE
   8
LEVEL001
   6
CONTINUOUS
  62
7
  10
 477.000
  20
 381.000
  30
0.0
  11
 476.000
  21
 377.268
  31
0.0
   0
LINE
   8
LEVEL001
   6
CONTINUOUS
  62
7
  10
 473.000
  20
 383.000
  30
0.0
  11
 527.000
  21
 383.000
  31
0.0
   0
LINE
   8
LEVEL001
   6
CONTINUOUS
  62
7
  10
 476.000
  20
 383.000
  30
0.0
  11
 476.000
  21
 377.268
  31
0.0
   0
LINE
   8
LEVEL001
   6
CONTINUOUS
  62
7
  10
 524.300
  20
 377.268
  30
0.0
  11
 475.700
  21
 377.268
  31
0.0
   0
LINE
   8
LEVEL001
   6
CONTINUOUS
  62
7
  10
 523.000
  20
 381.000
  30
0.0
  11
 524.000
  21
 377.268
  31
0.0
   0
LINE
   8
LEVEL001
   6
CONTINUOUS
  62
7
  10
 524.000
  20
 383.000
  30
0.0
  11
 524.000
  21
 377.268
  31
0.0
   0
LINE
   8
LEVEL001
   6
CONTINUOUS
  62
7
  10
 398.000
  20
 398.000
  30
0.0
  11
 570.000
  21
 398.000
  31
0.0
   0
LINE
   8
LEVEL001
   6
CONTINUOUS
  62
7
  10
 570.000
  20
 406.000
  30
0.0
  11
 570.000
  21
 398.000
  31
0.0
   0
LINE
   8
LEVEL001
   6
CONTINUOUS
  62
7
  10
 529.000
  20
 385.000
  30
0.0
  11
 527.000
  21
 383.000
  31
0.0
   0
LINE
   8
LEVEL001
   6
CONTINUOUS
  62
7
  10
 515.000
  20
 572.000
  30
0.0
  11
 485.000
  21
 572.000
  31
0.0
   0
LINE
   8
LEVEL001
   6
CONTINUOUS
  62
7
  10
 496.000
  20
 521.000
  30
0.0
  11
 483.000
  21
 521.000
  31
0.0
   0
LINE
   8
LEVEL001
   6
CONTINUOUS
  62
7
  10
 517.000
  20
 521.000
  30
0.0
  11
 504.000
  21
 521.000
  31
0.0
   0
LINE
   8
LEVEL001
   6
CONTINUOUS
  62
7
  10
 413.535
  20
 416.831
  30
0.0
  11
 398.939
  21
 407.695
  31
0.0
   0
ARC
   8
LEVEL001
   6
CONTINUOUS
  62
7
  10
 408.229
  20
 425.307
  30
0.0
  40
 10.0000
  50
 302.043
  51
 346.515
   0
ARC
   8
LEVEL001
   6
CONTINUOUS
  62
7
  10
 457.000
  20
 440.000
  30
0.0
  40
 34.0000
  50
 121.515
  51
 220.542
   0
LINE
   8
LEVEL001
   6
CONTINUOUS
  62
7
  10
 398.000
  20
 406.000
  30
0.0
  11
 398.000
  21
 398.000
  31
0.0
   0
ARC
   8
LEVEL001
   6
CONTINUOUS
  62
7
  10
 400.000
  20
 406.000
  30
0.0
  40
 2.00000
  50
 90.0000
  51
 180.000
   0
LINE
   8
LEVEL001
   6
CONTINUOUS
  62
7
  10
 426.603
  20
 408.000
  30
0.0
  11
 400.000
  21
 408.000
  31
0.0
   0
ARC
   8
LEVEL001
   6
CONTINUOUS
  62
7
  10
 426.603
  20
 414.000
  30
0.0
  40
 6.00000
  50
 270.000
  51
 40.5420
   0
ARC
   8
LEVEL001
   6
CONTINUOUS
  62
7
  10
 434.000
  20
 477.510
  30
0.0
  40
 10.0000
  50
 301.515
  51
0.0
   0
LINE
   8
LEVEL001
   6
CONTINUOUS
  62
7
  10
 483.250
  20
 521.000
  30
0.0
  11
 483.250
  21
 518.000
  31
0.0
   0
LINE
   8
LEVEL001
   6
CONTINUOUS
  62
7
  10
 516.750
  20
 521.000
  30
0.0
  11
 516.750
  21
 518.000
  31
0.0
   0
LINE
   8
LEVEL001
   6
CONTINUOUS
  62
7
  10
 517.000
  20
 542.500
  30
0.0
  11
 517.000
  21
 521.000
  31
0.0
   0
LINE
   8
LEVEL001
   6
CONTINUOUS
  62
7
  10
 483.000
  20
 542.500
  30
0.0
  11
 483.000
  21
 521.000
  31
0.0
   0
LINE
   8
LEVEL001
   6
CONTINUOUS
  62
7
  10
 515.000
  20
 548.000
  30
0.0
  11
 485.000
  21
 548.000
  31
0.0
   0
LINE
   8
LEVEL001
   6
CONTINUOUS
  62
7
  10
 516.500
  20
 543.000
  30
0.0
  11
 483.500
  21
 543.000
  31
0.0
   0
LINE
   8
LEVEL001
   6
CONTINUOUS
  62
7
  10
 514.000
  20
 573.000
  30
0.0
  11
 486.000
  21
 573.000
  31
0.0
   0
LINE
   8
LEVEL001
   6
CONTINUOUS
  62
7
  10
 471.000
  20
 395.000
  30
0.0
  11
 471.000
  21
 385.000
  31
0.0
   0
ARC
   8
LEVEL001
   6
CONTINUOUS
  62
7
  10
 468.000
  20
 395.000
  30
0.0
  40
 3.00000
  50
0.0
  51
 90.0000
   0
LINE
   8
LEVEL001
   6
CONTINUOUS
  62
7
  10
 471.000
  20
 385.000
  30
0.0
  11
 473.000
  21
 383.000
  31
0.0
   0
ARC
   8
LEVEL001
   6
CONTINUOUS
  62
7
  10
 483.500
  20
 542.500
  30
0.0
  40
 0.500000
  50
 90.0000
  51
 180.000
   0
LINE
   8
LEVEL001
   6
CONTINUOUS
  62
7
  10
 486.000
  20
 573.000
  30
0.0
  11
 486.000
  21
 547.000
  31
0.0
   0
LINE
   8
LEVEL001
   6
CONTINUOUS
  62
7
  10
 486.000
  20
 547.000
  30
0.0
  11
 486.000
  21
 544.000
  31
0.0
   0
ARC
   8
LEVEL001
   6
CONTINUOUS
  62
7
  10
 485.000
  20
 544.000
  30
0.0
  40
 1.00000
  50
 270.000
  51
0.0
   0
ARC
   8
LEVEL001
   6
CONTINUOUS
  62
7
  10
 485.000
  20
 547.000
  30
0.0
  40
 1.00000
  50
0.0
  51
 90.0000
   0
ARC
   8
LEVEL001
   6
CONTINUOUS
  62
7
  10
 474.381
  20
 516.000
  30
0.0
  40
 2.00000
  50
 90.0000
  51
 176.496
   0
ARC
   8
LEVEL001
   6
CONTINUOUS
  62
7
  10
 445.000
  20
 491.500
  30
0.0
  40
 2.00000
  50
 90.0000
  51
 180.000
   0
ARC
   8
LEVEL001
   6
CONTINUOUS
  62
7
  10
 516.500
  20
 542.500
  30
0.0
  40
 0.500000
  50
0.0
  51
 90.0000
   0
LINE
   8
LEVEL001
   6
CONTINUOUS
  62
7
  10
 514.000
  20
 573.000
  30
0.0
  11
 514.000
  21
 547.000
  31
0.0
   0
LINE
   8
LEVEL001
   6
CONTINUOUS
  62
7
  10
 514.000
  20
 547.000
  30
0.0
  11
 514.000
  21
 544.000
  31
0.0
   0
ARC
   8
LEVEL001
   6
CONTINUOUS
  62
7
  10
 515.000
  20
 544.000
  30
0.0
  40
 1.00000
  50
 180.000
  51
 270.000
   0
ARC
   8
LEVEL001
   6
CONTINUOUS
  62
7
  10
 515.000
  20
 547.000
  30
0.0
  40
 1.00000
  50
 90.0000
  51
 180.000
   0
ARC
   8
LEVEL001
   6
CONTINUOUS
  62
7
  10
 525.619
  20
 516.000
  30
0.0
  40
 2.00000
  50
 3.50350
  51
 90.0000
   0
LINE
   8
LEVEL001
   6
CONTINUOUS
  62
7
  10
 557.000
  20
 491.500
  30
0.0
  11
 557.000
  21
 485.500
  31
0.0
   0
ARC
   8
LEVEL001
   6
CONTINUOUS
  62
7
  10
 555.000
  20
 491.500
  30
0.0
  40
 2.00000
  50
0.0
  51
 90.0000
   0
LINE
   8
LEVEL001
   6
CONTINUOUS
  62
7
  10
 529.000
  20
 395.000
  30
0.0
  11
 529.000
  21
 385.000
  31
0.0
   0
ARC
   8
LEVEL001
   6
CONTINUOUS
  62
7
  10
 532.000
  20
 395.000
  30
0.0
  40
 3.00000
  50
 90.0000
  51
 180.000
   0
LINE
   8
LEVEL001
   6
CONTINUOUS
  62
7
  10
 559.158
  20
 417.037
  30
0.0
  11
 569.368
  21
 407.459
  31
0.0
   0
ARC
   8
LEVEL001
   6
CONTINUOUS
  62
7
  10
 566.000
  20
 424.330
  30
0.0
  40
 10.0000
  50
 180.000
  51
 226.828
   0
LINE
   8
LEVEL001
   6
CONTINUOUS
  62
7
  10
 556.000
  20
 485.000
  30
0.0
  11
 556.000
  21
 424.330
  31
0.0
   0
ARC
   8
LEVEL001
   6
CONTINUOUS
  62
7
  10
 568.000
  20
 406.000
  30
0.0
  40
 2.00000
  50
0.0
  51
 90.0000
   0
ARC
   8
LEVEL001
   6
CONTINUOUS
  62
7
  10
 550.256
  20
 413.000
  30
0.0
  40
 5.00000
  50
 177.138
  51
 270.000
   0
LINE
   8
LEVEL001
   6
CONTINUOUS
  62
7
  10
 547.353
  20
 455.052
  30
0.0
  11
 545.262
  21
 413.250
  31
0.0
   0
ARC
   8
LEVEL001
   6
CONTINUOUS
  62
7
  10
 555.343
  20
 454.653
  30
0.0
  40
 8.00000
  50
 136.637
  51
 177.138
   0
LINE
   8
LEVEL001
   6
CONTINUOUS
  62
7
  10
 549.527
  20
 460.146
  30
0.0
  11
 553.816
  21
 464.688
  31
0.0
   0
ARC
   8
LEVEL001
   6
CONTINUOUS
  62
7
  10
 548.000
  20
 470.181
  30
0.0
  40
 8.00000
  50
 316.637
  51
0.0
   0
LINE
   8
LEVEL001
   6
CONTINUOUS
  62
7
  10
 459.500
  20
 445.000
  30
0.0
  11
 454.500
  21
 445.000
  31
0.0
   0
CIRCLE
   8
LEVEL001
   6
CONTINUOUS
  62
7
  10
 457.000
  20
 440.000
  30
0.0
  40
 16.0000
   0
CIRCLE
   8
LEVEL001
   6
CONTINUOUS
  62
7
  10
 457.000
  20
 440.000
  30
0.0
  40
 34.0000
   0
ARC
   8
LEVEL001
   6
CONTINUOUS
  62
7
  10
 457.000
  20
 440.000
  30
0.0
  40
 8.00000
  50
 108.210
  51
 71.7900
   0
LINE
   8
LEVEL001
   6
CONTINUOUS
  62
7
  10
 475.700
  20
 377.268
  30
0.0
  11
 475.700
  21
 22.5000
  31
0.0
   0
LINE
   8
LEVEL001
   6
CONTINUOUS
  62
7
  10
 475.700
  20
 22.5000
  30
0.0
  11
 524.300
  21
 22.5000
  31
0.0
   0
LINE
   8
LEVEL001
   6
CONTINUOUS
  62
7
  10
 524.300
  20
 377.268
  30
0.0
  11
 524.300
  21
 22.5000
  31
0.0
   0
LINE
   8
LEVEL001
   6
CONTINUOUS
  62
7
  10
 491.803
  20
 18.0000
  30
0.0
  11
 492.503
  21
 17.3000
  31
0.0
   0
LINE
   8
LEVEL001
   6
CONTINUOUS
  62
7
  10
 507.497
  20
 17.3000
  30
0.0
  11
 508.197
  21
 18.0000
  31
0.0
   0
LINE
   8
LEVEL001
   6
CONTINUOUS
  62
7
  10
 492.503
  20
 17.3000
  30
0.0
  11
 492.525
  21
 18.0000
  31
0.0
   0
LINE
   8
LEVEL001
   6
CONTINUOUS
  62
7
  10
 507.497
  20
 17.3000
  30
0.0
  11
 507.475
  21
 18.0000
  31
0.0
   0
LINE
   8
LEVEL001
   6
CONTINUOUS
  62
7
  10
 477.500
  20
 18.0000
  30
0.0
  11
 522.500
  21
 18.0000
  31
0.0
   0
LINE
   8
LEVEL001
   6
CONTINUOUS
  62
7
  10
 492.503
  20
 17.3000
  30
0.0
  11
 507.497
  21
 17.3000
  31
0.0
   0
LINE
   8
LEVEL001
   6
CONTINUOUS
  62
7
  10
 475.700
  20
 22.5000
  30
0.0
  11
 477.500
  21
 18.0000
  31
0.0
   0
LINE
   8
LEVEL001
   6
CONTINUOUS
  62
7
  10
 524.300
  20
 22.5000
  30
0.0
  11
 522.500
  21
 18.0000
  31
0.0
   0
LINE
   8
LEVEL001
   6
DASHDOT
  62
7
  10
 471.866
  20
 500.541
  30
0.0
  11
 472.559
  21
 500.141
  31
0.0
   0
LINE
   8
LEVEL001
   6
CONTINUOUS
  62
7
  10
 540.441
  20
 500.100
  30
0.0
  11
 527.441
  21
 500.100
  31
0.0
   0
LINE
   8
LEVEL001
   6
CONTINUOUS
  62
7
  10
 528.134
  20
 500.500
  30
0.0
  11
 539.748
  21
 500.500
  31
0.0
   0
LINE
   8
LEVEL001
   6
CONTINUOUS
  62
7
  10
 539.748
  20
 500.500
  30
0.0
  11
 540.441
  21
 500.100
  31
0.0
   0
LINE
   8
LEVEL001
   6
CONTINUOUS
  62
7
  10
 472.559
  20
 500.141
  30
0.0
  11
 459.559
  21
 500.141
  31
0.0
   0
LINE
   8
LEVEL001
   6
CONTINUOUS
  62
7
  10
 459.559
  20
 500.141
  30
0.0
  11
 460.252
  21
 500.541
  31
0.0
   0
LINE
   8
LEVEL001
   6
CONTINUOUS
  62
7
  10
 460.252
  20
 500.541
  30
0.0
  11
 471.866
  21
 500.541
  31
0.0
   0
LINE
   8
LEVEL001
   6
CONTINUOUS
  62
7
  10
 540.441
  20
 500.100
  30
0.0
  11
 540.441
  21
 493.500
  31
0.0
   0
LINE
   8
LEVEL001
   6
CONTINUOUS
  62
7
  10
 527.441
  20
 493.500
  30
0.0
  11
 527.441
  21
 500.100
  31
0.0
   0
LINE
   8
LEVEL001
   6
CONTINUOUS
  62
7
  10
 459.559
  20
 493.500
  30
0.0
  11
 459.559
  21
 500.141
  31
0.0
   0
LINE
   8
LEVEL001
   6
CONTINUOUS
  62
7
  10
 472.559
  20
 500.141
  30
0.0
  11
 472.559
  21
 493.500
  31
0.0
   0
LINE
   8
LEVEL001
   6
CONTINUOUS
  62
7
  10
 471.431
  20
 500.541
  30
0.0
  11
 472.385
  21
 516.122
  31
0.0
   0
LINE
   8
LEVEL001
   6
CONTINUOUS
  62
7
  10
 418.800
  20
 445.000
  30
0.0
  11
 418.800
  21
 435.000
  31
0.0
   0
ARC
   8
LEVEL001
   6
CONTINUOUS
  62
7
  10
 415.179
  20
 437.500
  30
0.0
  40
 7.22093
  50
 19.0956
  51
 20.2560
   0
CIRCLE
   8
LEVEL001
   6
CONTINUOUS
  62
7
  10
 500.000
  20
 511.000
  30
0.0
  40
 4.00000
   0
CIRCLE
   8
LEVEL001
   6
CONTINUOUS
  62
7
  10
 500.000
  20
 511.000
  30
0.0
  40
 3.50000
   0
LINE
   8
LEVEL001
   6
CONTINUOUS
  62
7
  10
 500.000
  20
 512.732
  30
0.0
  11
 498.500
  21
 511.866
  31
0.0
   0
LINE
   8
LEVEL001
   6
CONTINUOUS
  62
7
  10
 498.500
  20
 511.866
  30
0.0
  11
 498.500
  21
 510.134
  31
0.0
   0
LINE
   8
LEVEL001
   6
CONTINUOUS
  62
7
  10
 498.500
  20
 510.134
  30
0.0
  11
 500.000
  21
 509.268
  31
0.0
   0
LINE
   8
LEVEL001
   6
CONTINUOUS
  62
7
  10
 500.000
  20
 509.268
  30
0.0
  11
 501.500
  21
 510.134
  31
0.0
   0
LINE
   8
LEVEL001
   6
CONTINUOUS
  62
7
  10
 501.500
  20
 510.134
  30
0.0
  11
 501.500
  21
 511.866
  31
0.0
   0
LINE
   8
LEVEL001
   6
CONTINUOUS
  62
7
  10
 501.500
  20
 511.866
  30
0.0
  11
 500.000
  21
 512.732
  31
0.0
   0
CIRCLE
   8
LEVEL001
   6
CONTINUOUS
  62
7
  10
 500.000
  20
 500.000
  30
0.0
  40
 4.00000
   0
CIRCLE
   8
LEVEL001
   6
CONTINUOUS
  62
7
  10
 500.000
  20
 500.000
  30
0.0
  40
 3.50000
   0
LINE
   8
LEVEL001
   6
CONTINUOUS
  62
7
  10
 500.000
  20
 501.732
  30
0.0
  11
 498.500
  21
 500.866
  31
0.0
   0
LINE
   8
LEVEL001
   6
CONTINUOUS
  62
7
  10
 498.500
  20
 500.866
  30
0.0
  11
 498.500
  21
 499.134
  31
0.0
   0
LINE
   8
LEVEL001
   6
CONTINUOUS
  62
7
  10
 498.500
  20
 499.134
  30
0.0
  11
 500.000
  21
 498.268
  31
0.0
   0
LINE
   8
LEVEL001
   6
CONTINUOUS
  62
7
  10
 500.000
  20
 498.268
  30
0.0
  11
 501.500
  21
 499.134
  31
0.0
   0
LINE
   8
LEVEL001
   6
CONTINUOUS
  62
7
  10
 501.500
  20
 499.134
  30
0.0
  11
 501.500
  21
 500.866
  31
0.0
   0
LINE
   8
LEVEL001
   6
CONTINUOUS
  62
7
  10
 501.500
  20
 500.866
  30
0.0
  11
 500.000
  21
 501.732
  31
0.0
   0
LINE
   8
LEVEL001
   6
CONTINUOUS
  62
7
  10
 527.441
  20
 500.100
  30
0.0
  11
 528.134
  21
 500.500
  31
0.0
   0
LINE
   8
LEVEL001
   6
CONTINUOUS
  62
7
  10
 528.571
  20
 500.500
  30
0.0
  11
 527.615
  21
 516.122
  31
0.0
   0
LINE
   8
LEVEL001
   6
CONTINUOUS
  62
7
  10
 186.000
  20
 573.000
  30
0.0
  11
 185.000
  21
 572.000
  31
0.0
   0
LINE
   8
LEVEL001
   6
CONTINUOUS
  62
7
  10
 185.000
  20
 572.000
  30
0.0
  11
 185.000
  21
 548.000
  31
0.0
   0
LINE
   8
LEVEL001
   6
CONTINUOUS
  62
7
  10
 214.000
  20
 573.000
  30
0.0
  11
 215.000
  21
 572.000
  31
0.0
   0
LINE
   8
LEVEL001
   6
CONTINUOUS
  62
7
  10
 215.000
  20
 572.000
  30
0.0
  11
 215.000
  21
 548.000
  31
0.0
   0
LINE
   8
LEVEL001
   6
CONTINUOUS
  62
7
  10
 486.000
  20
 573.000
  30
0.0
  11
 485.000
  21
 572.000
  31
0.0
   0
LINE
   8
LEVEL001
   6
CONTINUOUS
  62
7
  10
 485.000
  20
 572.000
  30
0.0
  11
 485.000
  21
 548.000
  31
0.0
   0
LINE
   8
LEVEL001
   6
CONTINUOUS
  62
7
  10
 514.000
  20
 573.000
  30
0.0
  11
 515.000
  21
 572.000
  31
0.0
   0
LINE
   8
LEVEL001
   6
CONTINUOUS
  62
7
  10
 515.000
  20
 572.000
  30
0.0
  11
 515.000
  21
 548.000
  31
0.0
   0
ARC
   8
LEVEL001
   6
CONTINUOUS
  62
7
  10
 426.021
  20
 437.500
  30
0.0
  40
 7.22070
  50
 159.743
  51
 200.257
   0
ARC
   8
LEVEL001
   6
CONTINUOUS
  62
7
  10
 426.021
  20
 442.500
  30
0.0
  40
 7.22070
  50
 159.743
  51
 200.257
   0
LINE
   8
LEVEL001
   6
CONTINUOUS
  62
7
  10
 421.954
  20
 440.000
  30
0.0
  11
 419.247
  21
 440.000
  31
0.0
   0
ARC
   8
LEVEL001
   6
CONTINUOUS
  62
7
  10
 407.472
  20
 445.987
  30
0.0
  40
 0.800000
  50
 357.573
  51
 48.4260
   0
ARC
   8
LEVEL001
   6
CONTINUOUS
  62
7
  10
 414.286
  20
 448.809
  30
0.0
  40
 0.800000
  50
 176.573
  51
 227.428
   0
ARC
   8
LEVEL001
   6
CONTINUOUS
  62
7
  10
 409.255
  20
 451.318
  30
0.0
  40
 1.00000
  50
 36.9770
  51
 188.021
   0
LINE
   8
LEVEL001
   6
CONTINUOUS
  62
7
  10
 413.544
  20
 448.509
  30
0.0
  11
 408.220
  21
 446.304
  31
0.0
   0
ARC
   8
LEVEL001
   6
CONTINUOUS
  62
7
  10
 414.180
  20
 448.322
  30
0.0
  40
 3.20000
  50
 266.903
  51
 294.232
   0
ARC
   8
LEVEL001
   6
CONTINUOUS
  62
7
  10
 407.891
  20
 445.718
  30
0.0
  40
 3.20000
  50
 290.767
  51
 318.097
   0
ARC
   8
LEVEL001
   6
CONTINUOUS
  62
7
  10
 409.421
  20
 442.025
  30
0.0
  40
 3.20000
  50
 86.9030
  51
 114.232
   0
ARC
   8
LEVEL001
   6
CONTINUOUS
  62
7
  10
 415.709
  20
 444.630
  30
0.0
  40
 3.20000
  50
 110.768
  51
 138.098
   0
ARC
   8
LEVEL001
   6
CONTINUOUS
  62
7
  10
 409.700
  20
 450.243
  30
0.0
  40
 6.68738
  50
 274.912
  51
 310.088
   0
ARC
   8
LEVEL001
   6
CONTINUOUS
  62
7
  10
 413.900
  20
 440.104
  30
0.0
  40
 6.68738
  50
 94.9120
  51
 130.088
   0
LINE
   8
LEVEL001
   6
CONTINUOUS
  62
7
  10
 414.007
  20
 445.127
  30
0.0
  11
 413.328
  21
 446.767
  31
0.0
   0
LINE
   8
LEVEL001
   6
CONTINUOUS
  62
7
  10
 410.273
  20
 443.581
  30
0.0
  11
 409.594
  21
 445.220
  31
0.0
   0
ARC
   8
LEVEL001
   6
CONTINUOUS
  62
7
  10
 410.193
  20
 449.054
  30
0.0
  40
 3.30000
  50
 356.582
  51
 22.5000
   0
ARC
   8
LEVEL001
   6
CONTINUOUS
  62
7
  10
 410.193
  20
 449.054
  30
0.0
  40
 3.30000
  50
 202.500
  51
 228.418
   0
ARC
   8
LEVEL001
   6
CONTINUOUS
  62
7
  10
 410.193
  20
 449.054
  30
0.0
  40
 6.43506
  50
 259.551
  51
 325.449
   0
ARC
   8
LEVEL001
   6
CONTINUOUS
  62
7
  10
 413.943
  20
 440.000
  30
0.0
  40
 5.62228
  50
 151.001
  51
 242.788
   0
ARC
   8
LEVEL001
   6
CONTINUOUS
  62
7
  10
 402.277
  20
 446.208
  30
0.0
  40
 6.00000
  50
 347.981
  51
 357.567
   0
ARC
   8
LEVEL001
   6
CONTINUOUS
  62
7
  10
 417.803
  20
 452.639
  30
0.0
  40
 6.00000
  50
 227.432
  51
 237.018
   0
LINE
   8
LEVEL001
   6
CONTINUOUS
  62
7
  10
 422.400
  20
 445.000
  30
0.0
  11
 415.191
  21
 445.000
  31
0.0
   0
LINE
   8
LEVEL001
   6
CONTINUOUS
  62
7
  10
 409.160
  20
 451.548
  30
0.0
  11
 411.377
  21
 452.467
  31
0.0
   0
LINE
   8
LEVEL001
   6
CONTINUOUS
  62
7
  10
 411.377
  20
 452.467
  30
0.0
  11
 413.242
  21
 450.317
  31
0.0
   0
LINE
   8
LEVEL001
   6
CONTINUOUS
  62
7
  10
 413.242
  20
 450.317
  30
0.0
  11
 410.193
  21
 449.054
  31
0.0
   0
LINE
   8
LEVEL001
   6
CONTINUOUS
  62
7
  10
 410.193
  20
 449.054
  30
0.0
  11
 407.144
  21
 447.791
  31
0.0
   0
LINE
   8
LEVEL001
   6
CONTINUOUS
  62
7
  10
 407.144
  20
 447.791
  30
0.0
  11
 406.943
  21
 450.630
  31
0.0
   0
LINE
   8
LEVEL001
   6
CONTINUOUS
  62
7
  10
 406.943
  20
 450.630
  30
0.0
  11
 409.160
  21
 451.548
  31
0.0
   0
LINE
   8
LEVEL001
   6
CONTINUOUS
  62
7
  10
 415.874
  20
 445.900
  30
0.0
  11
 415.493
  21
 445.404
  31
0.0
   0
LINE
   8
LEVEL001
   6
CONTINUOUS
  62
7
  10
 415.493
  20
 445.404
  30
0.0
  11
 409.026
  21
 442.726
  31
0.0
   0
LINE
   8
LEVEL001
   6
CONTINUOUS
  62
7
  10
 409.026
  20
 442.726
  30
0.0
  11
 408.406
  21
 442.807
  31
0.0
   0
LINE
   8
LEVEL001
   6
CONTINUOUS
  62
7
  10
 408.406
  20
 442.807
  30
0.0
  11
 407.727
  21
 444.447
  31
0.0
   0
LINE
   8
LEVEL001
   6
CONTINUOUS
  62
7
  10
 407.727
  20
 444.447
  30
0.0
  11
 408.108
  21
 444.943
  31
0.0
   0
LINE
   8
LEVEL001
   6
CONTINUOUS
  62
7
  10
 408.108
  20
 444.943
  30
0.0
  11
 414.575
  21
 447.622
  31
0.0
   0
LINE
   8
LEVEL001
   6
CONTINUOUS
  62
7
  10
 414.575
  20
 447.622
  30
0.0
  11
 415.195
  21
 447.540
  31
0.0
   0
LINE
   8
LEVEL001
   6
CONTINUOUS
  62
7
  10
 415.195
  20
 447.540
  30
0.0
  11
 415.874
  21
 445.900
  31
0.0
   0
LINE
   8
LEVEL001
   6
CONTINUOUS
  62
7
  10
 422.400
  20
 444.883
  30
0.0
  11
 422.842
  21
 444.441
  31
0.0
   0
ARC
   8
LEVEL001
   6
CONTINUOUS
  62
7
  10
 415.222
  20
 442.500
  30
0.0
  40
 7.22093
  50
 339.627
  51
 20.2560
   0
LINE
   8
LEVEL001
   6
CONTINUOUS
  62
7
  10
 411.372
  20
 435.000
  30
0.0
  11
 422.381
  21
 435.000
  31
0.0
   0
LINE
   8
LEVEL001
   6
CONTINUOUS
  62
7
  10
 422.400
  20
 435.000
  30
0.0
  11
 422.400
  21
 445.000
  31
0.0
   0
ARC
   8
LEVEL001
   6
CONTINUOUS
  62
7
  10
 415.222
  20
 437.500
  30
0.0
  40
 7.22093
  50
 339.744
  51
 20.3730
   0
LINE
   8
LEVEL001
   6
CONTINUOUS
  62
7
  10
 422.842
  20
 444.441
  30
0.0
  11
 423.262
  21
 444.428
  31
0.0
   0
LINE
   8
LEVEL001
   6
CONTINUOUS
  62
7
  10
 422.400
  20
 444.883
  30
0.0
  11
 423.315
  21
 444.854
  31
0.0
   0
LINE
   8
LEVEL001
   6
CONTINUOUS
  62
7
  10
 422.400
  20
 435.117
  30
0.0
  11
 422.842
  21
 435.559
  31
0.0
   0
LINE
   8
LEVEL001
   6
CONTINUOUS
  62
7
  10
 422.842
  20
 435.559
  30
0.0
  11
 423.262
  21
 435.572
  31
0.0
   0
LINE
   8
LEVEL001
   6
CONTINUOUS
  62
7
  10
 422.400
  20
 435.117
  30
0.0
  11
 423.315
  21
 435.146
  31
0.0
   0
LINE
   8
LEVEL001
   6
CONTINUOUS
  62
7
  10
 422.842
  20
 435.559
  30
0.0
  11
 422.842
  21
 444.441
  31
0.0
   0
LINE
   8
LEVEL001
   6
CONTINUOUS
  62
7
  10
 417.953
  20
 422.975
  30
0.0
  11
 420.837
  21
 435.000
  31
0.0
   0
CIRCLE
   8
LEVEL001
   6
CONTINUOUS
  62
7
  10
 437.908
  20
 459.092
  30
0.0
  40
 5.50000
   0
CIRCLE
   8
LEVEL001
   6
CONTINUOUS
  62
7
  10
 437.908
  20
 459.092
  30
0.0
  40
 5.00000
   0
CIRCLE
   8
LEVEL001
   6
CONTINUOUS
  62
7
  10
 437.908
  20
 420.908
  30
0.0
  40
 5.50000
   0
CIRCLE
   8
LEVEL001
   6
CONTINUOUS
  62
7
  10
 437.908
  20
 420.908
  30
0.0
  40
 5.00000
   0
CIRCLE
   8
LEVEL001
   6
CONTINUOUS
  62
7
  10
 476.092
  20
 459.092
  30
0.0
  40
 5.50000
   0
CIRCLE
   8
LEVEL001
   6
CONTINUOUS
  62
7
  10
 476.092
  20
 459.092
  30
0.0
  40
 5.00000
   0
CIRCLE
   8
LEVEL001
   6
CONTINUOUS
  62
7
  10
 476.092
  20
 420.908
  30
0.0
  40
 5.50000
   0
CIRCLE
   8
LEVEL001
   6
CONTINUOUS
  62
7
  10
 476.092
  20
 420.908
  30
0.0
  40
 5.00000
   0
LINE
   8
LEVEL001
   6
CONTINUOUS
  62
7
  10
 234.112
  20
 472.743
  30
0.0
  11
 204.122
  21
 469.439
  31
0.0
   0
LINE
   8
LEVEL001
   6
CONTINUOUS
  62
7
  10
 166.063
  20
 472.723
  30
0.0
  11
 196.118
  21
 469.413
  31
0.0
   0
LINE
   8
LEVEL001
   6
CONTINUOUS
  62
7
  10
 145.750
  20
 473.000
  30
0.0
  11
 161.000
  21
 473.281
  31
0.0
   0
LINE
   8
LEVEL001
   6
CONTINUOUS
  62
7
  10
 239.000
  20
 473.281
  30
0.0
  11
 254.250
  21
 473.000
  31
0.0
   0
CIRCLE
   8
LEVEL001
   6
CONTINUOUS
  62
7
  10
 430.000
  20
 440.000
  30
0.0
  40
 3.00000
   0
CIRCLE
   8
LEVEL001
   6
CONTINUOUS
  62
7
  10
 430.000
  20
 440.000
  30
0.0
  40
 2.50000
   0
CIRCLE
   8
LEVEL001
   6
CONTINUOUS
  62
7
  10
 484.000
  20
 440.000
  30
0.0
  40
 3.00000
   0
CIRCLE
   8
LEVEL001
   6
CONTINUOUS
  62
7
  10
 484.000
  20
 440.000
  30
0.0
  40
 2.50000
   0
LINE
   8
LEVEL001
   6
CONTINUOUS
  62
7
  10
 454.500
  20
 445.000
  30
0.0
  11
 454.500
  21
 450.000
  31
0.0
   0
LINE
   8
LEVEL001
   6
CONTINUOUS
  62
7
  10
 459.500
  20
 450.000
  30
0.0
  11
 459.500
  21
 445.000
  31
0.0
   0
LINE
   8
LEVEL001
   6
CONTINUOUS
  62
7
  10
 454.500
  20
 450.000
  30
0.0
  11
 459.500
  21
 450.000
  31
0.0
   0
ARC
   8
LEVEL001
   6
CONTINUOUS
  62
7
  10
 457.000
  20
 440.000
  30
0.0
  40
 10.0000
  50
 104.478
  51
 75.5225
   0
LINE
   8
LEVEL001
   6
CONTINUOUS
  62
7
  10
 296.500
  20
 447.599
  30
0.0
  11
 297.500
  21
 447.000
  31
0.0
   0
LINE
   8
LEVEL001
   6
CONTINUOUS
  62
7
  10
 296.500
  20
 447.599
  30
0.0
  11
 269.500
  21
 447.599
  31
0.0
   0
LINE
   8
LEVEL001
   6
CONTINUOUS
  62
7
  10
 296.500
  20
 432.000
  30
0.0
  11
 296.500
  21
 447.599
  31
0.0
   0
ARC
   8
LEVEL001
   6
CONTINUOUS
  62
7
  10
 457.000
  20
 440.000
  30
0.0
  40
 7.00000
  50
 111.220
  51
 68.9699
   0
LINE
   8
LEVEL001
   6
CONTINUOUS
  62
7
  10
 275.500
  20
 450.000
  30
0.0
  11
 275.500
  21
 447.599
  31
0.0
   0
LINE
   8
LEVEL001
   6
CONTINUOUS
  62
7
  10
 275.500
  20
 450.000
  30
0.0
  11
 297.500
  21
 450.000
  31
0.0
   0
LINE
   8
LEVEL001
   6
CONTINUOUS
  62
7
  10
 297.500
  20
 450.000
  30
0.0
  11
 297.500
  21
 447.000
  31
0.0
   0
LINE
   8
LEVEL001
   6
CONTINUOUS
  62
7
  10
 103.500
  20
 447.599
  30
0.0
  11
 102.500
  21
 447.000
  31
0.0
   0
LINE
   8
LEVEL001
   6
CONTINUOUS
  62
7
  10
 124.500
  20
 450.000
  30
0.0
  11
 124.500
  21
 447.599
  31
0.0
   0
LINE
   8
LEVEL001
   6
CONTINUOUS
  62
7
  10
 124.500
  20
 450.000
  30
0.0
  11
 102.500
  21
 450.000
  31
0.0
   0
LINE
   8
LEVEL001
   6
CONTINUOUS
  62
7
  10
 102.500
  20
 450.000
  30
0.0
  11
 102.500
  21
 447.000
  31
0.0
   0
LINE
   8
LEVEL001
   6
CONTINUOUS
  62
7
  10
 103.500
  20
 432.000
  30
0.0
  11
 103.500
  21
 447.599
  31
0.0
   0
LINE
   8
LEVEL001
   6
CONTINUOUS
  62
7
  10
 103.500
  20
 447.599
  30
0.0
  11
 130.500
  21
 447.599
  31
0.0
   0
LINE
   8
LEVEL001
   6
CONTINUOUS
  62
7
  10
 437.161
  20
 456.303
  30
0.0
  11
 439.949
  21
 457.051
  31
0.0
   0
LINE
   8
LEVEL001
   6
CONTINUOUS
  62
7
  10
 439.949
  20
 457.051
  30
0.0
  11
 440.697
  21
 459.839
  31
0.0
   0
LINE
   8
LEVEL001
   6
CONTINUOUS
  62
7
  10
 440.697
  20
 459.839
  30
0.0
  11
 438.655
  21
 461.880
  31
0.0
   0
LINE
   8
LEVEL001
   6
CONTINUOUS
  62
7
  10
 438.655
  20
 461.880
  30
0.0
  11
 435.867
  21
 461.133
  31
0.0
   0
LINE
   8
LEVEL001
   6
CONTINUOUS
  62
7
  10
 435.867
  20
 461.133
  30
0.0
  11
 435.120
  21
 458.345
  31
0.0
   0
LINE
   8
LEVEL001
   6
CONTINUOUS
  62
7
  10
 435.120
  20
 458.345
  30
0.0
  11
 437.161
  21
 456.303
  31
0.0
   0
LINE
   8
LEVEL001
   6
CONTINUOUS
  62
7
  10
 476.839
  20
 456.303
  30
0.0
  11
 478.880
  21
 458.345
  31
0.0
   0
LINE
   8
LEVEL001
   6
CONTINUOUS
  62
7
  10
 478.880
  20
 458.345
  30
0.0
  11
 478.133
  21
 461.133
  31
0.0
   0
LINE
   8
LEVEL001
   6
CONTINUOUS
  62
7
  10
 478.133
  20
 461.133
  30
0.0
  11
 475.345
  21
 461.880
  31
0.0
   0
LINE
   8
LEVEL001
   6
CONTINUOUS
  62
7
  10
 475.345
  20
 461.880
  30
0.0
  11
 473.303
  21
 459.839
  31
0.0
   0
LINE
   8
LEVEL001
   6
CONTINUOUS
  62
7
  10
 473.303
  20
 459.839
  30
0.0
  11
 474.051
  21
 457.051
  31
0.0
   0
LINE
   8
LEVEL001
   6
CONTINUOUS
  62
7
  10
 474.051
  20
 457.051
  30
0.0
  11
 476.839
  21
 456.303
  31
0.0
   0
LINE
   8
LEVEL001
   6
CONTINUOUS
  62
7
  10
 475.345
  20
 418.120
  30
0.0
  11
 478.133
  21
 418.867
  31
0.0
   0
LINE
   8
LEVEL001
   6
CONTINUOUS
  62
7
  10
 478.133
  20
 418.867
  30
0.0
  11
 478.880
  21
 421.655
  31
0.0
   0
LINE
   8
LEVEL001
   6
CONTINUOUS
  62
7
  10
 478.880
  20
 421.655
  30
0.0
  11
 476.839
  21
 423.697
  31
0.0
   0
LINE
   8
LEVEL001
   6
CONTINUOUS
  62
7
  10
 476.839
  20
 423.697
  30
0.0
  11
 474.051
  21
 422.949
  31
0.0
   0
LINE
   8
LEVEL001
   6
CONTINUOUS
  62
7
  10
 474.051
  20
 422.949
  30
0.0
  11
 473.303
  21
 420.161
  31
0.0
   0
LINE
   8
LEVEL001
   6
CONTINUOUS
  62
7
  10
 473.303
  20
 420.161
  30
0.0
  11
 475.345
  21
 418.120
  31
0.0
   0
LINE
   8
LEVEL001
   6
CONTINUOUS
  62
7
  10
 438.655
  20
 418.120
  30
0.0
  11
 440.697
  21
 420.161
  31
0.0
   0
LINE
   8
LEVEL001
   6
CONTINUOUS
  62
7
  10
 440.697
  20
 420.161
  30
0.0
  11
 439.949
  21
 422.949
  31
0.0
   0
LINE
   8
LEVEL001
   6
CONTINUOUS
  62
7
  10
 439.949
  20
 422.949
  30
0.0
  11
 437.161
  21
 423.697
  31
0.0
   0
LINE
   8
LEVEL001
   6
CONTINUOUS
  62
7
  10
 437.161
  20
 423.697
  30
0.0
  11
 435.120
  21
 421.655
  31
0.0
   0
LINE
   8
LEVEL001
   6
CONTINUOUS
  62
7
  10
 435.120
  20
 421.655
  30
0.0
  11
 435.867
  21
 418.867
  31
0.0
   0
LINE
   8
LEVEL001
   6
CONTINUOUS
  62
7
  10
 435.867
  20
 418.867
  30
0.0
  11
 438.655
  21
 418.120
  31
0.0
   0
LINE
   8
LEVEL001
   6
CONTINUOUS
  62
7
  10
 490.287
  20
 408.000
  30
0.0
  11
 487.397
  21
 408.000
  31
0.0
   0
LINE
   8
LEVEL001
   6
CONTINUOUS
  62
7
  10
 568.000
  20
 408.000
  30
0.0
  11
 509.486
  21
 408.000
  31
0.0
   0
ARC
   8
LEVEL001
   6
CONTINUOUS
  62
7
  10
 487.397
  20
 414.000
  30
0.0
  40
 6.00000
  50
 153.977
  51
 270.000
   0
LINE
   8
LEVEL001
   6
CONTINUOUS
  62
7
  10
 494.000
  20
 456.418
  30
0.0
  11
 544.118
  21
 456.418
  31
0.0
   0
LINE
   8
LEVEL001
   6
CONTINUOUS
  62
7
  10
 483.000
  20
 470.181
  30
0.0
  11
 549.046
  21
 470.181
  31
0.0
   0
LINE
   8
LEVEL001
   6
DASHDOT
  62
1
  10
 95.0000
  20
 440.000
  30
0.0
  11
 305.000
  21
 440.000
  31
0.0
   0
LINE
   8
LEVEL001
   6
DASHDOT
  62
1
  10
 227.500
  20
 413.000
  30
0.0
  11
 227.500
  21
 393.000
  31
0.0
   0
LINE
   8
LEVEL001
   6
DASHDOT
  62
1
  10
 172.500
  20
 413.000
  30
0.0
  11
 172.500
  21
 393.000
  31
0.0
   0
LINE
   8
LEVEL001
   6
DASHDOT
  62
1
  10
 457.000
  20
 465.000
  30
0.0
  11
 457.000
  21
 415.000
  31
0.0
   0
LINE
   8
LEVEL001
   6
DASHDOT
  62
1
  10
 550.000
  20
 440.000
  30
0.0
  11
 417.577
  21
 440.000
  31
0.0
   0
LINE
   8
LEVEL001
   6
DASHDOT
  62
1
  10
 555.000
  20
 413.000
  30
0.0
  11
 555.000
  21
 393.000
  31
0.0
   0
LINE
   8
LEVEL001
   6
DASHDOT
  62
1
  10
 413.000
  20
 413.000
  30
0.0
  11
 413.000
  21
 393.000
  31
0.0
   0
LINE
   8
LEVEL001
   6
DASHDOT
  62
1
  10
 500.000
  20
 580.000
  30
0.0
  11
 500.000
  21
 10.0000
  31
0.0
   0
LINE
   8
LEVEL001
   6
DASHDOT
  62
1
  10
 200.000
  20
 580.000
  30
0.0
  11
 200.000
  21
 10.0000
  31
0.0
   0
ARC
   8
LEVEL001
   6
CONTINUOUS
  62
7
  10
 167.500
  20
 643.000
  30
0.0
  40
 12.0000
  50
 117.848
  51
 60.0396
   0
LINE
   8
LEVEL001
   6
CONTINUOUS
  62
7
  10
 199.000
  20
 649.938
  30
0.0
  11
 199.000
  21
 632.291
  31
0.0
   0
LINE
   8
LEVEL001
   6
CONTINUOUS
  62
7
  10
 191.000
  20
 649.938
  30
0.0
  11
 191.000
  21
 632.291
  31
0.0
   0
ARC
   8
LEVEL001
   6
CONTINUOUS
  62
7
  10
 203.000
  20
 649.938
  30
0.0
  40
 4.00000
  50
 91.0560
  51
 180.000
   0
ARC
   8
LEVEL001
   6
CONTINUOUS
  62
7
  10
 187.000
  20
 649.938
  30
0.0
  40
 4.00000
  50
 0.162844E-11
  51
 88.9440
   0
ARC
   8
LEVEL001
   6
CONTINUOUS
  62
7
  10
 187.000
  20
 632.291
  30
0.0
  40
 4.00000
  50
 267.936
  51
 0.504818E-10
   0
ARC
   8
LEVEL001
   6
CONTINUOUS
  62
7
  10
 187.000
  20
 649.147
  30
0.0
  40
 4.00000
  50
 0.162844E-11
  51
 88.9440
   0
LINE
   8
LEVEL001
   6
CONTINUOUS
  62
7
  10
 138.715
  20
 721.000
  30
0.0
  11
 131.500
  21
 721.000
  31
0.0
   0
LINE
   8
LEVEL001
   6
CONTINUOUS
  62
7
  10
 140.750
  20
 712.509
  30
0.0
  11
 140.750
  21
 654.000
  31
0.0
   0
LINE
   8
LEVEL001
   6
CONTINUOUS
  62
7
  10
 140.500
  20
 653.000
  30
0.0
  11
 140.500
  21
 713.304
  31
0.0
   0
LINE
   8
LEVEL001
   6
CONTINUOUS
  62
7
  10
 129.500
  20
 677.000
  30
0.0
  11
 129.079
  21
 677.000
  31
0.0
   0
LINE
   8
LEVEL001
   6
CONTINUOUS
  62
7
  10
 129.500
  20
 697.000
  30
0.0
  11
 129.079
  21
 697.000
  31
0.0
   0
LINE
   8
LEVEL001
   6
CONTINUOUS
  62
7
  10
 129.500
  20
 655.000
  30
0.0
  11
 129.500
  21
 719.000
  31
0.0
   0
ARC
   8
LEVEL001
   6
CONTINUOUS
  62
7
  10
 131.500
  20
 719.000
  30
0.0
  40
 2.00000
  50
 90.0000
  51
 180.000
   0
LINE
   8
LEVEL001
   6
CONTINUOUS
  62
7
  10
 119.500
  20
 689.500
  30
0.0
  11
 119.500
  21
 684.500
  31
0.0
   0
LINE
   8
LEVEL001
   6
CONTINUOUS
  62
7
  10
 125.500
  20
 684.500
  30
0.0
  11
 125.500
  21
 679.000
  31
0.0
   0
LINE
   8
LEVEL001
   6
CONTINUOUS
  62
7
  10
 125.500
  20
 695.000
  30
0.0
  11
 125.500
  21
 689.500
  31
0.0
   0
LINE
   8
LEVEL001
   6
CONTINUOUS
  62
7
  10
 128.658
  20
 689.500
  30
0.0
  11
 128.658
  21
 684.500
  31
0.0
   0
LINE
   8
LEVEL001
   6
CONTINUOUS
  62
7
  10
 128.658
  20
 684.500
  30
0.0
  11
 97.5000
  21
 684.500
  31
0.0
   0
LINE
   8
LEVEL001
   6
CONTINUOUS
  62
7
  10
 128.658
  20
 689.500
  30
0.0
  11
 97.5000
  21
 689.500
  31
0.0
   0
LINE
   8
LEVEL001
   6
CONTINUOUS
  62
7
  10
 128.800
  20
 696.855
  30
0.0
  11
 128.800
  21
 677.145
  31
0.0
   0
LINE
   8
LEVEL001
   6
CONTINUOUS
  62
7
  10
 97.5000
  20
 694.000
  30
0.0
  11
 97.5000
  21
 680.000
  31
0.0
   0
ARC
   8
LEVEL001
   6
CONTINUOUS
  62
7
  10
 129.079
  20
 678.000
  30
0.0
  40
 1.00000
  50
 238.782
  51
 270.000
   0
LINE
   8
LEVEL001
   6
CONTINUOUS
  62
7
  10
 128.561
  20
 677.145
  30
0.0
  11
 125.739
  21
 678.855
  31
0.0
   0
LINE
   8
LEVEL001
   6
CONTINUOUS
  62
7
  10
 125.221
  20
 679.000
  30
0.0
  11
 98.5000
  21
 679.000
  31
0.0
   0
ARC
   8
LEVEL001
   6
CONTINUOUS
  62
7
  10
 125.221
  20
 678.000
  30
0.0
  40
 1.00000
  50
 58.7816
  51
 90.0000
   0
LINE
   8
LEVEL001
   6
CONTINUOUS
  62
7
  10
 98.5000
  20
 679.000
  30
0.0
  11
 97.5000
  21
 680.000
  31
0.0
   0
ARC
   8
LEVEL001
   6
CONTINUOUS
  62
7
  10
 129.079
  20
 696.000
  30
0.0
  40
 1.00000
  50
 90.0000
  51
 121.218
   0
LINE
   8
LEVEL001
   6
CONTINUOUS
  62
7
  10
 128.561
  20
 696.855
  30
0.0
  11
 125.739
  21
 695.145
  31
0.0
   0
LINE
   8
LEVEL001
   6
CONTINUOUS
  62
7
  10
 125.221
  20
 695.000
  30
0.0
  11
 98.5000
  21
 695.000
  31
0.0
   0
ARC
   8
LEVEL001
   6
CONTINUOUS
  62
7
  10
 125.221
  20
 696.000
  30
0.0
  40
 1.00000
  50
 270.000
  51
 301.218
   0
LINE
   8
LEVEL001
   6
CONTINUOUS
  62
7
  10
 98.5000
  20
 695.000
  30
0.0
  11
 97.5000
  21
 694.000
  31
0.0
   0
ARC
   8
LEVEL001
   6
CONTINUOUS
  62
7
  10
 131.500
  20
 655.000
  30
0.0
  40
 2.00000
  50
 180.000
  51
 270.000
   0
LINE
   8
LEVEL001
   6
CONTINUOUS
  62
7
  10
 140.500
  20
 653.000
  30
0.0
  11
 131.500
  21
 653.000
  31
0.0
   0
LINE
   8
LEVEL001
   6
CONTINUOUS
  62
7
  10
 153.052
  20
 653.773
  30
0.0
  11
 153.511
  21
 642.433
  31
0.0
   0
LINE
   8
LEVEL001
   6
CONTINUOUS
  62
7
  10
 187.074
  20
 653.146
  30
0.0
  11
 140.750
  21
 654.000
  31
0.0
   0
LINE
   8
LEVEL001
   6
CONTINUOUS
  62
7
  10
 270.500
  20
 689.500
  30
0.0
  11
 270.500
  21
 684.500
  31
0.0
   0
LINE
   8
LEVEL001
   6
CONTINUOUS
  62
7
  10
 264.500
  20
 684.500
  30
0.0
  11
 264.500
  21
 679.000
  31
0.0
   0
LINE
   8
LEVEL001
   6
CONTINUOUS
  62
7
  10
 264.500
  20
 695.000
  30
0.0
  11
 264.500
  21
 689.500
  31
0.0
   0
LINE
   8
LEVEL001
   6
CONTINUOUS
  62
7
  10
 261.342
  20
 689.500
  30
0.0
  11
 261.342
  21
 684.500
  31
0.0
   0
LINE
   8
LEVEL001
   6
CONTINUOUS
  62
7
  10
 261.342
  20
 684.500
  30
0.0
  11
 292.500
  21
 684.500
  31
0.0
   0
LINE
   8
LEVEL001
   6
CONTINUOUS
  62
7
  10
 261.342
  20
 689.500
  30
0.0
  11
 292.500
  21
 689.500
  31
0.0
   0
LINE
   8
LEVEL001
   6
CONTINUOUS
  62
7
  10
 236.948
  20
 653.773
  30
0.0
  11
 236.489
  21
 642.433
  31
0.0
   0
LINE
   8
LEVEL001
   6
CONTINUOUS
  62
7
  10
 195.000
  20
 628.000
  30
0.0
  11
 223.004
  21
 629.009
  31
0.0
   0
ARC
   8
LEVEL001
   6
CONTINUOUS
  62
7
  10
 222.500
  20
 643.000
  30
0.0
  40
 12.0000
  50
 202.632
  51
 62.1516
   0
ARC
   8
LEVEL001
   6
CONTINUOUS
  62
7
  10
 222.500
  20
 643.000
  30
0.0
  40
 12.0000
  50
 119.960
  51
 130.081
   0
ARC
   8
LEVEL001
   6
CONTINUOUS
  62
7
  10
 203.000
  20
 632.291
  30
0.0
  40
 4.00000
  50
 180.000
  51
 272.064
   0
ARC
   8
LEVEL001
   6
CONTINUOUS
  62
7
  10
 203.000
  20
 649.147
  30
0.0
  40
 4.00000
  50
 91.0560
  51
 180.000
   0
LINE
   8
LEVEL001
   6
CONTINUOUS
  62
7
  10
 202.926
  20
 653.146
  30
0.0
  11
 249.250
  21
 654.000
  31
0.0
   0
LINE
   8
LEVEL001
   6
CONTINUOUS
  62
7
  10
 199.000
  20
 794.672
  30
0.0
  11
 199.000
  21
 786.859
  31
0.0
   0
LINE
   8
LEVEL001
   6
CONTINUOUS
  62
7
  10
 191.000
  20
 794.672
  30
0.0
  11
 191.000
  21
 786.859
  31
0.0
   0
LINE
   8
LEVEL001
   6
CONTINUOUS
  62
7
  10
 195.000
  20
 800.000
  30
0.0
  11
 223.004
  21
 798.991
  31
0.0
   0
LINE
   8
LEVEL001
   6
CONTINUOUS
  62
7
  10
 195.000
  20
 800.000
  30
0.0
  11
 166.996
  21
 798.991
  31
0.0
   0
ARC
   8
LEVEL001
   6
CONTINUOUS
  62
7
  10
 204.000
  20
 794.672
  30
0.0
  40
 5.00000
  50
 87.9363
  51
 180.000
   0
ARC
   8
LEVEL001
   6
CONTINUOUS
  62
7
  10
 186.000
  20
 794.672
  30
0.0
  40
 5.00000
  50
0.0
  51
 92.0637
   0
ARC
   8
LEVEL001
   6
CONTINUOUS
  62
7
  10
 222.500
  20
 785.000
  30
0.0
  40
 12.0000
  50
 306.162
  51
 180.708
   0
ARC
   8
LEVEL001
   6
CONTINUOUS
  62
7
  10
 222.500
  20
 785.000
  30
0.0
  40
 5.50000
  50
 277.172
  51
 209.698
   0
ARC
   8
LEVEL001
   6
CONTINUOUS
  62
7
  10
 167.500
  20
 785.000
  30
0.0
  40
 12.0000
  50
 359.292
  51
 233.838
   0
ARC
   8
LEVEL001
   6
CONTINUOUS
  62
7
  10
 167.500
  20
 785.000
  30
0.0
  40
 5.50000
  50
 330.302
  51
 262.828
   0
LINE
   8
LEVEL001
   6
CONTINUOUS
  62
7
  10
 236.471
  20
 785.906
  30
0.0
  11
 237.643
  21
 767.823
  31
0.0
   0
LINE
   8
LEVEL001
   6
CONTINUOUS
  62
7
  10
 153.529
  20
 785.906
  30
0.0
  11
 152.357
  21
 767.823
  31
0.0
   0
ARC
   8
LEVEL001
   6
CONTINUOUS
  62
7
  10
 167.500
  20
 643.000
  30
0.0
  40
 14.0000
  50
 182.320
  51
 267.936
   0
ARC
   8
LEVEL001
   6
CONTINUOUS
  62
7
  10
 222.500
  20
 643.000
  30
0.0
  40
 14.0000
  50
 272.064
  51
 357.680
   0
ARC
   8
LEVEL001
   6
CONTINUOUS
  62
7
  10
 222.500
  20
 785.000
  30
0.0
  40
 14.0000
  50
 3.70868
  51
 87.9363
   0
ARC
   8
LEVEL001
   6
CONTINUOUS
  62
7
  10
 167.500
  20
 785.000
  30
0.0
  40
 14.0000
  50
 92.0637
  51
 176.291
   0
LINE
   8
LEVEL001
   6
CONTINUOUS
  62
7
  10
 195.000
  20
 628.000
  30
0.0
  11
 166.996
  21
 629.009
  31
0.0
   0
CIRCLE
   8
LEVEL001
   6
CONTINUOUS
  62
7
  10
 222.500
  20
 643.000
  30
0.0
  40
 5.50000
   0
CIRCLE
   8
LEVEL001
   6
CONTINUOUS
  62
7
  10
 167.500
  20
 643.000
  30
0.0
  40
 5.50000
   0
TEXT
   8
LEVEL001
  62
7
  10
 206.250
  20
 766.307
  30
0.0
  40
 13.0000
   1
２
  50
 337.500
  41
 0.448718
   7
STANDARD
   0
TEXT
   8
LEVEL001
  62
7
  10
 196.470
  20
 767.982
  30
0.0
  40
 13.0000
   1
０
  50
 352.500
  41
 0.448718
   7
STANDARD
   0
TEXT
   8
LEVEL001
  62
7
  10
 186.590
  20
 767.068
  30
0.0
  40
 13.0000
   1
Ｊ
  50
 7.50000
  41
 0.448718
   7
STANDARD
   0
TEXT
   8
LEVEL001
  62
7
  10
 177.282
  20
 763.629
  30
0.0
  40
 13.0000
   1
Ｗ
  50
 22.5000
  41
 0.448718
   7
STANDARD
   0
LINE
   8
LEVEL001
   6
CONTINUOUS
  62
7
  10
 179.994
  20
 679.000
  30
0.0
  11
 202.494
  21
 679.000
  31
0.0
   0
LINE
   8
LEVEL001
   6
CONTINUOUS
  62
7
  10
 181.149
  20
 681.000
  30
0.0
  11
 194.649
  21
 681.000
  31
0.0
   0
LINE
   8
LEVEL001
   6
CONTINUOUS
  62
7
  10
 181.149
  20
 681.000
  30
0.0
  11
 179.994
  21
 679.000
  31
0.0
   0
LINE
   8
LEVEL001
   6
CONTINUOUS
  62
7
  10
 210.000
  20
 692.000
  30
0.0
  11
 202.494
  21
 679.000
  31
0.0
   0
LINE
   8
LEVEL001
   6
CONTINUOUS
  62
7
  10
 194.649
  20
 681.000
  30
0.0
  11
 201.000
  21
 692.000
  31
0.0
   0
LINE
   8
LEVEL001
   6
CONTINUOUS
  62
7
  10
 201.000
  20
 692.000
  30
0.0
  11
 210.000
  21
 692.000
  31
0.0
   0
CIRCLE
   8
LEVEL001
   6
CONTINUOUS
  62
7
  10
 190.000
  20
 688.000
  30
0.0
  40
 4.00000
   0
CIRCLE
   8
LEVEL001
   6
CONTINUOUS
  62
7
  10
 161.059
  20
 763.941
  30
0.0
  40
 5.80718
   0
CIRCLE
   8
LEVEL001
   6
CONTINUOUS
  62
7
  10
 161.059
  20
 763.941
  30
0.0
  40
 6.50000
   0
CIRCLE
   8
LEVEL001
   6
CONTINUOUS
  62
7
  10
 161.059
  20
 696.059
  30
0.0
  40
 5.80718
   0
CIRCLE
   8
LEVEL001
   6
CONTINUOUS
  62
7
  10
 161.059
  20
 696.059
  30
0.0
  40
 6.50000
   0
CIRCLE
   8
LEVEL001
   6
CONTINUOUS
  62
7
  10
 228.941
  20
 763.941
  30
0.0
  40
 5.80718
   0
CIRCLE
   8
LEVEL001
   6
CONTINUOUS
  62
7
  10
 228.941
  20
 763.941
  30
0.0
  40
 6.50000
   0
CIRCLE
   8
LEVEL001
   6
CONTINUOUS
  62
7
  10
 150.654
  20
 748.369
  30
0.0
  40
 4.00000
   0
CIRCLE
   8
LEVEL001
   6
CONTINUOUS
  62
7
  10
 150.654
  20
 748.369
  30
0.0
  40
 3.37500
   0
CIRCLE
   8
LEVEL001
   6
CONTINUOUS
  62
7
  10
 239.346
  20
 748.369
  30
0.0
  40
 4.00000
   0
LINE
   8
LEVEL001
   6
CONTINUOUS
  62
7
  10
 261.200
  20
 696.855
  30
0.0
  11
 261.200
  21
 677.145
  31
0.0
   0
LINE
   8
LEVEL001
   6
CONTINUOUS
  62
7
  10
 292.500
  20
 694.000
  30
0.0
  11
 292.500
  21
 680.000
  31
0.0
   0
ARC
   8
LEVEL001
   6
CONTINUOUS
  62
7
  10
 258.500
  20
 655.000
  30
0.0
  40
 2.00000
  50
 270.000
  51
0.0
   0
LINE
   8
LEVEL001
   6
CONTINUOUS
  62
7
  10
 249.500
  20
 653.000
  30
0.0
  11
 258.500
  21
 653.000
  31
0.0
   0
ARC
   8
LEVEL001
   6
CONTINUOUS
  62
7
  10
 260.921
  20
 678.000
  30
0.0
  40
 1.00000
  50
 270.000
  51
 301.218
   0
LINE
   8
LEVEL001
   6
CONTINUOUS
  62
7
  10
 261.439
  20
 677.145
  30
0.0
  11
 264.261
  21
 678.855
  31
0.0
   0
LINE
   8
LEVEL001
   6
CONTINUOUS
  62
7
  10
 264.779
  20
 679.000
  30
0.0
  11
 291.500
  21
 679.000
  31
0.0
   0
ARC
   8
LEVEL001
   6
CONTINUOUS
  62
7
  10
 264.779
  20
 678.000
  30
0.0
  40
 1.00000
  50
 90.0000
  51
 121.218
   0
LINE
   8
LEVEL001
   6
CONTINUOUS
  62
7
  10
 291.500
  20
 679.000
  30
0.0
  11
 292.500
  21
 680.000
  31
0.0
   0
ARC
   8
LEVEL001
   6
CONTINUOUS
  62
7
  10
 258.500
  20
 719.000
  30
0.0
  40
 2.00000
  50
0.0
  51
 90.0000
   0
ARC
   8
LEVEL001
   6
CONTINUOUS
  62
7
  10
 260.921
  20
 696.000
  30
0.0
  40
 1.00000
  50
 58.7816
  51
 90.0000
   0
LINE
   8
LEVEL001
   6
CONTINUOUS
  62
7
  10
 261.439
  20
 696.855
  30
0.0
  11
 264.261
  21
 695.145
  31
0.0
   0
LINE
   8
LEVEL001
   6
CONTINUOUS
  62
7
  10
 264.779
  20
 695.000
  30
0.0
  11
 291.500
  21
 695.000
  31
0.0
   0
ARC
   8
LEVEL001
   6
CONTINUOUS
  62
7
  10
 264.779
  20
 696.000
  30
0.0
  40
 1.00000
  50
 238.782
  51
 270.000
   0
LINE
   8
LEVEL001
   6
CONTINUOUS
  62
7
  10
 291.500
  20
 695.000
  30
0.0
  11
 292.500
  21
 694.000
  31
0.0
   0
CIRCLE
   8
LEVEL001
   6
CONTINUOUS
  62
7
  10
 195.000
  20
 730.000
  30
0.0
  40
 27.5000
   0
CIRCLE
   8
LEVEL001
   6
CONTINUOUS
  62
7
  10
 195.000
  20
 730.000
  30
0.0
  40
 57.0000
   0
CIRCLE
   8
LEVEL001
   6
CONTINUOUS
  62
7
  10
 228.941
  20
 696.059
  30
0.0
  40
 5.80718
   0
CIRCLE
   8
LEVEL001
   6
CONTINUOUS
  62
7
  10
 228.941
  20
 696.059
  30
0.0
  40
 6.50000
   0
CIRCLE
   8
LEVEL001
   6
CONTINUOUS
  62
7
  10
 239.346
  20
 711.631
  30
0.0
  40
 4.00000
   0
CIRCLE
   8
LEVEL001
   6
CONTINUOUS
  62
7
  10
 239.346
  20
 711.631
  30
0.0
  40
 3.37500
   0
LINE
   8
LEVEL001
   6
CONTINUOUS
  62
7
  10
 260.500
  20
 655.000
  30
0.0
  11
 260.500
  21
 719.122
  31
0.0
   0
LINE
   8
LEVEL001
   6
CONTINUOUS
  62
7
  10
 260.500
  20
 697.000
  30
0.0
  11
 260.921
  21
 697.000
  31
0.0
   0
LINE
   8
LEVEL001
   6
CONTINUOUS
  62
7
  10
 260.500
  20
 677.000
  30
0.0
  11
 260.921
  21
 677.000
  31
0.0
   0
CIRCLE
   8
LEVEL001
   6
CONTINUOUS
  62
7
  10
 195.000
  20
 730.000
  30
0.0
  40
 14.0000
   0
CIRCLE
   8
LEVEL001
   6
CONTINUOUS
  62
7
  10
 195.000
  20
 730.000
  30
0.0
  40
 15.0000
   0
LINE
   8
LEVEL001
   6
CONTINUOUS
  62
7
  10
 209.457
  20
 734.000
  30
0.0
  11
 211.523
  21
 734.000
  31
0.0
   0
LINE
   8
LEVEL001
   6
CONTINUOUS
  62
7
  10
 209.457
  20
 726.000
  30
0.0
  11
 211.523
  21
 726.000
  31
0.0
   0
LINE
   8
LEVEL001
   6
CONTINUOUS
  62
7
  10
 211.523
  20
 734.000
  30
0.0
  11
 215.000
  21
 734.000
  31
0.0
   0
LINE
   8
LEVEL001
   6
CONTINUOUS
  62
7
  10
 211.523
  20
 726.000
  30
0.0
  11
 215.000
  21
 726.000
  31
0.0
   0
LINE
   8
LEVEL001
   6
CONTINUOUS
  62
7
  10
 215.000
  20
 734.000
  30
0.0
  11
 215.000
  21
 726.000
  31
0.0
   0
LINE
   8
LEVEL001
   6
CONTINUOUS
  62
7
  10
 222.929
  20
 734.000
  30
0.0
  11
 222.907
  21
 733.985
  31
0.0
   0
LINE
   8
LEVEL001
   6
CONTINUOUS
  62
7
  10
 222.907
  20
 733.985
  30
0.0
  11
 222.886
  21
 733.939
  31
0.0
   0
LINE
   8
LEVEL001
   6
CONTINUOUS
  62
7
  10
 222.886
  20
 733.939
  30
0.0
  11
 222.865
  21
 733.864
  31
0.0
   0
LINE
   8
LEVEL001
   6
CONTINUOUS
  62
7
  10
 222.865
  20
 733.864
  30
0.0
  11
 222.845
  21
 733.759
  31
0.0
   0
LINE
   8
LEVEL001
   6
CONTINUOUS
  62
7
  10
 222.845
  20
 733.759
  30
0.0
  11
 222.825
  21
 733.625
  31
0.0
   0
LINE
   8
LEVEL001
   6
CONTINUOUS
  62
7
  10
 222.825
  20
 733.625
  30
0.0
  11
 222.806
  21
 733.464
  31
0.0
   0
LINE
   8
LEVEL001
   6
CONTINUOUS
  62
7
  10
 222.806
  20
 733.464
  30
0.0
  11
 222.788
  21
 733.277
  31
0.0
   0
LINE
   8
LEVEL001
   6
CONTINUOUS
  62
7
  10
 222.788
  20
 733.277
  30
0.0
  11
 222.771
  21
 733.064
  31
0.0
   0
LINE
   8
LEVEL001
   6
CONTINUOUS
  62
7
  10
 222.771
  20
 733.064
  30
0.0
  11
 222.755
  21
 732.828
  31
0.0
   0
LINE
   8
LEVEL001
   6
CONTINUOUS
  62
7
  10
 222.755
  20
 732.828
  30
0.0
  11
 222.741
  21
 732.571
  31
0.0
   0
LINE
   8
LEVEL001
   6
CONTINUOUS
  62
7
  10
 222.741
  20
 732.571
  30
0.0
  11
 222.728
  21
 732.294
  31
0.0
   0
LINE
   8
LEVEL001
   6
CONTINUOUS
  62
7
  10
 222.728
  20
 732.294
  30
0.0
  11
 222.716
  21
 732.000
  31
0.0
   0
LINE
   8
LEVEL001
   6
CONTINUOUS
  62
7
  10
 222.716
  20
 732.000
  30
0.0
  11
 222.707
  21
 731.690
  31
0.0
   0
LINE
   8
LEVEL001
   6
CONTINUOUS
  62
7
  10
 222.707
  20
 731.690
  30
0.0
  11
 222.698
  21
 731.368
  31
0.0
   0
LINE
   8
LEVEL001
   6
CONTINUOUS
  62
7
  10
 222.698
  20
 731.368
  30
0.0
  11
 222.692
  21
 731.035
  31
0.0
   0
LINE
   8
LEVEL001
   6
CONTINUOUS
  62
7
  10
 222.692
  20
 731.035
  30
0.0
  11
 222.687
  21
 730.695
  31
0.0
   0
LINE
   8
LEVEL001
   6
CONTINUOUS
  62
7
  10
 222.687
  20
 730.695
  30
0.0
  11
 222.685
  21
 730.349
  31
0.0
   0
LINE
   8
LEVEL001
   6
CONTINUOUS
  62
7
  10
 222.685
  20
 730.349
  30
0.0
  11
 222.684
  21
 730.000
  31
0.0
   0
LINE
   8
LEVEL001
   6
CONTINUOUS
  62
7
  10
 222.684
  20
 730.000
  30
0.0
  11
 222.685
  21
 729.651
  31
0.0
   0
LINE
   8
LEVEL001
   6
CONTINUOUS
  62
7
  10
 222.685
  20
 729.651
  30
0.0
  11
 222.687
  21
 729.305
  31
0.0
   0
LINE
   8
LEVEL001
   6
CONTINUOUS
  62
7
  10
 222.687
  20
 729.305
  30
0.0
  11
 222.692
  21
 728.965
  31
0.0
   0
LINE
   8
LEVEL001
   6
CONTINUOUS
  62
7
  10
 222.692
  20
 728.965
  30
0.0
  11
 222.698
  21
 728.632
  31
0.0
   0
LINE
   8
LEVEL001
   6
CONTINUOUS
  62
7
  10
 222.698
  20
 728.632
  30
0.0
  11
 222.707
  21
 728.310
  31
0.0
   0
LINE
   8
LEVEL001
   6
CONTINUOUS
  62
7
  10
 222.707
  20
 728.310
  30
0.0
  11
 222.716
  21
 728.000
  31
0.0
   0
LINE
   8
LEVEL001
   6
CONTINUOUS
  62
7
  10
 222.716
  20
 728.000
  30
0.0
  11
 222.728
  21
 727.706
  31
0.0
   0
LINE
   8
LEVEL001
   6
CONTINUOUS
  62
7
  10
 222.728
  20
 727.706
  30
0.0
  11
 222.741
  21
 727.429
  31
0.0
   0
LINE
   8
LEVEL001
   6
CONTINUOUS
  62
7
  10
 222.741
  20
 727.429
  30
0.0
  11
 222.755
  21
 727.172
  31
0.0
   0
LINE
   8
LEVEL001
   6
CONTINUOUS
  62
7
  10
 222.755
  20
 727.172
  30
0.0
  11
 222.771
  21
 726.936
  31
0.0
   0
LINE
   8
LEVEL001
   6
CONTINUOUS
  62
7
  10
 222.771
  20
 726.936
  30
0.0
  11
 222.788
  21
 726.723
  31
0.0
   0
LINE
   8
LEVEL001
   6
CONTINUOUS
  62
7
  10
 222.788
  20
 726.723
  30
0.0
  11
 222.806
  21
 726.536
  31
0.0
   0
LINE
   8
LEVEL001
   6
CONTINUOUS
  62
7
  10
 222.806
  20
 726.536
  30
0.0
  11
 222.825
  21
 726.375
  31
0.0
   0
LINE
   8
LEVEL001
   6
CONTINUOUS
  62
7
  10
 222.825
  20
 726.375
  30
0.0
  11
 222.845
  21
 726.241
  31
0.0
   0
LINE
   8
LEVEL001
   6
CONTINUOUS
  62
7
  10
 222.845
  20
 726.241
  30
0.0
  11
 222.865
  21
 726.136
  31
0.0
   0
LINE
   8
LEVEL001
   6
CONTINUOUS
  62
7
  10
 222.865
  20
 726.136
  30
0.0
  11
 222.886
  21
 726.061
  31
0.0
   0
LINE
   8
LEVEL001
   6
CONTINUOUS
  62
7
  10
 222.886
  20
 726.061
  30
0.0
  11
 222.907
  21
 726.015
  31
0.0
   0
LINE
   8
LEVEL001
   6
CONTINUOUS
  62
7
  10
 222.907
  20
 726.015
  30
0.0
  11
 222.929
  21
 726.000
  31
0.0
   0
LINE
   8
LEVEL001
   6
CONTINUOUS
  62
7
  10
 222.929
  20
 726.000
  30
0.0
  11
 222.950
  21
 726.015
  31
0.0
   0
LINE
   8
LEVEL001
   6
CONTINUOUS
  62
7
  10
 222.950
  20
 726.015
  30
0.0
  11
 222.971
  21
 726.061
  31
0.0
   0
LINE
   8
LEVEL001
   6
CONTINUOUS
  62
7
  10
 222.971
  20
 726.061
  30
0.0
  11
 222.992
  21
 726.136
  31
0.0
   0
LINE
   8
LEVEL001
   6
CONTINUOUS
  62
7
  10
 222.992
  20
 726.136
  30
0.0
  11
 223.012
  21
 726.241
  31
0.0
   0
LINE
   8
LEVEL001
   6
CONTINUOUS
  62
7
  10
 223.012
  20
 726.241
  30
0.0
  11
 223.032
  21
 726.375
  31
0.0
   0
LINE
   8
LEVEL001
   6
CONTINUOUS
  62
7
  10
 223.032
  20
 726.375
  30
0.0
  11
 223.051
  21
 726.536
  31
0.0
   0
LINE
   8
LEVEL001
   6
CONTINUOUS
  62
7
  10
 223.051
  20
 726.536
  30
0.0
  11
 223.069
  21
 726.723
  31
0.0
   0
LINE
   8
LEVEL001
   6
CONTINUOUS
  62
7
  10
 223.069
  20
 726.723
  30
0.0
  11
 223.086
  21
 726.936
  31
0.0
   0
LINE
   8
LEVEL001
   6
CONTINUOUS
  62
7
  10
 223.086
  20
 726.936
  30
0.0
  11
 223.102
  21
 727.172
  31
0.0
   0
LINE
   8
LEVEL001
   6
CONTINUOUS
  62
7
  10
 223.102
  20
 727.172
  30
0.0
  11
 223.116
  21
 727.429
  31
0.0
   0
LINE
   8
LEVEL001
   6
CONTINUOUS
  62
7
  10
 223.116
  20
 727.429
  30
0.0
  11
 223.129
  21
 727.706
  31
0.0
   0
LINE
   8
LEVEL001
   6
CONTINUOUS
  62
7
  10
 223.129
  20
 727.706
  30
0.0
  11
 223.141
  21
 728.000
  31
0.0
   0
LINE
   8
LEVEL001
   6
CONTINUOUS
  62
7
  10
 223.141
  20
 728.000
  30
0.0
  11
 223.150
  21
 728.310
  31
0.0
   0
LINE
   8
LEVEL001
   6
CONTINUOUS
  62
7
  10
 223.150
  20
 728.310
  30
0.0
  11
 223.159
  21
 728.632
  31
0.0
   0
LINE
   8
LEVEL001
   6
CONTINUOUS
  62
7
  10
 223.159
  20
 728.632
  30
0.0
  11
 223.165
  21
 728.965
  31
0.0
   0
LINE
   8
LEVEL001
   6
CONTINUOUS
  62
7
  10
 223.165
  20
 728.965
  30
0.0
  11
 223.170
  21
 729.305
  31
0.0
   0
LINE
   8
LEVEL001
   6
CONTINUOUS
  62
7
  10
 223.170
  20
 729.305
  30
0.0
  11
 223.172
  21
 729.651
  31
0.0
   0
LINE
   8
LEVEL001
   6
CONTINUOUS
  62
7
  10
 223.172
  20
 729.651
  30
0.0
  11
 223.173
  21
 730.000
  31
0.0
   0
LINE
   8
LEVEL001
   6
CONTINUOUS
  62
7
  10
 223.173
  20
 730.000
  30
0.0
  11
 223.172
  21
 730.349
  31
0.0
   0
LINE
   8
LEVEL001
   6
CONTINUOUS
  62
7
  10
 223.172
  20
 730.349
  30
0.0
  11
 223.170
  21
 730.695
  31
0.0
   0
LINE
   8
LEVEL001
   6
CONTINUOUS
  62
7
  10
 223.170
  20
 730.695
  30
0.0
  11
 223.165
  21
 731.035
  31
0.0
   0
LINE
   8
LEVEL001
   6
CONTINUOUS
  62
7
  10
 223.165
  20
 731.035
  30
0.0
  11
 223.159
  21
 731.368
  31
0.0
   0
LINE
   8
LEVEL001
   6
CONTINUOUS
  62
7
  10
 223.159
  20
 731.368
  30
0.0
  11
 223.150
  21
 731.690
  31
0.0
   0
LINE
   8
LEVEL001
   6
CONTINUOUS
  62
7
  10
 223.150
  20
 731.690
  30
0.0
  11
 223.141
  21
 732.000
  31
0.0
   0
LINE
   8
LEVEL001
   6
CONTINUOUS
  62
7
  10
 223.141
  20
 732.000
  30
0.0
  11
 223.129
  21
 732.294
  31
0.0
   0
LINE
   8
LEVEL001
   6
CONTINUOUS
  62
7
  10
 223.129
  20
 732.294
  30
0.0
  11
 223.116
  21
 732.571
  31
0.0
   0
LINE
   8
LEVEL001
   6
CONTINUOUS
  62
7
  10
 223.116
  20
 732.571
  30
0.0
  11
 223.102
  21
 732.828
  31
0.0
   0
LINE
   8
LEVEL001
   6
CONTINUOUS
  62
7
  10
 223.102
  20
 732.828
  30
0.0
  11
 223.086
  21
 733.064
  31
0.0
   0
LINE
   8
LEVEL001
   6
CONTINUOUS
  62
7
  10
 223.086
  20
 733.064
  30
0.0
  11
 223.069
  21
 733.277
  31
0.0
   0
LINE
   8
LEVEL001
   6
CONTINUOUS
  62
7
  10
 223.069
  20
 733.277
  30
0.0
  11
 223.051
  21
 733.464
  31
0.0
   0
LINE
   8
LEVEL001
   6
CONTINUOUS
  62
7
  10
 223.051
  20
 733.464
  30
0.0
  11
 223.032
  21
 733.625
  31
0.0
   0
LINE
   8
LEVEL001
   6
CONTINUOUS
  62
7
  10
 223.032
  20
 733.625
  30
0.0
  11
 223.012
  21
 733.759
  31
0.0
   0
LINE
   8
LEVEL001
   6
CONTINUOUS
  62
7
  10
 223.012
  20
 733.759
  30
0.0
  11
 222.992
  21
 733.864
  31
0.0
   0
LINE
   8
LEVEL001
   6
CONTINUOUS
  62
7
  10
 222.992
  20
 733.864
  30
0.0
  11
 222.971
  21
 733.939
  31
0.0
   0
LINE
   8
LEVEL001
   6
CONTINUOUS
  62
7
  10
 222.971
  20
 733.939
  30
0.0
  11
 222.950
  21
 733.985
  31
0.0
   0
LINE
   8
LEVEL001
   6
CONTINUOUS
  62
7
  10
 222.950
  20
 733.985
  30
0.0
  11
 222.929
  21
 734.000
  31
0.0
   0
LINE
   8
LEVEL001
   6
CONTINUOUS
  62
7
  10
 222.800
  20
 733.500
  30
0.0
  11
 222.800
  21
 726.500
  31
0.0
   0
LINE
   8
LEVEL001
   6
CONTINUOUS
  62
7
  10
 222.800
  20
 726.500
  30
0.0
  11
 223.000
  21
 726.846
  31
0.0
   0
LINE
   8
LEVEL001
   6
CONTINUOUS
  62
7
  10
 223.000
  20
 726.846
  30
0.0
  11
 223.000
  21
 733.154
  31
0.0
   0
LINE
   8
LEVEL001
   6
CONTINUOUS
  62
7
  10
 223.000
  20
 733.154
  30
0.0
  11
 222.800
  21
 733.500
  31
0.0
   0
LINE
   8
LEVEL001
   6
CONTINUOUS
  62
7
  10
 223.591
  20
 726.004
  30
0.0
  11
 223.597
  21
 726.003
  31
0.0
   0
LINE
   8
LEVEL001
   6
CONTINUOUS
  62
7
  10
 223.597
  20
 726.003
  30
0.0
  11
 223.604
  21
 726.004
  31
0.0
   0
LINE
   8
LEVEL001
   6
CONTINUOUS
  62
7
  10
 223.604
  20
 726.004
  30
0.0
  11
 223.611
  21
 726.007
  31
0.0
   0
LINE
   8
LEVEL001
   6
CONTINUOUS
  62
7
  10
 223.611
  20
 726.007
  30
0.0
  11
 223.619
  21
 726.012
  31
0.0
   0
LINE
   8
LEVEL001
   6
CONTINUOUS
  62
7
  10
 223.619
  20
 726.012
  30
0.0
  11
 223.627
  21
 726.018
  31
0.0
   0
LINE
   8
LEVEL001
   6
CONTINUOUS
  62
7
  10
 223.627
  20
 726.018
  30
0.0
  11
 223.636
  21
 726.027
  31
0.0
   0
LINE
   8
LEVEL001
   6
CONTINUOUS
  62
7
  10
 223.636
  20
 726.027
  30
0.0
  11
 223.645
  21
 726.037
  31
0.0
   0
LINE
   8
LEVEL001
   6
CONTINUOUS
  62
7
  10
 223.645
  20
 726.037
  30
0.0
  11
 223.654
  21
 726.049
  31
0.0
   0
LINE
   8
LEVEL001
   6
CONTINUOUS
  62
7
  10
 223.654
  20
 726.049
  30
0.0
  11
 223.665
  21
 726.063
  31
0.0
   0
LINE
   8
LEVEL001
   6
CONTINUOUS
  62
7
  10
 223.665
  20
 726.063
  30
0.0
  11
 223.675
  21
 726.079
  31
0.0
   0
LINE
   8
LEVEL001
   6
CONTINUOUS
  62
7
  10
 223.675
  20
 726.079
  30
0.0
  11
 223.687
  21
 726.097
  31
0.0
   0
LINE
   8
LEVEL001
   6
CONTINUOUS
  62
7
  10
 223.687
  20
 726.097
  30
0.0
  11
 223.698
  21
 726.116
  31
0.0
   0
LINE
   8
LEVEL001
   6
CONTINUOUS
  62
7
  10
 223.698
  20
 726.116
  30
0.0
  11
 223.710
  21
 726.137
  31
0.0
   0
LINE
   8
LEVEL001
   6
CONTINUOUS
  62
7
  10
 223.710
  20
 726.137
  30
0.0
  11
 223.723
  21
 726.160
  31
0.0
   0
LINE
   8
LEVEL001
   6
CONTINUOUS
  62
7
  10
 223.723
  20
 726.160
  30
0.0
  11
 223.736
  21
 726.184
  31
0.0
   0
LINE
   8
LEVEL001
   6
CONTINUOUS
  62
7
  10
 223.736
  20
 726.184
  30
0.0
  11
 223.749
  21
 726.211
  31
0.0
   0
LINE
   8
LEVEL001
   6
CONTINUOUS
  62
7
  10
 223.749
  20
 726.211
  30
0.0
  11
 223.763
  21
 726.239
  31
0.0
   0
LINE
   8
LEVEL001
   6
CONTINUOUS
  62
7
  10
 223.763
  20
 726.239
  30
0.0
  11
 223.777
  21
 726.268
  31
0.0
   0
LINE
   8
LEVEL001
   6
CONTINUOUS
  62
7
  10
 223.777
  20
 726.268
  30
0.0
  11
 223.791
  21
 726.299
  31
0.0
   0
LINE
   8
LEVEL001
   6
CONTINUOUS
  62
7
  10
 223.791
  20
 726.299
  30
0.0
  11
 223.806
  21
 726.332
  31
0.0
   0
LINE
   8
LEVEL001
   6
CONTINUOUS
  62
7
  10
 223.806
  20
 726.332
  30
0.0
  11
 223.821
  21
 726.366
  31
0.0
   0
LINE
   8
LEVEL001
   6
CONTINUOUS
  62
7
  10
 223.821
  20
 726.366
  30
0.0
  11
 223.837
  21
 726.402
  31
0.0
   0
LINE
   8
LEVEL001
   6
CONTINUOUS
  62
7
  10
 223.837
  20
 726.402
  30
0.0
  11
 223.853
  21
 726.439
  31
0.0
   0
LINE
   8
LEVEL001
   6
CONTINUOUS
  62
7
  10
 223.853
  20
 726.439
  30
0.0
  11
 223.869
  21
 726.478
  31
0.0
   0
LINE
   8
LEVEL001
   6
CONTINUOUS
  62
7
  10
 223.869
  20
 726.478
  30
0.0
  11
 223.885
  21
 726.518
  31
0.0
   0
LINE
   8
LEVEL001
   6
CONTINUOUS
  62
7
  10
 223.885
  20
 726.518
  30
0.0
  11
 223.902
  21
 726.560
  31
0.0
   0
LINE
   8
LEVEL001
   6
CONTINUOUS
  62
7
  10
 223.902
  20
 726.560
  30
0.0
  11
 223.919
  21
 726.602
  31
0.0
   0
LINE
   8
LEVEL001
   6
CONTINUOUS
  62
7
  10
 223.919
  20
 726.602
  30
0.0
  11
 223.936
  21
 726.647
  31
0.0
   0
LINE
   8
LEVEL001
   6
CONTINUOUS
  62
7
  10
 223.936
  20
 726.647
  30
0.0
  11
 223.954
  21
 726.692
  31
0.0
   0
LINE
   8
LEVEL001
   6
CONTINUOUS
  62
7
  10
 223.954
  20
 726.692
  30
0.0
  11
 223.972
  21
 726.739
  31
0.0
   0
LINE
   8
LEVEL001
   6
CONTINUOUS
  62
7
  10
 223.972
  20
 726.739
  30
0.0
  11
 223.989
  21
 726.787
  31
0.0
   0
LINE
   8
LEVEL001
   6
CONTINUOUS
  62
7
  10
 223.989
  20
 726.787
  30
0.0
  11
 224.007
  21
 726.835
  31
0.0
   0
LINE
   8
LEVEL001
   6
CONTINUOUS
  62
7
  10
 224.007
  20
 726.835
  30
0.0
  11
 224.026
  21
 726.885
  31
0.0
   0
LINE
   8
LEVEL001
   6
CONTINUOUS
  62
7
  10
 224.026
  20
 726.885
  30
0.0
  11
 224.044
  21
 726.937
  31
0.0
   0
LINE
   8
LEVEL001
   6
CONTINUOUS
  62
7
  10
 224.044
  20
 726.937
  30
0.0
  11
 224.063
  21
 726.989
  31
0.0
   0
LINE
   8
LEVEL001
   6
CONTINUOUS
  62
7
  10
 224.063
  20
 726.989
  30
0.0
  11
 224.081
  21
 727.042
  31
0.0
   0
LINE
   8
LEVEL001
   6
CONTINUOUS
  62
7
  10
 224.081
  20
 727.042
  30
0.0
  11
 224.100
  21
 727.096
  31
0.0
   0
LINE
   8
LEVEL001
   6
CONTINUOUS
  62
7
  10
 224.100
  20
 727.096
  30
0.0
  11
 224.119
  21
 727.150
  31
0.0
   0
LINE
   8
LEVEL001
   6
CONTINUOUS
  62
7
  10
 224.119
  20
 727.150
  30
0.0
  11
 224.137
  21
 727.206
  31
0.0
   0
LINE
   8
LEVEL001
   6
CONTINUOUS
  62
7
  10
 224.137
  20
 727.206
  30
0.0
  11
 224.156
  21
 727.262
  31
0.0
   0
LINE
   8
LEVEL001
   6
CONTINUOUS
  62
7
  10
 224.156
  20
 727.262
  30
0.0
  11
 224.175
  21
 727.319
  31
0.0
   0
LINE
   8
LEVEL001
   6
CONTINUOUS
  62
7
  10
 224.175
  20
 727.319
  30
0.0
  11
 224.194
  21
 727.377
  31
0.0
   0
LINE
   8
LEVEL001
   6
CONTINUOUS
  62
7
  10
 224.194
  20
 727.377
  30
0.0
  11
 224.213
  21
 727.435
  31
0.0
   0
LINE
   8
LEVEL001
   6
CONTINUOUS
  62
7
  10
 224.213
  20
 727.435
  30
0.0
  11
 224.232
  21
 727.493
  31
0.0
   0
LINE
   8
LEVEL001
   6
CONTINUOUS
  62
7
  10
 224.232
  20
 727.493
  30
0.0
  11
 224.251
  21
 727.553
  31
0.0
   0
LINE
   8
LEVEL001
   6
CONTINUOUS
  62
7
  10
 224.251
  20
 727.553
  30
0.0
  11
 224.269
  21
 727.612
  31
0.0
   0
LINE
   8
LEVEL001
   6
CONTINUOUS
  62
7
  10
 224.269
  20
 727.612
  30
0.0
  11
 224.288
  21
 727.672
  31
0.0
   0
LINE
   8
LEVEL001
   6
CONTINUOUS
  62
7
  10
 224.288
  20
 727.672
  30
0.0
  11
 224.306
  21
 727.732
  31
0.0
   0
LINE
   8
LEVEL001
   6
CONTINUOUS
  62
7
  10
 224.306
  20
 727.732
  30
0.0
  11
 224.325
  21
 727.793
  31
0.0
   0
LINE
   8
LEVEL001
   6
CONTINUOUS
  62
7
  10
 224.325
  20
 727.793
  30
0.0
  11
 224.343
  21
 727.854
  31
0.0
   0
LINE
   8
LEVEL001
   6
CONTINUOUS
  62
7
  10
 224.343
  20
 727.854
  30
0.0
  11
 224.361
  21
 727.914
  31
0.0
   0
LINE
   8
LEVEL001
   6
CONTINUOUS
  62
7
  10
 224.361
  20
 727.914
  30
0.0
  11
 224.379
  21
 727.975
  31
0.0
   0
LINE
   8
LEVEL001
   6
CONTINUOUS
  62
7
  10
 224.379
  20
 727.975
  30
0.0
  11
 224.397
  21
 728.036
  31
0.0
   0
LINE
   8
LEVEL001
   6
CONTINUOUS
  62
7
  10
 224.397
  20
 728.036
  30
0.0
  11
 224.415
  21
 728.097
  31
0.0
   0
LINE
   8
LEVEL001
   6
CONTINUOUS
  62
7
  10
 224.415
  20
 728.097
  30
0.0
  11
 224.432
  21
 728.158
  31
0.0
   0
LINE
   8
LEVEL001
   6
CONTINUOUS
  62
7
  10
 224.432
  20
 728.158
  30
0.0
  11
 224.449
  21
 728.219
  31
0.0
   0
LINE
   8
LEVEL001
   6
CONTINUOUS
  62
7
  10
 224.449
  20
 728.219
  30
0.0
  11
 224.466
  21
 728.279
  31
0.0
   0
LINE
   8
LEVEL001
   6
CONTINUOUS
  62
7
  10
 224.466
  20
 728.279
  30
0.0
  11
 224.483
  21
 728.339
  31
0.0
   0
LINE
   8
LEVEL001
   6
CONTINUOUS
  62
7
  10
 224.483
  20
 728.339
  30
0.0
  11
 224.499
  21
 728.399
  31
0.0
   0
LINE
   8
LEVEL001
   6
CONTINUOUS
  62
7
  10
 224.499
  20
 728.399
  30
0.0
  11
 224.515
  21
 728.459
  31
0.0
   0
LINE
   8
LEVEL001
   6
CONTINUOUS
  62
7
  10
 224.515
  20
 728.459
  30
0.0
  11
 224.531
  21
 728.518
  31
0.0
   0
LINE
   8
LEVEL001
   6
CONTINUOUS
  62
7
  10
 224.531
  20
 728.518
  30
0.0
  11
 224.546
  21
 728.577
  31
0.0
   0
LINE
   8
LEVEL001
   6
CONTINUOUS
  62
7
  10
 224.546
  20
 728.577
  30
0.0
  11
 224.561
  21
 728.635
  31
0.0
   0
LINE
   8
LEVEL001
   6
CONTINUOUS
  62
7
  10
 224.561
  20
 728.635
  30
0.0
  11
 224.576
  21
 728.692
  31
0.0
   0
LINE
   8
LEVEL001
   6
CONTINUOUS
  62
7
  10
 224.576
  20
 728.692
  30
0.0
  11
 224.591
  21
 728.749
  31
0.0
   0
LINE
   8
LEVEL001
   6
CONTINUOUS
  62
7
  10
 224.591
  20
 728.749
  30
0.0
  11
 224.604
  21
 728.805
  31
0.0
   0
LINE
   8
LEVEL001
   6
CONTINUOUS
  62
7
  10
 224.604
  20
 728.805
  30
0.0
  11
 224.618
  21
 728.861
  31
0.0
   0
LINE
   8
LEVEL001
   6
CONTINUOUS
  62
7
  10
 224.618
  20
 728.861
  30
0.0
  11
 224.631
  21
 728.915
  31
0.0
   0
LINE
   8
LEVEL001
   6
CONTINUOUS
  62
7
  10
 224.631
  20
 728.915
  30
0.0
  11
 224.644
  21
 728.969
  31
0.0
   0
LINE
   8
LEVEL001
   6
CONTINUOUS
  62
7
  10
 224.644
  20
 728.969
  30
0.0
  11
 224.656
  21
 729.022
  31
0.0
   0
LINE
   8
LEVEL001
   6
CONTINUOUS
  62
7
  10
 224.656
  20
 729.022
  30
0.0
  11
 224.668
  21
 729.074
  31
0.0
   0
LINE
   8
LEVEL001
   6
CONTINUOUS
  62
7
  10
 224.668
  20
 729.074
  30
0.0
  11
 224.680
  21
 729.125
  31
0.0
   0
LINE
   8
LEVEL001
   6
CONTINUOUS
  62
7
  10
 224.683
  20
 729.123
  30
0.0
  11
 224.685
  21
 729.135
  31
0.0
   0
LINE
   8
LEVEL001
   6
CONTINUOUS
  62
7
  10
 224.685
  20
 729.135
  30
0.0
  11
 224.687
  21
 729.146
  31
0.0
   0
LINE
   8
LEVEL001
   6
CONTINUOUS
  62
7
  10
 224.687
  20
 729.146
  30
0.0
  11
 224.690
  21
 729.158
  31
0.0
   0
LINE
   8
LEVEL001
   6
CONTINUOUS
  62
7
  10
 224.690
  20
 729.158
  30
0.0
  11
 224.692
  21
 729.170
  31
0.0
   0
LINE
   8
LEVEL001
   6
CONTINUOUS
  62
7
  10
 224.692
  20
 729.170
  30
0.0
  11
 224.694
  21
 729.181
  31
0.0
   0
LINE
   8
LEVEL001
   6
CONTINUOUS
  62
7
  10
 224.694
  20
 729.181
  30
0.0
  11
 224.697
  21
 729.193
  31
0.0
   0
LINE
   8
LEVEL001
   6
CONTINUOUS
  62
7
  10
 224.697
  20
 729.193
  30
0.0
  11
 224.699
  21
 729.205
  31
0.0
   0
LINE
   8
LEVEL001
   6
CONTINUOUS
  62
7
  10
 224.699
  20
 729.205
  30
0.0
  11
 224.701
  21
 729.217
  31
0.0
   0
LINE
   8
LEVEL001
   6
CONTINUOUS
  62
7
  10
 224.701
  20
 729.217
  30
0.0
  11
 224.703
  21
 729.229
  31
0.0
   0
LINE
   8
LEVEL001
   6
CONTINUOUS
  62
7
  10
 224.703
  20
 729.229
  30
0.0
  11
 224.705
  21
 729.241
  31
0.0
   0
LINE
   8
LEVEL001
   6
CONTINUOUS
  62
7
  10
 224.705
  20
 729.241
  30
0.0
  11
 224.707
  21
 729.252
  31
0.0
   0
LINE
   8
LEVEL001
   6
CONTINUOUS
  62
7
  10
 224.707
  20
 729.252
  30
0.0
  11
 224.709
  21
 729.264
  31
0.0
   0
LINE
   8
LEVEL001
   6
CONTINUOUS
  62
7
  10
 224.709
  20
 729.264
  30
0.0
  11
 224.711
  21
 729.276
  31
0.0
   0
LINE
   8
LEVEL001
   6
CONTINUOUS
  62
7
  10
 224.711
  20
 729.276
  30
0.0
  11
 224.713
  21
 729.288
  31
0.0
   0
LINE
   8
LEVEL001
   6
CONTINUOUS
  62
7
  10
 224.713
  20
 729.288
  30
0.0
  11
 224.715
  21
 729.300
  31
0.0
   0
LINE
   8
LEVEL001
   6
CONTINUOUS
  62
7
  10
 224.715
  20
 729.300
  30
0.0
  11
 224.717
  21
 729.312
  31
0.0
   0
LINE
   8
LEVEL001
   6
CONTINUOUS
  62
7
  10
 224.717
  20
 729.312
  30
0.0
  11
 224.719
  21
 729.324
  31
0.0
   0
LINE
   8
LEVEL001
   6
CONTINUOUS
  62
7
  10
 224.719
  20
 729.324
  30
0.0
  11
 224.721
  21
 729.336
  31
0.0
   0
LINE
   8
LEVEL001
   6
CONTINUOUS
  62
7
  10
 224.721
  20
 729.336
  30
0.0
  11
 224.723
  21
 729.348
  31
0.0
   0
LINE
   8
LEVEL001
   6
CONTINUOUS
  62
7
  10
 224.723
  20
 729.348
  30
0.0
  11
 224.724
  21
 729.360
  31
0.0
   0
LINE
   8
LEVEL001
   6
CONTINUOUS
  62
7
  10
 224.724
  20
 729.360
  30
0.0
  11
 224.726
  21
 729.372
  31
0.0
   0
LINE
   8
LEVEL001
   6
CONTINUOUS
  62
7
  10
 224.726
  20
 729.372
  30
0.0
  11
 224.728
  21
 729.384
  31
0.0
   0
LINE
   8
LEVEL001
   6
CONTINUOUS
  62
7
  10
 224.728
  20
 729.384
  30
0.0
  11
 224.730
  21
 729.396
  31
0.0
   0
LINE
   8
LEVEL001
   6
CONTINUOUS
  62
7
  10
 224.730
  20
 729.396
  30
0.0
  11
 224.731
  21
 729.408
  31
0.0
   0
LINE
   8
LEVEL001
   6
CONTINUOUS
  62
7
  10
 224.731
  20
 729.408
  30
0.0
  11
 224.733
  21
 729.420
  31
0.0
   0
LINE
   8
LEVEL001
   6
CONTINUOUS
  62
7
  10
 224.733
  20
 729.420
  30
0.0
  11
 224.734
  21
 729.433
  31
0.0
   0
LINE
   8
LEVEL001
   6
CONTINUOUS
  62
7
  10
 224.734
  20
 729.433
  30
0.0
  11
 224.736
  21
 729.445
  31
0.0
   0
LINE
   8
LEVEL001
   6
CONTINUOUS
  62
7
  10
 224.736
  20
 729.445
  30
0.0
  11
 224.738
  21
 729.457
  31
0.0
   0
LINE
   8
LEVEL001
   6
CONTINUOUS
  62
7
  10
 224.738
  20
 729.457
  30
0.0
  11
 224.739
  21
 729.469
  31
0.0
   0
LINE
   8
LEVEL001
   6
CONTINUOUS
  62
7
  10
 224.739
  20
 729.469
  30
0.0
  11
 224.740
  21
 729.481
  31
0.0
   0
LINE
   8
LEVEL001
   6
CONTINUOUS
  62
7
  10
 224.740
  20
 729.481
  30
0.0
  11
 224.742
  21
 729.493
  31
0.0
   0
LINE
   8
LEVEL001
   6
CONTINUOUS
  62
7
  10
 224.742
  20
 729.493
  30
0.0
  11
 224.743
  21
 729.506
  31
0.0
   0
LINE
   8
LEVEL001
   6
CONTINUOUS
  62
7
  10
 224.743
  20
 729.506
  30
0.0
  11
 224.745
  21
 729.518
  31
0.0
   0
LINE
   8
LEVEL001
   6
CONTINUOUS
  62
7
  10
 224.745
  20
 729.518
  30
0.0
  11
 224.746
  21
 729.530
  31
0.0
   0
LINE
   8
LEVEL001
   6
CONTINUOUS
  62
7
  10
 224.746
  20
 729.530
  30
0.0
  11
 224.747
  21
 729.542
  31
0.0
   0
LINE
   8
LEVEL001
   6
CONTINUOUS
  62
7
  10
 224.747
  20
 729.542
  30
0.0
  11
 224.748
  21
 729.554
  31
0.0
   0
LINE
   8
LEVEL001
   6
CONTINUOUS
  62
7
  10
 224.748
  20
 729.554
  30
0.0
  11
 224.750
  21
 729.567
  31
0.0
   0
LINE
   8
LEVEL001
   6
CONTINUOUS
  62
7
  10
 224.750
  20
 729.567
  30
0.0
  11
 224.751
  21
 729.579
  31
0.0
   0
LINE
   8
LEVEL001
   6
CONTINUOUS
  62
7
  10
 224.751
  20
 729.579
  30
0.0
  11
 224.752
  21
 729.591
  31
0.0
   0
LINE
   8
LEVEL001
   6
CONTINUOUS
  62
7
  10
 224.752
  20
 729.591
  30
0.0
  11
 224.753
  21
 729.604
  31
0.0
   0
LINE
   8
LEVEL001
   6
CONTINUOUS
  62
7
  10
 224.753
  20
 729.604
  30
0.0
  11
 224.754
  21
 729.616
  31
0.0
   0
LINE
   8
LEVEL001
   6
CONTINUOUS
  62
7
  10
 224.754
  20
 729.616
  30
0.0
  11
 224.755
  21
 729.628
  31
0.0
   0
LINE
   8
LEVEL001
   6
CONTINUOUS
  62
7
  10
 224.755
  20
 729.628
  30
0.0
  11
 224.756
  21
 729.640
  31
0.0
   0
LINE
   8
LEVEL001
   6
CONTINUOUS
  62
7
  10
 224.756
  20
 729.640
  30
0.0
  11
 224.757
  21
 729.653
  31
0.0
   0
LINE
   8
LEVEL001
   6
CONTINUOUS
  62
7
  10
 224.757
  20
 729.653
  30
0.0
  11
 224.758
  21
 729.665
  31
0.0
   0
LINE
   8
LEVEL001
   6
CONTINUOUS
  62
7
  10
 224.758
  20
 729.665
  30
0.0
  11
 224.759
  21
 729.677
  31
0.0
   0
LINE
   8
LEVEL001
   6
CONTINUOUS
  62
7
  10
 224.759
  20
 729.677
  30
0.0
  11
 224.760
  21
 729.690
  31
0.0
   0
LINE
   8
LEVEL001
   6
CONTINUOUS
  62
7
  10
 224.760
  20
 729.690
  30
0.0
  11
 224.761
  21
 729.702
  31
0.0
   0
LINE
   8
LEVEL001
   6
CONTINUOUS
  62
7
  10
 224.761
  20
 729.702
  30
0.0
  11
 224.762
  21
 729.714
  31
0.0
   0
LINE
   8
LEVEL001
   6
CONTINUOUS
  62
7
  10
 224.762
  20
 729.714
  30
0.0
  11
 224.762
  21
 729.727
  31
0.0
   0
LINE
   8
LEVEL001
   6
CONTINUOUS
  62
7
  10
 224.762
  20
 729.727
  30
0.0
  11
 224.763
  21
 729.739
  31
0.0
   0
LINE
   8
LEVEL001
   6
CONTINUOUS
  62
7
  10
 224.763
  20
 729.739
  30
0.0
  11
 224.764
  21
 729.752
  31
0.0
   0
LINE
   8
LEVEL001
   6
CONTINUOUS
  62
7
  10
 224.764
  20
 729.752
  30
0.0
  11
 224.764
  21
 729.764
  31
0.0
   0
LINE
   8
LEVEL001
   6
CONTINUOUS
  62
7
  10
 224.764
  20
 729.764
  30
0.0
  11
 224.765
  21
 729.776
  31
0.0
   0
LINE
   8
LEVEL001
   6
CONTINUOUS
  62
7
  10
 224.765
  20
 729.776
  30
0.0
  11
 224.766
  21
 729.789
  31
0.0
   0
LINE
   8
LEVEL001
   6
CONTINUOUS
  62
7
  10
 224.766
  20
 729.789
  30
0.0
  11
 224.766
  21
 729.801
  31
0.0
   0
LINE
   8
LEVEL001
   6
CONTINUOUS
  62
7
  10
 224.766
  20
 729.801
  30
0.0
  11
 224.767
  21
 729.814
  31
0.0
   0
LINE
   8
LEVEL001
   6
CONTINUOUS
  62
7
  10
 224.767
  20
 729.814
  30
0.0
  11
 224.767
  21
 729.826
  31
0.0
   0
LINE
   8
LEVEL001
   6
CONTINUOUS
  62
7
  10
 224.767
  20
 729.826
  30
0.0
  11
 224.768
  21
 729.838
  31
0.0
   0
LINE
   8
LEVEL001
   6
CONTINUOUS
  62
7
  10
 224.768
  20
 729.838
  30
0.0
  11
 224.768
  21
 729.851
  31
0.0
   0
LINE
   8
LEVEL001
   6
CONTINUOUS
  62
7
  10
 224.768
  20
 729.851
  30
0.0
  11
 224.769
  21
 729.863
  31
0.0
   0
LINE
   8
LEVEL001
   6
CONTINUOUS
  62
7
  10
 224.769
  20
 729.863
  30
0.0
  11
 224.769
  21
 729.876
  31
0.0
   0
LINE
   8
LEVEL001
   6
CONTINUOUS
  62
7
  10
 224.769
  20
 729.876
  30
0.0
  11
 224.769
  21
 729.888
  31
0.0
   0
LINE
   8
LEVEL001
   6
CONTINUOUS
  62
7
  10
 224.769
  20
 729.888
  30
0.0
  11
 224.770
  21
 729.900
  31
0.0
   0
LINE
   8
LEVEL001
   6
CONTINUOUS
  62
7
  10
 224.770
  20
 729.900
  30
0.0
  11
 224.770
  21
 729.913
  31
0.0
   0
LINE
   8
LEVEL001
   6
CONTINUOUS
  62
7
  10
 224.770
  20
 729.913
  30
0.0
  11
 224.770
  21
 729.925
  31
0.0
   0
LINE
   8
LEVEL001
   6
CONTINUOUS
  62
7
  10
 224.770
  20
 729.925
  30
0.0
  11
 224.770
  21
 729.938
  31
0.0
   0
LINE
   8
LEVEL001
   6
CONTINUOUS
  62
7
  10
 224.770
  20
 729.938
  30
0.0
  11
 224.770
  21
 729.950
  31
0.0
   0
LINE
   8
LEVEL001
   6
CONTINUOUS
  62
7
  10
 224.770
  20
 729.950
  30
0.0
  11
 224.770
  21
 729.963
  31
0.0
   0
LINE
   8
LEVEL001
   6
CONTINUOUS
  62
7
  10
 224.770
  20
 729.963
  30
0.0
  11
 224.771
  21
 729.975
  31
0.0
   0
LINE
   8
LEVEL001
   6
CONTINUOUS
  62
7
  10
 224.771
  20
 729.975
  30
0.0
  11
 224.771
  21
 729.988
  31
0.0
   0
LINE
   8
LEVEL001
   6
CONTINUOUS
  62
7
  10
 224.771
  20
 729.988
  30
0.0
  11
 224.771
  21
 730.000
  31
0.0
   0
LINE
   8
LEVEL001
   6
CONTINUOUS
  62
7
  10
 224.771
  20
 730.000
  30
0.0
  11
 224.771
  21
 730.012
  31
0.0
   0
LINE
   8
LEVEL001
   6
CONTINUOUS
  62
7
  10
 224.771
  20
 730.012
  30
0.0
  11
 224.771
  21
 730.025
  31
0.0
   0
LINE
   8
LEVEL001
   6
CONTINUOUS
  62
7
  10
 224.771
  20
 730.025
  30
0.0
  11
 224.770
  21
 730.037
  31
0.0
   0
LINE
   8
LEVEL001
   6
CONTINUOUS
  62
7
  10
 224.770
  20
 730.037
  30
0.0
  11
 224.770
  21
 730.050
  31
0.0
   0
LINE
   8
LEVEL001
   6
CONTINUOUS
  62
7
  10
 224.770
  20
 730.050
  30
0.0
  11
 224.770
  21
 730.062
  31
0.0
   0
LINE
   8
LEVEL001
   6
CONTINUOUS
  62
7
  10
 224.770
  20
 730.062
  30
0.0
  11
 224.770
  21
 730.075
  31
0.0
   0
LINE
   8
LEVEL001
   6
CONTINUOUS
  62
7
  10
 224.770
  20
 730.075
  30
0.0
  11
 224.770
  21
 730.087
  31
0.0
   0
LINE
   8
LEVEL001
   6
CONTINUOUS
  62
7
  10
 224.770
  20
 730.087
  30
0.0
  11
 224.770
  21
 730.100
  31
0.0
   0
LINE
   8
LEVEL001
   6
CONTINUOUS
  62
7
  10
 224.770
  20
 730.100
  30
0.0
  11
 224.769
  21
 730.112
  31
0.0
   0
LINE
   8
LEVEL001
   6
CONTINUOUS
  62
7
  10
 224.769
  20
 730.112
  30
0.0
  11
 224.769
  21
 730.124
  31
0.0
   0
LINE
   8
LEVEL001
   6
CONTINUOUS
  62
7
  10
 224.769
  20
 730.124
  30
0.0
  11
 224.769
  21
 730.137
  31
0.0
   0
LINE
   8
LEVEL001
   6
CONTINUOUS
  62
7
  10
 224.769
  20
 730.137
  30
0.0
  11
 224.768
  21
 730.149
  31
0.0
   0
LINE
   8
LEVEL001
   6
CONTINUOUS
  62
7
  10
 224.768
  20
 730.149
  30
0.0
  11
 224.768
  21
 730.162
  31
0.0
   0
LINE
   8
LEVEL001
   6
CONTINUOUS
  62
7
  10
 224.768
  20
 730.162
  30
0.0
  11
 224.767
  21
 730.174
  31
0.0
   0
LINE
   8
LEVEL001
   6
CONTINUOUS
  62
7
  10
 224.767
  20
 730.174
  30
0.0
  11
 224.767
  21
 730.186
  31
0.0
   0
LINE
   8
LEVEL001
   6
CONTINUOUS
  62
7
  10
 224.767
  20
 730.186
  30
0.0
  11
 224.766
  21
 730.199
  31
0.0
   0
LINE
   8
LEVEL001
   6
CONTINUOUS
  62
7
  10
 224.766
  20
 730.199
  30
0.0
  11
 224.766
  21
 730.211
  31
0.0
   0
LINE
   8
LEVEL001
   6
CONTINUOUS
  62
7
  10
 224.766
  20
 730.211
  30
0.0
  11
 224.765
  21
 730.224
  31
0.0
   0
LINE
   8
LEVEL001
   6
CONTINUOUS
  62
7
  10
 224.765
  20
 730.224
  30
0.0
  11
 224.764
  21
 730.236
  31
0.0
   0
LINE
   8
LEVEL001
   6
CONTINUOUS
  62
7
  10
 224.764
  20
 730.236
  30
0.0
  11
 224.764
  21
 730.248
  31
0.0
   0
LINE
   8
LEVEL001
   6
CONTINUOUS
  62
7
  10
 224.764
  20
 730.248
  30
0.0
  11
 224.763
  21
 730.261
  31
0.0
   0
LINE
   8
LEVEL001
   6
CONTINUOUS
  62
7
  10
 224.763
  20
 730.261
  30
0.0
  11
 224.762
  21
 730.273
  31
0.0
   0
LINE
   8
LEVEL001
   6
CONTINUOUS
  62
7
  10
 224.762
  20
 730.273
  30
0.0
  11
 224.762
  21
 730.286
  31
0.0
   0
LINE
   8
LEVEL001
   6
CONTINUOUS
  62
7
  10
 224.762
  20
 730.286
  30
0.0
  11
 224.761
  21
 730.298
  31
0.0
   0
LINE
   8
LEVEL001
   6
CONTINUOUS
  62
7
  10
 224.761
  20
 730.298
  30
0.0
  11
 224.760
  21
 730.310
  31
0.0
   0
LINE
   8
LEVEL001
   6
CONTINUOUS
  62
7
  10
 224.760
  20
 730.310
  30
0.0
  11
 224.759
  21
 730.323
  31
0.0
   0
LINE
   8
LEVEL001
   6
CONTINUOUS
  62
7
  10
 224.759
  20
 730.323
  30
0.0
  11
 224.758
  21
 730.335
  31
0.0
   0
LINE
   8
LEVEL001
   6
CONTINUOUS
  62
7
  10
 224.758
  20
 730.335
  30
0.0
  11
 224.757
  21
 730.347
  31
0.0
   0
LINE
   8
LEVEL001
   6
CONTINUOUS
  62
7
  10
 224.757
  20
 730.347
  30
0.0
  11
 224.756
  21
 730.360
  31
0.0
   0
LINE
   8
LEVEL001
   6
CONTINUOUS
  62
7
  10
 224.756
  20
 730.360
  30
0.0
  11
 224.755
  21
 730.372
  31
0.0
   0
LINE
   8
LEVEL001
   6
CONTINUOUS
  62
7
  10
 224.755
  20
 730.372
  30
0.0
  11
 224.754
  21
 730.384
  31
0.0
   0
LINE
   8
LEVEL001
   6
CONTINUOUS
  62
7
  10
 224.754
  20
 730.384
  30
0.0
  11
 224.753
  21
 730.396
  31
0.0
   0
LINE
   8
LEVEL001
   6
CONTINUOUS
  62
7
  10
 224.753
  20
 730.396
  30
0.0
  11
 224.752
  21
 730.409
  31
0.0
   0
LINE
   8
LEVEL001
   6
CONTINUOUS
  62
7
  10
 224.752
  20
 730.409
  30
0.0
  11
 224.751
  21
 730.421
  31
0.0
   0
LINE
   8
LEVEL001
   6
CONTINUOUS
  62
7
  10
 224.751
  20
 730.421
  30
0.0
  11
 224.750
  21
 730.433
  31
0.0
   0
LINE
   8
LEVEL001
   6
CONTINUOUS
  62
7
  10
 224.750
  20
 730.433
  30
0.0
  11
 224.748
  21
 730.446
  31
0.0
   0
LINE
   8
LEVEL001
   6
CONTINUOUS
  62
7
  10
 224.748
  20
 730.446
  30
0.0
  11
 224.747
  21
 730.458
  31
0.0
   0
LINE
   8
LEVEL001
   6
CONTINUOUS
  62
7
  10
 224.747
  20
 730.458
  30
0.0
  11
 224.746
  21
 730.470
  31
0.0
   0
LINE
   8
LEVEL001
   6
CONTINUOUS
  62
7
  10
 224.746
  20
 730.470
  30
0.0
  11
 224.745
  21
 730.482
  31
0.0
   0
LINE
   8
LEVEL001
   6
CONTINUOUS
  62
7
  10
 224.745
  20
 730.482
  30
0.0
  11
 224.743
  21
 730.494
  31
0.0
   0
LINE
   8
LEVEL001
   6
CONTINUOUS
  62
7
  10
 224.743
  20
 730.494
  30
0.0
  11
 224.742
  21
 730.507
  31
0.0
   0
LINE
   8
LEVEL001
   6
CONTINUOUS
  62
7
  10
 224.742
  20
 730.507
  30
0.0
  11
 224.740
  21
 730.519
  31
0.0
   0
LINE
   8
LEVEL001
   6
CONTINUOUS
  62
7
  10
 224.740
  20
 730.519
  30
0.0
  11
 224.739
  21
 730.531
  31
0.0
   0
LINE
   8
LEVEL001
   6
CONTINUOUS
  62
7
  10
 224.739
  20
 730.531
  30
0.0
  11
 224.738
  21
 730.543
  31
0.0
   0
LINE
   8
LEVEL001
   6
CONTINUOUS
  62
7
  10
 224.738
  20
 730.543
  30
0.0
  11
 224.736
  21
 730.555
  31
0.0
   0
LINE
   8
LEVEL001
   6
CONTINUOUS
  62
7
  10
 224.736
  20
 730.555
  30
0.0
  11
 224.734
  21
 730.567
  31
0.0
   0
LINE
   8
LEVEL001
   6
CONTINUOUS
  62
7
  10
 224.734
  20
 730.567
  30
0.0
  11
 224.733
  21
 730.580
  31
0.0
   0
LINE
   8
LEVEL001
   6
CONTINUOUS
  62
7
  10
 224.733
  20
 730.580
  30
0.0
  11
 224.731
  21
 730.592
  31
0.0
   0
LINE
   8
LEVEL001
   6
CONTINUOUS
  62
7
  10
 224.731
  20
 730.592
  30
0.0
  11
 224.730
  21
 730.604
  31
0.0
   0
LINE
   8
LEVEL001
   6
CONTINUOUS
  62
7
  10
 224.730
  20
 730.604
  30
0.0
  11
 224.728
  21
 730.616
  31
0.0
   0
LINE
   8
LEVEL001
   6
CONTINUOUS
  62
7
  10
 224.728
  20
 730.616
  30
0.0
  11
 224.726
  21
 730.628
  31
0.0
   0
LINE
   8
LEVEL001
   6
CONTINUOUS
  62
7
  10
 224.726
  20
 730.628
  30
0.0
  11
 224.724
  21
 730.640
  31
0.0
   0
LINE
   8
LEVEL001
   6
CONTINUOUS
  62
7
  10
 224.724
  20
 730.640
  30
0.0
  11
 224.723
  21
 730.652
  31
0.0
   0
LINE
   8
LEVEL001
   6
CONTINUOUS
  62
7
  10
 224.723
  20
 730.652
  30
0.0
  11
 224.721
  21
 730.664
  31
0.0
   0
LINE
   8
LEVEL001
   6
CONTINUOUS
  62
7
  10
 224.721
  20
 730.664
  30
0.0
  11
 224.719
  21
 730.676
  31
0.0
   0
LINE
   8
LEVEL001
   6
CONTINUOUS
  62
7
  10
 224.719
  20
 730.676
  30
0.0
  11
 224.717
  21
 730.688
  31
0.0
   0
LINE
   8
LEVEL001
   6
CONTINUOUS
  62
7
  10
 224.717
  20
 730.688
  30
0.0
  11
 224.715
  21
 730.700
  31
0.0
   0
LINE
   8
LEVEL001
   6
CONTINUOUS
  62
7
  10
 224.715
  20
 730.700
  30
0.0
  11
 224.713
  21
 730.712
  31
0.0
   0
LINE
   8
LEVEL001
   6
CONTINUOUS
  62
7
  10
 224.713
  20
 730.712
  30
0.0
  11
 224.711
  21
 730.724
  31
0.0
   0
LINE
   8
LEVEL001
   6
CONTINUOUS
  62
7
  10
 224.711
  20
 730.724
  30
0.0
  11
 224.709
  21
 730.736
  31
0.0
   0
LINE
   8
LEVEL001
   6
CONTINUOUS
  62
7
  10
 224.709
  20
 730.736
  30
0.0
  11
 224.707
  21
 730.748
  31
0.0
   0
LINE
   8
LEVEL001
   6
CONTINUOUS
  62
7
  10
 224.707
  20
 730.748
  30
0.0
  11
 224.705
  21
 730.759
  31
0.0
   0
LINE
   8
LEVEL001
   6
CONTINUOUS
  62
7
  10
 224.705
  20
 730.759
  30
0.0
  11
 224.703
  21
 730.771
  31
0.0
   0
LINE
   8
LEVEL001
   6
CONTINUOUS
  62
7
  10
 224.703
  20
 730.771
  30
0.0
  11
 224.701
  21
 730.783
  31
0.0
   0
LINE
   8
LEVEL001
   6
CONTINUOUS
  62
7
  10
 224.701
  20
 730.783
  30
0.0
  11
 224.699
  21
 730.795
  31
0.0
   0
LINE
   8
LEVEL001
   6
CONTINUOUS
  62
7
  10
 224.699
  20
 730.795
  30
0.0
  11
 224.697
  21
 730.807
  31
0.0
   0
LINE
   8
LEVEL001
   6
CONTINUOUS
  62
7
  10
 224.697
  20
 730.807
  30
0.0
  11
 224.694
  21
 730.819
  31
0.0
   0
LINE
   8
LEVEL001
   6
CONTINUOUS
  62
7
  10
 224.694
  20
 730.819
  30
0.0
  11
 224.692
  21
 730.830
  31
0.0
   0
LINE
   8
LEVEL001
   6
CONTINUOUS
  62
7
  10
 224.692
  20
 730.830
  30
0.0
  11
 224.690
  21
 730.842
  31
0.0
   0
LINE
   8
LEVEL001
   6
CONTINUOUS
  62
7
  10
 224.690
  20
 730.842
  30
0.0
  11
 224.687
  21
 730.854
  31
0.0
   0
LINE
   8
LEVEL001
   6
CONTINUOUS
  62
7
  10
 224.687
  20
 730.854
  30
0.0
  11
 224.685
  21
 730.865
  31
0.0
   0
LINE
   8
LEVEL001
   6
CONTINUOUS
  62
7
  10
 224.685
  20
 730.865
  30
0.0
  11
 224.683
  21
 730.877
  31
0.0
   0
LINE
   8
LEVEL001
   6
CONTINUOUS
  62
7
  10
 224.688
  20
 730.875
  30
0.0
  11
 224.676
  21
 730.925
  31
0.0
   0
LINE
   8
LEVEL001
   6
CONTINUOUS
  62
7
  10
 224.676
  20
 730.925
  30
0.0
  11
 224.664
  21
 730.977
  31
0.0
   0
LINE
   8
LEVEL001
   6
CONTINUOUS
  62
7
  10
 224.664
  20
 730.977
  30
0.0
  11
 224.652
  21
 731.030
  31
0.0
   0
LINE
   8
LEVEL001
   6
CONTINUOUS
  62
7
  10
 224.652
  20
 731.030
  30
0.0
  11
 224.639
  21
 731.084
  31
0.0
   0
LINE
   8
LEVEL001
   6
CONTINUOUS
  62
7
  10
 224.639
  20
 731.084
  30
0.0
  11
 224.626
  21
 731.139
  31
0.0
   0
LINE
   8
LEVEL001
   6
CONTINUOUS
  62
7
  10
 224.626
  20
 731.139
  30
0.0
  11
 224.613
  21
 731.194
  31
0.0
   0
LINE
   8
LEVEL001
   6
CONTINUOUS
  62
7
  10
 224.613
  20
 731.194
  30
0.0
  11
 224.599
  21
 731.250
  31
0.0
   0
LINE
   8
LEVEL001
   6
CONTINUOUS
  62
7
  10
 224.599
  20
 731.250
  30
0.0
  11
 224.584
  21
 731.307
  31
0.0
   0
LINE
   8
LEVEL001
   6
CONTINUOUS
  62
7
  10
 224.584
  20
 731.307
  30
0.0
  11
 224.569
  21
 731.365
  31
0.0
   0
LINE
   8
LEVEL001
   6
CONTINUOUS
  62
7
  10
 224.569
  20
 731.365
  30
0.0
  11
 224.554
  21
 731.423
  31
0.0
   0
LINE
   8
LEVEL001
   6
CONTINUOUS
  62
7
  10
 224.554
  20
 731.423
  30
0.0
  11
 224.539
  21
 731.481
  31
0.0
   0
LINE
   8
LEVEL001
   6
CONTINUOUS
  62
7
  10
 224.539
  20
 731.481
  30
0.0
  11
 224.523
  21
 731.541
  31
0.0
   0
LINE
   8
LEVEL001
   6
CONTINUOUS
  62
7
  10
 224.523
  20
 731.541
  30
0.0
  11
 224.507
  21
 731.600
  31
0.0
   0
LINE
   8
LEVEL001
   6
CONTINUOUS
  62
7
  10
 224.507
  20
 731.600
  30
0.0
  11
 224.491
  21
 731.660
  31
0.0
   0
LINE
   8
LEVEL001
   6
CONTINUOUS
  62
7
  10
 224.491
  20
 731.660
  30
0.0
  11
 224.474
  21
 731.720
  31
0.0
   0
LINE
   8
LEVEL001
   6
CONTINUOUS
  62
7
  10
 224.474
  20
 731.720
  30
0.0
  11
 224.457
  21
 731.781
  31
0.0
   0
LINE
   8
LEVEL001
   6
CONTINUOUS
  62
7
  10
 224.457
  20
 731.781
  30
0.0
  11
 224.440
  21
 731.841
  31
0.0
   0
LINE
   8
LEVEL001
   6
CONTINUOUS
  62
7
  10
 224.440
  20
 731.841
  30
0.0
  11
 224.423
  21
 731.902
  31
0.0
   0
LINE
   8
LEVEL001
   6
CONTINUOUS
  62
7
  10
 224.423
  20
 731.902
  30
0.0
  11
 224.405
  21
 731.963
  31
0.0
   0
LINE
   8
LEVEL001
   6
CONTINUOUS
  62
7
  10
 224.405
  20
 731.963
  30
0.0
  11
 224.387
  21
 732.024
  31
0.0
   0
LINE
   8
LEVEL001
   6
CONTINUOUS
  62
7
  10
 224.387
  20
 732.024
  30
0.0
  11
 224.369
  21
 732.085
  31
0.0
   0
LINE
   8
LEVEL001
   6
CONTINUOUS
  62
7
  10
 224.369
  20
 732.085
  30
0.0
  11
 224.351
  21
 732.146
  31
0.0
   0
LINE
   8
LEVEL001
   6
CONTINUOUS
  62
7
  10
 224.351
  20
 732.146
  30
0.0
  11
 224.333
  21
 732.207
  31
0.0
   0
LINE
   8
LEVEL001
   6
CONTINUOUS
  62
7
  10
 224.333
  20
 732.207
  30
0.0
  11
 224.315
  21
 732.267
  31
0.0
   0
LINE
   8
LEVEL001
   6
CONTINUOUS
  62
7
  10
 224.315
  20
 732.267
  30
0.0
  11
 224.296
  21
 732.327
  31
0.0
   0
LINE
   8
LEVEL001
   6
CONTINUOUS
  62
7
  10
 224.296
  20
 732.327
  30
0.0
  11
 224.277
  21
 732.387
  31
0.0
   0
LINE
   8
LEVEL001
   6
CONTINUOUS
  62
7
  10
 224.277
  20
 732.387
  30
0.0
  11
 224.259
  21
 732.447
  31
0.0
   0
LINE
   8
LEVEL001
   6
CONTINUOUS
  62
7
  10
 224.259
  20
 732.447
  30
0.0
  11
 224.240
  21
 732.506
  31
0.0
   0
LINE
   8
LEVEL001
   6
CONTINUOUS
  62
7
  10
 224.240
  20
 732.506
  30
0.0
  11
 224.221
  21
 732.565
  31
0.0
   0
LINE
   8
LEVEL001
   6
CONTINUOUS
  62
7
  10
 224.221
  20
 732.565
  30
0.0
  11
 224.202
  21
 732.623
  31
0.0
   0
LINE
   8
LEVEL001
   6
CONTINUOUS
  62
7
  10
 224.202
  20
 732.623
  30
0.0
  11
 224.183
  21
 732.680
  31
0.0
   0
LINE
   8
LEVEL001
   6
CONTINUOUS
  62
7
  10
 224.183
  20
 732.680
  30
0.0
  11
 224.164
  21
 732.737
  31
0.0
   0
LINE
   8
LEVEL001
   6
CONTINUOUS
  62
7
  10
 224.164
  20
 732.737
  30
0.0
  11
 224.145
  21
 732.794
  31
0.0
   0
LINE
   8
LEVEL001
   6
CONTINUOUS
  62
7
  10
 224.145
  20
 732.794
  30
0.0
  11
 224.127
  21
 732.849
  31
0.0
   0
LINE
   8
LEVEL001
   6
CONTINUOUS
  62
7
  10
 224.127
  20
 732.849
  30
0.0
  11
 224.108
  21
 732.904
  31
0.0
   0
LINE
   8
LEVEL001
   6
CONTINUOUS
  62
7
  10
 224.108
  20
 732.904
  30
0.0
  11
 224.089
  21
 732.958
  31
0.0
   0
LINE
   8
LEVEL001
   6
CONTINUOUS
  62
7
  10
 224.089
  20
 732.958
  30
0.0
  11
 224.071
  21
 733.011
  31
0.0
   0
LINE
   8
LEVEL001
   6
CONTINUOUS
  62
7
  10
 224.071
  20
 733.011
  30
0.0
  11
 224.052
  21
 733.063
  31
0.0
   0
LINE
   8
LEVEL001
   6
CONTINUOUS
  62
7
  10
 224.052
  20
 733.063
  30
0.0
  11
 224.034
  21
 733.114
  31
0.0
   0
LINE
   8
LEVEL001
   6
CONTINUOUS
  62
7
  10
 224.034
  20
 733.114
  30
0.0
  11
 224.016
  21
 733.164
  31
0.0
   0
LINE
   8
LEVEL001
   6
CONTINUOUS
  62
7
  10
 224.016
  20
 733.164
  30
0.0
  11
 223.997
  21
 733.213
  31
0.0
   0
LINE
   8
LEVEL001
   6
CONTINUOUS
  62
7
  10
 223.997
  20
 733.213
  30
0.0
  11
 223.980
  21
 733.261
  31
0.0
   0
LINE
   8
LEVEL001
   6
CONTINUOUS
  62
7
  10
 223.980
  20
 733.261
  30
0.0
  11
 223.962
  21
 733.307
  31
0.0
   0
LINE
   8
LEVEL001
   6
CONTINUOUS
  62
7
  10
 223.962
  20
 733.307
  30
0.0
  11
 223.944
  21
 733.353
  31
0.0
   0
LINE
   8
LEVEL001
   6
CONTINUOUS
  62
7
  10
 223.944
  20
 733.353
  30
0.0
  11
 223.927
  21
 733.397
  31
0.0
   0
LINE
   8
LEVEL001
   6
CONTINUOUS
  62
7
  10
 223.927
  20
 733.397
  30
0.0
  11
 223.910
  21
 733.440
  31
0.0
   0
LINE
   8
LEVEL001
   6
CONTINUOUS
  62
7
  10
 223.910
  20
 733.440
  30
0.0
  11
 223.893
  21
 733.481
  31
0.0
   0
LINE
   8
LEVEL001
   6
CONTINUOUS
  62
7
  10
 223.893
  20
 733.481
  30
0.0
  11
 223.877
  21
 733.521
  31
0.0
   0
LINE
   8
LEVEL001
   6
CONTINUOUS
  62
7
  10
 223.877
  20
 733.521
  30
0.0
  11
 223.861
  21
 733.560
  31
0.0
   0
LINE
   8
LEVEL001
   6
CONTINUOUS
  62
7
  10
 223.861
  20
 733.560
  30
0.0
  11
 223.845
  21
 733.597
  31
0.0
   0
LINE
   8
LEVEL001
   6
CONTINUOUS
  62
7
  10
 223.845
  20
 733.597
  30
0.0
  11
 223.829
  21
 733.633
  31
0.0
   0
LINE
   8
LEVEL001
   6
CONTINUOUS
  62
7
  10
 223.829
  20
 733.633
  30
0.0
  11
 223.814
  21
 733.668
  31
0.0
   0
LINE
   8
LEVEL001
   6
CONTINUOUS
  62
7
  10
 223.814
  20
 733.668
  30
0.0
  11
 223.799
  21
 733.700
  31
0.0
   0
LINE
   8
LEVEL001
   6
CONTINUOUS
  62
7
  10
 223.799
  20
 733.700
  30
0.0
  11
 223.785
  21
 733.731
  31
0.0
   0
LINE
   8
LEVEL001
   6
CONTINUOUS
  62
7
  10
 223.785
  20
 733.731
  30
0.0
  11
 223.771
  21
 733.761
  31
0.0
   0
LINE
   8
LEVEL001
   6
CONTINUOUS
  62
7
  10
 223.771
  20
 733.761
  30
0.0
  11
 223.757
  21
 733.789
  31
0.0
   0
LINE
   8
LEVEL001
   6
CONTINUOUS
  62
7
  10
 223.757
  20
 733.789
  30
0.0
  11
 223.744
  21
 733.815
  31
0.0
   0
LINE
   8
LEVEL001
   6
CONTINUOUS
  62
7
  10
 223.744
  20
 733.815
  30
0.0
  11
 223.731
  21
 733.839
  31
0.0
   0
LINE
   8
LEVEL001
   6
CONTINUOUS
  62
7
  10
 223.731
  20
 733.839
  30
0.0
  11
 223.718
  21
 733.862
  31
0.0
   0
LINE
   8
LEVEL001
   6
CONTINUOUS
  62
7
  10
 223.718
  20
 733.862
  30
0.0
  11
 223.706
  21
 733.883
  31
0.0
   0
LINE
   8
LEVEL001
   6
CONTINUOUS
  62
7
  10
 223.706
  20
 733.883
  30
0.0
  11
 223.695
  21
 733.903
  31
0.0
   0
LINE
   8
LEVEL001
   6
CONTINUOUS
  62
7
  10
 223.695
  20
 733.903
  30
0.0
  11
 223.683
  21
 733.920
  31
0.0
   0
LINE
   8
LEVEL001
   6
CONTINUOUS
  62
7
  10
 223.683
  20
 733.920
  30
0.0
  11
 223.673
  21
 733.936
  31
0.0
   0
LINE
   8
LEVEL001
   6
CONTINUOUS
  62
7
  10
 223.673
  20
 733.936
  30
0.0
  11
 223.663
  21
 733.950
  31
0.0
   0
LINE
   8
LEVEL001
   6
CONTINUOUS
  62
7
  10
 223.663
  20
 733.950
  30
0.0
  11
 223.653
  21
 733.962
  31
0.0
   0
LINE
   8
LEVEL001
   6
CONTINUOUS
  62
7
  10
 223.653
  20
 733.962
  30
0.0
  11
 223.644
  21
 733.972
  31
0.0
   0
LINE
   8
LEVEL001
   6
CONTINUOUS
  62
7
  10
 223.644
  20
 733.972
  30
0.0
  11
 223.635
  21
 733.981
  31
0.0
   0
LINE
   8
LEVEL001
   6
CONTINUOUS
  62
7
  10
 223.635
  20
 733.981
  30
0.0
  11
 223.627
  21
 733.988
  31
0.0
   0
LINE
   8
LEVEL001
   6
CONTINUOUS
  62
7
  10
 223.627
  20
 733.988
  30
0.0
  11
 223.619
  21
 733.992
  31
0.0
   0
LINE
   8
LEVEL001
   6
CONTINUOUS
  62
7
  10
 223.619
  20
 733.992
  30
0.0
  11
 223.612
  21
 733.995
  31
0.0
   0
LINE
   8
LEVEL001
   6
CONTINUOUS
  62
7
  10
 223.612
  20
 733.995
  30
0.0
  11
 223.605
  21
 733.996
  31
0.0
   0
LINE
   8
LEVEL001
   6
CONTINUOUS
  62
7
  10
 223.605
  20
 733.996
  30
0.0
  11
 223.599
  21
 733.996
  31
0.0
   0
LINE
   8
LEVEL001
   6
CONTINUOUS
  62
7
  10
 223.602
  20
 734.000
  30
0.0
  11
 223.591
  21
 733.996
  31
0.0
   0
LINE
   8
LEVEL001
   6
CONTINUOUS
  62
7
  10
 223.591
  20
 733.996
  30
0.0
  11
 223.581
  21
 733.985
  31
0.0
   0
LINE
   8
LEVEL001
   6
CONTINUOUS
  62
7
  10
 223.581
  20
 733.985
  30
0.0
  11
 223.570
  21
 733.966
  31
0.0
   0
LINE
   8
LEVEL001
   6
CONTINUOUS
  62
7
  10
 223.570
  20
 733.966
  30
0.0
  11
 223.559
  21
 733.939
  31
0.0
   0
LINE
   8
LEVEL001
   6
CONTINUOUS
  62
7
  10
 223.559
  20
 733.939
  30
0.0
  11
 223.549
  21
 733.905
  31
0.0
   0
LINE
   8
LEVEL001
   6
CONTINUOUS
  62
7
  10
 223.549
  20
 733.905
  30
0.0
  11
 223.538
  21
 733.863
  31
0.0
   0
LINE
   8
LEVEL001
   6
CONTINUOUS
  62
7
  10
 223.538
  20
 733.863
  30
0.0
  11
 223.528
  21
 733.814
  31
0.0
   0
LINE
   8
LEVEL001
   6
CONTINUOUS
  62
7
  10
 223.528
  20
 733.814
  30
0.0
  11
 223.518
  21
 733.758
  31
0.0
   0
LINE
   8
LEVEL001
   6
CONTINUOUS
  62
7
  10
 223.518
  20
 733.758
  30
0.0
  11
 223.508
  21
 733.694
  31
0.0
   0
LINE
   8
LEVEL001
   6
CONTINUOUS
  62
7
  10
 223.508
  20
 733.694
  30
0.0
  11
 223.498
  21
 733.623
  31
0.0
   0
LINE
   8
LEVEL001
   6
CONTINUOUS
  62
7
  10
 223.498
  20
 733.623
  30
0.0
  11
 223.489
  21
 733.546
  31
0.0
   0
LINE
   8
LEVEL001
   6
CONTINUOUS
  62
7
  10
 223.489
  20
 733.546
  30
0.0
  11
 223.479
  21
 733.462
  31
0.0
   0
LINE
   8
LEVEL001
   6
CONTINUOUS
  62
7
  10
 223.479
  20
 733.462
  30
0.0
  11
 223.470
  21
 733.371
  31
0.0
   0
LINE
   8
LEVEL001
   6
CONTINUOUS
  62
7
  10
 223.470
  20
 733.371
  30
0.0
  11
 223.461
  21
 733.273
  31
0.0
   0
LINE
   8
LEVEL001
   6
CONTINUOUS
  62
7
  10
 223.461
  20
 733.273
  30
0.0
  11
 223.453
  21
 733.169
  31
0.0
   0
LINE
   8
LEVEL001
   6
CONTINUOUS
  62
7
  10
 223.453
  20
 733.169
  30
0.0
  11
 223.444
  21
 733.060
  31
0.0
   0
LINE
   8
LEVEL001
   6
CONTINUOUS
  62
7
  10
 223.444
  20
 733.060
  30
0.0
  11
 223.436
  21
 732.944
  31
0.0
   0
LINE
   8
LEVEL001
   6
CONTINUOUS
  62
7
  10
 223.436
  20
 732.944
  30
0.0
  11
 223.428
  21
 732.823
  31
0.0
   0
LINE
   8
LEVEL001
   6
CONTINUOUS
  62
7
  10
 223.428
  20
 732.823
  30
0.0
  11
 223.421
  21
 732.696
  31
0.0
   0
LINE
   8
LEVEL001
   6
CONTINUOUS
  62
7
  10
 223.421
  20
 732.696
  30
0.0
  11
 223.414
  21
 732.565
  31
0.0
   0
LINE
   8
LEVEL001
   6
CONTINUOUS
  62
7
  10
 223.414
  20
 732.565
  30
0.0
  11
 223.407
  21
 732.428
  31
0.0
   0
LINE
   8
LEVEL001
   6
CONTINUOUS
  62
7
  10
 223.407
  20
 732.428
  30
0.0
  11
 223.401
  21
 732.287
  31
0.0
   0
LINE
   8
LEVEL001
   6
CONTINUOUS
  62
7
  10
 223.401
  20
 732.287
  30
0.0
  11
 223.395
  21
 732.141
  31
0.0
   0
LINE
   8
LEVEL001
   6
CONTINUOUS
  62
7
  10
 223.395
  20
 732.141
  30
0.0
  11
 223.389
  21
 731.991
  31
0.0
   0
LINE
   8
LEVEL001
   6
CONTINUOUS
  62
7
  10
 223.389
  20
 731.991
  30
0.0
  11
 223.384
  21
 731.837
  31
0.0
   0
LINE
   8
LEVEL001
   6
CONTINUOUS
  62
7
  10
 223.384
  20
 731.837
  30
0.0
  11
 223.380
  21
 731.680
  31
0.0
   0
LINE
   8
LEVEL001
   6
CONTINUOUS
  62
7
  10
 223.380
  20
 731.680
  30
0.0
  11
 223.375
  21
 731.520
  31
0.0
   0
LINE
   8
LEVEL001
   6
CONTINUOUS
  62
7
  10
 223.375
  20
 731.520
  30
0.0
  11
 223.372
  21
 731.357
  31
0.0
   0
LINE
   8
LEVEL001
   6
CONTINUOUS
  62
7
  10
 223.372
  20
 731.357
  30
0.0
  11
 223.368
  21
 731.191
  31
0.0
   0
LINE
   8
LEVEL001
   6
CONTINUOUS
  62
7
  10
 223.368
  20
 731.191
  30
0.0
  11
 223.365
  21
 731.023
  31
0.0
   0
LINE
   8
LEVEL001
   6
CONTINUOUS
  62
7
  10
 223.365
  20
 731.023
  30
0.0
  11
 223.363
  21
 730.853
  31
0.0
   0
LINE
   8
LEVEL001
   6
CONTINUOUS
  62
7
  10
 223.363
  20
 730.853
  30
0.0
  11
 223.361
  21
 730.681
  31
0.0
   0
LINE
   8
LEVEL001
   6
CONTINUOUS
  62
7
  10
 223.361
  20
 730.681
  30
0.0
  11
 223.359
  21
 730.508
  31
0.0
   0
LINE
   8
LEVEL001
   6
CONTINUOUS
  62
7
  10
 223.359
  20
 730.508
  30
0.0
  11
 223.358
  21
 730.334
  31
0.0
   0
LINE
   8
LEVEL001
   6
CONTINUOUS
  62
7
  10
 223.358
  20
 730.334
  30
0.0
  11
 223.357
  21
 730.159
  31
0.0
   0
LINE
   8
LEVEL001
   6
CONTINUOUS
  62
7
  10
 223.357
  20
 730.159
  30
0.0
  11
 223.357
  21
 729.985
  31
0.0
   0
LINE
   8
LEVEL001
   6
CONTINUOUS
  62
7
  10
 223.357
  20
 729.985
  30
0.0
  11
 223.357
  21
 729.810
  31
0.0
   0
LINE
   8
LEVEL001
   6
CONTINUOUS
  62
7
  10
 223.357
  20
 729.810
  30
0.0
  11
 223.358
  21
 729.635
  31
0.0
   0
LINE
   8
LEVEL001
   6
CONTINUOUS
  62
7
  10
 223.358
  20
 729.635
  30
0.0
  11
 223.359
  21
 729.461
  31
0.0
   0
LINE
   8
LEVEL001
   6
CONTINUOUS
  62
7
  10
 223.359
  20
 729.461
  30
0.0
  11
 223.361
  21
 729.288
  31
0.0
   0
LINE
   8
LEVEL001
   6
CONTINUOUS
  62
7
  10
 223.361
  20
 729.288
  30
0.0
  11
 223.363
  21
 729.117
  31
0.0
   0
LINE
   8
LEVEL001
   6
CONTINUOUS
  62
7
  10
 223.363
  20
 729.117
  30
0.0
  11
 223.366
  21
 728.947
  31
0.0
   0
LINE
   8
LEVEL001
   6
CONTINUOUS
  62
7
  10
 223.366
  20
 728.947
  30
0.0
  11
 223.369
  21
 728.780
  31
0.0
   0
LINE
   8
LEVEL001
   6
CONTINUOUS
  62
7
  10
 223.369
  20
 728.780
  30
0.0
  11
 223.372
  21
 728.614
  31
0.0
   0
LINE
   8
LEVEL001
   6
CONTINUOUS
  62
7
  10
 223.372
  20
 728.614
  30
0.0
  11
 223.376
  21
 728.451
  31
0.0
   0
LINE
   8
LEVEL001
   6
CONTINUOUS
  62
7
  10
 223.376
  20
 728.451
  30
0.0
  11
 223.380
  21
 728.292
  31
0.0
   0
LINE
   8
LEVEL001
   6
CONTINUOUS
  62
7
  10
 223.380
  20
 728.292
  30
0.0
  11
 223.385
  21
 728.135
  31
0.0
   0
LINE
   8
LEVEL001
   6
CONTINUOUS
  62
7
  10
 223.385
  20
 728.135
  30
0.0
  11
 223.390
  21
 727.982
  31
0.0
   0
LINE
   8
LEVEL001
   6
CONTINUOUS
  62
7
  10
 223.390
  20
 727.982
  30
0.0
  11
 223.396
  21
 727.833
  31
0.0
   0
LINE
   8
LEVEL001
   6
CONTINUOUS
  62
7
  10
 223.396
  20
 727.833
  30
0.0
  11
 223.402
  21
 727.688
  31
0.0
   0
LINE
   8
LEVEL001
   6
CONTINUOUS
  62
7
  10
 223.402
  20
 727.688
  30
0.0
  11
 223.408
  21
 727.548
  31
0.0
   0
LINE
   8
LEVEL001
   6
CONTINUOUS
  62
7
  10
 223.408
  20
 727.548
  30
0.0
  11
 223.415
  21
 727.412
  31
0.0
   0
LINE
   8
LEVEL001
   6
CONTINUOUS
  62
7
  10
 223.415
  20
 727.412
  30
0.0
  11
 223.422
  21
 727.281
  31
0.0
   0
LINE
   8
LEVEL001
   6
CONTINUOUS
  62
7
  10
 223.422
  20
 727.281
  30
0.0
  11
 223.430
  21
 727.155
  31
0.0
   0
LINE
   8
LEVEL001
   6
CONTINUOUS
  62
7
  10
 223.430
  20
 727.155
  30
0.0
  11
 223.438
  21
 727.035
  31
0.0
   0
LINE
   8
LEVEL001
   6
CONTINUOUS
  62
7
  10
 223.438
  20
 727.035
  30
0.0
  11
 223.446
  21
 726.920
  31
0.0
   0
LINE
   8
LEVEL001
   6
CONTINUOUS
  62
7
  10
 223.446
  20
 726.920
  30
0.0
  11
 223.454
  21
 726.812
  31
0.0
   0
LINE
   8
LEVEL001
   6
CONTINUOUS
  62
7
  10
 223.454
  20
 726.812
  30
0.0
  11
 223.463
  21
 726.709
  31
0.0
   0
LINE
   8
LEVEL001
   6
CONTINUOUS
  62
7
  10
 223.463
  20
 726.709
  30
0.0
  11
 223.472
  21
 726.613
  31
0.0
   0
LINE
   8
LEVEL001
   6
CONTINUOUS
  62
7
  10
 223.472
  20
 726.613
  30
0.0
  11
 223.481
  21
 726.523
  31
0.0
   0
LINE
   8
LEVEL001
   6
CONTINUOUS
  62
7
  10
 223.481
  20
 726.523
  30
0.0
  11
 223.490
  21
 726.440
  31
0.0
   0
LINE
   8
LEVEL001
   6
CONTINUOUS
  62
7
  10
 223.490
  20
 726.440
  30
0.0
  11
 223.500
  21
 726.364
  31
0.0
   0
LINE
   8
LEVEL001
   6
CONTINUOUS
  62
7
  10
 223.500
  20
 726.364
  30
0.0
  11
 223.510
  21
 726.294
  31
0.0
   0
LINE
   8
LEVEL001
   6
CONTINUOUS
  62
7
  10
 223.510
  20
 726.294
  30
0.0
  11
 223.520
  21
 726.232
  31
0.0
   0
LINE
   8
LEVEL001
   6
CONTINUOUS
  62
7
  10
 223.520
  20
 726.232
  30
0.0
  11
 223.530
  21
 726.177
  31
0.0
   0
LINE
   8
LEVEL001
   6
CONTINUOUS
  62
7
  10
 223.530
  20
 726.177
  30
0.0
  11
 223.540
  21
 726.129
  31
0.0
   0
LINE
   8
LEVEL001
   6
CONTINUOUS
  62
7
  10
 223.540
  20
 726.129
  30
0.0
  11
 223.551
  21
 726.089
  31
0.0
   0
LINE
   8
LEVEL001
   6
CONTINUOUS
  62
7
  10
 223.551
  20
 726.089
  30
0.0
  11
 223.561
  21
 726.056
  31
0.0
   0
LINE
   8
LEVEL001
   6
CONTINUOUS
  62
7
  10
 223.561
  20
 726.056
  30
0.0
  11
 223.572
  21
 726.030
  31
0.0
   0
LINE
   8
LEVEL001
   6
CONTINUOUS
  62
7
  10
 223.572
  20
 726.030
  30
0.0
  11
 223.582
  21
 726.013
  31
0.0
   0
LINE
   8
LEVEL001
   6
CONTINUOUS
  62
7
  10
 223.582
  20
 726.013
  30
0.0
  11
 223.593
  21
 726.003
  31
0.0
   0
LINE
   8
LEVEL001
   6
CONTINUOUS
  62
7
  10
 223.593
  20
 726.003
  30
0.0
  11
 223.604
  21
 726.000
  31
0.0
   0
ARC
   8
LEVEL001
   6
CONTINUOUS
  62
7
  10
 195.000
  20
 730.000
  30
0.0
  40
 17.0000
  50
 13.6090
  51
 346.391
   0
LINE
   8
LEVEL001
   6
CONTINUOUS
  62
7
  10
 251.285
  20
 721.000
  30
0.0
  11
 258.500
  21
 721.000
  31
0.0
   0
LINE
   8
LEVEL001
   6
CONTINUOUS
  62
7
  10
 249.500
  20
 653.000
  30
0.0
  11
 249.500
  21
 713.304
  31
0.0
   0
LINE
   8
LEVEL001
   6
CONTINUOUS
  62
7
  10
 249.250
  20
 712.513
  30
0.0
  11
 249.250
  21
 654.000
  31
0.0
   0
LINE
   8
LEVEL001
   6
DASHDOT
  62
7
  10
 260.500
  20
 655.520
  30
0.0
  11
 260.500
  21
 664.480
  31
0.0
   0
LINE
   8
LEVEL001
   6
CONTINUOUS
  62
7
  10
 158.609
  20
 766.391
  30
0.0
  11
 157.713
  21
 763.045
  31
0.0
   0
LINE
   8
LEVEL001
   6
CONTINUOUS
  62
7
  10
 157.713
  20
 763.045
  30
0.0
  11
 160.162
  21
 760.595
  31
0.0
   0
LINE
   8
LEVEL001
   6
CONTINUOUS
  62
7
  10
 160.162
  20
 760.595
  30
0.0
  11
 163.508
  21
 761.492
  31
0.0
   0
LINE
   8
LEVEL001
   6
CONTINUOUS
  62
7
  10
 163.508
  20
 761.492
  30
0.0
  11
 164.405
  21
 764.838
  31
0.0
   0
LINE
   8
LEVEL001
   6
CONTINUOUS
  62
7
  10
 164.405
  20
 764.838
  30
0.0
  11
 161.955
  21
 767.287
  31
0.0
   0
LINE
   8
LEVEL001
   6
CONTINUOUS
  62
7
  10
 161.955
  20
 767.287
  30
0.0
  11
 158.609
  21
 766.391
  31
0.0
   0
LINE
   8
LEVEL001
   6
CONTINUOUS
  62
7
  10
 163.508
  20
 698.508
  30
0.0
  11
 164.405
  21
 695.162
  31
0.0
   0
LINE
   8
LEVEL001
   6
CONTINUOUS
  62
7
  10
 164.405
  20
 695.162
  30
0.0
  11
 161.955
  21
 692.713
  31
0.0
   0
LINE
   8
LEVEL001
   6
CONTINUOUS
  62
7
  10
 161.955
  20
 692.713
  30
0.0
  11
 158.609
  21
 693.609
  31
0.0
   0
LINE
   8
LEVEL001
   6
CONTINUOUS
  62
7
  10
 158.609
  20
 693.609
  30
0.0
  11
 157.713
  21
 696.955
  31
0.0
   0
LINE
   8
LEVEL001
   6
CONTINUOUS
  62
7
  10
 157.713
  20
 696.955
  30
0.0
  11
 160.162
  21
 699.405
  31
0.0
   0
LINE
   8
LEVEL001
   6
CONTINUOUS
  62
7
  10
 160.162
  20
 699.405
  30
0.0
  11
 163.508
  21
 698.508
  31
0.0
   0
LINE
   8
LEVEL001
   6
CONTINUOUS
  62
7
  10
 231.391
  20
 766.391
  30
0.0
  11
 232.287
  21
 763.045
  31
0.0
   0
LINE
   8
LEVEL001
   6
CONTINUOUS
  62
7
  10
 232.287
  20
 763.045
  30
0.0
  11
 229.838
  21
 760.595
  31
0.0
   0
LINE
   8
LEVEL001
   6
CONTINUOUS
  62
7
  10
 229.838
  20
 760.595
  30
0.0
  11
 226.492
  21
 761.492
  31
0.0
   0
LINE
   8
LEVEL001
   6
CONTINUOUS
  62
7
  10
 226.492
  20
 761.492
  30
0.0
  11
 225.595
  21
 764.838
  31
0.0
   0
LINE
   8
LEVEL001
   6
CONTINUOUS
  62
7
  10
 225.595
  20
 764.838
  30
0.0
  11
 228.045
  21
 767.287
  31
0.0
   0
LINE
   8
LEVEL001
   6
CONTINUOUS
  62
7
  10
 228.045
  20
 767.287
  30
0.0
  11
 231.391
  21
 766.391
  31
0.0
   0
LINE
   8
LEVEL001
   6
CONTINUOUS
  62
7
  10
 231.391
  20
 693.609
  30
0.0
  11
 232.287
  21
 696.955
  31
0.0
   0
LINE
   8
LEVEL001
   6
CONTINUOUS
  62
7
  10
 232.287
  20
 696.955
  30
0.0
  11
 229.838
  21
 699.405
  31
0.0
   0
LINE
   8
LEVEL001
   6
CONTINUOUS
  62
7
  10
 229.838
  20
 699.405
  30
0.0
  11
 226.492
  21
 698.508
  31
0.0
   0
LINE
   8
LEVEL001
   6
CONTINUOUS
  62
7
  10
 226.492
  20
 698.508
  30
0.0
  11
 225.595
  21
 695.162
  31
0.0
   0
LINE
   8
LEVEL001
   6
CONTINUOUS
  62
7
  10
 225.595
  20
 695.162
  30
0.0
  11
 228.045
  21
 692.713
  31
0.0
   0
LINE
   8
LEVEL001
   6
CONTINUOUS
  62
7
  10
 228.045
  20
 692.713
  30
0.0
  11
 231.391
  21
 693.609
  31
0.0
   0
LINE
   8
LEVEL001
   6
CONTINUOUS
  62
7
  10
 98.5000
  20
 695.000
  30
0.0
  11
 98.5000
  21
 689.500
  31
0.0
   0
LINE
   8
LEVEL001
   6
CONTINUOUS
  62
7
  10
 98.5000
  20
 684.500
  30
0.0
  11
 98.5000
  21
 679.000
  31
0.0
   0
LINE
   8
LEVEL001
   6
CONTINUOUS
  62
7
  10
 291.500
  20
 695.000
  30
0.0
  11
 291.500
  21
 689.500
  31
0.0
   0
LINE
   8
LEVEL001
   6
CONTINUOUS
  62
7
  10
 291.500
  20
 684.500
  30
0.0
  11
 291.500
  21
 679.000
  31
0.0
   0
LINE
   8
LEVEL001
   6
CONTINUOUS
  62
7
  10
 240.877
  20
 752.065
  30
0.0
  11
 237.815
  21
 744.673
  31
0.0
   0
LINE
   8
LEVEL001
   6
CONTINUOUS
  62
7
  10
 235.650
  20
 749.900
  30
0.0
  11
 243.042
  21
 746.838
  31
0.0
   0
CIRCLE
   8
LEVEL001
   6
CONTINUOUS
  62
7
  10
 150.654
  20
 711.631
  30
0.0
  40
 4.00000
   0
LINE
   8
LEVEL001
   6
CONTINUOUS
  62
7
  10
 149.123
  20
 707.935
  30
0.0
  11
 152.185
  21
 715.327
  31
0.0
   0
LINE
   8
LEVEL001
   6
CONTINUOUS
  62
7
  10
 154.350
  20
 710.100
  30
0.0
  11
 146.958
  21
 713.162
  31
0.0
   0
LINE
   8
LEVEL001
   6
CONTINUOUS
  62
7
  10
 214.773
  20
 649.505
  30
0.0
  11
 214.773
  21
 652.212
  31
0.0
   0
LINE
   8
LEVEL001
   6
CONTINUOUS
  62
7
  10
 214.000
  20
 649.058
  30
0.0
  11
 214.773
  21
 649.505
  31
0.0
   0
LINE
   8
LEVEL001
   6
CONTINUOUS
  62
7
  10
 204.000
  20
 649.058
  30
0.0
  11
 214.000
  21
 649.058
  31
0.0
   0
LINE
   8
LEVEL001
   6
CONTINUOUS
  62
7
  10
 203.227
  20
 649.505
  30
0.0
  11
 204.000
  21
 649.058
  31
0.0
   0
LINE
   8
LEVEL001
   6
CONTINUOUS
  62
7
  10
 203.227
  20
 652.212
  30
0.0
  11
 203.227
  21
 649.505
  31
0.0
   0
LINE
   8
LEVEL001
   6
CONTINUOUS
  62
7
  10
 204.000
  20
 652.658
  30
0.0
  11
 203.227
  21
 652.212
  31
0.0
   0
LINE
   8
LEVEL001
   6
CONTINUOUS
  62
7
  10
 214.000
  20
 652.658
  30
0.0
  11
 204.000
  21
 652.658
  31
0.0
   0
LINE
   8
LEVEL001
   6
CONTINUOUS
  62
7
  10
 214.773
  20
 652.212
  30
0.0
  11
 214.000
  21
 652.658
  31
0.0
   0
LINE
   8
LEVEL001
   6
CONTINUOUS
  62
7
  10
 213.883
  20
 652.658
  30
0.0
  11
 213.283
  21
 653.258
  31
0.0
   0
ARC
   8
LEVEL001
   6
CONTINUOUS
  62
7
  10
 213.910
  20
 647.859
  30
0.0
  40
 4.80000
  50
 88.9304
  51
 114.935
   0
ARC
   8
LEVEL001
   6
CONTINUOUS
  62
7
  10
 204.090
  20
 647.859
  30
0.0
  40
 4.80000
  50
 65.0648
  51
 91.0696
   0
ARC
   8
LEVEL001
   6
CONTINUOUS
  62
7
  10
 209.000
  20
 643.105
  30
0.0
  40
 9.55316
  50
 72.4116
  51
 107.588
   0
LINE
   8
LEVEL001
   6
CONTINUOUS
  62
7
  10
 211.887
  20
 652.212
  30
0.0
  11
 211.887
  21
 649.505
  31
0.0
   0
LINE
   8
LEVEL001
   6
CONTINUOUS
  62
7
  10
 206.113
  20
 652.212
  30
0.0
  11
 206.113
  21
 649.505
  31
0.0
   0
LINE
   8
LEVEL001
   6
CONTINUOUS
  62
7
  10
 213.883
  20
 652.658
  30
0.0
  11
 213.861
  21
 653.348
  31
0.0
   0
ARC
   8
LEVEL001
   6
CONTINUOUS
  62
7
  10
 209.000
  20
 644.202
  30
0.0
  40
 5.62228
  50
 308.501
  51
 332.788
   0
ARC
   8
LEVEL001
   6
CONTINUOUS
  62
7
  10
 209.000
  20
 644.202
  30
0.0
  40
 5.62228
  50
 207.212
  51
 231.499
   0
LINE
   8
LEVEL001
   6
CONTINUOUS
  62
7
  10
 214.000
  20
 649.058
  30
0.0
  11
 214.000
  21
 641.631
  31
0.0
   0
LINE
   8
LEVEL001
   6
CONTINUOUS
  62
7
  10
 204.000
  20
 641.631
  30
0.0
  11
 204.000
  21
 649.058
  31
0.0
   0
ARC
   8
LEVEL001
   6
CONTINUOUS
  62
7
  10
 209.000
  20
 658.612
  30
0.0
  40
 9.55313
  50
 252.412
  51
 287.588
   0
ARC
   8
LEVEL001
   6
CONTINUOUS
  62
7
  10
 213.910
  20
 653.858
  30
0.0
  40
 4.80000
  50
 245.065
  51
 271.070
   0
ARC
   8
LEVEL001
   6
CONTINUOUS
  62
7
  10
 204.090
  20
 653.858
  30
0.0
  40
 4.80000
  50
 268.930
  51
 294.935
   0
LINE
   8
LEVEL001
   6
CONTINUOUS
  62
7
  10
 209.000
  20
 646.251
  30
0.0
  11
 209.000
  21
 645.333
  31
0.0
   0
LINE
   8
LEVEL001
   6
CONTINUOUS
  62
7
  10
 205.501
  20
 644.384
  30
0.0
  11
 205.501
  21
 643.465
  31
0.0
   0
LINE
   8
LEVEL001
   6
CONTINUOUS
  62
7
  10
 212.499
  20
 644.384
  30
0.0
  11
 212.499
  21
 643.465
  31
0.0
   0
LINE
   8
LEVEL001
   6
CONTINUOUS
  62
7
  10
 209.000
  20
 646.251
  30
0.0
  11
 205.501
  21
 644.384
  31
0.0
   0
LINE
   8
LEVEL001
   6
CONTINUOUS
  62
7
  10
 209.000
  20
 646.251
  30
0.0
  11
 212.499
  21
 644.384
  31
0.0
   0
LINE
   8
LEVEL001
   6
CONTINUOUS
  62
7
  10
 205.501
  20
 639.732
  30
0.0
  11
 205.849
  21
 639.546
  31
0.0
   0
LINE
   8
LEVEL001
   6
CONTINUOUS
  62
7
  10
 212.137
  20
 639.538
  30
0.0
  11
 212.499
  21
 639.732
  31
0.0
   0
LINE
   8
LEVEL001
   6
CONTINUOUS
  62
7
  10
 212.499
  20
 639.732
  30
0.0
  11
 212.499
  21
 643.465
  31
0.0
   0
LINE
   8
LEVEL001
   6
CONTINUOUS
  62
7
  10
 205.501
  20
 643.465
  30
0.0
  11
 205.501
  21
 639.732
  31
0.0
   0
LINE
   8
LEVEL001
   6
CONTINUOUS
  62
7
  10
 209.000
  20
 645.333
  30
0.0
  11
 205.501
  21
 643.465
  31
0.0
   0
LINE
   8
LEVEL001
   6
CONTINUOUS
  62
7
  10
 209.000
  20
 645.333
  30
0.0
  11
 212.499
  21
 643.465
  31
0.0
   0
LINE
   8
LEVEL001
   6
CONTINUOUS
  62
7
  10
 212.277
  20
 640.462
  30
0.0
  11
 212.338
  21
 640.626
  31
0.0
   0
LINE
   8
LEVEL001
   6
CONTINUOUS
  62
7
  10
 212.338
  20
 640.626
  30
0.0
  11
 212.389
  21
 640.792
  31
0.0
   0
LINE
   8
LEVEL001
   6
CONTINUOUS
  62
7
  10
 212.389
  20
 640.792
  30
0.0
  11
 212.431
  21
 640.961
  31
0.0
   0
LINE
   8
LEVEL001
   6
CONTINUOUS
  62
7
  10
 212.431
  20
 640.961
  30
0.0
  11
 212.463
  21
 641.132
  31
0.0
   0
LINE
   8
LEVEL001
   6
CONTINUOUS
  62
7
  10
 212.463
  20
 641.132
  30
0.0
  11
 212.485
  21
 641.304
  31
0.0
   0
LINE
   8
LEVEL001
   6
CONTINUOUS
  62
7
  10
 212.485
  20
 641.304
  30
0.0
  11
 212.498
  21
 641.477
  31
0.0
   0
LINE
   8
LEVEL001
   6
CONTINUOUS
  62
7
  10
 212.498
  20
 641.477
  30
0.0
  11
 212.500
  21
 641.651
  31
0.0
   0
LINE
   8
LEVEL001
   6
CONTINUOUS
  62
7
  10
 212.500
  20
 641.651
  30
0.0
  11
 212.491
  21
 641.824
  31
0.0
   0
LINE
   8
LEVEL001
   6
CONTINUOUS
  62
7
  10
 212.491
  20
 641.824
  30
0.0
  11
 212.473
  21
 641.996
  31
0.0
   0
LINE
   8
LEVEL001
   6
CONTINUOUS
  62
7
  10
 212.473
  20
 641.996
  30
0.0
  11
 212.445
  21
 642.168
  31
0.0
   0
LINE
   8
LEVEL001
   6
CONTINUOUS
  62
7
  10
 212.445
  20
 642.168
  30
0.0
  11
 212.407
  21
 642.338
  31
0.0
   0
LINE
   8
LEVEL001
   6
CONTINUOUS
  62
7
  10
 212.407
  20
 642.338
  30
0.0
  11
 212.360
  21
 642.505
  31
0.0
   0
LINE
   8
LEVEL001
   6
CONTINUOUS
  62
7
  10
 212.360
  20
 642.505
  30
0.0
  11
 212.302
  21
 642.670
  31
0.0
   0
LINE
   8
LEVEL001
   6
CONTINUOUS
  62
7
  10
 212.302
  20
 642.670
  30
0.0
  11
 212.235
  21
 642.832
  31
0.0
   0
LINE
   8
LEVEL001
   6
CONTINUOUS
  62
7
  10
 212.235
  20
 642.832
  30
0.0
  11
 212.159
  21
 642.991
  31
0.0
   0
LINE
   8
LEVEL001
   6
CONTINUOUS
  62
7
  10
 212.159
  20
 642.991
  30
0.0
  11
 212.074
  21
 643.145
  31
0.0
   0
LINE
   8
LEVEL001
   6
CONTINUOUS
  62
7
  10
 212.074
  20
 643.145
  30
0.0
  11
 211.980
  21
 643.295
  31
0.0
   0
LINE
   8
LEVEL001
   6
CONTINUOUS
  62
7
  10
 211.980
  20
 643.295
  30
0.0
  11
 211.877
  21
 643.440
  31
0.0
   0
LINE
   8
LEVEL001
   6
CONTINUOUS
  62
7
  10
 211.877
  20
 643.440
  30
0.0
  11
 211.766
  21
 643.580
  31
0.0
   0
LINE
   8
LEVEL001
   6
CONTINUOUS
  62
7
  10
 211.766
  20
 643.580
  30
0.0
  11
 211.647
  21
 643.714
  31
0.0
   0
LINE
   8
LEVEL001
   6
CONTINUOUS
  62
7
  10
 211.647
  20
 643.714
  30
0.0
  11
 211.520
  21
 643.842
  31
0.0
   0
LINE
   8
LEVEL001
   6
CONTINUOUS
  62
7
  10
 211.520
  20
 643.842
  30
0.0
  11
 211.387
  21
 643.964
  31
0.0
   0
LINE
   8
LEVEL001
   6
CONTINUOUS
  62
7
  10
 211.387
  20
 643.964
  30
0.0
  11
 211.246
  21
 644.079
  31
0.0
   0
LINE
   8
LEVEL001
   6
CONTINUOUS
  62
7
  10
 211.246
  20
 644.079
  30
0.0
  11
 211.099
  21
 644.186
  31
0.0
   0
LINE
   8
LEVEL001
   6
CONTINUOUS
  62
7
  10
 211.099
  20
 644.186
  30
0.0
  11
 210.946
  21
 644.287
  31
0.0
   0
LINE
   8
LEVEL001
   6
CONTINUOUS
  62
7
  10
 210.946
  20
 644.287
  30
0.0
  11
 210.787
  21
 644.379
  31
0.0
   0
LINE
   8
LEVEL001
   6
CONTINUOUS
  62
7
  10
 210.787
  20
 644.379
  30
0.0
  11
 210.623
  21
 644.464
  31
0.0
   0
LINE
   8
LEVEL001
   6
CONTINUOUS
  62
7
  10
 210.623
  20
 644.464
  30
0.0
  11
 210.455
  21
 644.540
  31
0.0
   0
LINE
   8
LEVEL001
   6
CONTINUOUS
  62
7
  10
 210.455
  20
 644.540
  30
0.0
  11
 210.282
  21
 644.608
  31
0.0
   0
LINE
   8
LEVEL001
   6
CONTINUOUS
  62
7
  10
 210.282
  20
 644.608
  30
0.0
  11
 210.105
  21
 644.667
  31
0.0
   0
LINE
   8
LEVEL001
   6
CONTINUOUS
  62
7
  10
 210.105
  20
 644.667
  30
0.0
  11
 209.926
  21
 644.717
  31
0.0
   0
LINE
   8
LEVEL001
   6
CONTINUOUS
  62
7
  10
 209.926
  20
 644.717
  30
0.0
  11
 209.744
  21
 644.758
  31
0.0
   0
LINE
   8
LEVEL001
   6
CONTINUOUS
  62
7
  10
 209.744
  20
 644.758
  30
0.0
  11
 209.559
  21
 644.791
  31
0.0
   0
LINE
   8
LEVEL001
   6
CONTINUOUS
  62
7
  10
 209.559
  20
 644.791
  30
0.0
  11
 209.373
  21
 644.814
  31
0.0
   0
LINE
   8
LEVEL001
   6
CONTINUOUS
  62
7
  10
 209.373
  20
 644.814
  30
0.0
  11
 209.186
  21
 644.828
  31
0.0
   0
LINE
   8
LEVEL001
   6
CONTINUOUS
  62
7
  10
 209.186
  20
 644.828
  30
0.0
  11
 208.999
  21
 644.832
  31
0.0
   0
LINE
   8
LEVEL001
   6
CONTINUOUS
  62
7
  10
 208.999
  20
 644.832
  30
0.0
  11
 208.811
  21
 644.828
  31
0.0
   0
LINE
   8
LEVEL001
   6
CONTINUOUS
  62
7
  10
 208.811
  20
 644.828
  30
0.0
  11
 208.624
  21
 644.814
  31
0.0
   0
LINE
   8
LEVEL001
   6
CONTINUOUS
  62
7
  10
 208.624
  20
 644.814
  30
0.0
  11
 208.438
  21
 644.790
  31
0.0
   0
LINE
   8
LEVEL001
   6
CONTINUOUS
  62
7
  10
 208.438
  20
 644.790
  30
0.0
  11
 208.254
  21
 644.758
  31
0.0
   0
LINE
   8
LEVEL001
   6
CONTINUOUS
  62
7
  10
 208.254
  20
 644.758
  30
0.0
  11
 208.071
  21
 644.716
  31
0.0
   0
LINE
   8
LEVEL001
   6
CONTINUOUS
  62
7
  10
 208.071
  20
 644.716
  30
0.0
  11
 207.892
  21
 644.666
  31
0.0
   0
LINE
   8
LEVEL001
   6
CONTINUOUS
  62
7
  10
 207.892
  20
 644.666
  30
0.0
  11
 207.715
  21
 644.607
  31
0.0
   0
LINE
   8
LEVEL001
   6
CONTINUOUS
  62
7
  10
 207.715
  20
 644.607
  30
0.0
  11
 207.543
  21
 644.539
  31
0.0
   0
LINE
   8
LEVEL001
   6
CONTINUOUS
  62
7
  10
 207.543
  20
 644.539
  30
0.0
  11
 207.374
  21
 644.462
  31
0.0
   0
LINE
   8
LEVEL001
   6
CONTINUOUS
  62
7
  10
 207.374
  20
 644.462
  30
0.0
  11
 207.211
  21
 644.378
  31
0.0
   0
LINE
   8
LEVEL001
   6
CONTINUOUS
  62
7
  10
 207.211
  20
 644.378
  30
0.0
  11
 207.052
  21
 644.285
  31
0.0
   0
LINE
   8
LEVEL001
   6
CONTINUOUS
  62
7
  10
 207.052
  20
 644.285
  30
0.0
  11
 206.899
  21
 644.185
  31
0.0
   0
LINE
   8
LEVEL001
   6
CONTINUOUS
  62
7
  10
 206.899
  20
 644.185
  30
0.0
  11
 206.752
  21
 644.077
  31
0.0
   0
LINE
   8
LEVEL001
   6
CONTINUOUS
  62
7
  10
 206.752
  20
 644.077
  30
0.0
  11
 206.611
  21
 643.962
  31
0.0
   0
LINE
   8
LEVEL001
   6
CONTINUOUS
  62
7
  10
 206.611
  20
 643.962
  30
0.0
  11
 206.478
  21
 643.840
  31
0.0
   0
LINE
   8
LEVEL001
   6
CONTINUOUS
  62
7
  10
 206.478
  20
 643.840
  30
0.0
  11
 206.351
  21
 643.712
  31
0.0
   0
LINE
   8
LEVEL001
   6
CONTINUOUS
  62
7
  10
 206.351
  20
 643.712
  30
0.0
  11
 206.232
  21
 643.578
  31
0.0
   0
LINE
   8
LEVEL001
   6
CONTINUOUS
  62
7
  10
 206.232
  20
 643.578
  30
0.0
  11
 206.121
  21
 643.438
  31
0.0
   0
LINE
   8
LEVEL001
   6
CONTINUOUS
  62
7
  10
 206.121
  20
 643.438
  30
0.0
  11
 206.019
  21
 643.293
  31
0.0
   0
LINE
   8
LEVEL001
   6
CONTINUOUS
  62
7
  10
 206.019
  20
 643.293
  30
0.0
  11
 205.925
  21
 643.143
  31
0.0
   0
LINE
   8
LEVEL001
   6
CONTINUOUS
  62
7
  10
 205.925
  20
 643.143
  30
0.0
  11
 205.840
  21
 642.988
  31
0.0
   0
LINE
   8
LEVEL001
   6
CONTINUOUS
  62
7
  10
 205.840
  20
 642.988
  30
0.0
  11
 205.764
  21
 642.830
  31
0.0
   0
LINE
   8
LEVEL001
   6
CONTINUOUS
  62
7
  10
 205.764
  20
 642.830
  30
0.0
  11
 205.697
  21
 642.668
  31
0.0
   0
LINE
   8
LEVEL001
   6
CONTINUOUS
  62
7
  10
 205.697
  20
 642.668
  30
0.0
  11
 205.640
  21
 642.503
  31
0.0
   0
LINE
   8
LEVEL001
   6
CONTINUOUS
  62
7
  10
 205.640
  20
 642.503
  30
0.0
  11
 205.592
  21
 642.335
  31
0.0
   0
LINE
   8
LEVEL001
   6
CONTINUOUS
  62
7
  10
 205.592
  20
 642.335
  30
0.0
  11
 205.554
  21
 642.165
  31
0.0
   0
LINE
   8
LEVEL001
   6
CONTINUOUS
  62
7
  10
 205.554
  20
 642.165
  30
0.0
  11
 205.526
  21
 641.994
  31
0.0
   0
LINE
   8
LEVEL001
   6
CONTINUOUS
  62
7
  10
 205.526
  20
 641.994
  30
0.0
  11
 205.508
  21
 641.821
  31
0.0
   0
LINE
   8
LEVEL001
   6
CONTINUOUS
  62
7
  10
 205.508
  20
 641.821
  30
0.0
  11
 205.500
  21
 641.648
  31
0.0
   0
LINE
   8
LEVEL001
   6
CONTINUOUS
  62
7
  10
 205.500
  20
 641.648
  30
0.0
  11
 205.503
  21
 641.475
  31
0.0
   0
LINE
   8
LEVEL001
   6
CONTINUOUS
  62
7
  10
 205.503
  20
 641.475
  30
0.0
  11
 205.515
  21
 641.302
  31
0.0
   0
LINE
   8
LEVEL001
   6
CONTINUOUS
  62
7
  10
 205.515
  20
 641.302
  30
0.0
  11
 205.537
  21
 641.129
  31
0.0
   0
LINE
   8
LEVEL001
   6
CONTINUOUS
  62
7
  10
 205.537
  20
 641.129
  30
0.0
  11
 205.569
  21
 640.959
  31
0.0
   0
LINE
   8
LEVEL001
   6
CONTINUOUS
  62
7
  10
 205.569
  20
 640.959
  30
0.0
  11
 205.611
  21
 640.790
  31
0.0
   0
LINE
   8
LEVEL001
   6
CONTINUOUS
  62
7
  10
 205.611
  20
 640.790
  30
0.0
  11
 205.663
  21
 640.623
  31
0.0
   0
LINE
   8
LEVEL001
   6
CONTINUOUS
  62
7
  10
 205.663
  20
 640.623
  30
0.0
  11
 205.725
  21
 640.459
  31
0.0
   0
LINE
   8
LEVEL001
   6
CONTINUOUS
  62
7
  10
 210.527
  20
 637.748
  30
0.0
  11
 210.736
  21
 637.858
  31
0.0
   0
LINE
   8
LEVEL001
   6
CONTINUOUS
  62
7
  10
 210.736
  20
 637.858
  30
0.0
  11
 210.936
  21
 637.982
  31
0.0
   0
LINE
   8
LEVEL001
   6
CONTINUOUS
  62
7
  10
 210.936
  20
 637.982
  30
0.0
  11
 211.126
  21
 638.119
  31
0.0
   0
LINE
   8
LEVEL001
   6
CONTINUOUS
  62
7
  10
 211.126
  20
 638.119
  30
0.0
  11
 211.305
  21
 638.269
  31
0.0
   0
LINE
   8
LEVEL001
   6
CONTINUOUS
  62
7
  10
 211.305
  20
 638.269
  30
0.0
  11
 211.471
  21
 638.430
  31
0.0
   0
LINE
   8
LEVEL001
   6
CONTINUOUS
  62
7
  10
 211.471
  20
 638.430
  30
0.0
  11
 211.624
  21
 638.602
  31
0.0
   0
LINE
   8
LEVEL001
   6
CONTINUOUS
  62
7
  10
 211.624
  20
 638.602
  30
0.0
  11
 211.763
  21
 638.784
  31
0.0
   0
LINE
   8
LEVEL001
   6
CONTINUOUS
  62
7
  10
 211.763
  20
 638.784
  30
0.0
  11
 211.887
  21
 638.974
  31
0.0
   0
LINE
   8
LEVEL001
   6
CONTINUOUS
  62
7
  10
 211.887
  20
 638.974
  30
0.0
  11
 211.996
  21
 639.173
  31
0.0
   0
LINE
   8
LEVEL001
   6
CONTINUOUS
  62
7
  10
 211.996
  20
 639.173
  30
0.0
  11
 212.089
  21
 639.378
  31
0.0
   0
LINE
   8
LEVEL001
   6
CONTINUOUS
  62
7
  10
 212.089
  20
 639.378
  30
0.0
  11
 212.166
  21
 639.590
  31
0.0
   0
LINE
   8
LEVEL001
   6
CONTINUOUS
  62
7
  10
 212.166
  20
 639.590
  30
0.0
  11
 212.225
  21
 639.805
  31
0.0
   0
LINE
   8
LEVEL001
   6
CONTINUOUS
  62
7
  10
 212.225
  20
 639.805
  30
0.0
  11
 212.268
  21
 640.025
  31
0.0
   0
LINE
   8
LEVEL001
   6
CONTINUOUS
  62
7
  10
 212.268
  20
 640.025
  30
0.0
  11
 212.293
  21
 640.246
  31
0.0
   0
LINE
   8
LEVEL001
   6
CONTINUOUS
  62
7
  10
 212.293
  20
 640.246
  30
0.0
  11
 212.300
  21
 640.469
  31
0.0
   0
LINE
   8
LEVEL001
   6
CONTINUOUS
  62
7
  10
 212.300
  20
 640.469
  30
0.0
  11
 212.290
  21
 640.691
  31
0.0
   0
LINE
   8
LEVEL001
   6
CONTINUOUS
  62
7
  10
 212.290
  20
 640.691
  30
0.0
  11
 212.262
  21
 640.912
  31
0.0
   0
LINE
   8
LEVEL001
   6
CONTINUOUS
  62
7
  10
 212.262
  20
 640.912
  30
0.0
  11
 212.217
  21
 641.131
  31
0.0
   0
LINE
   8
LEVEL001
   6
CONTINUOUS
  62
7
  10
 212.217
  20
 641.131
  30
0.0
  11
 212.154
  21
 641.346
  31
0.0
   0
LINE
   8
LEVEL001
   6
CONTINUOUS
  62
7
  10
 212.154
  20
 641.346
  30
0.0
  11
 212.075
  21
 641.556
  31
0.0
   0
LINE
   8
LEVEL001
   6
CONTINUOUS
  62
7
  10
 212.075
  20
 641.556
  30
0.0
  11
 211.980
  21
 641.761
  31
0.0
   0
LINE
   8
LEVEL001
   6
CONTINUOUS
  62
7
  10
 211.980
  20
 641.761
  30
0.0
  11
 211.868
  21
 641.958
  31
0.0
   0
LINE
   8
LEVEL001
   6
CONTINUOUS
  62
7
  10
 211.868
  20
 641.958
  30
0.0
  11
 211.742
  21
 642.148
  31
0.0
   0
LINE
   8
LEVEL001
   6
CONTINUOUS
  62
7
  10
 211.742
  20
 642.148
  30
0.0
  11
 211.600
  21
 642.328
  31
0.0
   0
LINE
   8
LEVEL001
   6
CONTINUOUS
  62
7
  10
 211.600
  20
 642.328
  30
0.0
  11
 211.445
  21
 642.498
  31
0.0
   0
LINE
   8
LEVEL001
   6
CONTINUOUS
  62
7
  10
 211.445
  20
 642.498
  30
0.0
  11
 211.277
  21
 642.658
  31
0.0
   0
LINE
   8
LEVEL001
   6
CONTINUOUS
  62
7
  10
 211.277
  20
 642.658
  30
0.0
  11
 211.096
  21
 642.805
  31
0.0
   0
LINE
   8
LEVEL001
   6
CONTINUOUS
  62
7
  10
 211.096
  20
 642.805
  30
0.0
  11
 210.905
  21
 642.940
  31
0.0
   0
LINE
   8
LEVEL001
   6
CONTINUOUS
  62
7
  10
 210.905
  20
 642.940
  30
0.0
  11
 210.703
  21
 643.062
  31
0.0
   0
LINE
   8
LEVEL001
   6
CONTINUOUS
  62
7
  10
 210.703
  20
 643.062
  30
0.0
  11
 210.492
  21
 643.170
  31
0.0
   0
LINE
   8
LEVEL001
   6
CONTINUOUS
  62
7
  10
 210.492
  20
 643.170
  30
0.0
  11
 210.273
  21
 643.263
  31
0.0
   0
LINE
   8
LEVEL001
   6
CONTINUOUS
  62
7
  10
 210.273
  20
 643.263
  30
0.0
  11
 210.047
  21
 643.342
  31
0.0
   0
LINE
   8
LEVEL001
   6
CONTINUOUS
  62
7
  10
 210.047
  20
 643.342
  30
0.0
  11
 209.816
  21
 643.405
  31
0.0
   0
LINE
   8
LEVEL001
   6
CONTINUOUS
  62
7
  10
 209.816
  20
 643.405
  30
0.0
  11
 209.581
  21
 643.452
  31
0.0
   0
LINE
   8
LEVEL001
   6
CONTINUOUS
  62
7
  10
 209.581
  20
 643.452
  30
0.0
  11
 209.342
  21
 643.483
  31
0.0
   0
LINE
   8
LEVEL001
   6
CONTINUOUS
  62
7
  10
 209.342
  20
 643.483
  30
0.0
  11
 209.102
  21
 643.498
  31
0.0
   0
LINE
   8
LEVEL001
   6
CONTINUOUS
  62
7
  10
 209.102
  20
 643.498
  30
0.0
  11
 208.861
  21
 643.497
  31
0.0
   0
LINE
   8
LEVEL001
   6
CONTINUOUS
  62
7
  10
 208.861
  20
 643.497
  30
0.0
  11
 208.620
  21
 643.479
  31
0.0
   0
LINE
   8
LEVEL001
   6
CONTINUOUS
  62
7
  10
 208.620
  20
 643.479
  30
0.0
  11
 208.382
  21
 643.446
  31
0.0
   0
LINE
   8
LEVEL001
   6
CONTINUOUS
  62
7
  10
 208.382
  20
 643.446
  30
0.0
  11
 208.147
  21
 643.396
  31
0.0
   0
LINE
   8
LEVEL001
   6
CONTINUOUS
  62
7
  10
 208.147
  20
 643.396
  30
0.0
  11
 207.917
  21
 643.331
  31
0.0
   0
LINE
   8
LEVEL001
   6
CONTINUOUS
  62
7
  10
 207.917
  20
 643.331
  30
0.0
  11
 207.692
  21
 643.250
  31
0.0
   0
LINE
   8
LEVEL001
   6
CONTINUOUS
  62
7
  10
 207.692
  20
 643.250
  30
0.0
  11
 207.474
  21
 643.154
  31
0.0
   0
LINE
   8
LEVEL001
   6
CONTINUOUS
  62
7
  10
 207.474
  20
 643.154
  30
0.0
  11
 207.265
  21
 643.044
  31
0.0
   0
LINE
   8
LEVEL001
   6
CONTINUOUS
  62
7
  10
 207.265
  20
 643.044
  30
0.0
  11
 207.065
  21
 642.920
  31
0.0
   0
LINE
   8
LEVEL001
   6
CONTINUOUS
  62
7
  10
 207.065
  20
 642.920
  30
0.0
  11
 206.875
  21
 642.783
  31
0.0
   0
LINE
   8
LEVEL001
   6
CONTINUOUS
  62
7
  10
 206.875
  20
 642.783
  30
0.0
  11
 206.696
  21
 642.634
  31
0.0
   0
LINE
   8
LEVEL001
   6
CONTINUOUS
  62
7
  10
 206.696
  20
 642.634
  30
0.0
  11
 206.530
  21
 642.472
  31
0.0
   0
LINE
   8
LEVEL001
   6
CONTINUOUS
  62
7
  10
 206.530
  20
 642.472
  30
0.0
  11
 206.377
  21
 642.300
  31
0.0
   0
LINE
   8
LEVEL001
   6
CONTINUOUS
  62
7
  10
 206.377
  20
 642.300
  30
0.0
  11
 206.238
  21
 642.119
  31
0.0
   0
LINE
   8
LEVEL001
   6
CONTINUOUS
  62
7
  10
 206.238
  20
 642.119
  30
0.0
  11
 206.113
  21
 641.928
  31
0.0
   0
LINE
   8
LEVEL001
   6
CONTINUOUS
  62
7
  10
 206.113
  20
 641.928
  30
0.0
  11
 206.004
  21
 641.729
  31
0.0
   0
LINE
   8
LEVEL001
   6
CONTINUOUS
  62
7
  10
 206.004
  20
 641.729
  30
0.0
  11
 205.911
  21
 641.524
  31
0.0
   0
LINE
   8
LEVEL001
   6
CONTINUOUS
  62
7
  10
 205.911
  20
 641.524
  30
0.0
  11
 205.835
  21
 641.313
  31
0.0
   0
LINE
   8
LEVEL001
   6
CONTINUOUS
  62
7
  10
 205.835
  20
 641.313
  30
0.0
  11
 205.775
  21
 641.097
  31
0.0
   0
LINE
   8
LEVEL001
   6
CONTINUOUS
  62
7
  10
 205.775
  20
 641.097
  30
0.0
  11
 205.733
  21
 640.878
  31
0.0
   0
LINE
   8
LEVEL001
   6
CONTINUOUS
  62
7
  10
 205.733
  20
 640.878
  30
0.0
  11
 205.708
  21
 640.656
  31
0.0
   0
LINE
   8
LEVEL001
   6
CONTINUOUS
  62
7
  10
 205.708
  20
 640.656
  30
0.0
  11
 205.700
  21
 640.434
  31
0.0
   0
LINE
   8
LEVEL001
   6
CONTINUOUS
  62
7
  10
 205.700
  20
 640.434
  30
0.0
  11
 205.710
  21
 640.211
  31
0.0
   0
LINE
   8
LEVEL001
   6
CONTINUOUS
  62
7
  10
 205.710
  20
 640.211
  30
0.0
  11
 205.738
  21
 639.990
  31
0.0
   0
LINE
   8
LEVEL001
   6
CONTINUOUS
  62
7
  10
 205.738
  20
 639.990
  30
0.0
  11
 205.783
  21
 639.771
  31
0.0
   0
LINE
   8
LEVEL001
   6
CONTINUOUS
  62
7
  10
 205.783
  20
 639.771
  30
0.0
  11
 205.845
  21
 639.556
  31
0.0
   0
LINE
   8
LEVEL001
   6
CONTINUOUS
  62
7
  10
 205.845
  20
 639.556
  30
0.0
  11
 205.924
  21
 639.346
  31
0.0
   0
LINE
   8
LEVEL001
   6
CONTINUOUS
  62
7
  10
 205.924
  20
 639.346
  30
0.0
  11
 206.020
  21
 639.141
  31
0.0
   0
LINE
   8
LEVEL001
   6
CONTINUOUS
  62
7
  10
 206.020
  20
 639.141
  30
0.0
  11
 206.131
  21
 638.944
  31
0.0
   0
LINE
   8
LEVEL001
   6
CONTINUOUS
  62
7
  10
 206.131
  20
 638.944
  30
0.0
  11
 206.258
  21
 638.754
  31
0.0
   0
LINE
   8
LEVEL001
   6
CONTINUOUS
  62
7
  10
 206.258
  20
 638.754
  30
0.0
  11
 206.399
  21
 638.574
  31
0.0
   0
LINE
   8
LEVEL001
   6
CONTINUOUS
  62
7
  10
 206.399
  20
 638.574
  30
0.0
  11
 206.554
  21
 638.404
  31
0.0
   0
LINE
   8
LEVEL001
   6
CONTINUOUS
  62
7
  10
 206.554
  20
 638.404
  30
0.0
  11
 206.723
  21
 638.244
  31
0.0
   0
LINE
   8
LEVEL001
   6
CONTINUOUS
  62
7
  10
 206.723
  20
 638.244
  30
0.0
  11
 206.903
  21
 638.097
  31
0.0
   0
LINE
   8
LEVEL001
   6
CONTINUOUS
  62
7
  10
 206.903
  20
 638.097
  30
0.0
  11
 207.095
  21
 637.961
  31
0.0
   0
LINE
   8
LEVEL001
   6
CONTINUOUS
  62
7
  10
 207.095
  20
 637.961
  30
0.0
  11
 207.296
  21
 637.840
  31
0.0
   0
LINE
   8
LEVEL001
   6
CONTINUOUS
  62
7
  10
 211.400
  20
 639.418
  30
0.0
  11
 211.391
  21
 639.611
  31
0.0
   0
LINE
   8
LEVEL001
   6
CONTINUOUS
  62
7
  10
 211.391
  20
 639.611
  30
0.0
  11
 211.364
  21
 639.803
  31
0.0
   0
LINE
   8
LEVEL001
   6
CONTINUOUS
  62
7
  10
 211.364
  20
 639.803
  30
0.0
  11
 211.318
  21
 639.992
  31
0.0
   0
LINE
   8
LEVEL001
   6
CONTINUOUS
  62
7
  10
 211.318
  20
 639.992
  30
0.0
  11
 211.255
  21
 640.176
  31
0.0
   0
LINE
   8
LEVEL001
   6
CONTINUOUS
  62
7
  10
 211.255
  20
 640.176
  30
0.0
  11
 211.175
  21
 640.355
  31
0.0
   0
LINE
   8
LEVEL001
   6
CONTINUOUS
  62
7
  10
 211.175
  20
 640.355
  30
0.0
  11
 211.078
  21
 640.526
  31
0.0
   0
LINE
   8
LEVEL001
   6
CONTINUOUS
  62
7
  10
 211.078
  20
 640.526
  30
0.0
  11
 210.966
  21
 640.689
  31
0.0
   0
LINE
   8
LEVEL001
   6
CONTINUOUS
  62
7
  10
 210.966
  20
 640.689
  30
0.0
  11
 210.839
  21
 640.843
  31
0.0
   0
LINE
   8
LEVEL001
   6
CONTINUOUS
  62
7
  10
 210.839
  20
 640.843
  30
0.0
  11
 210.697
  21
 640.986
  31
0.0
   0
LINE
   8
LEVEL001
   6
CONTINUOUS
  62
7
  10
 210.697
  20
 640.986
  30
0.0
  11
 210.543
  21
 641.116
  31
0.0
   0
LINE
   8
LEVEL001
   6
CONTINUOUS
  62
7
  10
 210.543
  20
 641.116
  30
0.0
  11
 210.377
  21
 641.234
  31
0.0
   0
LINE
   8
LEVEL001
   6
CONTINUOUS
  62
7
  10
 210.377
  20
 641.234
  30
0.0
  11
 210.200
  21
 641.338
  31
0.0
   0
LINE
   8
LEVEL001
   6
CONTINUOUS
  62
7
  10
 210.200
  20
 641.338
  30
0.0
  11
 210.014
  21
 641.427
  31
0.0
   0
LINE
   8
LEVEL001
   6
CONTINUOUS
  62
7
  10
 210.014
  20
 641.427
  30
0.0
  11
 209.821
  21
 641.501
  31
0.0
   0
LINE
   8
LEVEL001
   6
CONTINUOUS
  62
7
  10
 209.821
  20
 641.501
  30
0.0
  11
 209.621
  21
 641.559
  31
0.0
   0
LINE
   8
LEVEL001
   6
CONTINUOUS
  62
7
  10
 209.621
  20
 641.559
  30
0.0
  11
 209.417
  21
 641.601
  31
0.0
   0
LINE
   8
LEVEL001
   6
CONTINUOUS
  62
7
  10
 209.417
  20
 641.601
  30
0.0
  11
 209.209
  21
 641.627
  31
0.0
   0
LINE
   8
LEVEL001
   6
CONTINUOUS
  62
7
  10
 209.209
  20
 641.627
  30
0.0
  11
 209.000
  21
 641.635
  31
0.0
   0
LINE
   8
LEVEL001
   6
CONTINUOUS
  62
7
  10
 209.000
  20
 641.635
  30
0.0
  11
 208.791
  21
 641.627
  31
0.0
   0
LINE
   8
LEVEL001
   6
CONTINUOUS
  62
7
  10
 208.791
  20
 641.627
  30
0.0
  11
 208.583
  21
 641.601
  31
0.0
   0
LINE
   8
LEVEL001
   6
CONTINUOUS
  62
7
  10
 208.583
  20
 641.601
  30
0.0
  11
 208.379
  21
 641.559
  31
0.0
   0
LINE
   8
LEVEL001
   6
CONTINUOUS
  62
7
  10
 208.379
  20
 641.559
  30
0.0
  11
 208.179
  21
 641.501
  31
0.0
   0
LINE
   8
LEVEL001
   6
CONTINUOUS
  62
7
  10
 208.179
  20
 641.501
  30
0.0
  11
 207.986
  21
 641.427
  31
0.0
   0
LINE
   8
LEVEL001
   6
CONTINUOUS
  62
7
  10
 207.986
  20
 641.427
  30
0.0
  11
 207.800
  21
 641.338
  31
0.0
   0
LINE
   8
LEVEL001
   6
CONTINUOUS
  62
7
  10
 207.800
  20
 641.338
  30
0.0
  11
 207.623
  21
 641.234
  31
0.0
   0
LINE
   8
LEVEL001
   6
CONTINUOUS
  62
7
  10
 207.623
  20
 641.234
  30
0.0
  11
 207.457
  21
 641.116
  31
0.0
   0
LINE
   8
LEVEL001
   6
CONTINUOUS
  62
7
  10
 207.457
  20
 641.116
  30
0.0
  11
 207.303
  21
 640.986
  31
0.0
   0
LINE
   8
LEVEL001
   6
CONTINUOUS
  62
7
  10
 207.303
  20
 640.986
  30
0.0
  11
 207.161
  21
 640.843
  31
0.0
   0
LINE
   8
LEVEL001
   6
CONTINUOUS
  62
7
  10
 207.161
  20
 640.843
  30
0.0
  11
 207.034
  21
 640.689
  31
0.0
   0
LINE
   8
LEVEL001
   6
CONTINUOUS
  62
7
  10
 207.034
  20
 640.689
  30
0.0
  11
 206.922
  21
 640.526
  31
0.0
   0
LINE
   8
LEVEL001
   6
CONTINUOUS
  62
7
  10
 206.922
  20
 640.526
  30
0.0
  11
 206.825
  21
 640.355
  31
0.0
   0
LINE
   8
LEVEL001
   6
CONTINUOUS
  62
7
  10
 206.825
  20
 640.355
  30
0.0
  11
 206.745
  21
 640.176
  31
0.0
   0
LINE
   8
LEVEL001
   6
CONTINUOUS
  62
7
  10
 206.745
  20
 640.176
  30
0.0
  11
 206.682
  21
 639.992
  31
0.0
   0
LINE
   8
LEVEL001
   6
CONTINUOUS
  62
7
  10
 206.682
  20
 639.992
  30
0.0
  11
 206.636
  21
 639.803
  31
0.0
   0
LINE
   8
LEVEL001
   6
CONTINUOUS
  62
7
  10
 206.636
  20
 639.803
  30
0.0
  11
 206.609
  21
 639.611
  31
0.0
   0
LINE
   8
LEVEL001
   6
CONTINUOUS
  62
7
  10
 206.609
  20
 639.611
  30
0.0
  11
 206.600
  21
 639.418
  31
0.0
   0
LINE
   8
LEVEL001
   6
CONTINUOUS
  62
7
  10
 206.600
  20
 639.418
  30
0.0
  11
 206.609
  21
 639.224
  31
0.0
   0
LINE
   8
LEVEL001
   6
CONTINUOUS
  62
7
  10
 206.609
  20
 639.224
  30
0.0
  11
 206.636
  21
 639.033
  31
0.0
   0
LINE
   8
LEVEL001
   6
CONTINUOUS
  62
7
  10
 206.636
  20
 639.033
  30
0.0
  11
 206.682
  21
 638.844
  31
0.0
   0
LINE
   8
LEVEL001
   6
CONTINUOUS
  62
7
  10
 206.682
  20
 638.844
  30
0.0
  11
 206.745
  21
 638.659
  31
0.0
   0
LINE
   8
LEVEL001
   6
CONTINUOUS
  62
7
  10
 206.745
  20
 638.659
  30
0.0
  11
 206.825
  21
 638.481
  31
0.0
   0
LINE
   8
LEVEL001
   6
CONTINUOUS
  62
7
  10
 206.825
  20
 638.481
  30
0.0
  11
 206.922
  21
 638.309
  31
0.0
   0
LINE
   8
LEVEL001
   6
CONTINUOUS
  62
7
  10
 206.922
  20
 638.309
  30
0.0
  11
 207.034
  21
 638.146
  31
0.0
   0
LINE
   8
LEVEL001
   6
CONTINUOUS
  62
7
  10
 207.034
  20
 638.146
  30
0.0
  11
 207.161
  21
 637.992
  31
0.0
   0
LINE
   8
LEVEL001
   6
CONTINUOUS
  62
7
  10
 207.161
  20
 637.992
  30
0.0
  11
 207.303
  21
 637.850
  31
0.0
   0
LINE
   8
LEVEL001
   6
CONTINUOUS
  62
7
  10
 207.303
  20
 637.850
  30
0.0
  11
 207.457
  21
 637.719
  31
0.0
   0
LINE
   8
LEVEL001
   6
CONTINUOUS
  62
7
  10
 207.457
  20
 637.719
  30
0.0
  11
 207.623
  21
 637.601
  31
0.0
   0
LINE
   8
LEVEL001
   6
CONTINUOUS
  62
7
  10
 207.623
  20
 637.601
  30
0.0
  11
 207.800
  21
 637.497
  31
0.0
   0
LINE
   8
LEVEL001
   6
CONTINUOUS
  62
7
  10
 207.800
  20
 637.497
  30
0.0
  11
 207.986
  21
 637.408
  31
0.0
   0
LINE
   8
LEVEL001
   6
CONTINUOUS
  62
7
  10
 207.986
  20
 637.408
  30
0.0
  11
 208.179
  21
 637.334
  31
0.0
   0
LINE
   8
LEVEL001
   6
CONTINUOUS
  62
7
  10
 208.179
  20
 637.334
  30
0.0
  11
 208.379
  21
 637.276
  31
0.0
   0
LINE
   8
LEVEL001
   6
CONTINUOUS
  62
7
  10
 208.379
  20
 637.276
  30
0.0
  11
 208.583
  21
 637.234
  31
0.0
   0
LINE
   8
LEVEL001
   6
CONTINUOUS
  62
7
  10
 208.583
  20
 637.234
  30
0.0
  11
 208.791
  21
 637.209
  31
0.0
   0
LINE
   8
LEVEL001
   6
CONTINUOUS
  62
7
  10
 208.791
  20
 637.209
  30
0.0
  11
 209.000
  21
 637.200
  31
0.0
   0
LINE
   8
LEVEL001
   6
CONTINUOUS
  62
7
  10
 209.000
  20
 637.200
  30
0.0
  11
 209.209
  21
 637.209
  31
0.0
   0
LINE
   8
LEVEL001
   6
CONTINUOUS
  62
7
  10
 209.209
  20
 637.209
  30
0.0
  11
 209.417
  21
 637.234
  31
0.0
   0
LINE
   8
LEVEL001
   6
CONTINUOUS
  62
7
  10
 209.417
  20
 637.234
  30
0.0
  11
 209.621
  21
 637.276
  31
0.0
   0
LINE
   8
LEVEL001
   6
CONTINUOUS
  62
7
  10
 209.621
  20
 637.276
  30
0.0
  11
 209.821
  21
 637.334
  31
0.0
   0
LINE
   8
LEVEL001
   6
CONTINUOUS
  62
7
  10
 209.821
  20
 637.334
  30
0.0
  11
 210.014
  21
 637.408
  31
0.0
   0
LINE
   8
LEVEL001
   6
CONTINUOUS
  62
7
  10
 210.014
  20
 637.408
  30
0.0
  11
 210.200
  21
 637.497
  31
0.0
   0
LINE
   8
LEVEL001
   6
CONTINUOUS
  62
7
  10
 210.200
  20
 637.497
  30
0.0
  11
 210.377
  21
 637.601
  31
0.0
   0
LINE
   8
LEVEL001
   6
CONTINUOUS
  62
7
  10
 210.377
  20
 637.601
  30
0.0
  11
 210.543
  21
 637.719
  31
0.0
   0
LINE
   8
LEVEL001
   6
CONTINUOUS
  62
7
  10
 210.543
  20
 637.719
  30
0.0
  11
 210.697
  21
 637.850
  31
0.0
   0
LINE
   8
LEVEL001
   6
CONTINUOUS
  62
7
  10
 210.697
  20
 637.850
  30
0.0
  11
 210.839
  21
 637.992
  31
0.0
   0
LINE
   8
LEVEL001
   6
CONTINUOUS
  62
7
  10
 210.839
  20
 637.992
  30
0.0
  11
 210.966
  21
 638.146
  31
0.0
   0
LINE
   8
LEVEL001
   6
CONTINUOUS
  62
7
  10
 210.966
  20
 638.146
  30
0.0
  11
 211.078
  21
 638.309
  31
0.0
   0
LINE
   8
LEVEL001
   6
CONTINUOUS
  62
7
  10
 211.078
  20
 638.309
  30
0.0
  11
 211.175
  21
 638.481
  31
0.0
   0
LINE
   8
LEVEL001
   6
CONTINUOUS
  62
7
  10
 211.175
  20
 638.481
  30
0.0
  11
 211.255
  21
 638.659
  31
0.0
   0
LINE
   8
LEVEL001
   6
CONTINUOUS
  62
7
  10
 211.255
  20
 638.659
  30
0.0
  11
 211.318
  21
 638.844
  31
0.0
   0
LINE
   8
LEVEL001
   6
CONTINUOUS
  62
7
  10
 211.318
  20
 638.844
  30
0.0
  11
 211.364
  21
 639.033
  31
0.0
   0
LINE
   8
LEVEL001
   6
CONTINUOUS
  62
7
  10
 211.364
  20
 639.033
  30
0.0
  11
 211.391
  21
 639.224
  31
0.0
   0
LINE
   8
LEVEL001
   6
CONTINUOUS
  62
7
  10
 211.391
  20
 639.224
  30
0.0
  11
 211.400
  21
 639.418
  31
0.0
   0
LINE
   8
LEVEL001
   6
CONTINUOUS
  62
7
  10
 213.283
  20
 653.258
  30
0.0
  11
 213.281
  21
 653.337
  31
0.0
   0
LINE
   8
LEVEL001
   6
CONTINUOUS
  62
7
  10
 204.133
  20
 653.168
  30
0.0
  11
 204.117
  21
 652.658
  31
0.0
   0
LINE
   8
LEVEL001
   6
CONTINUOUS
  62
7
  10
 204.117
  20
 652.658
  30
0.0
  11
 204.636
  21
 653.178
  31
0.0
   0
LINE
   8
LEVEL001
   6
CONTINUOUS
  62
7
  10
 213.283
  20
 653.258
  30
0.0
  11
 209.000
  21
 653.258
  31
0.0
   0
ARC
   8
LEVEL001
   6
CONTINUOUS
  62
7
  10
 209.000
  20
 639.418
  30
0.0
  40
 1.00000
  50
 180.020
  51
 0.201250E-1
   0
LINE
   8
LEVEL001
   6
CONTINUOUS
  62
7
  10
 209.999
  20
 639.418
  30
0.0
  11
 209.998
  21
 639.459
  31
0.0
   0
LINE
   8
LEVEL001
   6
CONTINUOUS
  62
7
  10
 209.998
  20
 639.459
  30
0.0
  11
 209.996
  21
 639.499
  31
0.0
   0
LINE
   8
LEVEL001
   6
CONTINUOUS
  62
7
  10
 209.996
  20
 639.499
  30
0.0
  11
 209.991
  21
 639.539
  31
0.0
   0
LINE
   8
LEVEL001
   6
CONTINUOUS
  62
7
  10
 209.991
  20
 639.539
  30
0.0
  11
 209.984
  21
 639.579
  31
0.0
   0
LINE
   8
LEVEL001
   6
CONTINUOUS
  62
7
  10
 209.984
  20
 639.579
  30
0.0
  11
 209.976
  21
 639.618
  31
0.0
   0
LINE
   8
LEVEL001
   6
CONTINUOUS
  62
7
  10
 209.976
  20
 639.618
  30
0.0
  11
 209.965
  21
 639.657
  31
0.0
   0
LINE
   8
LEVEL001
   6
CONTINUOUS
  62
7
  10
 209.965
  20
 639.657
  30
0.0
  11
 209.953
  21
 639.696
  31
0.0
   0
LINE
   8
LEVEL001
   6
CONTINUOUS
  62
7
  10
 209.953
  20
 639.696
  30
0.0
  11
 209.939
  21
 639.734
  31
0.0
   0
LINE
   8
LEVEL001
   6
CONTINUOUS
  62
7
  10
 209.939
  20
 639.734
  30
0.0
  11
 209.923
  21
 639.772
  31
0.0
   0
LINE
   8
LEVEL001
   6
CONTINUOUS
  62
7
  10
 209.923
  20
 639.772
  30
0.0
  11
 209.906
  21
 639.809
  31
0.0
   0
LINE
   8
LEVEL001
   6
CONTINUOUS
  62
7
  10
 209.906
  20
 639.809
  30
0.0
  11
 209.886
  21
 639.845
  31
0.0
   0
LINE
   8
LEVEL001
   6
CONTINUOUS
  62
7
  10
 209.886
  20
 639.845
  30
0.0
  11
 209.865
  21
 639.880
  31
0.0
   0
LINE
   8
LEVEL001
   6
CONTINUOUS
  62
7
  10
 209.865
  20
 639.880
  30
0.0
  11
 209.843
  21
 639.915
  31
0.0
   0
LINE
   8
LEVEL001
   6
CONTINUOUS
  62
7
  10
 209.843
  20
 639.915
  30
0.0
  11
 209.818
  21
 639.948
  31
0.0
   0
LINE
   8
LEVEL001
   6
CONTINUOUS
  62
7
  10
 209.818
  20
 639.948
  30
0.0
  11
 209.793
  21
 639.981
  31
0.0
   0
LINE
   8
LEVEL001
   6
CONTINUOUS
  62
7
  10
 209.793
  20
 639.981
  30
0.0
  11
 209.765
  21
 640.012
  31
0.0
   0
LINE
   8
LEVEL001
   6
CONTINUOUS
  62
7
  10
 209.765
  20
 640.012
  30
0.0
  11
 209.736
  21
 640.042
  31
0.0
   0
LINE
   8
LEVEL001
   6
CONTINUOUS
  62
7
  10
 209.736
  20
 640.042
  30
0.0
  11
 209.706
  21
 640.071
  31
0.0
   0
LINE
   8
LEVEL001
   6
CONTINUOUS
  62
7
  10
 209.706
  20
 640.071
  30
0.0
  11
 209.675
  21
 640.099
  31
0.0
   0
LINE
   8
LEVEL001
   6
CONTINUOUS
  62
7
  10
 209.675
  20
 640.099
  30
0.0
  11
 209.642
  21
 640.126
  31
0.0
   0
LINE
   8
LEVEL001
   6
CONTINUOUS
  62
7
  10
 209.642
  20
 640.126
  30
0.0
  11
 209.608
  21
 640.151
  31
0.0
   0
LINE
   8
LEVEL001
   6
CONTINUOUS
  62
7
  10
 209.608
  20
 640.151
  30
0.0
  11
 209.573
  21
 640.175
  31
0.0
   0
LINE
   8
LEVEL001
   6
CONTINUOUS
  62
7
  10
 209.573
  20
 640.175
  30
0.0
  11
 209.536
  21
 640.197
  31
0.0
   0
LINE
   8
LEVEL001
   6
CONTINUOUS
  62
7
  10
 209.536
  20
 640.197
  30
0.0
  11
 209.499
  21
 640.218
  31
0.0
   0
LINE
   8
LEVEL001
   6
CONTINUOUS
  62
7
  10
 209.499
  20
 640.218
  30
0.0
  11
 209.461
  21
 640.238
  31
0.0
   0
LINE
   8
LEVEL001
   6
CONTINUOUS
  62
7
  10
 209.461
  20
 640.238
  30
0.0
  11
 209.422
  21
 640.255
  31
0.0
   0
LINE
   8
LEVEL001
   6
CONTINUOUS
  62
7
  10
 209.422
  20
 640.255
  30
0.0
  11
 209.382
  21
 640.272
  31
0.0
   0
LINE
   8
LEVEL001
   6
CONTINUOUS
  62
7
  10
 209.382
  20
 640.272
  30
0.0
  11
 209.341
  21
 640.286
  31
0.0
   0
LINE
   8
LEVEL001
   6
CONTINUOUS
  62
7
  10
 209.341
  20
 640.286
  30
0.0
  11
 209.300
  21
 640.299
  31
0.0
   0
LINE
   8
LEVEL001
   6
CONTINUOUS
  62
7
  10
 209.300
  20
 640.299
  30
0.0
  11
 209.258
  21
 640.310
  31
0.0
   0
LINE
   8
LEVEL001
   6
CONTINUOUS
  62
7
  10
 209.258
  20
 640.310
  30
0.0
  11
 209.216
  21
 640.320
  31
0.0
   0
LINE
   8
LEVEL001
   6
CONTINUOUS
  62
7
  10
 209.216
  20
 640.320
  30
0.0
  11
 209.173
  21
 640.328
  31
0.0
   0
LINE
   8
LEVEL001
   6
CONTINUOUS
  62
7
  10
 209.173
  20
 640.328
  30
0.0
  11
 209.130
  21
 640.334
  31
0.0
   0
LINE
   8
LEVEL001
   6
CONTINUOUS
  62
7
  10
 209.130
  20
 640.334
  30
0.0
  11
 209.086
  21
 640.338
  31
0.0
   0
LINE
   8
LEVEL001
   6
CONTINUOUS
  62
7
  10
 209.086
  20
 640.338
  30
0.0
  11
 209.043
  21
 640.341
  31
0.0
   0
LINE
   8
LEVEL001
   6
CONTINUOUS
  62
7
  10
 209.043
  20
 640.341
  30
0.0
  11
 208.999
  21
 640.342
  31
0.0
   0
LINE
   8
LEVEL001
   6
CONTINUOUS
  62
7
  10
 208.999
  20
 640.342
  30
0.0
  11
 208.956
  21
 640.341
  31
0.0
   0
LINE
   8
LEVEL001
   6
CONTINUOUS
  62
7
  10
 208.956
  20
 640.341
  30
0.0
  11
 208.912
  21
 640.338
  31
0.0
   0
LINE
   8
LEVEL001
   6
CONTINUOUS
  62
7
  10
 208.912
  20
 640.338
  30
0.0
  11
 208.869
  21
 640.334
  31
0.0
   0
LINE
   8
LEVEL001
   6
CONTINUOUS
  62
7
  10
 208.869
  20
 640.334
  30
0.0
  11
 208.826
  21
 640.328
  31
0.0
   0
LINE
   8
LEVEL001
   6
CONTINUOUS
  62
7
  10
 208.826
  20
 640.328
  30
0.0
  11
 208.783
  21
 640.320
  31
0.0
   0
LINE
   8
LEVEL001
   6
CONTINUOUS
  62
7
  10
 208.783
  20
 640.320
  30
0.0
  11
 208.740
  21
 640.310
  31
0.0
   0
LINE
   8
LEVEL001
   6
CONTINUOUS
  62
7
  10
 208.740
  20
 640.310
  30
0.0
  11
 208.698
  21
 640.299
  31
0.0
   0
LINE
   8
LEVEL001
   6
CONTINUOUS
  62
7
  10
 208.698
  20
 640.299
  30
0.0
  11
 208.657
  21
 640.286
  31
0.0
   0
LINE
   8
LEVEL001
   6
CONTINUOUS
  62
7
  10
 208.657
  20
 640.286
  30
0.0
  11
 208.617
  21
 640.271
  31
0.0
   0
LINE
   8
LEVEL001
   6
CONTINUOUS
  62
7
  10
 208.617
  20
 640.271
  30
0.0
  11
 208.577
  21
 640.255
  31
0.0
   0
LINE
   8
LEVEL001
   6
CONTINUOUS
  62
7
  10
 208.577
  20
 640.255
  30
0.0
  11
 208.537
  21
 640.237
  31
0.0
   0
LINE
   8
LEVEL001
   6
CONTINUOUS
  62
7
  10
 208.537
  20
 640.237
  30
0.0
  11
 208.499
  21
 640.218
  31
0.0
   0
LINE
   8
LEVEL001
   6
CONTINUOUS
  62
7
  10
 208.499
  20
 640.218
  30
0.0
  11
 208.462
  21
 640.197
  31
0.0
   0
LINE
   8
LEVEL001
   6
CONTINUOUS
  62
7
  10
 208.462
  20
 640.197
  30
0.0
  11
 208.426
  21
 640.175
  31
0.0
   0
LINE
   8
LEVEL001
   6
CONTINUOUS
  62
7
  10
 208.426
  20
 640.175
  30
0.0
  11
 208.390
  21
 640.151
  31
0.0
   0
LINE
   8
LEVEL001
   6
CONTINUOUS
  62
7
  10
 208.390
  20
 640.151
  30
0.0
  11
 208.356
  21
 640.126
  31
0.0
   0
LINE
   8
LEVEL001
   6
CONTINUOUS
  62
7
  10
 208.356
  20
 640.126
  30
0.0
  11
 208.324
  21
 640.099
  31
0.0
   0
LINE
   8
LEVEL001
   6
CONTINUOUS
  62
7
  10
 208.324
  20
 640.099
  30
0.0
  11
 208.292
  21
 640.071
  31
0.0
   0
LINE
   8
LEVEL001
   6
CONTINUOUS
  62
7
  10
 208.292
  20
 640.071
  30
0.0
  11
 208.262
  21
 640.042
  31
0.0
   0
LINE
   8
LEVEL001
   6
CONTINUOUS
  62
7
  10
 208.262
  20
 640.042
  30
0.0
  11
 208.233
  21
 640.012
  31
0.0
   0
LINE
   8
LEVEL001
   6
CONTINUOUS
  62
7
  10
 208.233
  20
 640.012
  30
0.0
  11
 208.206
  21
 639.980
  31
0.0
   0
LINE
   8
LEVEL001
   6
CONTINUOUS
  62
7
  10
 208.206
  20
 639.980
  30
0.0
  11
 208.180
  21
 639.948
  31
0.0
   0
LINE
   8
LEVEL001
   6
CONTINUOUS
  62
7
  10
 208.180
  20
 639.948
  30
0.0
  11
 208.156
  21
 639.914
  31
0.0
   0
LINE
   8
LEVEL001
   6
CONTINUOUS
  62
7
  10
 208.156
  20
 639.914
  30
0.0
  11
 208.133
  21
 639.880
  31
0.0
   0
LINE
   8
LEVEL001
   6
CONTINUOUS
  62
7
  10
 208.133
  20
 639.880
  30
0.0
  11
 208.112
  21
 639.845
  31
0.0
   0
LINE
   8
LEVEL001
   6
CONTINUOUS
  62
7
  10
 208.112
  20
 639.845
  30
0.0
  11
 208.093
  21
 639.808
  31
0.0
   0
LINE
   8
LEVEL001
   6
CONTINUOUS
  62
7
  10
 208.093
  20
 639.808
  30
0.0
  11
 208.075
  21
 639.772
  31
0.0
   0
LINE
   8
LEVEL001
   6
CONTINUOUS
  62
7
  10
 208.075
  20
 639.772
  30
0.0
  11
 208.060
  21
 639.734
  31
0.0
   0
LINE
   8
LEVEL001
   6
CONTINUOUS
  62
7
  10
 208.060
  20
 639.734
  30
0.0
  11
 208.046
  21
 639.696
  31
0.0
   0
LINE
   8
LEVEL001
   6
CONTINUOUS
  62
7
  10
 208.046
  20
 639.696
  30
0.0
  11
 208.033
  21
 639.657
  31
0.0
   0
LINE
   8
LEVEL001
   6
CONTINUOUS
  62
7
  10
 208.033
  20
 639.657
  30
0.0
  11
 208.023
  21
 639.618
  31
0.0
   0
LINE
   8
LEVEL001
   6
CONTINUOUS
  62
7
  10
 208.023
  20
 639.618
  30
0.0
  11
 208.015
  21
 639.578
  31
0.0
   0
LINE
   8
LEVEL001
   6
CONTINUOUS
  62
7
  10
 208.015
  20
 639.578
  30
0.0
  11
 208.008
  21
 639.539
  31
0.0
   0
LINE
   8
LEVEL001
   6
CONTINUOUS
  62
7
  10
 208.008
  20
 639.539
  30
0.0
  11
 208.003
  21
 639.499
  31
0.0
   0
LINE
   8
LEVEL001
   6
CONTINUOUS
  62
7
  10
 208.003
  20
 639.499
  30
0.0
  11
 208.000
  21
 639.458
  31
0.0
   0
LINE
   8
LEVEL001
   6
CONTINUOUS
  62
7
  10
 208.000
  20
 639.458
  30
0.0
  11
 207.999
  21
 639.418
  31
0.0
   0
LINE
   8
LEVEL001
   6
DASHDOT
  62
1
  10
 167.500
  20
 803.000
  30
0.0
  11
 167.500
  21
 767.000
  31
0.0
   0
LINE
   8
LEVEL001
   6
DASHDOT
  62
1
  10
 185.500
  20
 785.000
  30
0.0
  11
 149.500
  21
 785.000
  31
0.0
   0
LINE
   8
LEVEL001
   6
DASHDOT
  62
1
  10
 130.000
  20
 730.000
  30
0.0
  11
 260.000
  21
 730.000
  31
0.0
   0
LINE
   8
LEVEL001
   6
DASHDOT
  62
1
  10
 195.000
  20
 810.000
  30
0.0
  11
 195.000
  21
 620.000
  31
0.0
   0
LINE
   8
LEVEL001
   6
DASHDOT
  62
1
  10
 222.500
  20
 803.000
  30
0.0
  11
 222.500
  21
 767.000
  31
0.0
   0
LINE
   8
LEVEL001
   6
DASHDOT
  62
1
  10
 240.500
  20
 785.000
  30
0.0
  11
 204.500
  21
 785.000
  31
0.0
   0
LINE
   8
LEVEL001
   6
DASHDOT
  62
1
  10
 90.0000
  20
 687.000
  30
0.0
  11
 300.000
  21
 687.000
  31
0.0
   0
LINE
   8
LEVEL001
   6
DASHDOT
  62
1
  10
 222.500
  20
 661.000
  30
0.0
  11
 222.500
  21
 625.000
  31
0.0
   0
LINE
   8
LEVEL001
   6
DASHDOT
  62
1
  10
 240.500
  20
 643.000
  30
0.0
  11
 204.500
  21
 643.000
  31
0.0
   0
LINE
   8
LEVEL001
   6
DASHDOT
  62
1
  10
 167.500
  20
 661.000
  30
0.0
  11
 167.500
  21
 625.000
  31
0.0
   0
LINE
   8
LEVEL001
   6
DASHDOT
  62
1
  10
 185.500
  20
 643.000
  30
0.0
  11
 149.500
  21
 643.000
  31
0.0
   0
LINE
   8
LEVEL004
   6
DOT
  62
3
  10
 543.000
  20
 408.000
  30
0.0
  11
 543.000
  21
 407.000
  31
0.0
   0
LINE
   8
LEVEL004
   6
DOT
  62
3
  10
 567.000
  20
 407.000
  30
0.0
  11
 543.000
  21
 407.000
  31
0.0
   0
LINE
   8
LEVEL004
   6
DOT
  62
3
  10
 567.000
  20
 408.000
  30
0.0
  11
 567.000
  21
 407.000
  31
0.0
   0
LINE
   8
LEVEL003
   6
CONTINUOUS
  62
3
  10
 269.500
  20
 448.599
  30
0.0
  11
 269.500
  21
 482.000
  31
0.0
   0
LINE
   8
LEVEL003
   6
CONTINUOUS
  62
3
  10
 297.500
  20
 451.000
  30
0.0
  11
 297.500
  21
 482.000
  31
0.0
   0
LINE
   8
LEVEL003
   6
CONTINUOUS
  62
3
  10
 269.500
  20
 480.000
  30
0.0
  11
 297.500
  21
 480.000
  31
0.0
   0
LINE
   8
LEVEL003
   6
CONTINUOUS
  62
3
  10
 269.500
  20
 480.000
  30
0.0
  11
 272.500
  21
 479.196
  31
0.0
   0
LINE
   8
LEVEL003
   6
CONTINUOUS
  62
3
  10
 269.500
  20
 480.000
  30
0.0
  11
 272.500
  21
 480.804
  31
0.0
   0
LINE
   8
LEVEL003
   6
CONTINUOUS
  62
3
  10
 297.500
  20
 480.000
  30
0.0
  11
 294.500
  21
 480.804
  31
0.0
   0
LINE
   8
LEVEL003
   6
CONTINUOUS
  62
3
  10
 297.500
  20
 480.000
  30
0.0
  11
 294.500
  21
 479.196
  31
0.0
   0
TEXT
   8
LEVEL003
  62
3
  10
 281.500
  20
 481.714
  30
0.0
  40
 4.00000
   1
28
  41
 0.500000
   7
STANDARD
  72
1
  11
 283.500
  21
 481.714
  31
0.0
   0
LINE
   8
LEVEL003
   6
CONTINUOUS
  62
3
  10
 275.500
  20
 451.000
  30
0.0
  11
 275.500
  21
 472.000
  31
0.0
   0
LINE
   8
LEVEL003
   6
CONTINUOUS
  62
3
  10
 297.500
  20
 451.000
  30
0.0
  11
 297.500
  21
 472.000
  31
0.0
   0
LINE
   8
LEVEL003
   6
CONTINUOUS
  62
3
  10
 275.500
  20
 470.000
  30
0.0
  11
 297.500
  21
 470.000
  31
0.0
   0
LINE
   8
LEVEL003
   6
CONTINUOUS
  62
3
  10
 275.500
  20
 470.000
  30
0.0
  11
 278.500
  21
 469.196
  31
0.0
   0
LINE
   8
LEVEL003
   6
CONTINUOUS
  62
3
  10
 275.500
  20
 470.000
  30
0.0
  11
 278.500
  21
 470.804
  31
0.0
   0
LINE
   8
LEVEL003
   6
CONTINUOUS
  62
3
  10
 297.500
  20
 470.000
  30
0.0
  11
 294.500
  21
 470.804
  31
0.0
   0
LINE
   8
LEVEL003
   6
CONTINUOUS
  62
3
  10
 297.500
  20
 470.000
  30
0.0
  11
 294.500
  21
 469.196
  31
0.0
   0
TEXT
   8
LEVEL003
  62
3
  10
 284.500
  20
 471.714
  30
0.0
  40
 4.00000
   1
22
  41
 0.500000
   7
STANDARD
  72
1
  11
 286.500
  21
 471.714
  31
0.0
   0
LINE
   8
LEVEL003
   6
CONTINUOUS
  62
3
  10
 246.000
  20
 398.000
  30
0.0
  11
 337.000
  21
 398.000
  31
0.0
   0
LINE
   8
LEVEL003
   6
CONTINUOUS
  62
3
  10
 335.000
  20
 398.000
  30
0.0
  11
 335.000
  21
 18.0000
  31
0.0
   0
LINE
   8
LEVEL003
   6
CONTINUOUS
  62
3
  10
 335.000
  20
 398.000
  30
0.0
  11
 334.196
  21
 395.000
  31
0.0
   0
LINE
   8
LEVEL003
   6
CONTINUOUS
  62
3
  10
 335.000
  20
 398.000
  30
0.0
  11
 335.804
  21
 395.000
  31
0.0
   0
LINE
   8
LEVEL003
   6
CONTINUOUS
  62
3
  10
 167.500
  20
 804.000
  30
0.0
  11
 167.500
  21
 829.000
  31
0.0
   0
LINE
   8
LEVEL003
   6
CONTINUOUS
  62
3
  10
 222.500
  20
 804.000
  30
0.0
  11
 222.500
  21
 829.000
  31
0.0
   0
LINE
   8
LEVEL003
   6
CONTINUOUS
  62
3
  10
 167.500
  20
 827.000
  30
0.0
  11
 222.500
  21
 827.000
  31
0.0
   0
LINE
   8
LEVEL003
   6
CONTINUOUS
  62
3
  10
 167.500
  20
 827.000
  30
0.0
  11
 170.500
  21
 826.196
  31
0.0
   0
LINE
   8
LEVEL003
   6
CONTINUOUS
  62
3
  10
 167.500
  20
 827.000
  30
0.0
  11
 170.500
  21
 827.804
  31
0.0
   0
LINE
   8
LEVEL003
   6
CONTINUOUS
  62
3
  10
 222.500
  20
 827.000
  30
0.0
  11
 219.500
  21
 827.804
  31
0.0
   0
LINE
   8
LEVEL003
   6
CONTINUOUS
  62
3
  10
 222.500
  20
 827.000
  30
0.0
  11
 219.500
  21
 826.196
  31
0.0
   0
TEXT
   8
LEVEL003
  62
3
  10
 193.000
  20
 828.714
  30
0.0
  40
 4.00000
   1
55
  41
 0.500000
   7
STANDARD
  72
1
  11
 195.000
  21
 828.714
  31
0.0
   0
LINE
   8
LEVEL003
   6
CONTINUOUS
  62
3
  10
 241.500
  20
 643.000
  30
0.0
  11
 312.000
  21
 643.000
  31
0.0
   0
LINE
   8
LEVEL003
   6
CONTINUOUS
  62
3
  10
 261.000
  20
 730.000
  30
0.0
  11
 312.000
  21
 730.000
  31
0.0
   0
LINE
   8
LEVEL003
   6
CONTINUOUS
  62
3
  10
 310.000
  20
 643.000
  30
0.0
  11
 310.000
  21
 730.000
  31
0.0
   0
LINE
   8
LEVEL003
   6
CONTINUOUS
  62
3
  10
 310.000
  20
 643.000
  30
0.0
  11
 310.804
  21
 646.000
  31
0.0
   0
LINE
   8
LEVEL003
   6
CONTINUOUS
  62
3
  10
 310.000
  20
 643.000
  30
0.0
  11
 309.196
  21
 646.000
  31
0.0
   0
LINE
   8
LEVEL003
   6
CONTINUOUS
  62
3
  10
 310.000
  20
 730.000
  30
0.0
  11
 309.196
  21
 727.000
  31
0.0
   0
LINE
   8
LEVEL003
   6
CONTINUOUS
  62
3
  10
 310.000
  20
 730.000
  30
0.0
  11
 310.804
  21
 727.000
  31
0.0
   0
TEXT
   8
LEVEL003
  62
3
  10
 308.286
  20
 684.500
  30
0.0
  40
 4.00000
   1
87
  50
 90.0000
  41
 0.500000
   7
STANDARD
  72
1
  11
 308.286
  21
 686.500
  31
0.0
   0
LINE
   8
LEVEL003
   6
CONTINUOUS
  62
3
  10
 261.000
  20
 730.000
  30
0.0
  11
 312.000
  21
 730.000
  31
0.0
   0
LINE
   8
LEVEL003
   6
CONTINUOUS
  62
3
  10
 241.500
  20
 785.000
  30
0.0
  11
 312.000
  21
 785.000
  31
0.0
   0
LINE
   8
LEVEL003
   6
CONTINUOUS
  62
3
  10
 310.000
  20
 730.000
  30
0.0
  11
 310.000
  21
 785.000
  31
0.0
   0
LINE
   8
LEVEL003
   6
CONTINUOUS
  62
3
  10
 310.000
  20
 730.000
  30
0.0
  11
 310.804
  21
 733.000
  31
0.0
   0
LINE
   8
LEVEL003
   6
CONTINUOUS
  62
3
  10
 310.000
  20
 730.000
  30
0.0
  11
 309.196
  21
 733.000
  31
0.0
   0
LINE
   8
LEVEL003
   6
CONTINUOUS
  62
3
  10
 310.000
  20
 785.000
  30
0.0
  11
 309.196
  21
 782.000
  31
0.0
   0
LINE
   8
LEVEL003
   6
CONTINUOUS
  62
3
  10
 310.000
  20
 785.000
  30
0.0
  11
 310.804
  21
 782.000
  31
0.0
   0
TEXT
   8
LEVEL003
  62
3
  10
 308.286
  20
 755.500
  30
0.0
  40
 4.00000
   1
55
  50
 90.0000
  41
 0.500000
   7
STANDARD
  72
1
  11
 308.286
  21
 757.500
  31
0.0
   0
LINE
   8
LEVEL003
   6
CONTINUOUS
  62
3
  10
 292.500
  20
 679.000
  30
0.0
  11
 292.500
  21
 598.000
  31
0.0
   0
LINE
   8
LEVEL003
   6
CONTINUOUS
  62
3
  10
 97.5000
  20
 679.000
  30
0.0
  11
 97.5000
  21
 598.000
  31
0.0
   0
LINE
   8
LEVEL003
   6
CONTINUOUS
  62
3
  10
 292.500
  20
 600.000
  30
0.0
  11
 97.5000
  21
 600.000
  31
0.0
   0
LINE
   8
LEVEL003
   6
CONTINUOUS
  62
3
  10
 292.500
  20
 600.000
  30
0.0
  11
 289.500
  21
 600.804
  31
0.0
   0
LINE
   8
LEVEL003
   6
CONTINUOUS
  62
3
  10
 292.500
  20
 600.000
  30
0.0
  11
 289.500
  21
 599.196
  31
0.0
   0
LINE
   8
LEVEL003
   6
CONTINUOUS
  62
3
  10
 97.5000
  20
 600.000
  30
0.0
  11
 100.500
  21
 599.196
  31
0.0
   0
LINE
   8
LEVEL003
   6
CONTINUOUS
  62
3
  10
 97.5000
  20
 600.000
  30
0.0
  11
 100.500
  21
 600.804
  31
0.0
   0
TEXT
   8
LEVEL003
  62
3
  10
 192.000
  20
 601.714
  30
0.0
  40
 4.00000
   1
195
  41
 0.500000
   7
STANDARD
  72
1
  11
 195.000
  21
 601.714
  31
0.0
   0
LINE
   8
LEVEL003
   6
CONTINUOUS
  62
3
  10
 223.500
  20
 18.0000
  30
0.0
  11
 337.000
  21
 18.0000
  31
0.0
   0
LINE
   8
LEVEL003
   6
CONTINUOUS
  62
3
  10
 335.000
  20
 18.0000
  30
0.0
  11
 335.804
  21
 21.0000
  31
0.0
   0
LINE
   8
LEVEL003
   6
CONTINUOUS
  62
3
  10
 335.000
  20
 18.0000
  30
0.0
  11
 334.196
  21
 21.0000
  31
0.0
   0
TEXT
   8
LEVEL003
  62
3
  10
 333.286
  20
 195.000
  30
0.0
  40
 4.00000
   1
30+ストローク
  50
 90.0000
   7
STANDARD
  72
1
  11
 333.286
  21
 208.000
  31
0.0
   0
TEXT
   8
LEVEL003
  62
7
  10
 603.382
  20
 45.4399
  30
0.0
  40
 20.0000
   1
ＯＳＡＫＡ ＪＡＣＫ
   7
STANDARD
   0
CIRCLE
   8
LEVEL003
   6
CONTINUOUS
  62
7
  10
 579.436
  20
 59.5413
  30
0.0
  40
 6.00000
   0
LINE
   8
LEVEL003
   6
CONTINUOUS
  62
7
  10
 591.212
  20
 65.5413
  30
0.0
  11
 583.594
  21
 52.3413
  31
0.0
   0
LINE
   8
LEVEL003
   6
CONTINUOUS
  62
7
  10
 583.594
  20
 52.3413
  30
0.0
  11
 568.352
  21
 52.3413
  31
0.0
   0
LINE
   8
LEVEL003
   6
CONTINUOUS
  62
7
  10
 566.618
  20
 49.3413
  30
0.0
  11
 593.860
  21
 49.3413
  31
0.0
   0
LINE
   8
LEVEL003
   6
CONTINUOUS
  62
7
  10
 593.860
  20
 49.3413
  30
0.0
  11
 603.212
  21
 65.5413
  31
0.0
   0
LINE
   8
LEVEL003
   6
CONTINUOUS
  62
7
  10
 603.212
  20
 65.5413
  30
0.0
  11
 591.212
  21
 65.5413
  31
0.0
   0
LINE
   8
LEVEL003
   6
CONTINUOUS
  62
7
  10
 568.352
  20
 52.3413
  30
0.0
  11
 566.618
  21
 49.3413
  31
0.0
   0
TEXT
   8
LEVEL003
  62
7
  10
 609.204
  20
 79.2267
  30
0.0
  40
 12.0000
   1
Model : ＷＪ０２Ｕ
   7
STANDARD
   0
LINE
   8
LEVEL003
   6
CONTINUOUS
  62
3
  10
 515.000
  20
 573.000
  30
0.0
  11
 632.000
  21
 573.000
  31
0.0
   0
LINE
   8
LEVEL003
   6
CONTINUOUS
  62
3
  10
 630.000
  20
 573.000
  30
0.0
  11
 630.000
  21
 398.000
  31
0.0
   0
LINE
   8
LEVEL003
   6
CONTINUOUS
  62
3
  10
 630.000
  20
 573.000
  30
0.0
  11
 629.196
  21
 570.000
  31
0.0
   0
LINE
   8
LEVEL003
   6
CONTINUOUS
  62
3
  10
 630.000
  20
 573.000
  30
0.0
  11
 630.804
  21
 570.000
  31
0.0
   0
TEXT
   8
LEVEL003
  62
3
  10
 628.286
  20
 482.500
  30
0.0
  40
 4.00000
   1
175
  50
 90.0000
  41
 0.500000
   7
STANDARD
  72
1
  11
 628.286
  21
 485.500
  31
0.0
   0
LINE
   8
LEVEL003
   6
CONTINUOUS
  62
3
  10
 485.000
  20
 573.000
  30
0.0
  11
 485.000
  21
 597.000
  31
0.0
   0
LINE
   8
LEVEL003
   6
CONTINUOUS
  62
3
  10
 515.000
  20
 573.000
  30
0.0
  11
 515.000
  21
 597.000
  31
0.0
   0
LINE
   8
LEVEL003
   6
CONTINUOUS
  62
3
  10
 485.000
  20
 595.000
  30
0.0
  11
 515.000
  21
 595.000
  31
0.0
   0
LINE
   8
LEVEL003
   6
CONTINUOUS
  62
3
  10
 485.000
  20
 595.000
  30
0.0
  11
 488.000
  21
 594.196
  31
0.0
   0
LINE
   8
LEVEL003
   6
CONTINUOUS
  62
3
  10
 485.000
  20
 595.000
  30
0.0
  11
 488.000
  21
 595.804
  31
0.0
   0
LINE
   8
LEVEL003
   6
CONTINUOUS
  62
3
  10
 515.000
  20
 595.000
  30
0.0
  11
 512.000
  21
 595.804
  31
0.0
   0
LINE
   8
LEVEL003
   6
CONTINUOUS
  62
3
  10
 515.000
  20
 595.000
  30
0.0
  11
 512.000
  21
 594.196
  31
0.0
   0
TEXT
   8
LEVEL003
  62
3
  10
 494.000
  20
 596.714
  30
0.0
  40
 4.00000
   1
M30×2
   7
STANDARD
  72
1
  11
 500.000
  21
 596.714
  31
0.0
   0
LINE
   8
LEVEL003
   6
CONTINUOUS
  62
3
  10
 551.000
  20
 440.000
  30
0.0
  11
 617.000
  21
 440.000
  31
0.0
   0
LINE
   8
LEVEL003
   6
CONTINUOUS
  62
3
  10
 571.000
  20
 398.000
  30
0.0
  11
 617.000
  21
 398.000
  31
0.0
   0
LINE
   8
LEVEL003
   6
CONTINUOUS
  62
3
  10
 615.000
  20
 440.000
  30
0.0
  11
 615.000
  21
 398.000
  31
0.0
   0
LINE
   8
LEVEL003
   6
CONTINUOUS
  62
3
  10
 615.000
  20
 440.000
  30
0.0
  11
 614.196
  21
 437.000
  31
0.0
   0
LINE
   8
LEVEL003
   6
CONTINUOUS
  62
3
  10
 615.000
  20
 440.000
  30
0.0
  11
 615.804
  21
 437.000
  31
0.0
   0
LINE
   8
LEVEL003
   6
CONTINUOUS
  62
3
  10
 615.000
  20
 398.000
  30
0.0
  11
 615.804
  21
 401.000
  31
0.0
   0
LINE
   8
LEVEL003
   6
CONTINUOUS
  62
3
  10
 615.000
  20
 398.000
  30
0.0
  11
 614.196
  21
 401.000
  31
0.0
   0
TEXT
   8
LEVEL003
  62
3
  10
 613.286
  20
 417.000
  30
0.0
  40
 4.00000
   1
42
  50
 90.0000
  41
 0.500000
   7
STANDARD
  72
1
  11
 613.286
  21
 419.000
  31
0.0
   0
LINE
   8
LEVEL003
   6
CONTINUOUS
  62
3
  10
 571.000
  20
 398.000
  30
0.0
  11
 632.000
  21
 398.000
  31
0.0
   0
LINE
   8
LEVEL003
   6
CONTINUOUS
  62
3
  10
 568.000
  20
 407.000
  30
0.0
  11
 602.000
  21
 407.000
  31
0.0
   0
LINE
   8
LEVEL003
   6
CONTINUOUS
  62
3
  10
 571.000
  20
 398.000
  30
0.0
  11
 602.000
  21
 398.000
  31
0.0
   0
LINE
   8
LEVEL003
   6
CONTINUOUS
  62
3
  10
 600.000
  20
 407.000
  30
0.0
  11
 600.000
  21
 398.000
  31
0.0
   0
LINE
   8
LEVEL003
   6
CONTINUOUS
  62
3
  10
 600.000
  20
 407.000
  30
0.0
  11
 599.196
  21
 404.000
  31
0.0
   0
LINE
   8
LEVEL003
   6
CONTINUOUS
  62
3
  10
 600.000
  20
 407.000
  30
0.0
  11
 600.804
  21
 404.000
  31
0.0
   0
LINE
   8
LEVEL003
   6
CONTINUOUS
  62
3
  10
 600.000
  20
 398.000
  30
0.0
  11
 600.804
  21
 401.000
  31
0.0
   0
LINE
   8
LEVEL003
   6
CONTINUOUS
  62
3
  10
 600.000
  20
 398.000
  30
0.0
  11
 599.196
  21
 401.000
  31
0.0
   0
TEXT
   8
LEVEL003
  62
3
  10
 598.286
  20
 401.500
  30
0.0
  40
 4.00000
   1
9
  50
 90.0000
  41
 0.500000
   7
STANDARD
  72
1
  11
 598.286
  21
 402.500
  31
0.0
   0
LINE
   8
LEVEL003
   6
CONTINUOUS
  62
3
  10
 630.000
  20
 398.000
  30
0.0
  11
 630.804
  21
 401.000
  31
0.0
   0
LINE
   8
LEVEL003
   6
CONTINUOUS
  62
3
  10
 630.000
  20
 398.000
  30
0.0
  11
 629.196
  21
 401.000
  31
0.0
   0
ENDSEC
   0
EOF
