   0
SECTION
   2
HEADER
   9
$LIMMIN
  10
0.0
  20
0.0
   9
$LIMMAX
  10
 1188.00
  20
 932.000
   9
$EXTMIN
  10
0.0
  20
0.0
   9
$EXTMAX
  10
 1188.00
  20
 932.000
   9
$LTSCALE
  40
 23.7600
   0
ENDSEC
   0
SECTION
   2
TABLES
  0
TABLE
  2
LTYPE
 70
    25
  0
LTYPE
  2
CONTINUOUS
 70
    64
  3
Solid line
 72
    65
 73
     0
 40
0.0
  0
LTYPE
  2
BORDER
 70
    64
  3
__ __ . __ __ . __ __ . __ __ . __ __ . __ __ .
 72
    65
 73
     6
 40
1.75
 49
0.5
 49
-0.25
 49
0.5
 49
-0.25
 49
0.0
 49
-0.25
  0
LTYPE
  2
BORDER2
 70
    64
  3
__.__.__.__.__.__.__.__.__.__.__.__.__.__.__.__
 72
    65
 73
     6
 40
0.875
 49
0.25
 49
-0.125
 49
0.25
 49
-0.125
 49
0.0
 49
-0.125
  0
LTYPE
  2
BORDERX2
 70
    64
  3
____  ____  .  ____  ____  .  ____  ____  .  __
 72
    65
 73
     6
 40
3.5
 49
1.0
 49
-0.5
 49
1.0
 49
-0.5
 49
0.0
 49
-0.5
  0
LTYPE
  2
CENTER
 70
    64
  3
____ _ ____ _ ____ _ ____ _ ____ _ ____ _ ____ 
 72
    65
 73
     4
 40
2.0
 49
1.25
 49
-0.25
 49
0.25
 49
-0.25
  0
LTYPE
  2
CENTER2
 70
    64
  3
___ _ ___ _ ___ _ ___ _ ___ _ ___ _ ___ _ ___ _
 72
    65
 73
     4
 40
1.125
 49
0.75
 49
-0.125
 49
0.125
 49
-0.125
  0
LTYPE
  2
CENTERX2
 70
    64
  3
________  __  ________  __  ________  __  _____
 72
    65
 73
     4
 40
4.0
 49
2.5
 49
-0.5
 49
0.5
 49
-0.5
  0
LTYPE
  2
DASHDOT
 70
    64
  3
__ . __ . __ . __ . __ . __ . __ . __ . __ . __
 72
    65
 73
     4
 40
1.0
 49
0.5
 49
-0.25
 49
0.0
 49
-0.25
  0
LTYPE
  2
DASHDOT2
 70
    64
  3
_._._._._._._._._._._._._._._._._._._._._._._._
 72
    65
 73
     4
 40
0.5
 49
0.25
 49
-0.125
 49
0.0
 49
-0.125
  0
LTYPE
  2
DASHDOTX2
 70
    64
  3
____  .  ____  .  ____  .  ____  .  ____  .  __
 72
    65
 73
     4
 40
2.0
 49
1.0
 49
-0.5
 49
0.0
 49
-0.5
  0
LTYPE
  2
DASHED
 70
    64
  3
__ __ __ __ __ __ __ __ __ __ __ __ __ __ __ __
 72
    65
 73
     2
 40
0.75
 49
0.5
 49
-0.25
  0
LTYPE
  2
DASHED2
 70
    64
  3
_ _ _ _ _ _ _ _ _ _ _ _ _ _ _ _ _ _ _ _ _ _ _ _
 72
    65
 73
     2
 40
0.375
 49
0.25
 49
-0.125
  0
LTYPE
  2
DASHEDX2
 70
    64
  3
____  ____  ____  ____  ____  ____  ____  ____ 
 72
    65
 73
     2
 40
1.5
 49
1.0
 49
-0.5
  0
LTYPE
  2
DIVIDE
 70
    64
  3
____ . . ____ . . ____ . . ____ . . ____ . . __
 72
    65
 73
     6
 40
1.25
 49
0.5
 49
-0.25
 49
0.0
 49
-0.25
 49
0.0
 49
-0.25
  0
LTYPE
  2
DIVIDE2
 70
    64
  3
__..__..__..__..__..__..__..__..__..__..__..__.
 72
    65
 73
     6
 40
0.625
 49
0.25
 49
-0.125
 49
0.0
 49
-0.125
 49
0.0
 49
-0.125
  0
LTYPE
  2
DIVIDEX2
 70
    64
  3
________  .  .  ________  .  .  ________  .  . 
 72
    65
 73
     6
 40
2.5
 49
1.0
 49
-0.5
 49
0.0
 49
-0.5
 49
0.0
 49
-0.5
  0
LTYPE
  2
DOT
 70
    64
  3
. . . . . . . . . . . . . . . . . . . . . . . .
 72
    65
 73
     2
 40
0.25
 49
0.0
 49
-0.25
  0
LTYPE
  2
DOT2
 70
    64
  3
...............................................
 72
    65
 73
     2
 40
0.125
 49
0.0
 49
-0.125
  0
LTYPE
  2
DOTX2
 70
    64
  3
.  .  .  .  .  .  .  .  .  .  .  .  .  .  .  . 
 72
    65
 73
     2
 40
0.5
 49
0.0
 49
-0.5
  0
LTYPE
  2
HIDDEN
 70
    64
  3
__ __ __ __ __ __ __ __ __ __ __ __ __ __ __ __
 72
    65
 73
     2
 40
0.375
 49
0.25
 49
-0.125
  0
LTYPE
  2
HIDDEN2
 70
    64
  3
_ _ _ _ _ _ _ _ _ _ _ _ _ _ _ _ _ _ _ _ _ _ _ _
 72
    65
 73
     2
 40
0.1875
 49
0.125
 49
-0.0625
  0
LTYPE
  2
HIDDENX2
 70
    64
  3
____ ____ ____ ____ ____ ____ ____ ____ ____ __
 72
    65
 73
     2
 40
0.75
 49
0.5
 49
-0.25
  0
LTYPE
  2
PHANTOM
 70
    64
  3
______  __  __  ______  __  __  ______  __  __ 
 72
    65
 73
     6
 40
2.5
 49
1.25
 49
-0.25
 49
0.25
 49
-0.25
 49
0.25
 49
-0.25
  0
LTYPE
  2
PHANTOM2
 70
    64
  3
___ _ _ ___ _ _ ___ _ _ ___ _ _ ___ _ _ ___ _ _
 72
    65
 73
     6
 40
1.25
 49
0.625
 49
-0.125
 49
0.125
 49
-0.125
 49
0.125
 49
-0.125
  0
LTYPE
  2
PHANTOMX2
 70
    64
  3
____________    ____    ____    ____________   
 72
    65
 73
     6
 40
5.0
 49
2.5
 49
-0.5
 49
0.5
 49
-0.5
 49
0.5
 49
-0.5
  0
ENDTAB
  0
TABLE
  2
STYLE
 70
     2
  0
STYLE
  2
STANDARD
 70
0
 40
0.0
 41
1.0
 50
0.0
 71
0
 42
0.2
  3
TXT
  4
BIGFONT
  0
STYLE
  2
STANDARD1
 70
     4
 40
0.0
 41
1.0
 50
0.0
 71
     0
 42
0.2
  3
TXT
  4
BIGFONT
  0
ENDTAB
   0
TABLE
   2
LAYER
  70
4
   0
LAYER
   2
0
  70
0
  62
-7
   6
CONTINUOUS
   0
LAYER
   2
LEVEL001
  70
0
  62
7
   6
CONTINUOUS
   0
LAYER
   2
LEVEL003
  70
0
  62
7
   6
CONTINUOUS
   0
LAYER
   2
LEVEL004
  70
0
  62
7
   6
CONTINUOUS
   0
ENDTAB
   0
ENDSEC
   0
SECTION
   2
ENTITIES
   0
TEXT
   8
LEVEL003
  62
7
  10
 739.264
  20
 26.2473
  30
0.0
  40
 20.0000
   1
ＯＳＡＫＡ ＪＡＣＫ
   7
STANDARD
   0
CIRCLE
   8
LEVEL003
   6
CONTINUOUS
  62
7
  10
 715.318
  20
 40.3487
  30
0.0
  40
 6.00000
   0
LINE
   8
LEVEL003
   6
CONTINUOUS
  62
7
  10
 727.094
  20
 46.3487
  30
0.0
  11
 719.476
  21
 33.1487
  31
0.0
   0
LINE
   8
LEVEL003
   6
CONTINUOUS
  62
7
  10
 719.476
  20
 33.1487
  30
0.0
  11
 704.234
  21
 33.1487
  31
0.0
   0
LINE
   8
LEVEL003
   6
CONTINUOUS
  62
7
  10
 702.500
  20
 30.1487
  30
0.0
  11
 729.742
  21
 30.1487
  31
0.0
   0
LINE
   8
LEVEL003
   6
CONTINUOUS
  62
7
  10
 729.742
  20
 30.1487
  30
0.0
  11
 739.094
  21
 46.3487
  31
0.0
   0
LINE
   8
LEVEL003
   6
CONTINUOUS
  62
7
  10
 739.094
  20
 46.3487
  30
0.0
  11
 727.094
  21
 46.3487
  31
0.0
   0
LINE
   8
LEVEL003
   6
CONTINUOUS
  62
7
  10
 704.234
  20
 33.1487
  30
0.0
  11
 702.500
  21
 30.1487
  31
0.0
   0
TEXT
   8
LEVEL003
  62
7
  10
 745.086
  20
 60.0341
  30
0.0
  40
 12.0000
   1
Model : ＷＪ０５Ｕ
   7
STANDARD
   0
LINE
   8
LEVEL001
   6
CONTINUOUS
  62
7
  10
 469.750
  20
 400.268
  30
0.0
  11
 469.750
  21
 34.0000
  31
0.0
   0
LINE
   8
LEVEL001
   6
CONTINUOUS
  62
7
  10
 530.250
  20
 34.0000
  30
0.0
  11
 469.750
  21
 34.0000
  31
0.0
   0
LINE
   8
LEVEL001
   6
CONTINUOUS
  62
7
  10
 530.250
  20
 400.268
  30
0.0
  11
 530.250
  21
 34.0000
  31
0.0
   0
LINE
   8
LEVEL001
   6
CONTINUOUS
  62
7
  10
 491.803
  20
 30.0000
  30
0.0
  11
 492.503
  21
 29.3000
  31
0.0
   0
LINE
   8
LEVEL001
   6
CONTINUOUS
  62
7
  10
 507.497
  20
 29.3000
  30
0.0
  11
 508.197
  21
 30.0000
  31
0.0
   0
LINE
   8
LEVEL001
   6
CONTINUOUS
  62
7
  10
 528.000
  20
 30.0000
  30
0.0
  11
 472.000
  21
 30.0000
  31
0.0
   0
LINE
   8
LEVEL001
   6
CONTINUOUS
  62
7
  10
 530.250
  20
 34.0000
  30
0.0
  11
 528.000
  21
 30.0000
  31
0.0
   0
LINE
   8
LEVEL001
   6
CONTINUOUS
  62
7
  10
 492.503
  20
 29.3000
  30
0.0
  11
 492.525
  21
 30.0000
  31
0.0
   0
LINE
   8
LEVEL001
   6
CONTINUOUS
  62
7
  10
 507.497
  20
 29.3000
  30
0.0
  11
 507.475
  21
 30.0000
  31
0.0
   0
LINE
   8
LEVEL001
   6
CONTINUOUS
  62
7
  10
 492.503
  20
 29.3000
  30
0.0
  11
 507.497
  21
 29.3000
  31
0.0
   0
LINE
   8
LEVEL001
   6
CONTINUOUS
  62
7
  10
 469.750
  20
 34.0000
  30
0.0
  11
 472.000
  21
 30.0000
  31
0.0
   0
ARC
   8
LEVEL001
   6
CONTINUOUS
  62
7
  10
 569.000
  20
 538.500
  30
0.0
  40
 2.00000
  50
0.0
  51
 90.0000
   0
LINE
   8
LEVEL001
   6
CONTINUOUS
  62
7
  10
 574.837
  20
 444.401
  30
0.0
  11
 590.694
  21
 432.605
  31
0.0
   0
ARC
   8
LEVEL001
   6
CONTINUOUS
  62
7
  10
 582.000
  20
 454.029
  30
0.0
  40
 12.0000
  50
 180.000
  51
 233.352
   0
LINE
   8
LEVEL001
   6
CONTINUOUS
  62
7
  10
 567.220
  20
 503.099
  30
0.0
  11
 561.052
  21
 496.663
  31
0.0
   0
ARC
   8
LEVEL001
   6
CONTINUOUS
  62
7
  10
 568.272
  20
 489.744
  30
0.0
  40
 10.0000
  50
 136.219
  51
 176.716
   0
LINE
   8
LEVEL001
   6
CONTINUOUS
  62
7
  10
 558.289
  20
 490.317
  30
0.0
  11
 555.485
  21
 441.458
  31
0.0
   0
ARC
   8
LEVEL001
   6
CONTINUOUS
  62
7
  10
 560.000
  20
 510.018
  30
0.0
  40
 10.0000
  50
 316.219
  51
0.0
   0
ARC
   8
LEVEL001
   6
CONTINUOUS
  62
7
  10
 589.500
  20
 431.000
  30
0.0
  40
 2.00000
  50
0.0
  51
 90.0000
   0
ARC
   8
LEVEL001
   6
CONTINUOUS
  62
7
  10
 563.472
  20
 441.000
  30
0.0
  40
 8.00000
  50
 176.716
  51
 270.000
   0
LINE
   8
LEVEL001
   6
CONTINUOUS
  62
7
  10
 395.899
  20
 444.945
  30
0.0
  11
 374.509
  21
 432.737
  31
0.0
   0
ARC
   8
LEVEL001
   6
CONTINUOUS
  62
7
  10
 390.942
  20
 453.630
  30
0.0
  40
 10.0000
  50
 299.714
  51
 344.753
   0
ARC
   8
LEVEL001
   6
CONTINUOUS
  62
7
  10
 446.000
  20
 475.000
  30
0.0
  40
 37.5000
  50
 126.191
  51
 228.353
   0
ARC
   8
LEVEL001
   6
CONTINUOUS
  62
7
  10
 415.763
  20
 441.000
  30
0.0
  40
 8.00000
  50
 270.000
  51
 48.3530
   0
LINE
   8
LEVEL001
   6
CONTINUOUS
  62
7
  10
 375.500
  20
 433.000
  30
0.0
  11
 415.763
  21
 433.000
  31
0.0
   0
ARC
   8
LEVEL001
   6
CONTINUOUS
  62
7
  10
 415.000
  20
 517.370
  30
0.0
  40
 15.0000
  50
 306.191
  51
 0.564527E-11
   0
LINE
   8
LEVEL001
   6
CONTINUOUS
  62
7
  10
 430.000
  20
 517.370
  30
0.0
  11
 430.000
  21
 530.000
  31
0.0
   0
LINE
   8
LEVEL001
   6
CONTINUOUS
  62
7
  10
 373.500
  20
 431.000
  30
0.0
  11
 373.500
  21
 420.000
  31
0.0
   0
ARC
   8
LEVEL001
   6
CONTINUOUS
  62
7
  10
 375.500
  20
 431.000
  30
0.0
  40
 2.00000
  50
 90.0000
  51
 180.000
   0
LINE
   8
LEVEL001
   6
CONTINUOUS
  62
7
  10
 495.000
  20
 575.500
  30
0.0
  11
 479.000
  21
 575.500
  31
0.0
   0
LINE
   8
LEVEL001
   6
CONTINUOUS
  62
7
  10
 521.000
  20
 575.500
  30
0.0
  11
 505.000
  21
 575.500
  31
0.0
   0
LINE
   8
LEVEL001
   6
CONTINUOUS
  62
7
  10
 505.000
  20
 600.155
  30
0.0
  11
 495.000
  21
 600.155
  31
0.0
   0
LINE
   8
LEVEL001
   6
CONTINUOUS
  62
7
  10
 472.000
  20
 404.000
  30
0.0
  11
 471.000
  21
 400.268
  31
0.0
   0
LINE
   8
LEVEL001
   6
CONTINUOUS
  62
7
  10
 464.000
  20
 407.000
  30
0.0
  11
 466.000
  21
 405.000
  31
0.0
   0
LINE
   8
LEVEL001
   6
CONTINUOUS
  62
7
  10
 464.000
  20
 417.000
  30
0.0
  11
 464.000
  21
 407.000
  31
0.0
   0
ARC
   8
LEVEL001
   6
CONTINUOUS
  62
7
  10
 461.000
  20
 417.000
  30
0.0
  40
 3.00000
  50
0.0
  51
 90.0000
   0
LINE
   8
LEVEL001
   6
CONTINUOUS
  62
7
  10
 479.250
  20
 575.500
  30
0.0
  11
 479.250
  21
 572.500
  31
0.0
   0
LINE
   8
LEVEL001
   6
CONTINUOUS
  62
7
  10
 466.409
  20
 569.594
  30
0.0
  11
 465.742
  21
 548.250
  31
0.0
   0
ARC
   8
LEVEL001
   6
CONTINUOUS
  62
7
  10
 469.408
  20
 569.500
  30
0.0
  40
 3.00000
  50
 90.0000
  51
 178.210
   0
ARC
   8
LEVEL001
   6
CONTINUOUS
  62
7
  10
 431.000
  20
 538.500
  30
0.0
  40
 2.00000
  50
 90.0000
  51
 180.000
   0
LINE
   8
LEVEL001
   6
CONTINUOUS
  62
7
  10
 429.000
  20
 530.500
  30
0.0
  11
 429.000
  21
 538.500
  31
0.0
   0
LINE
   8
LEVEL001
   6
CONTINUOUS
  62
7
  10
 528.000
  20
 418.000
  30
0.0
  11
 527.900
  21
 418.000
  31
0.0
   0
LINE
   8
LEVEL001
   6
CONTINUOUS
  62
7
  10
 528.000
  20
 404.000
  30
0.0
  11
 529.000
  21
 400.268
  31
0.0
   0
LINE
   8
LEVEL001
   6
CONTINUOUS
  62
7
  10
 520.750
  20
 575.500
  30
0.0
  11
 520.750
  21
 572.500
  31
0.0
   0
LINE
   8
LEVEL001
   6
CONTINUOUS
  62
7
  10
 533.591
  20
 569.594
  30
0.0
  11
 534.258
  21
 548.250
  31
0.0
   0
ARC
   8
LEVEL001
   6
CONTINUOUS
  62
7
  10
 530.592
  20
 569.500
  30
0.0
  40
 3.00000
  50
 1.78990
  51
 90.0000
   0
LINE
   8
LEVEL001
   6
CONTINUOUS
  62
7
  10
 536.000
  20
 407.000
  30
0.0
  11
 534.000
  21
 405.000
  31
0.0
   0
LINE
   8
LEVEL001
   6
CONTINUOUS
  62
7
  10
 536.000
  20
 417.000
  30
0.0
  11
 536.000
  21
 407.000
  31
0.0
   0
ARC
   8
LEVEL001
   6
CONTINUOUS
  62
7
  10
 539.000
  20
 417.000
  30
0.0
  40
 3.00000
  50
 90.0000
  51
 180.000
   0
LINE
   8
LEVEL001
   6
CONTINUOUS
  62
7
  10
 466.000
  20
 405.000
  30
0.0
  11
 534.000
  21
 405.000
  31
0.0
   0
LINE
   8
LEVEL001
   6
CONTINUOUS
  62
7
  10
 536.000
  20
 407.000
  30
0.0
  11
 464.000
  21
 407.000
  31
0.0
   0
LINE
   8
LEVEL001
   6
CONTINUOUS
  62
7
  10
 591.500
  20
 431.000
  30
0.0
  11
 591.500
  21
 420.000
  31
0.0
   0
LINE
   8
LEVEL001
   6
CONTINUOUS
  62
7
  10
 373.500
  20
 420.000
  30
0.0
  11
 591.500
  21
 420.000
  31
0.0
   0
LINE
   8
LEVEL001
   6
CONTINUOUS
  62
7
  10
 529.000
  20
 405.000
  30
0.0
  11
 529.000
  21
 400.268
  31
0.0
   0
LINE
   8
LEVEL001
   6
CONTINUOUS
  62
7
  10
 528.000
  20
 405.000
  30
0.0
  11
 528.000
  21
 404.000
  31
0.0
   0
LINE
   8
LEVEL001
   6
CONTINUOUS
  62
7
  10
 471.000
  20
 405.000
  30
0.0
  11
 471.000
  21
 400.268
  31
0.0
   0
LINE
   8
LEVEL001
   6
CONTINUOUS
  62
7
  10
 472.000
  20
 405.000
  30
0.0
  11
 472.000
  21
 404.000
  31
0.0
   0
LINE
   8
LEVEL001
   6
CONTINUOUS
  62
7
  10
 530.250
  20
 400.268
  30
0.0
  11
 469.750
  21
 400.268
  31
0.0
   0
LINE
   8
LEVEL001
   6
CONTINUOUS
  62
7
  10
 529.000
  20
 404.000
  30
0.0
  11
 471.000
  21
 404.000
  31
0.0
   0
LINE
   8
LEVEL001
   6
CONTINUOUS
  62
7
  10
 430.000
  20
 530.000
  30
0.0
  11
 570.000
  21
 530.000
  31
0.0
   0
LINE
   8
LEVEL001
   6
CONTINUOUS
  62
7
  10
 570.000
  20
 454.029
  30
0.0
  11
 570.000
  21
 530.000
  31
0.0
   0
LINE
   8
LEVEL001
   6
CONTINUOUS
  62
7
  10
 429.000
  20
 530.500
  30
0.0
  11
 571.000
  21
 530.500
  31
0.0
   0
LINE
   8
LEVEL001
   6
CONTINUOUS
  62
7
  10
 571.000
  20
 530.500
  30
0.0
  11
 571.000
  21
 538.500
  31
0.0
   0
LINE
   8
LEVEL001
   6
CONTINUOUS
  62
7
  10
 431.000
  20
 540.500
  30
0.0
  11
 569.000
  21
 540.500
  31
0.0
   0
CIRCLE
   8
LEVEL001
   6
CONTINUOUS
  62
7
  10
 446.000
  20
 475.000
  30
0.0
  40
 37.0000
   0
CIRCLE
   8
LEVEL001
   6
CONTINUOUS
  62
7
  10
 446.000
  20
 475.000
  30
0.0
  40
 19.0000
   0
LINE
   8
LEVEL001
   6
CONTINUOUS
  62
7
  10
 449.000
  20
 482.500
  30
0.0
  11
 443.000
  21
 482.500
  31
0.0
   0
ARC
   8
LEVEL001
   6
CONTINUOUS
  62
7
  10
 446.000
  20
 475.000
  30
0.0
  40
 10.0000
  50
 107.458
  51
 72.5424
   0
ARC
   8
LEVEL001
   6
CONTINUOUS
  62
7
  10
 446.000
  20
 475.000
  30
0.0
  40
 11.0000
  50
 105.827
  51
 74.1734
   0
LINE
   8
LEVEL001
   6
CONTINUOUS
  62
7
  10
 530.592
  20
 572.500
  30
0.0
  11
 469.408
  21
 572.500
  31
0.0
   0
LINE
   8
LEVEL001
   6
CONTINUOUS
  62
7
  10
 505.000
  20
 600.155
  30
0.0
  11
 505.000
  21
 572.500
  31
0.0
   0
LINE
   8
LEVEL001
   6
CONTINUOUS
  62
7
  10
 495.000
  20
 600.155
  30
0.0
  11
 495.000
  21
 572.500
  31
0.0
   0
ARC
   8
LEVEL001
   6
CONTINUOUS
  62
7
  10
 411.521
  20
 472.500
  30
0.0
  40
 7.22070
  50
 159.743
  51
 200.257
   0
ARC
   8
LEVEL001
   6
CONTINUOUS
  62
7
  10
 411.521
  20
 477.500
  30
0.0
  40
 7.22070
  50
 159.743
  51
 200.257
   0
LINE
   8
LEVEL001
   6
CONTINUOUS
  62
7
  10
 407.454
  20
 475.000
  30
0.0
  11
 404.747
  21
 475.000
  31
0.0
   0
LINE
   8
LEVEL001
   6
CONTINUOUS
  62
7
  10
 404.300
  20
 480.000
  30
0.0
  11
 404.300
  21
 470.000
  31
0.0
   0
ARC
   8
LEVEL001
   6
CONTINUOUS
  62
7
  10
 392.972
  20
 480.987
  30
0.0
  40
 0.800000
  50
 357.573
  51
 48.4260
   0
ARC
   8
LEVEL001
   6
CONTINUOUS
  62
7
  10
 399.786
  20
 483.809
  30
0.0
  40
 0.800000
  50
 176.573
  51
 227.428
   0
ARC
   8
LEVEL001
   6
CONTINUOUS
  62
7
  10
 394.755
  20
 486.318
  30
0.0
  40
 1.00000
  50
 36.9770
  51
 188.021
   0
LINE
   8
LEVEL001
   6
CONTINUOUS
  62
7
  10
 399.044
  20
 483.509
  30
0.0
  11
 393.720
  21
 481.304
  31
0.0
   0
ARC
   8
LEVEL001
   6
CONTINUOUS
  62
7
  10
 399.680
  20
 483.322
  30
0.0
  40
 3.20000
  50
 266.903
  51
 294.232
   0
ARC
   8
LEVEL001
   6
CONTINUOUS
  62
7
  10
 393.391
  20
 480.718
  30
0.0
  40
 3.20000
  50
 290.767
  51
 318.097
   0
ARC
   8
LEVEL001
   6
CONTINUOUS
  62
7
  10
 394.921
  20
 477.025
  30
0.0
  40
 3.20000
  50
 86.9030
  51
 114.232
   0
ARC
   8
LEVEL001
   6
CONTINUOUS
  62
7
  10
 401.209
  20
 479.630
  30
0.0
  40
 3.20000
  50
 110.768
  51
 138.098
   0
ARC
   8
LEVEL001
   6
CONTINUOUS
  62
7
  10
 395.200
  20
 485.243
  30
0.0
  40
 6.68738
  50
 274.912
  51
 310.088
   0
ARC
   8
LEVEL001
   6
CONTINUOUS
  62
7
  10
 399.400
  20
 475.104
  30
0.0
  40
 6.68738
  50
 94.9120
  51
 130.088
   0
LINE
   8
LEVEL001
   6
CONTINUOUS
  62
7
  10
 399.507
  20
 480.127
  30
0.0
  11
 398.828
  21
 481.767
  31
0.0
   0
LINE
   8
LEVEL001
   6
CONTINUOUS
  62
7
  10
 395.773
  20
 478.581
  30
0.0
  11
 395.094
  21
 480.220
  31
0.0
   0
ARC
   8
LEVEL001
   6
CONTINUOUS
  62
7
  10
 395.693
  20
 484.054
  30
0.0
  40
 3.30000
  50
 356.582
  51
 22.5000
   0
ARC
   8
LEVEL001
   6
CONTINUOUS
  62
7
  10
 395.693
  20
 484.054
  30
0.0
  40
 3.30000
  50
 202.500
  51
 228.418
   0
ARC
   8
LEVEL001
   6
CONTINUOUS
  62
7
  10
 395.693
  20
 484.054
  30
0.0
  40
 6.43506
  50
 259.551
  51
 325.449
   0
ARC
   8
LEVEL001
   6
CONTINUOUS
  62
7
  10
 399.443
  20
 475.000
  30
0.0
  40
 5.62228
  50
 151.001
  51
 242.788
   0
ARC
   8
LEVEL001
   6
CONTINUOUS
  62
7
  10
 387.777
  20
 481.208
  30
0.0
  40
 6.00000
  50
 347.981
  51
 357.567
   0
ARC
   8
LEVEL001
   6
CONTINUOUS
  62
7
  10
 403.303
  20
 487.639
  30
0.0
  40
 6.00000
  50
 227.432
  51
 237.018
   0
LINE
   8
LEVEL001
   6
CONTINUOUS
  62
7
  10
 407.900
  20
 480.000
  30
0.0
  11
 400.691
  21
 480.000
  31
0.0
   0
LINE
   8
LEVEL001
   6
CONTINUOUS
  62
7
  10
 394.660
  20
 486.548
  30
0.0
  11
 396.877
  21
 487.467
  31
0.0
   0
LINE
   8
LEVEL001
   6
CONTINUOUS
  62
7
  10
 396.877
  20
 487.467
  30
0.0
  11
 398.742
  21
 485.317
  31
0.0
   0
LINE
   8
LEVEL001
   6
CONTINUOUS
  62
7
  10
 398.742
  20
 485.317
  30
0.0
  11
 395.693
  21
 484.054
  31
0.0
   0
LINE
   8
LEVEL001
   6
CONTINUOUS
  62
7
  10
 395.693
  20
 484.054
  30
0.0
  11
 392.644
  21
 482.791
  31
0.0
   0
LINE
   8
LEVEL001
   6
CONTINUOUS
  62
7
  10
 392.644
  20
 482.791
  30
0.0
  11
 392.443
  21
 485.630
  31
0.0
   0
LINE
   8
LEVEL001
   6
CONTINUOUS
  62
7
  10
 392.443
  20
 485.630
  30
0.0
  11
 394.660
  21
 486.548
  31
0.0
   0
LINE
   8
LEVEL001
   6
CONTINUOUS
  62
7
  10
 401.374
  20
 480.900
  30
0.0
  11
 400.993
  21
 480.404
  31
0.0
   0
LINE
   8
LEVEL001
   6
CONTINUOUS
  62
7
  10
 400.993
  20
 480.404
  30
0.0
  11
 394.526
  21
 477.726
  31
0.0
   0
LINE
   8
LEVEL001
   6
CONTINUOUS
  62
7
  10
 394.526
  20
 477.726
  30
0.0
  11
 393.906
  21
 477.807
  31
0.0
   0
LINE
   8
LEVEL001
   6
CONTINUOUS
  62
7
  10
 393.906
  20
 477.807
  30
0.0
  11
 393.227
  21
 479.447
  31
0.0
   0
LINE
   8
LEVEL001
   6
CONTINUOUS
  62
7
  10
 393.227
  20
 479.447
  30
0.0
  11
 393.608
  21
 479.943
  31
0.0
   0
LINE
   8
LEVEL001
   6
CONTINUOUS
  62
7
  10
 393.608
  20
 479.943
  30
0.0
  11
 400.075
  21
 482.622
  31
0.0
   0
LINE
   8
LEVEL001
   6
CONTINUOUS
  62
7
  10
 400.075
  20
 482.622
  30
0.0
  11
 400.695
  21
 482.540
  31
0.0
   0
LINE
   8
LEVEL001
   6
CONTINUOUS
  62
7
  10
 400.695
  20
 482.540
  30
0.0
  11
 401.374
  21
 480.900
  31
0.0
   0
LINE
   8
LEVEL001
   6
CONTINUOUS
  62
7
  10
 407.900
  20
 479.883
  30
0.0
  11
 408.342
  21
 479.441
  31
0.0
   0
LINE
   8
LEVEL001
   6
CONTINUOUS
  62
7
  10
 464.708
  20
 548.500
  30
0.0
  11
 465.574
  21
 548.000
  31
0.0
   0
LINE
   8
LEVEL001
   6
CONTINUOUS
  62
7
  10
 450.440
  20
 548.500
  30
0.0
  11
 464.708
  21
 548.500
  31
0.0
   0
LINE
   8
LEVEL001
   6
CONTINUOUS
  62
7
  10
 449.574
  20
 548.000
  30
0.0
  11
 450.440
  21
 548.500
  31
0.0
   0
LINE
   8
LEVEL001
   6
CONTINUOUS
  62
7
  10
 465.574
  20
 548.000
  30
0.0
  11
 449.574
  21
 548.000
  31
0.0
   0
LINE
   8
LEVEL001
   6
CONTINUOUS
  62
7
  10
 465.574
  20
 548.000
  30
0.0
  11
 465.574
  21
 540.500
  31
0.0
   0
LINE
   8
LEVEL001
   6
CONTINUOUS
  62
7
  10
 449.574
  20
 540.500
  30
0.0
  11
 449.574
  21
 548.000
  31
0.0
   0
LINE
   8
LEVEL001
   6
CONTINUOUS
  62
7
  10
 549.560
  20
 548.500
  30
0.0
  11
 550.426
  21
 548.000
  31
0.0
   0
LINE
   8
LEVEL001
   6
CONTINUOUS
  62
7
  10
 535.292
  20
 548.500
  30
0.0
  11
 549.560
  21
 548.500
  31
0.0
   0
LINE
   8
LEVEL001
   6
CONTINUOUS
  62
7
  10
 534.426
  20
 548.000
  30
0.0
  11
 535.292
  21
 548.500
  31
0.0
   0
LINE
   8
LEVEL001
   6
CONTINUOUS
  62
7
  10
 550.426
  20
 548.000
  30
0.0
  11
 534.426
  21
 548.000
  31
0.0
   0
LINE
   8
LEVEL001
   6
CONTINUOUS
  62
7
  10
 550.426
  20
 548.000
  30
0.0
  11
 550.426
  21
 540.500
  31
0.0
   0
LINE
   8
LEVEL001
   6
CONTINUOUS
  62
7
  10
 534.426
  20
 540.500
  30
0.0
  11
 534.426
  21
 548.000
  31
0.0
   0
CIRCLE
   8
LEVEL001
   6
CONTINUOUS
  62
7
  10
 500.000
  20
 562.500
  30
0.0
  40
 5.50000
   0
CIRCLE
   8
LEVEL001
   6
CONTINUOUS
  62
7
  10
 500.000
  20
 562.500
  30
0.0
  40
 5.00000
   0
LINE
   8
LEVEL001
   6
CONTINUOUS
  62
7
  10
 500.000
  20
 559.613
  30
0.0
  11
 502.500
  21
 561.057
  31
0.0
   0
LINE
   8
LEVEL001
   6
CONTINUOUS
  62
7
  10
 502.500
  20
 561.057
  30
0.0
  11
 502.500
  21
 563.943
  31
0.0
   0
LINE
   8
LEVEL001
   6
CONTINUOUS
  62
7
  10
 502.500
  20
 563.943
  30
0.0
  11
 500.000
  21
 565.387
  31
0.0
   0
LINE
   8
LEVEL001
   6
CONTINUOUS
  62
7
  10
 500.000
  20
 565.387
  30
0.0
  11
 497.500
  21
 563.943
  31
0.0
   0
LINE
   8
LEVEL001
   6
CONTINUOUS
  62
7
  10
 497.500
  20
 563.943
  30
0.0
  11
 497.500
  21
 561.057
  31
0.0
   0
LINE
   8
LEVEL001
   6
CONTINUOUS
  62
7
  10
 497.500
  20
 561.057
  30
0.0
  11
 500.000
  21
 559.613
  31
0.0
   0
CIRCLE
   8
LEVEL001
   6
CONTINUOUS
  62
7
  10
 500.000
  20
 547.500
  30
0.0
  40
 5.50000
   0
CIRCLE
   8
LEVEL001
   6
CONTINUOUS
  62
7
  10
 500.000
  20
 547.500
  30
0.0
  40
 5.00000
   0
LINE
   8
LEVEL001
   6
CONTINUOUS
  62
7
  10
 500.000
  20
 544.613
  30
0.0
  11
 502.500
  21
 546.057
  31
0.0
   0
LINE
   8
LEVEL001
   6
CONTINUOUS
  62
7
  10
 502.500
  20
 546.057
  30
0.0
  11
 502.500
  21
 548.943
  31
0.0
   0
LINE
   8
LEVEL001
   6
CONTINUOUS
  62
7
  10
 502.500
  20
 548.943
  30
0.0
  11
 500.000
  21
 550.387
  31
0.0
   0
LINE
   8
LEVEL001
   6
CONTINUOUS
  62
7
  10
 500.000
  20
 550.387
  30
0.0
  11
 497.500
  21
 548.943
  31
0.0
   0
LINE
   8
LEVEL001
   6
CONTINUOUS
  62
7
  10
 497.500
  20
 548.943
  30
0.0
  11
 497.500
  21
 546.057
  31
0.0
   0
LINE
   8
LEVEL001
   6
CONTINUOUS
  62
7
  10
 497.500
  20
 546.057
  30
0.0
  11
 500.000
  21
 544.613
  31
0.0
   0
LINE
   8
LEVEL001
   6
CONTINUOUS
  62
7
  10
 169.750
  20
 400.268
  30
0.0
  11
 169.750
  21
 34.0000
  31
0.0
   0
LINE
   8
LEVEL001
   6
CONTINUOUS
  62
7
  10
 230.250
  20
 34.0000
  30
0.0
  11
 169.750
  21
 34.0000
  31
0.0
   0
LINE
   8
LEVEL001
   6
CONTINUOUS
  62
7
  10
 230.250
  20
 400.268
  30
0.0
  11
 230.250
  21
 34.0000
  31
0.0
   0
LINE
   8
LEVEL001
   6
CONTINUOUS
  62
7
  10
 191.803
  20
 30.0000
  30
0.0
  11
 192.503
  21
 29.3000
  31
0.0
   0
LINE
   8
LEVEL001
   6
CONTINUOUS
  62
7
  10
 207.497
  20
 29.3000
  30
0.0
  11
 208.197
  21
 30.0000
  31
0.0
   0
LINE
   8
LEVEL001
   6
CONTINUOUS
  62
7
  10
 228.000
  20
 30.0000
  30
0.0
  11
 172.000
  21
 30.0000
  31
0.0
   0
LINE
   8
LEVEL001
   6
CONTINUOUS
  62
7
  10
 230.250
  20
 34.0000
  30
0.0
  11
 228.000
  21
 30.0000
  31
0.0
   0
LINE
   8
LEVEL001
   6
CONTINUOUS
  62
7
  10
 192.503
  20
 29.3000
  30
0.0
  11
 192.525
  21
 30.0000
  31
0.0
   0
LINE
   8
LEVEL001
   6
CONTINUOUS
  62
7
  10
 207.497
  20
 29.3000
  30
0.0
  11
 207.475
  21
 30.0000
  31
0.0
   0
LINE
   8
LEVEL001
   6
CONTINUOUS
  62
7
  10
 192.503
  20
 29.3000
  30
0.0
  11
 207.497
  21
 29.3000
  31
0.0
   0
LINE
   8
LEVEL001
   6
CONTINUOUS
  62
7
  10
 169.750
  20
 34.0000
  30
0.0
  11
 172.000
  21
 30.0000
  31
0.0
   0
ARC
   8
LEVEL001
   6
CONTINUOUS
  62
7
  10
 269.000
  20
 538.500
  30
0.0
  40
 2.00000
  50
0.0
  51
 90.0000
   0
LINE
   8
LEVEL001
   6
CONTINUOUS
  62
7
  10
 172.000
  20
 404.000
  30
0.0
  11
 171.000
  21
 400.268
  31
0.0
   0
LINE
   8
LEVEL001
   6
CONTINUOUS
  62
7
  10
 164.000
  20
 407.000
  30
0.0
  11
 166.000
  21
 405.000
  31
0.0
   0
LINE
   8
LEVEL001
   6
CONTINUOUS
  62
7
  10
 164.000
  20
 417.000
  30
0.0
  11
 164.000
  21
 407.000
  31
0.0
   0
ARC
   8
LEVEL001
   6
CONTINUOUS
  62
7
  10
 161.000
  20
 417.000
  30
0.0
  40
 3.00000
  50
0.0
  51
 90.0000
   0
LINE
   8
LEVEL001
   6
CONTINUOUS
  62
7
  10
 179.250
  20
 575.500
  30
0.0
  11
 179.250
  21
 572.500
  31
0.0
   0
LINE
   8
LEVEL001
   6
CONTINUOUS
  62
7
  10
 166.409
  20
 569.594
  30
0.0
  11
 165.742
  21
 548.250
  31
0.0
   0
ARC
   8
LEVEL001
   6
CONTINUOUS
  62
7
  10
 169.408
  20
 569.500
  30
0.0
  40
 3.00000
  50
 90.0000
  51
 178.210
   0
ARC
   8
LEVEL001
   6
CONTINUOUS
  62
7
  10
 131.000
  20
 538.500
  30
0.0
  40
 2.00000
  50
 90.0000
  51
 180.000
   0
LINE
   8
LEVEL001
   6
CONTINUOUS
  62
7
  10
 129.000
  20
 530.500
  30
0.0
  11
 129.000
  21
 538.500
  31
0.0
   0
LINE
   8
LEVEL001
   6
CONTINUOUS
  62
7
  10
 228.000
  20
 418.000
  30
0.0
  11
 227.900
  21
 418.000
  31
0.0
   0
LINE
   8
LEVEL001
   6
CONTINUOUS
  62
7
  10
 228.000
  20
 404.000
  30
0.0
  11
 229.000
  21
 400.268
  31
0.0
   0
LINE
   8
LEVEL001
   6
CONTINUOUS
  62
7
  10
 220.750
  20
 575.500
  30
0.0
  11
 220.750
  21
 572.500
  31
0.0
   0
LINE
   8
LEVEL001
   6
CONTINUOUS
  62
7
  10
 233.591
  20
 569.594
  30
0.0
  11
 234.258
  21
 548.250
  31
0.0
   0
ARC
   8
LEVEL001
   6
CONTINUOUS
  62
7
  10
 230.592
  20
 569.500
  30
0.0
  40
 3.00000
  50
 1.78990
  51
 90.0000
   0
LINE
   8
LEVEL001
   6
CONTINUOUS
  62
7
  10
 236.000
  20
 407.000
  30
0.0
  11
 234.000
  21
 405.000
  31
0.0
   0
LINE
   8
LEVEL001
   6
CONTINUOUS
  62
7
  10
 236.000
  20
 417.000
  30
0.0
  11
 236.000
  21
 407.000
  31
0.0
   0
ARC
   8
LEVEL001
   6
CONTINUOUS
  62
7
  10
 239.000
  20
 417.000
  30
0.0
  40
 3.00000
  50
 90.0000
  51
 180.000
   0
LINE
   8
LEVEL001
   6
CONTINUOUS
  62
7
  10
 166.000
  20
 405.000
  30
0.0
  11
 234.000
  21
 405.000
  31
0.0
   0
LINE
   8
LEVEL001
   6
CONTINUOUS
  62
7
  10
 236.000
  20
 407.000
  30
0.0
  11
 164.000
  21
 407.000
  31
0.0
   0
LINE
   8
LEVEL001
   6
CONTINUOUS
  62
7
  10
 229.000
  20
 405.000
  30
0.0
  11
 229.000
  21
 400.268
  31
0.0
   0
LINE
   8
LEVEL001
   6
CONTINUOUS
  62
7
  10
 228.000
  20
 405.000
  30
0.0
  11
 228.000
  21
 404.000
  31
0.0
   0
LINE
   8
LEVEL001
   6
CONTINUOUS
  62
7
  10
 171.000
  20
 405.000
  30
0.0
  11
 171.000
  21
 400.268
  31
0.0
   0
LINE
   8
LEVEL001
   6
CONTINUOUS
  62
7
  10
 172.000
  20
 405.000
  30
0.0
  11
 172.000
  21
 404.000
  31
0.0
   0
LINE
   8
LEVEL001
   6
CONTINUOUS
  62
7
  10
 230.250
  20
 400.268
  30
0.0
  11
 169.750
  21
 400.268
  31
0.0
   0
LINE
   8
LEVEL001
   6
CONTINUOUS
  62
7
  10
 229.000
  20
 404.000
  30
0.0
  11
 171.000
  21
 404.000
  31
0.0
   0
LINE
   8
LEVEL001
   6
CONTINUOUS
  62
7
  10
 130.000
  20
 530.000
  30
0.0
  11
 270.000
  21
 530.000
  31
0.0
   0
LINE
   8
LEVEL001
   6
CONTINUOUS
  62
7
  10
 129.000
  20
 530.500
  30
0.0
  11
 271.000
  21
 530.500
  31
0.0
   0
LINE
   8
LEVEL001
   6
CONTINUOUS
  62
7
  10
 271.000
  20
 530.500
  30
0.0
  11
 271.000
  21
 538.500
  31
0.0
   0
LINE
   8
LEVEL001
   6
CONTINUOUS
  62
7
  10
 131.000
  20
 540.500
  30
0.0
  11
 269.000
  21
 540.500
  31
0.0
   0
LINE
   8
LEVEL001
   6
CONTINUOUS
  62
7
  10
 230.592
  20
 572.500
  30
0.0
  11
 169.408
  21
 572.500
  31
0.0
   0
LINE
   8
LEVEL001
   6
CONTINUOUS
  62
7
  10
 164.708
  20
 548.500
  30
0.0
  11
 165.574
  21
 548.000
  31
0.0
   0
LINE
   8
LEVEL001
   6
CONTINUOUS
  62
7
  10
 150.440
  20
 548.500
  30
0.0
  11
 164.708
  21
 548.500
  31
0.0
   0
LINE
   8
LEVEL001
   6
CONTINUOUS
  62
7
  10
 149.574
  20
 548.000
  30
0.0
  11
 150.440
  21
 548.500
  31
0.0
   0
LINE
   8
LEVEL001
   6
CONTINUOUS
  62
7
  10
 165.574
  20
 548.000
  30
0.0
  11
 149.574
  21
 548.000
  31
0.0
   0
LINE
   8
LEVEL001
   6
CONTINUOUS
  62
7
  10
 165.574
  20
 548.000
  30
0.0
  11
 165.574
  21
 540.500
  31
0.0
   0
LINE
   8
LEVEL001
   6
CONTINUOUS
  62
7
  10
 149.574
  20
 540.500
  30
0.0
  11
 149.574
  21
 548.000
  31
0.0
   0
LINE
   8
LEVEL001
   6
CONTINUOUS
  62
7
  10
 249.560
  20
 548.500
  30
0.0
  11
 250.426
  21
 548.000
  31
0.0
   0
LINE
   8
LEVEL001
   6
CONTINUOUS
  62
7
  10
 235.292
  20
 548.500
  30
0.0
  11
 249.560
  21
 548.500
  31
0.0
   0
LINE
   8
LEVEL001
   6
CONTINUOUS
  62
7
  10
 234.426
  20
 548.000
  30
0.0
  11
 235.292
  21
 548.500
  31
0.0
   0
LINE
   8
LEVEL001
   6
CONTINUOUS
  62
7
  10
 250.426
  20
 548.000
  30
0.0
  11
 234.426
  21
 548.000
  31
0.0
   0
LINE
   8
LEVEL001
   6
CONTINUOUS
  62
7
  10
 250.426
  20
 548.000
  30
0.0
  11
 250.426
  21
 540.500
  31
0.0
   0
LINE
   8
LEVEL001
   6
CONTINUOUS
  62
7
  10
 234.426
  20
 540.500
  30
0.0
  11
 234.426
  21
 548.000
  31
0.0
   0
LINE
   8
LEVEL001
   6
CONTINUOUS
  62
7
  10
 221.000
  20
 575.500
  30
0.0
  11
 179.000
  21
 575.500
  31
0.0
   0
LINE
   8
LEVEL001
   6
CONTINUOUS
  62
7
  10
 234.700
  20
 552.500
  30
0.0
  11
 234.700
  21
 548.158
  31
0.0
   0
LINE
   8
LEVEL001
   6
CONTINUOUS
  62
7
  10
 235.000
  20
 548.331
  30
0.0
  11
 235.000
  21
 551.980
  31
0.0
   0
LINE
   8
LEVEL001
   6
CONTINUOUS
  62
7
  10
 234.700
  20
 552.500
  30
0.0
  11
 234.125
  21
 552.500
  31
0.0
   0
LINE
   8
LEVEL001
   6
CONTINUOUS
  62
7
  10
 233.969
  20
 557.500
  30
0.0
  11
 234.700
  21
 557.500
  31
0.0
   0
LINE
   8
LEVEL001
   6
CONTINUOUS
  62
7
  10
 234.700
  20
 567.500
  30
0.0
  11
 233.656
  21
 567.500
  31
0.0
   0
LINE
   8
LEVEL001
   6
CONTINUOUS
  62
7
  10
 235.000
  20
 566.980
  30
0.0
  11
 234.700
  21
 567.500
  31
0.0
   0
LINE
   8
LEVEL001
   6
CONTINUOUS
  62
7
  10
 235.000
  20
 558.020
  30
0.0
  11
 235.000
  21
 566.980
  31
0.0
   0
LINE
   8
LEVEL001
   6
CONTINUOUS
  62
7
  10
 234.700
  20
 557.500
  30
0.0
  11
 235.000
  21
 558.020
  31
0.0
   0
LINE
   8
LEVEL001
   6
CONTINUOUS
  62
7
  10
 235.000
  20
 551.980
  30
0.0
  11
 234.700
  21
 552.500
  31
0.0
   0
LINE
   8
LEVEL001
   6
CONTINUOUS
  62
7
  10
 234.700
  20
 567.500
  30
0.0
  11
 234.700
  21
 557.500
  31
0.0
   0
ARC
   8
LEVEL001
   6
CONTINUOUS
  62
7
  10
 242.254
  20
 548.500
  30
0.0
  40
 8.00000
  50
 181.790
  51
 191.917
   0
ARC
   8
LEVEL001
   6
CONTINUOUS
  62
7
  10
 157.746
  20
 548.500
  30
0.0
  40
 8.00000
  50
 348.083
  51
 358.210
   0
ARC
   8
LEVEL001
   6
CONTINUOUS
  62
7
  10
 542.254
  20
 548.500
  30
0.0
  40
 8.00000
  50
 181.790
  51
 193.623
   0
ARC
   8
LEVEL001
   6
CONTINUOUS
  62
7
  10
 457.746
  20
 548.500
  30
0.0
  40
 8.00000
  50
 348.083
  51
 358.210
   0
LINE
   8
LEVEL001
   6
CONTINUOUS
  62
7
  10
 273.500
  20
 510.000
  30
0.0
  11
 273.500
  21
 440.000
  31
0.0
   0
LINE
   8
LEVEL001
   6
CONTINUOUS
  62
7
  10
 314.000
  20
 464.000
  30
0.0
  11
 315.000
  21
 465.000
  31
0.0
   0
LINE
   8
LEVEL001
   6
CONTINUOUS
  62
7
  10
 279.205
  20
 464.000
  30
0.0
  11
 314.000
  21
 464.000
  31
0.0
   0
ARC
   8
LEVEL001
   6
CONTINUOUS
  62
7
  10
 279.205
  20
 463.000
  30
0.0
  40
 1.00000
  50
 90.0000
  51
 113.199
   0
LINE
   8
LEVEL001
   6
CONTINUOUS
  62
7
  10
 126.500
  20
 510.000
  30
0.0
  11
 126.500
  21
 440.000
  31
0.0
   0
ARC
   8
LEVEL001
   6
CONTINUOUS
  62
7
  10
 128.500
  20
 510.000
  30
0.0
  40
 2.00000
  50
 90.0000
  51
 180.000
   0
ARC
   8
LEVEL001
   6
CONTINUOUS
  62
7
  10
 128.500
  20
 440.000
  30
0.0
  40
 2.00000
  50
 180.000
  51
 270.000
   0
LINE
   8
LEVEL001
   6
CONTINUOUS
  62
7
  10
 138.500
  20
 438.000
  30
0.0
  11
 128.500
  21
 438.000
  31
0.0
   0
ARC
   8
LEVEL001
   6
CONTINUOUS
  62
7
  10
 271.500
  20
 510.000
  30
0.0
  40
 2.00000
  50
0.0
  51
 90.0000
   0
ARC
   8
LEVEL001
   6
CONTINUOUS
  62
7
  10
 271.500
  20
 440.000
  30
0.0
  40
 2.00000
  50
 270.000
  51
0.0
   0
LINE
   8
LEVEL001
   6
CONTINUOUS
  62
7
  10
 261.500
  20
 438.000
  30
0.0
  11
 271.500
  21
 438.000
  31
0.0
   0
LINE
   8
LEVEL001
   6
CONTINUOUS
  62
7
  10
 275.500
  20
 487.419
  30
0.0
  11
 275.500
  21
 462.581
  31
0.0
   0
LINE
   8
LEVEL001
   6
CONTINUOUS
  62
7
  10
 275.689
  20
 462.581
  30
0.0
  11
 278.811
  21
 463.919
  31
0.0
   0
ARC
   8
LEVEL001
   6
CONTINUOUS
  62
7
  10
 275.295
  20
 463.500
  30
0.0
  40
 1.00000
  50
 270.000
  51
 293.199
   0
ARC
   8
LEVEL001
   6
CONTINUOUS
  62
7
  10
 275.295
  20
 486.500
  30
0.0
  40
 1.00000
  50
 66.8014
  51
 90.0000
   0
LINE
   8
LEVEL001
   6
CONTINUOUS
  62
7
  10
 255.000
  20
 433.000
  30
0.0
  11
 255.000
  21
 420.000
  31
0.0
   0
LINE
   8
LEVEL001
   6
CONTINUOUS
  62
7
  10
 145.000
  20
 420.000
  30
0.0
  11
 255.000
  21
 420.000
  31
0.0
   0
LINE
   8
LEVEL001
   6
CONTINUOUS
  62
7
  10
 145.000
  20
 433.000
  30
0.0
  11
 145.000
  21
 420.000
  31
0.0
   0
LINE
   8
LEVEL001
   6
CONTINUOUS
  62
7
  10
 261.500
  20
 512.000
  30
0.0
  11
 261.500
  21
 438.000
  31
0.0
   0
LINE
   8
LEVEL001
   6
CONTINUOUS
  62
7
  10
 261.500
  20
 512.000
  30
0.0
  11
 271.500
  21
 512.000
  31
0.0
   0
LINE
   8
LEVEL001
   6
CONTINUOUS
  62
7
  10
 261.250
  20
 511.000
  30
0.0
  11
 261.250
  21
 439.000
  31
0.0
   0
LINE
   8
LEVEL001
   6
CONTINUOUS
  62
7
  10
 270.000
  20
 512.000
  30
0.0
  11
 270.000
  21
 530.000
  31
0.0
   0
LINE
   8
LEVEL001
   6
CONTINUOUS
  62
7
  10
 138.500
  20
 512.000
  30
0.0
  11
 138.500
  21
 438.000
  31
0.0
   0
LINE
   8
LEVEL001
   6
CONTINUOUS
  62
7
  10
 138.500
  20
 512.000
  30
0.0
  11
 128.500
  21
 512.000
  31
0.0
   0
LINE
   8
LEVEL001
   6
CONTINUOUS
  62
7
  10
 138.750
  20
 511.000
  30
0.0
  11
 138.750
  21
 439.000
  31
0.0
   0
LINE
   8
LEVEL001
   6
CONTINUOUS
  62
7
  10
 279.000
  20
 485.583
  30
0.0
  11
 275.689
  21
 487.419
  31
0.0
   0
LINE
   8
LEVEL001
   6
CONTINUOUS
  62
7
  10
 314.000
  20
 485.583
  30
0.0
  11
 315.000
  21
 484.539
  31
0.0
   0
LINE
   8
LEVEL001
   6
CONTINUOUS
  62
7
  10
 315.000
  20
 484.539
  30
0.0
  11
 315.000
  21
 465.000
  31
0.0
   0
LINE
   8
LEVEL001
   6
CONTINUOUS
  62
7
  10
 314.000
  20
 485.583
  30
0.0
  11
 314.000
  21
 464.000
  31
0.0
   0
LINE
   8
LEVEL001
   6
CONTINUOUS
  62
7
  10
 279.000
  20
 485.583
  30
0.0
  11
 314.000
  21
 485.583
  31
0.0
   0
LINE
   8
LEVEL001
   6
CONTINUOUS
  62
7
  10
 279.000
  20
 485.583
  30
0.0
  11
 279.000
  21
 464.000
  31
0.0
   0
LINE
   8
LEVEL001
   6
CONTINUOUS
  62
7
  10
 273.500
  20
 487.500
  30
0.0
  11
 275.295
  21
 487.500
  31
0.0
   0
LINE
   8
LEVEL001
   6
CONTINUOUS
  62
7
  10
 273.500
  20
 462.500
  30
0.0
  11
 275.295
  21
 462.500
  31
0.0
   0
LINE
   8
LEVEL001
   6
CONTINUOUS
  62
7
  10
 86.0000
  20
 464.000
  30
0.0
  11
 85.0000
  21
 465.000
  31
0.0
   0
LINE
   8
LEVEL001
   6
CONTINUOUS
  62
7
  10
 120.795
  20
 464.000
  30
0.0
  11
 86.0000
  21
 464.000
  31
0.0
   0
ARC
   8
LEVEL001
   6
CONTINUOUS
  62
7
  10
 120.795
  20
 463.000
  30
0.0
  40
 1.00000
  50
 66.8010
  51
 90.0000
   0
LINE
   8
LEVEL001
   6
CONTINUOUS
  62
7
  10
 124.500
  20
 487.419
  30
0.0
  11
 124.500
  21
 462.581
  31
0.0
   0
LINE
   8
LEVEL001
   6
CONTINUOUS
  62
7
  10
 124.311
  20
 462.581
  30
0.0
  11
 121.189
  21
 463.919
  31
0.0
   0
ARC
   8
LEVEL001
   6
CONTINUOUS
  62
7
  10
 124.705
  20
 463.500
  30
0.0
  40
 1.00000
  50
 246.801
  51
 270.000
   0
ARC
   8
LEVEL001
   6
CONTINUOUS
  62
7
  10
 124.705
  20
 486.500
  30
0.0
  40
 1.00000
  50
 90.0000
  51
 113.199
   0
LINE
   8
LEVEL001
   6
CONTINUOUS
  62
7
  10
 121.000
  20
 485.583
  30
0.0
  11
 124.311
  21
 487.419
  31
0.0
   0
LINE
   8
LEVEL001
   6
CONTINUOUS
  62
7
  10
 86.0000
  20
 485.583
  30
0.0
  11
 85.0000
  21
 484.539
  31
0.0
   0
LINE
   8
LEVEL001
   6
CONTINUOUS
  62
7
  10
 85.0000
  20
 484.539
  30
0.0
  11
 85.0000
  21
 465.000
  31
0.0
   0
LINE
   8
LEVEL001
   6
CONTINUOUS
  62
7
  10
 86.0000
  20
 485.583
  30
0.0
  11
 86.0000
  21
 464.000
  31
0.0
   0
LINE
   8
LEVEL001
   6
CONTINUOUS
  62
7
  10
 121.000
  20
 485.583
  30
0.0
  11
 86.0000
  21
 485.583
  31
0.0
   0
LINE
   8
LEVEL001
   6
CONTINUOUS
  62
7
  10
 121.000
  20
 485.583
  30
0.0
  11
 121.000
  21
 464.000
  31
0.0
   0
LINE
   8
LEVEL001
   6
CONTINUOUS
  62
7
  10
 126.500
  20
 487.500
  30
0.0
  11
 124.705
  21
 487.500
  31
0.0
   0
LINE
   8
LEVEL001
   6
CONTINUOUS
  62
7
  10
 126.500
  20
 462.500
  30
0.0
  11
 124.705
  21
 462.500
  31
0.0
   0
LINE
   8
LEVEL001
   6
CONTINUOUS
  62
7
  10
 130.000
  20
 512.000
  30
0.0
  11
 130.000
  21
 530.000
  31
0.0
   0
ARC
   8
LEVEL001
   6
CONTINUOUS
  62
7
  10
 400.722
  20
 477.500
  30
0.0
  40
 7.22093
  50
 339.627
  51
 20.2560
   0
LINE
   8
LEVEL001
   6
CONTINUOUS
  62
7
  10
 396.872
  20
 470.000
  30
0.0
  11
 407.881
  21
 470.000
  31
0.0
   0
LINE
   8
LEVEL001
   6
CONTINUOUS
  62
7
  10
 407.900
  20
 470.000
  30
0.0
  11
 407.900
  21
 480.000
  31
0.0
   0
ARC
   8
LEVEL001
   6
CONTINUOUS
  62
7
  10
 400.722
  20
 472.500
  30
0.0
  40
 7.22093
  50
 339.744
  51
 20.3730
   0
LINE
   8
LEVEL001
   6
CONTINUOUS
  62
7
  10
 408.342
  20
 479.441
  30
0.0
  11
 408.762
  21
 479.428
  31
0.0
   0
LINE
   8
LEVEL001
   6
CONTINUOUS
  62
7
  10
 407.900
  20
 479.883
  30
0.0
  11
 408.815
  21
 479.854
  31
0.0
   0
LINE
   8
LEVEL001
   6
CONTINUOUS
  62
7
  10
 407.900
  20
 470.117
  30
0.0
  11
 408.342
  21
 470.559
  31
0.0
   0
LINE
   8
LEVEL001
   6
CONTINUOUS
  62
7
  10
 408.342
  20
 470.559
  30
0.0
  11
 408.762
  21
 470.572
  31
0.0
   0
LINE
   8
LEVEL001
   6
CONTINUOUS
  62
7
  10
 407.900
  20
 470.117
  30
0.0
  11
 408.815
  21
 470.146
  31
0.0
   0
LINE
   8
LEVEL001
   6
CONTINUOUS
  62
7
  10
 408.342
  20
 470.559
  30
0.0
  11
 408.342
  21
 479.441
  31
0.0
   0
LINE
   8
LEVEL001
   6
CONTINUOUS
  62
7
  10
 400.590
  20
 451.000
  30
0.0
  11
 405.769
  21
 470.000
  31
0.0
   0
LINE
   8
LEVEL001
   6
CONTINUOUS
  62
7
  10
 408.458
  20
 479.866
  30
0.0
  11
 409.820
  21
 484.862
  31
0.0
   0
ARC
   8
LEVEL001
   6
CONTINUOUS
  62
7
  10
 192.000
  20
 437.022
  30
0.0
  40
 4.00035
  50
 270.000
  51
 0.763162
   0
ARC
   8
LEVEL001
   6
CONTINUOUS
  62
7
  10
 208.000
  20
 437.000
  30
0.0
  40
 4.00000
  50
 180.000
  51
 270.000
   0
LINE
   8
LEVEL001
   6
CONTINUOUS
  62
7
  10
 145.000
  20
 433.000
  30
0.0
  11
 192.000
  21
 433.000
  31
0.0
   0
LINE
   8
LEVEL001
   6
CONTINUOUS
  62
7
  10
 208.000
  20
 433.000
  30
0.0
  11
 255.000
  21
 433.000
  31
0.0
   0
LINE
   8
LEVEL001
   6
CONTINUOUS
  62
7
  10
 196.000
  20
 479.000
  30
0.0
  11
 196.000
  21
 437.075
  31
0.0
   0
ARC
   8
LEVEL001
   6
CONTINUOUS
  62
7
  10
 194.000
  20
 479.000
  30
0.0
  40
 2.00000
  50
0.0
  51
 90.0000
   0
LINE
   8
LEVEL001
   6
CONTINUOUS
  62
7
  10
 204.000
  20
 479.000
  30
0.0
  11
 204.000
  21
 437.000
  31
0.0
   0
ARC
   8
LEVEL001
   6
CONTINUOUS
  62
7
  10
 206.000
  20
 479.000
  30
0.0
  40
 2.00000
  50
 90.0000
  51
 180.000
   0
LINE
   8
LEVEL001
   6
CONTINUOUS
  62
7
  10
 209.239
  20
 475.000
  30
0.0
  11
 212.126
  21
 470.000
  31
0.0
   0
LINE
   8
LEVEL001
   6
CONTINUOUS
  62
7
  10
 212.126
  20
 470.000
  30
0.0
  11
 217.900
  21
 470.000
  31
0.0
   0
LINE
   8
LEVEL001
   6
CONTINUOUS
  62
7
  10
 217.900
  20
 470.000
  30
0.0
  11
 220.786
  21
 475.000
  31
0.0
   0
LINE
   8
LEVEL001
   6
CONTINUOUS
  62
7
  10
 217.413
  20
 486.548
  30
0.0
  11
 217.404
  21
 486.628
  31
0.0
   0
LINE
   8
LEVEL001
   6
CONTINUOUS
  62
7
  10
 217.404
  20
 486.628
  30
0.0
  11
 217.376
  21
 486.707
  31
0.0
   0
LINE
   8
LEVEL001
   6
CONTINUOUS
  62
7
  10
 217.376
  20
 486.707
  30
0.0
  11
 217.331
  21
 486.786
  31
0.0
   0
LINE
   8
LEVEL001
   6
CONTINUOUS
  62
7
  10
 217.331
  20
 486.786
  30
0.0
  11
 217.268
  21
 486.862
  31
0.0
   0
LINE
   8
LEVEL001
   6
CONTINUOUS
  62
7
  10
 217.268
  20
 486.862
  30
0.0
  11
 217.188
  21
 486.936
  31
0.0
   0
LINE
   8
LEVEL001
   6
CONTINUOUS
  62
7
  10
 217.188
  20
 486.936
  30
0.0
  11
 217.091
  21
 487.007
  31
0.0
   0
LINE
   8
LEVEL001
   6
CONTINUOUS
  62
7
  10
 217.091
  20
 487.007
  30
0.0
  11
 216.979
  21
 487.075
  31
0.0
   0
LINE
   8
LEVEL001
   6
CONTINUOUS
  62
7
  10
 216.979
  20
 487.075
  30
0.0
  11
 216.851
  21
 487.138
  31
0.0
   0
LINE
   8
LEVEL001
   6
CONTINUOUS
  62
7
  10
 216.851
  20
 487.138
  30
0.0
  11
 216.710
  21
 487.197
  31
0.0
   0
LINE
   8
LEVEL001
   6
CONTINUOUS
  62
7
  10
 216.710
  20
 487.197
  30
0.0
  11
 216.556
  21
 487.252
  31
0.0
   0
LINE
   8
LEVEL001
   6
CONTINUOUS
  62
7
  10
 216.556
  20
 487.252
  30
0.0
  11
 216.390
  21
 487.300
  31
0.0
   0
LINE
   8
LEVEL001
   6
CONTINUOUS
  62
7
  10
 216.390
  20
 487.300
  30
0.0
  11
 216.213
  21
 487.343
  31
0.0
   0
LINE
   8
LEVEL001
   6
CONTINUOUS
  62
7
  10
 216.213
  20
 487.343
  30
0.0
  11
 216.027
  21
 487.380
  31
0.0
   0
LINE
   8
LEVEL001
   6
CONTINUOUS
  62
7
  10
 216.027
  20
 487.380
  30
0.0
  11
 215.834
  21
 487.411
  31
0.0
   0
LINE
   8
LEVEL001
   6
CONTINUOUS
  62
7
  10
 215.834
  20
 487.411
  30
0.0
  11
 215.634
  21
 487.435
  31
0.0
   0
LINE
   8
LEVEL001
   6
CONTINUOUS
  62
7
  10
 215.634
  20
 487.435
  30
0.0
  11
 215.430
  21
 487.452
  31
0.0
   0
LINE
   8
LEVEL001
   6
CONTINUOUS
  62
7
  10
 215.430
  20
 487.452
  30
0.0
  11
 215.222
  21
 487.463
  31
0.0
   0
LINE
   8
LEVEL001
   6
CONTINUOUS
  62
7
  10
 215.222
  20
 487.463
  30
0.0
  11
 215.013
  21
 487.466
  31
0.0
   0
LINE
   8
LEVEL001
   6
CONTINUOUS
  62
7
  10
 215.013
  20
 487.466
  30
0.0
  11
 214.804
  21
 487.463
  31
0.0
   0
LINE
   8
LEVEL001
   6
CONTINUOUS
  62
7
  10
 214.804
  20
 487.463
  30
0.0
  11
 214.596
  21
 487.452
  31
0.0
   0
LINE
   8
LEVEL001
   6
CONTINUOUS
  62
7
  10
 214.596
  20
 487.452
  30
0.0
  11
 214.392
  21
 487.435
  31
0.0
   0
LINE
   8
LEVEL001
   6
CONTINUOUS
  62
7
  10
 214.392
  20
 487.435
  30
0.0
  11
 214.192
  21
 487.411
  31
0.0
   0
LINE
   8
LEVEL001
   6
CONTINUOUS
  62
7
  10
 214.192
  20
 487.411
  30
0.0
  11
 213.999
  21
 487.380
  31
0.0
   0
LINE
   8
LEVEL001
   6
CONTINUOUS
  62
7
  10
 213.999
  20
 487.380
  30
0.0
  11
 213.813
  21
 487.343
  31
0.0
   0
LINE
   8
LEVEL001
   6
CONTINUOUS
  62
7
  10
 213.813
  20
 487.343
  30
0.0
  11
 213.636
  21
 487.300
  31
0.0
   0
LINE
   8
LEVEL001
   6
CONTINUOUS
  62
7
  10
 213.636
  20
 487.300
  30
0.0
  11
 213.470
  21
 487.252
  31
0.0
   0
LINE
   8
LEVEL001
   6
CONTINUOUS
  62
7
  10
 213.470
  20
 487.252
  30
0.0
  11
 213.316
  21
 487.197
  31
0.0
   0
LINE
   8
LEVEL001
   6
CONTINUOUS
  62
7
  10
 213.316
  20
 487.197
  30
0.0
  11
 213.174
  21
 487.138
  31
0.0
   0
LINE
   8
LEVEL001
   6
CONTINUOUS
  62
7
  10
 213.174
  20
 487.138
  30
0.0
  11
 213.047
  21
 487.075
  31
0.0
   0
LINE
   8
LEVEL001
   6
CONTINUOUS
  62
7
  10
 213.047
  20
 487.075
  30
0.0
  11
 212.934
  21
 487.007
  31
0.0
   0
LINE
   8
LEVEL001
   6
CONTINUOUS
  62
7
  10
 212.934
  20
 487.007
  30
0.0
  11
 212.838
  21
 486.936
  31
0.0
   0
LINE
   8
LEVEL001
   6
CONTINUOUS
  62
7
  10
 212.838
  20
 486.936
  30
0.0
  11
 212.758
  21
 486.862
  31
0.0
   0
LINE
   8
LEVEL001
   6
CONTINUOUS
  62
7
  10
 212.758
  20
 486.862
  30
0.0
  11
 212.695
  21
 486.786
  31
0.0
   0
LINE
   8
LEVEL001
   6
CONTINUOUS
  62
7
  10
 212.695
  20
 486.786
  30
0.0
  11
 212.649
  21
 486.707
  31
0.0
   0
LINE
   8
LEVEL001
   6
CONTINUOUS
  62
7
  10
 212.649
  20
 486.707
  30
0.0
  11
 212.622
  21
 486.628
  31
0.0
   0
LINE
   8
LEVEL001
   6
CONTINUOUS
  62
7
  10
 212.622
  20
 486.628
  30
0.0
  11
 212.613
  21
 486.548
  31
0.0
   0
LINE
   8
LEVEL001
   6
CONTINUOUS
  62
7
  10
 212.613
  20
 486.548
  30
0.0
  11
 212.622
  21
 486.468
  31
0.0
   0
LINE
   8
LEVEL001
   6
CONTINUOUS
  62
7
  10
 212.622
  20
 486.468
  30
0.0
  11
 212.649
  21
 486.389
  31
0.0
   0
LINE
   8
LEVEL001
   6
CONTINUOUS
  62
7
  10
 212.649
  20
 486.389
  30
0.0
  11
 212.695
  21
 486.310
  31
0.0
   0
LINE
   8
LEVEL001
   6
CONTINUOUS
  62
7
  10
 212.695
  20
 486.310
  30
0.0
  11
 212.758
  21
 486.234
  31
0.0
   0
LINE
   8
LEVEL001
   6
CONTINUOUS
  62
7
  10
 212.758
  20
 486.234
  30
0.0
  11
 212.838
  21
 486.160
  31
0.0
   0
LINE
   8
LEVEL001
   6
CONTINUOUS
  62
7
  10
 212.838
  20
 486.160
  30
0.0
  11
 212.934
  21
 486.089
  31
0.0
   0
LINE
   8
LEVEL001
   6
CONTINUOUS
  62
7
  10
 212.934
  20
 486.089
  30
0.0
  11
 213.047
  21
 486.021
  31
0.0
   0
LINE
   8
LEVEL001
   6
CONTINUOUS
  62
7
  10
 213.047
  20
 486.021
  30
0.0
  11
 213.174
  21
 485.958
  31
0.0
   0
LINE
   8
LEVEL001
   6
CONTINUOUS
  62
7
  10
 213.174
  20
 485.958
  30
0.0
  11
 213.316
  21
 485.899
  31
0.0
   0
LINE
   8
LEVEL001
   6
CONTINUOUS
  62
7
  10
 213.316
  20
 485.899
  30
0.0
  11
 213.470
  21
 485.844
  31
0.0
   0
LINE
   8
LEVEL001
   6
CONTINUOUS
  62
7
  10
 213.470
  20
 485.844
  30
0.0
  11
 213.636
  21
 485.796
  31
0.0
   0
LINE
   8
LEVEL001
   6
CONTINUOUS
  62
7
  10
 213.636
  20
 485.796
  30
0.0
  11
 213.813
  21
 485.753
  31
0.0
   0
LINE
   8
LEVEL001
   6
CONTINUOUS
  62
7
  10
 213.813
  20
 485.753
  30
0.0
  11
 213.999
  21
 485.716
  31
0.0
   0
LINE
   8
LEVEL001
   6
CONTINUOUS
  62
7
  10
 213.999
  20
 485.716
  30
0.0
  11
 214.192
  21
 485.685
  31
0.0
   0
LINE
   8
LEVEL001
   6
CONTINUOUS
  62
7
  10
 214.192
  20
 485.685
  30
0.0
  11
 214.392
  21
 485.661
  31
0.0
   0
LINE
   8
LEVEL001
   6
CONTINUOUS
  62
7
  10
 214.392
  20
 485.661
  30
0.0
  11
 214.596
  21
 485.644
  31
0.0
   0
LINE
   8
LEVEL001
   6
CONTINUOUS
  62
7
  10
 214.596
  20
 485.644
  30
0.0
  11
 214.804
  21
 485.633
  31
0.0
   0
LINE
   8
LEVEL001
   6
CONTINUOUS
  62
7
  10
 214.804
  20
 485.633
  30
0.0
  11
 215.013
  21
 485.630
  31
0.0
   0
LINE
   8
LEVEL001
   6
CONTINUOUS
  62
7
  10
 215.013
  20
 485.630
  30
0.0
  11
 215.222
  21
 485.633
  31
0.0
   0
LINE
   8
LEVEL001
   6
CONTINUOUS
  62
7
  10
 215.222
  20
 485.633
  30
0.0
  11
 215.430
  21
 485.644
  31
0.0
   0
LINE
   8
LEVEL001
   6
CONTINUOUS
  62
7
  10
 215.430
  20
 485.644
  30
0.0
  11
 215.634
  21
 485.661
  31
0.0
   0
LINE
   8
LEVEL001
   6
CONTINUOUS
  62
7
  10
 215.634
  20
 485.661
  30
0.0
  11
 215.834
  21
 485.685
  31
0.0
   0
LINE
   8
LEVEL001
   6
CONTINUOUS
  62
7
  10
 215.834
  20
 485.685
  30
0.0
  11
 216.027
  21
 485.716
  31
0.0
   0
LINE
   8
LEVEL001
   6
CONTINUOUS
  62
7
  10
 216.027
  20
 485.716
  30
0.0
  11
 216.213
  21
 485.753
  31
0.0
   0
LINE
   8
LEVEL001
   6
CONTINUOUS
  62
7
  10
 216.213
  20
 485.753
  30
0.0
  11
 216.390
  21
 485.796
  31
0.0
   0
LINE
   8
LEVEL001
   6
CONTINUOUS
  62
7
  10
 216.390
  20
 485.796
  30
0.0
  11
 216.556
  21
 485.844
  31
0.0
   0
LINE
   8
LEVEL001
   6
CONTINUOUS
  62
7
  10
 216.556
  20
 485.844
  30
0.0
  11
 216.710
  21
 485.899
  31
0.0
   0
LINE
   8
LEVEL001
   6
CONTINUOUS
  62
7
  10
 216.710
  20
 485.899
  30
0.0
  11
 216.851
  21
 485.958
  31
0.0
   0
LINE
   8
LEVEL001
   6
CONTINUOUS
  62
7
  10
 216.851
  20
 485.958
  30
0.0
  11
 216.979
  21
 486.021
  31
0.0
   0
LINE
   8
LEVEL001
   6
CONTINUOUS
  62
7
  10
 216.979
  20
 486.021
  30
0.0
  11
 217.091
  21
 486.089
  31
0.0
   0
LINE
   8
LEVEL001
   6
CONTINUOUS
  62
7
  10
 217.091
  20
 486.089
  30
0.0
  11
 217.188
  21
 486.160
  31
0.0
   0
LINE
   8
LEVEL001
   6
CONTINUOUS
  62
7
  10
 217.188
  20
 486.160
  30
0.0
  11
 217.268
  21
 486.234
  31
0.0
   0
LINE
   8
LEVEL001
   6
CONTINUOUS
  62
7
  10
 217.268
  20
 486.234
  30
0.0
  11
 217.331
  21
 486.310
  31
0.0
   0
LINE
   8
LEVEL001
   6
CONTINUOUS
  62
7
  10
 217.331
  20
 486.310
  30
0.0
  11
 217.376
  21
 486.389
  31
0.0
   0
LINE
   8
LEVEL001
   6
CONTINUOUS
  62
7
  10
 217.376
  20
 486.389
  30
0.0
  11
 217.404
  21
 486.468
  31
0.0
   0
LINE
   8
LEVEL001
   6
CONTINUOUS
  62
7
  10
 217.404
  20
 486.468
  30
0.0
  11
 217.413
  21
 486.548
  31
0.0
   0
LINE
   8
LEVEL001
   6
CONTINUOUS
  62
7
  10
 214.013
  20
 486.548
  30
0.0
  11
 214.014
  21
 486.531
  31
0.0
   0
LINE
   8
LEVEL001
   6
CONTINUOUS
  62
7
  10
 214.014
  20
 486.531
  30
0.0
  11
 214.017
  21
 486.515
  31
0.0
   0
LINE
   8
LEVEL001
   6
CONTINUOUS
  62
7
  10
 214.017
  20
 486.515
  30
0.0
  11
 214.022
  21
 486.498
  31
0.0
   0
LINE
   8
LEVEL001
   6
CONTINUOUS
  62
7
  10
 214.022
  20
 486.498
  30
0.0
  11
 214.028
  21
 486.482
  31
0.0
   0
LINE
   8
LEVEL001
   6
CONTINUOUS
  62
7
  10
 214.028
  20
 486.482
  30
0.0
  11
 214.037
  21
 486.465
  31
0.0
   0
LINE
   8
LEVEL001
   6
CONTINUOUS
  62
7
  10
 214.037
  20
 486.465
  30
0.0
  11
 214.047
  21
 486.449
  31
0.0
   0
LINE
   8
LEVEL001
   6
CONTINUOUS
  62
7
  10
 214.047
  20
 486.449
  30
0.0
  11
 214.059
  21
 486.433
  31
0.0
   0
LINE
   8
LEVEL001
   6
CONTINUOUS
  62
7
  10
 214.059
  20
 486.433
  30
0.0
  11
 214.073
  21
 486.417
  31
0.0
   0
LINE
   8
LEVEL001
   6
CONTINUOUS
  62
7
  10
 214.073
  20
 486.417
  30
0.0
  11
 214.089
  21
 486.402
  31
0.0
   0
LINE
   8
LEVEL001
   6
CONTINUOUS
  62
7
  10
 214.089
  20
 486.402
  30
0.0
  11
 214.107
  21
 486.386
  31
0.0
   0
LINE
   8
LEVEL001
   6
CONTINUOUS
  62
7
  10
 214.107
  20
 486.386
  30
0.0
  11
 214.126
  21
 486.371
  31
0.0
   0
LINE
   8
LEVEL001
   6
CONTINUOUS
  62
7
  10
 214.126
  20
 486.371
  30
0.0
  11
 214.147
  21
 486.357
  31
0.0
   0
LINE
   8
LEVEL001
   6
CONTINUOUS
  62
7
  10
 214.147
  20
 486.357
  30
0.0
  11
 214.170
  21
 486.342
  31
0.0
   0
LINE
   8
LEVEL001
   6
CONTINUOUS
  62
7
  10
 214.170
  20
 486.342
  30
0.0
  11
 214.194
  21
 486.329
  31
0.0
   0
LINE
   8
LEVEL001
   6
CONTINUOUS
  62
7
  10
 214.194
  20
 486.329
  30
0.0
  11
 214.220
  21
 486.315
  31
0.0
   0
LINE
   8
LEVEL001
   6
CONTINUOUS
  62
7
  10
 214.220
  20
 486.315
  30
0.0
  11
 214.247
  21
 486.302
  31
0.0
   0
LINE
   8
LEVEL001
   6
CONTINUOUS
  62
7
  10
 214.247
  20
 486.302
  30
0.0
  11
 214.276
  21
 486.289
  31
0.0
   0
LINE
   8
LEVEL001
   6
CONTINUOUS
  62
7
  10
 214.276
  20
 486.289
  30
0.0
  11
 214.306
  21
 486.277
  31
0.0
   0
LINE
   8
LEVEL001
   6
CONTINUOUS
  62
7
  10
 214.306
  20
 486.277
  30
0.0
  11
 214.337
  21
 486.266
  31
0.0
   0
LINE
   8
LEVEL001
   6
CONTINUOUS
  62
7
  10
 214.337
  20
 486.266
  30
0.0
  11
 214.370
  21
 486.255
  31
0.0
   0
LINE
   8
LEVEL001
   6
CONTINUOUS
  62
7
  10
 214.370
  20
 486.255
  30
0.0
  11
 214.404
  21
 486.244
  31
0.0
   0
LINE
   8
LEVEL001
   6
CONTINUOUS
  62
7
  10
 214.404
  20
 486.244
  30
0.0
  11
 214.439
  21
 486.235
  31
0.0
   0
LINE
   8
LEVEL001
   6
CONTINUOUS
  62
7
  10
 214.439
  20
 486.235
  30
0.0
  11
 214.476
  21
 486.225
  31
0.0
   0
LINE
   8
LEVEL001
   6
CONTINUOUS
  62
7
  10
 214.476
  20
 486.225
  30
0.0
  11
 214.513
  21
 486.217
  31
0.0
   0
LINE
   8
LEVEL001
   6
CONTINUOUS
  62
7
  10
 214.513
  20
 486.217
  30
0.0
  11
 214.551
  21
 486.209
  31
0.0
   0
LINE
   8
LEVEL001
   6
CONTINUOUS
  62
7
  10
 214.551
  20
 486.209
  30
0.0
  11
 214.590
  21
 486.201
  31
0.0
   0
LINE
   8
LEVEL001
   6
CONTINUOUS
  62
7
  10
 214.590
  20
 486.201
  30
0.0
  11
 214.630
  21
 486.194
  31
0.0
   0
LINE
   8
LEVEL001
   6
CONTINUOUS
  62
7
  10
 214.630
  20
 486.194
  30
0.0
  11
 214.671
  21
 486.188
  31
0.0
   0
LINE
   8
LEVEL001
   6
CONTINUOUS
  62
7
  10
 214.671
  20
 486.188
  30
0.0
  11
 214.712
  21
 486.183
  31
0.0
   0
LINE
   8
LEVEL001
   6
CONTINUOUS
  62
7
  10
 214.712
  20
 486.183
  30
0.0
  11
 214.754
  21
 486.178
  31
0.0
   0
LINE
   8
LEVEL001
   6
CONTINUOUS
  62
7
  10
 214.754
  20
 486.178
  30
0.0
  11
 214.797
  21
 486.174
  31
0.0
   0
LINE
   8
LEVEL001
   6
CONTINUOUS
  62
7
  10
 214.797
  20
 486.174
  30
0.0
  11
 214.839
  21
 486.171
  31
0.0
   0
LINE
   8
LEVEL001
   6
CONTINUOUS
  62
7
  10
 214.839
  20
 486.171
  30
0.0
  11
 214.882
  21
 486.169
  31
0.0
   0
LINE
   8
LEVEL001
   6
CONTINUOUS
  62
7
  10
 214.882
  20
 486.169
  30
0.0
  11
 214.926
  21
 486.167
  31
0.0
   0
LINE
   8
LEVEL001
   6
CONTINUOUS
  62
7
  10
 214.926
  20
 486.167
  30
0.0
  11
 214.969
  21
 486.166
  31
0.0
   0
LINE
   8
LEVEL001
   6
CONTINUOUS
  62
7
  10
 214.969
  20
 486.166
  30
0.0
  11
 215.013
  21
 486.165
  31
0.0
   0
LINE
   8
LEVEL001
   6
CONTINUOUS
  62
7
  10
 215.013
  20
 486.165
  30
0.0
  11
 215.057
  21
 486.166
  31
0.0
   0
LINE
   8
LEVEL001
   6
CONTINUOUS
  62
7
  10
 215.057
  20
 486.166
  30
0.0
  11
 215.100
  21
 486.167
  31
0.0
   0
LINE
   8
LEVEL001
   6
CONTINUOUS
  62
7
  10
 215.100
  20
 486.167
  30
0.0
  11
 215.143
  21
 486.169
  31
0.0
   0
LINE
   8
LEVEL001
   6
CONTINUOUS
  62
7
  10
 215.143
  20
 486.169
  30
0.0
  11
 215.187
  21
 486.171
  31
0.0
   0
LINE
   8
LEVEL001
   6
CONTINUOUS
  62
7
  10
 215.187
  20
 486.171
  30
0.0
  11
 215.229
  21
 486.174
  31
0.0
   0
LINE
   8
LEVEL001
   6
CONTINUOUS
  62
7
  10
 215.229
  20
 486.174
  30
0.0
  11
 215.272
  21
 486.178
  31
0.0
   0
LINE
   8
LEVEL001
   6
CONTINUOUS
  62
7
  10
 215.272
  20
 486.178
  30
0.0
  11
 215.314
  21
 486.183
  31
0.0
   0
LINE
   8
LEVEL001
   6
CONTINUOUS
  62
7
  10
 215.314
  20
 486.183
  30
0.0
  11
 215.355
  21
 486.188
  31
0.0
   0
LINE
   8
LEVEL001
   6
CONTINUOUS
  62
7
  10
 215.355
  20
 486.188
  30
0.0
  11
 215.396
  21
 486.194
  31
0.0
   0
LINE
   8
LEVEL001
   6
CONTINUOUS
  62
7
  10
 215.396
  20
 486.194
  30
0.0
  11
 215.436
  21
 486.201
  31
0.0
   0
LINE
   8
LEVEL001
   6
CONTINUOUS
  62
7
  10
 215.436
  20
 486.201
  30
0.0
  11
 215.475
  21
 486.209
  31
0.0
   0
LINE
   8
LEVEL001
   6
CONTINUOUS
  62
7
  10
 215.475
  20
 486.209
  30
0.0
  11
 215.513
  21
 486.217
  31
0.0
   0
LINE
   8
LEVEL001
   6
CONTINUOUS
  62
7
  10
 215.513
  20
 486.217
  30
0.0
  11
 215.550
  21
 486.225
  31
0.0
   0
LINE
   8
LEVEL001
   6
CONTINUOUS
  62
7
  10
 215.550
  20
 486.225
  30
0.0
  11
 215.587
  21
 486.235
  31
0.0
   0
LINE
   8
LEVEL001
   6
CONTINUOUS
  62
7
  10
 215.587
  20
 486.235
  30
0.0
  11
 215.622
  21
 486.244
  31
0.0
   0
LINE
   8
LEVEL001
   6
CONTINUOUS
  62
7
  10
 215.622
  20
 486.244
  30
0.0
  11
 215.656
  21
 486.255
  31
0.0
   0
LINE
   8
LEVEL001
   6
CONTINUOUS
  62
7
  10
 215.656
  20
 486.255
  30
0.0
  11
 215.689
  21
 486.266
  31
0.0
   0
LINE
   8
LEVEL001
   6
CONTINUOUS
  62
7
  10
 215.689
  20
 486.266
  30
0.0
  11
 215.720
  21
 486.277
  31
0.0
   0
LINE
   8
LEVEL001
   6
CONTINUOUS
  62
7
  10
 215.720
  20
 486.277
  30
0.0
  11
 215.750
  21
 486.289
  31
0.0
   0
LINE
   8
LEVEL001
   6
CONTINUOUS
  62
7
  10
 215.750
  20
 486.289
  30
0.0
  11
 215.779
  21
 486.302
  31
0.0
   0
LINE
   8
LEVEL001
   6
CONTINUOUS
  62
7
  10
 215.779
  20
 486.302
  30
0.0
  11
 215.806
  21
 486.315
  31
0.0
   0
LINE
   8
LEVEL001
   6
CONTINUOUS
  62
7
  10
 215.806
  20
 486.315
  30
0.0
  11
 215.832
  21
 486.329
  31
0.0
   0
LINE
   8
LEVEL001
   6
CONTINUOUS
  62
7
  10
 215.832
  20
 486.329
  30
0.0
  11
 215.856
  21
 486.342
  31
0.0
   0
LINE
   8
LEVEL001
   6
CONTINUOUS
  62
7
  10
 215.856
  20
 486.342
  30
0.0
  11
 215.879
  21
 486.357
  31
0.0
   0
LINE
   8
LEVEL001
   6
CONTINUOUS
  62
7
  10
 215.879
  20
 486.357
  30
0.0
  11
 215.900
  21
 486.371
  31
0.0
   0
LINE
   8
LEVEL001
   6
CONTINUOUS
  62
7
  10
 215.900
  20
 486.371
  30
0.0
  11
 215.919
  21
 486.386
  31
0.0
   0
LINE
   8
LEVEL001
   6
CONTINUOUS
  62
7
  10
 215.919
  20
 486.386
  30
0.0
  11
 215.937
  21
 486.402
  31
0.0
   0
LINE
   8
LEVEL001
   6
CONTINUOUS
  62
7
  10
 215.937
  20
 486.402
  30
0.0
  11
 215.953
  21
 486.417
  31
0.0
   0
LINE
   8
LEVEL001
   6
CONTINUOUS
  62
7
  10
 215.953
  20
 486.417
  30
0.0
  11
 215.967
  21
 486.433
  31
0.0
   0
LINE
   8
LEVEL001
   6
CONTINUOUS
  62
7
  10
 215.967
  20
 486.433
  30
0.0
  11
 215.979
  21
 486.449
  31
0.0
   0
LINE
   8
LEVEL001
   6
CONTINUOUS
  62
7
  10
 215.979
  20
 486.449
  30
0.0
  11
 215.989
  21
 486.465
  31
0.0
   0
LINE
   8
LEVEL001
   6
CONTINUOUS
  62
7
  10
 215.989
  20
 486.465
  30
0.0
  11
 215.998
  21
 486.482
  31
0.0
   0
LINE
   8
LEVEL001
   6
CONTINUOUS
  62
7
  10
 215.998
  20
 486.482
  30
0.0
  11
 216.004
  21
 486.498
  31
0.0
   0
LINE
   8
LEVEL001
   6
CONTINUOUS
  62
7
  10
 216.004
  20
 486.498
  30
0.0
  11
 216.009
  21
 486.515
  31
0.0
   0
LINE
   8
LEVEL001
   6
CONTINUOUS
  62
7
  10
 216.009
  20
 486.515
  30
0.0
  11
 216.012
  21
 486.531
  31
0.0
   0
LINE
   8
LEVEL001
   6
CONTINUOUS
  62
7
  10
 216.012
  20
 486.531
  30
0.0
  11
 216.013
  21
 486.548
  31
0.0
   0
ARC
   8
LEVEL001
   6
CONTINUOUS
  62
7
  10
 215.013
  20
 486.320
  30
0.0
  40
 1.00000
  50
 11.9426
  51
 167.156
   0
LINE
   8
LEVEL001
   6
CONTINUOUS
  62
7
  10
 211.713
  20
 484.054
  30
0.0
  11
 211.716
  21
 483.999
  31
0.0
   0
LINE
   8
LEVEL001
   6
CONTINUOUS
  62
7
  10
 211.716
  20
 483.999
  30
0.0
  11
 211.726
  21
 483.944
  31
0.0
   0
LINE
   8
LEVEL001
   6
CONTINUOUS
  62
7
  10
 211.726
  20
 483.944
  30
0.0
  11
 211.741
  21
 483.889
  31
0.0
   0
LINE
   8
LEVEL001
   6
CONTINUOUS
  62
7
  10
 211.741
  20
 483.889
  30
0.0
  11
 211.763
  21
 483.835
  31
0.0
   0
LINE
   8
LEVEL001
   6
CONTINUOUS
  62
7
  10
 211.763
  20
 483.835
  30
0.0
  11
 211.791
  21
 483.781
  31
0.0
   0
LINE
   8
LEVEL001
   6
CONTINUOUS
  62
7
  10
 211.791
  20
 483.781
  30
0.0
  11
 211.825
  21
 483.727
  31
0.0
   0
LINE
   8
LEVEL001
   6
CONTINUOUS
  62
7
  10
 211.825
  20
 483.727
  30
0.0
  11
 211.866
  21
 483.674
  31
0.0
   0
LINE
   8
LEVEL001
   6
CONTINUOUS
  62
7
  10
 211.866
  20
 483.674
  30
0.0
  11
 211.912
  21
 483.622
  31
0.0
   0
LINE
   8
LEVEL001
   6
CONTINUOUS
  62
7
  10
 211.912
  20
 483.622
  30
0.0
  11
 211.964
  21
 483.571
  31
0.0
   0
LINE
   8
LEVEL001
   6
CONTINUOUS
  62
7
  10
 211.964
  20
 483.571
  30
0.0
  11
 212.022
  21
 483.520
  31
0.0
   0
LINE
   8
LEVEL001
   6
CONTINUOUS
  62
7
  10
 212.022
  20
 483.520
  30
0.0
  11
 212.086
  21
 483.471
  31
0.0
   0
LINE
   8
LEVEL001
   6
CONTINUOUS
  62
7
  10
 212.086
  20
 483.471
  30
0.0
  11
 212.155
  21
 483.423
  31
0.0
   0
LINE
   8
LEVEL001
   6
CONTINUOUS
  62
7
  10
 212.155
  20
 483.423
  30
0.0
  11
 212.230
  21
 483.376
  31
0.0
   0
LINE
   8
LEVEL001
   6
CONTINUOUS
  62
7
  10
 212.230
  20
 483.376
  30
0.0
  11
 212.310
  21
 483.330
  31
0.0
   0
LINE
   8
LEVEL001
   6
CONTINUOUS
  62
7
  10
 212.310
  20
 483.330
  30
0.0
  11
 212.395
  21
 483.285
  31
0.0
   0
LINE
   8
LEVEL001
   6
CONTINUOUS
  62
7
  10
 212.395
  20
 483.285
  30
0.0
  11
 212.485
  21
 483.242
  31
0.0
   0
LINE
   8
LEVEL001
   6
CONTINUOUS
  62
7
  10
 212.485
  20
 483.242
  30
0.0
  11
 212.580
  21
 483.201
  31
0.0
   0
LINE
   8
LEVEL001
   6
CONTINUOUS
  62
7
  10
 212.580
  20
 483.201
  30
0.0
  11
 212.679
  21
 483.161
  31
0.0
   0
LINE
   8
LEVEL001
   6
CONTINUOUS
  62
7
  10
 212.679
  20
 483.161
  30
0.0
  11
 212.784
  21
 483.123
  31
0.0
   0
LINE
   8
LEVEL001
   6
CONTINUOUS
  62
7
  10
 212.784
  20
 483.123
  30
0.0
  11
 212.892
  21
 483.087
  31
0.0
   0
LINE
   8
LEVEL001
   6
CONTINUOUS
  62
7
  10
 212.892
  20
 483.087
  30
0.0
  11
 213.004
  21
 483.052
  31
0.0
   0
LINE
   8
LEVEL001
   6
CONTINUOUS
  62
7
  10
 213.004
  20
 483.052
  30
0.0
  11
 213.120
  21
 483.020
  31
0.0
   0
LINE
   8
LEVEL001
   6
CONTINUOUS
  62
7
  10
 213.120
  20
 483.020
  30
0.0
  11
 213.240
  21
 482.989
  31
0.0
   0
LINE
   8
LEVEL001
   6
CONTINUOUS
  62
7
  10
 213.240
  20
 482.989
  30
0.0
  11
 213.363
  21
 482.960
  31
0.0
   0
LINE
   8
LEVEL001
   6
CONTINUOUS
  62
7
  10
 213.363
  20
 482.960
  30
0.0
  11
 213.489
  21
 482.934
  31
0.0
   0
LINE
   8
LEVEL001
   6
CONTINUOUS
  62
7
  10
 213.489
  20
 482.934
  30
0.0
  11
 213.618
  21
 482.910
  31
0.0
   0
LINE
   8
LEVEL001
   6
CONTINUOUS
  62
7
  10
 213.618
  20
 482.910
  30
0.0
  11
 213.750
  21
 482.887
  31
0.0
   0
LINE
   8
LEVEL001
   6
CONTINUOUS
  62
7
  10
 213.750
  20
 482.887
  30
0.0
  11
 213.884
  21
 482.867
  31
0.0
   0
LINE
   8
LEVEL001
   6
CONTINUOUS
  62
7
  10
 213.884
  20
 482.867
  30
0.0
  11
 214.021
  21
 482.850
  31
0.0
   0
LINE
   8
LEVEL001
   6
CONTINUOUS
  62
7
  10
 214.021
  20
 482.850
  30
0.0
  11
 214.159
  21
 482.834
  31
0.0
   0
LINE
   8
LEVEL001
   6
CONTINUOUS
  62
7
  10
 214.159
  20
 482.834
  30
0.0
  11
 214.299
  21
 482.821
  31
0.0
   0
LINE
   8
LEVEL001
   6
CONTINUOUS
  62
7
  10
 214.299
  20
 482.821
  30
0.0
  11
 214.440
  21
 482.810
  31
0.0
   0
LINE
   8
LEVEL001
   6
CONTINUOUS
  62
7
  10
 214.440
  20
 482.810
  30
0.0
  11
 214.582
  21
 482.802
  31
0.0
   0
LINE
   8
LEVEL001
   6
CONTINUOUS
  62
7
  10
 214.582
  20
 482.802
  30
0.0
  11
 214.725
  21
 482.796
  31
0.0
   0
LINE
   8
LEVEL001
   6
CONTINUOUS
  62
7
  10
 214.725
  20
 482.796
  30
0.0
  11
 214.869
  21
 482.792
  31
0.0
   0
LINE
   8
LEVEL001
   6
CONTINUOUS
  62
7
  10
 214.869
  20
 482.792
  30
0.0
  11
 215.013
  21
 482.791
  31
0.0
   0
LINE
   8
LEVEL001
   6
CONTINUOUS
  62
7
  10
 215.013
  20
 482.791
  30
0.0
  11
 215.157
  21
 482.792
  31
0.0
   0
LINE
   8
LEVEL001
   6
CONTINUOUS
  62
7
  10
 215.157
  20
 482.792
  30
0.0
  11
 215.301
  21
 482.796
  31
0.0
   0
LINE
   8
LEVEL001
   6
CONTINUOUS
  62
7
  10
 215.301
  20
 482.796
  30
0.0
  11
 215.444
  21
 482.802
  31
0.0
   0
LINE
   8
LEVEL001
   6
CONTINUOUS
  62
7
  10
 215.444
  20
 482.802
  30
0.0
  11
 215.586
  21
 482.810
  31
0.0
   0
LINE
   8
LEVEL001
   6
CONTINUOUS
  62
7
  10
 215.586
  20
 482.810
  30
0.0
  11
 215.727
  21
 482.821
  31
0.0
   0
LINE
   8
LEVEL001
   6
CONTINUOUS
  62
7
  10
 215.727
  20
 482.821
  30
0.0
  11
 215.867
  21
 482.834
  31
0.0
   0
LINE
   8
LEVEL001
   6
CONTINUOUS
  62
7
  10
 215.867
  20
 482.834
  30
0.0
  11
 216.005
  21
 482.850
  31
0.0
   0
LINE
   8
LEVEL001
   6
CONTINUOUS
  62
7
  10
 216.005
  20
 482.850
  30
0.0
  11
 216.142
  21
 482.867
  31
0.0
   0
LINE
   8
LEVEL001
   6
CONTINUOUS
  62
7
  10
 216.142
  20
 482.867
  30
0.0
  11
 216.276
  21
 482.887
  31
0.0
   0
LINE
   8
LEVEL001
   6
CONTINUOUS
  62
7
  10
 216.276
  20
 482.887
  30
0.0
  11
 216.408
  21
 482.910
  31
0.0
   0
LINE
   8
LEVEL001
   6
CONTINUOUS
  62
7
  10
 216.408
  20
 482.910
  30
0.0
  11
 216.537
  21
 482.934
  31
0.0
   0
LINE
   8
LEVEL001
   6
CONTINUOUS
  62
7
  10
 216.537
  20
 482.934
  30
0.0
  11
 216.663
  21
 482.960
  31
0.0
   0
LINE
   8
LEVEL001
   6
CONTINUOUS
  62
7
  10
 216.663
  20
 482.960
  30
0.0
  11
 216.786
  21
 482.989
  31
0.0
   0
LINE
   8
LEVEL001
   6
CONTINUOUS
  62
7
  10
 216.786
  20
 482.989
  30
0.0
  11
 216.906
  21
 483.020
  31
0.0
   0
LINE
   8
LEVEL001
   6
CONTINUOUS
  62
7
  10
 216.906
  20
 483.020
  30
0.0
  11
 217.022
  21
 483.052
  31
0.0
   0
LINE
   8
LEVEL001
   6
CONTINUOUS
  62
7
  10
 217.022
  20
 483.052
  30
0.0
  11
 217.134
  21
 483.087
  31
0.0
   0
LINE
   8
LEVEL001
   6
CONTINUOUS
  62
7
  10
 217.134
  20
 483.087
  30
0.0
  11
 217.242
  21
 483.123
  31
0.0
   0
LINE
   8
LEVEL001
   6
CONTINUOUS
  62
7
  10
 217.242
  20
 483.123
  30
0.0
  11
 217.346
  21
 483.161
  31
0.0
   0
LINE
   8
LEVEL001
   6
CONTINUOUS
  62
7
  10
 217.346
  20
 483.161
  30
0.0
  11
 217.446
  21
 483.201
  31
0.0
   0
LINE
   8
LEVEL001
   6
CONTINUOUS
  62
7
  10
 217.446
  20
 483.201
  30
0.0
  11
 217.541
  21
 483.242
  31
0.0
   0
LINE
   8
LEVEL001
   6
CONTINUOUS
  62
7
  10
 217.541
  20
 483.242
  30
0.0
  11
 217.631
  21
 483.285
  31
0.0
   0
LINE
   8
LEVEL001
   6
CONTINUOUS
  62
7
  10
 217.631
  20
 483.285
  30
0.0
  11
 217.716
  21
 483.330
  31
0.0
   0
LINE
   8
LEVEL001
   6
CONTINUOUS
  62
7
  10
 217.716
  20
 483.330
  30
0.0
  11
 217.796
  21
 483.376
  31
0.0
   0
LINE
   8
LEVEL001
   6
CONTINUOUS
  62
7
  10
 217.796
  20
 483.376
  30
0.0
  11
 217.871
  21
 483.423
  31
0.0
   0
LINE
   8
LEVEL001
   6
CONTINUOUS
  62
7
  10
 217.871
  20
 483.423
  30
0.0
  11
 217.940
  21
 483.471
  31
0.0
   0
LINE
   8
LEVEL001
   6
CONTINUOUS
  62
7
  10
 217.940
  20
 483.471
  30
0.0
  11
 218.004
  21
 483.520
  31
0.0
   0
LINE
   8
LEVEL001
   6
CONTINUOUS
  62
7
  10
 218.004
  20
 483.520
  30
0.0
  11
 218.062
  21
 483.571
  31
0.0
   0
LINE
   8
LEVEL001
   6
CONTINUOUS
  62
7
  10
 218.062
  20
 483.571
  30
0.0
  11
 218.114
  21
 483.622
  31
0.0
   0
LINE
   8
LEVEL001
   6
CONTINUOUS
  62
7
  10
 218.114
  20
 483.622
  30
0.0
  11
 218.160
  21
 483.674
  31
0.0
   0
LINE
   8
LEVEL001
   6
CONTINUOUS
  62
7
  10
 218.160
  20
 483.674
  30
0.0
  11
 218.201
  21
 483.727
  31
0.0
   0
LINE
   8
LEVEL001
   6
CONTINUOUS
  62
7
  10
 218.201
  20
 483.727
  30
0.0
  11
 218.235
  21
 483.781
  31
0.0
   0
LINE
   8
LEVEL001
   6
CONTINUOUS
  62
7
  10
 218.235
  20
 483.781
  30
0.0
  11
 218.263
  21
 483.835
  31
0.0
   0
LINE
   8
LEVEL001
   6
CONTINUOUS
  62
7
  10
 218.263
  20
 483.835
  30
0.0
  11
 218.285
  21
 483.889
  31
0.0
   0
LINE
   8
LEVEL001
   6
CONTINUOUS
  62
7
  10
 218.285
  20
 483.889
  30
0.0
  11
 218.300
  21
 483.944
  31
0.0
   0
LINE
   8
LEVEL001
   6
CONTINUOUS
  62
7
  10
 218.300
  20
 483.944
  30
0.0
  11
 218.310
  21
 483.999
  31
0.0
   0
LINE
   8
LEVEL001
   6
CONTINUOUS
  62
7
  10
 218.310
  20
 483.999
  30
0.0
  11
 218.313
  21
 484.054
  31
0.0
   0
LINE
   8
LEVEL001
   6
CONTINUOUS
  62
7
  10
 211.713
  20
 484.054
  30
0.0
  11
 212.615
  21
 486.588
  31
0.0
   0
LINE
   8
LEVEL001
   6
CONTINUOUS
  62
7
  10
 218.310
  20
 483.999
  30
0.0
  11
 217.404
  21
 486.628
  31
0.0
   0
LINE
   8
LEVEL001
   6
CONTINUOUS
  62
7
  10
 212.133
  20
 482.404
  30
0.0
  11
 212.136
  21
 482.356
  31
0.0
   0
LINE
   8
LEVEL001
   6
CONTINUOUS
  62
7
  10
 212.136
  20
 482.356
  30
0.0
  11
 212.144
  21
 482.308
  31
0.0
   0
LINE
   8
LEVEL001
   6
CONTINUOUS
  62
7
  10
 212.144
  20
 482.308
  30
0.0
  11
 212.158
  21
 482.260
  31
0.0
   0
LINE
   8
LEVEL001
   6
CONTINUOUS
  62
7
  10
 212.158
  20
 482.260
  30
0.0
  11
 212.177
  21
 482.213
  31
0.0
   0
LINE
   8
LEVEL001
   6
CONTINUOUS
  62
7
  10
 212.177
  20
 482.213
  30
0.0
  11
 212.201
  21
 482.166
  31
0.0
   0
LINE
   8
LEVEL001
   6
CONTINUOUS
  62
7
  10
 212.201
  20
 482.166
  30
0.0
  11
 212.231
  21
 482.119
  31
0.0
   0
LINE
   8
LEVEL001
   6
CONTINUOUS
  62
7
  10
 212.231
  20
 482.119
  30
0.0
  11
 212.266
  21
 482.073
  31
0.0
   0
LINE
   8
LEVEL001
   6
CONTINUOUS
  62
7
  10
 212.266
  20
 482.073
  30
0.0
  11
 212.307
  21
 482.027
  31
0.0
   0
LINE
   8
LEVEL001
   6
CONTINUOUS
  62
7
  10
 212.307
  20
 482.027
  30
0.0
  11
 212.352
  21
 481.982
  31
0.0
   0
LINE
   8
LEVEL001
   6
CONTINUOUS
  62
7
  10
 212.352
  20
 481.982
  30
0.0
  11
 212.403
  21
 481.938
  31
0.0
   0
LINE
   8
LEVEL001
   6
CONTINUOUS
  62
7
  10
 212.403
  20
 481.938
  30
0.0
  11
 212.458
  21
 481.895
  31
0.0
   0
LINE
   8
LEVEL001
   6
CONTINUOUS
  62
7
  10
 212.458
  20
 481.895
  30
0.0
  11
 212.519
  21
 481.853
  31
0.0
   0
LINE
   8
LEVEL001
   6
CONTINUOUS
  62
7
  10
 212.519
  20
 481.853
  30
0.0
  11
 212.584
  21
 481.812
  31
0.0
   0
LINE
   8
LEVEL001
   6
CONTINUOUS
  62
7
  10
 212.584
  20
 481.812
  30
0.0
  11
 212.654
  21
 481.772
  31
0.0
   0
LINE
   8
LEVEL001
   6
CONTINUOUS
  62
7
  10
 212.654
  20
 481.772
  30
0.0
  11
 212.728
  21
 481.733
  31
0.0
   0
LINE
   8
LEVEL001
   6
CONTINUOUS
  62
7
  10
 212.728
  20
 481.733
  30
0.0
  11
 212.807
  21
 481.696
  31
0.0
   0
LINE
   8
LEVEL001
   6
CONTINUOUS
  62
7
  10
 212.807
  20
 481.696
  30
0.0
  11
 212.890
  21
 481.660
  31
0.0
   0
LINE
   8
LEVEL001
   6
CONTINUOUS
  62
7
  10
 212.890
  20
 481.660
  30
0.0
  11
 212.976
  21
 481.625
  31
0.0
   0
LINE
   8
LEVEL001
   6
CONTINUOUS
  62
7
  10
 212.976
  20
 481.625
  30
0.0
  11
 213.067
  21
 481.592
  31
0.0
   0
LINE
   8
LEVEL001
   6
CONTINUOUS
  62
7
  10
 213.067
  20
 481.592
  30
0.0
  11
 213.162
  21
 481.560
  31
0.0
   0
LINE
   8
LEVEL001
   6
CONTINUOUS
  62
7
  10
 213.162
  20
 481.560
  30
0.0
  11
 213.260
  21
 481.530
  31
0.0
   0
LINE
   8
LEVEL001
   6
CONTINUOUS
  62
7
  10
 213.260
  20
 481.530
  30
0.0
  11
 213.361
  21
 481.501
  31
0.0
   0
LINE
   8
LEVEL001
   6
CONTINUOUS
  62
7
  10
 213.361
  20
 481.501
  30
0.0
  11
 213.466
  21
 481.475
  31
0.0
   0
LINE
   8
LEVEL001
   6
CONTINUOUS
  62
7
  10
 213.466
  20
 481.475
  30
0.0
  11
 213.573
  21
 481.450
  31
0.0
   0
LINE
   8
LEVEL001
   6
CONTINUOUS
  62
7
  10
 213.573
  20
 481.450
  30
0.0
  11
 213.683
  21
 481.427
  31
0.0
   0
LINE
   8
LEVEL001
   6
CONTINUOUS
  62
7
  10
 213.683
  20
 481.427
  30
0.0
  11
 213.796
  21
 481.405
  31
0.0
   0
LINE
   8
LEVEL001
   6
CONTINUOUS
  62
7
  10
 213.796
  20
 481.405
  30
0.0
  11
 213.911
  21
 481.386
  31
0.0
   0
LINE
   8
LEVEL001
   6
CONTINUOUS
  62
7
  10
 213.911
  20
 481.386
  30
0.0
  11
 214.028
  21
 481.369
  31
0.0
   0
LINE
   8
LEVEL001
   6
CONTINUOUS
  62
7
  10
 214.028
  20
 481.369
  30
0.0
  11
 214.147
  21
 481.353
  31
0.0
   0
LINE
   8
LEVEL001
   6
CONTINUOUS
  62
7
  10
 214.147
  20
 481.353
  30
0.0
  11
 214.268
  21
 481.340
  31
0.0
   0
LINE
   8
LEVEL001
   6
CONTINUOUS
  62
7
  10
 214.268
  20
 481.340
  30
0.0
  11
 214.390
  21
 481.328
  31
0.0
   0
LINE
   8
LEVEL001
   6
CONTINUOUS
  62
7
  10
 214.390
  20
 481.328
  30
0.0
  11
 214.513
  21
 481.319
  31
0.0
   0
LINE
   8
LEVEL001
   6
CONTINUOUS
  62
7
  10
 214.513
  20
 481.319
  30
0.0
  11
 214.637
  21
 481.312
  31
0.0
   0
LINE
   8
LEVEL001
   6
CONTINUOUS
  62
7
  10
 214.637
  20
 481.312
  30
0.0
  11
 214.762
  21
 481.306
  31
0.0
   0
LINE
   8
LEVEL001
   6
CONTINUOUS
  62
7
  10
 214.762
  20
 481.306
  30
0.0
  11
 214.887
  21
 481.303
  31
0.0
   0
LINE
   8
LEVEL001
   6
CONTINUOUS
  62
7
  10
 214.887
  20
 481.303
  30
0.0
  11
 215.013
  21
 481.302
  31
0.0
   0
LINE
   8
LEVEL001
   6
CONTINUOUS
  62
7
  10
 215.013
  20
 481.302
  30
0.0
  11
 215.139
  21
 481.303
  31
0.0
   0
LINE
   8
LEVEL001
   6
CONTINUOUS
  62
7
  10
 215.139
  20
 481.303
  30
0.0
  11
 215.264
  21
 481.306
  31
0.0
   0
LINE
   8
LEVEL001
   6
CONTINUOUS
  62
7
  10
 215.264
  20
 481.306
  30
0.0
  11
 215.389
  21
 481.312
  31
0.0
   0
LINE
   8
LEVEL001
   6
CONTINUOUS
  62
7
  10
 215.389
  20
 481.312
  30
0.0
  11
 215.513
  21
 481.319
  31
0.0
   0
LINE
   8
LEVEL001
   6
CONTINUOUS
  62
7
  10
 215.513
  20
 481.319
  30
0.0
  11
 215.636
  21
 481.328
  31
0.0
   0
LINE
   8
LEVEL001
   6
CONTINUOUS
  62
7
  10
 215.636
  20
 481.328
  30
0.0
  11
 215.758
  21
 481.340
  31
0.0
   0
LINE
   8
LEVEL001
   6
CONTINUOUS
  62
7
  10
 215.758
  20
 481.340
  30
0.0
  11
 215.879
  21
 481.353
  31
0.0
   0
LINE
   8
LEVEL001
   6
CONTINUOUS
  62
7
  10
 215.879
  20
 481.353
  30
0.0
  11
 215.998
  21
 481.369
  31
0.0
   0
LINE
   8
LEVEL001
   6
CONTINUOUS
  62
7
  10
 215.998
  20
 481.369
  30
0.0
  11
 216.115
  21
 481.386
  31
0.0
   0
LINE
   8
LEVEL001
   6
CONTINUOUS
  62
7
  10
 216.115
  20
 481.386
  30
0.0
  11
 216.230
  21
 481.405
  31
0.0
   0
LINE
   8
LEVEL001
   6
CONTINUOUS
  62
7
  10
 216.230
  20
 481.405
  30
0.0
  11
 216.343
  21
 481.427
  31
0.0
   0
LINE
   8
LEVEL001
   6
CONTINUOUS
  62
7
  10
 216.343
  20
 481.427
  30
0.0
  11
 216.453
  21
 481.450
  31
0.0
   0
LINE
   8
LEVEL001
   6
CONTINUOUS
  62
7
  10
 216.453
  20
 481.450
  30
0.0
  11
 216.560
  21
 481.475
  31
0.0
   0
LINE
   8
LEVEL001
   6
CONTINUOUS
  62
7
  10
 216.560
  20
 481.475
  30
0.0
  11
 216.665
  21
 481.501
  31
0.0
   0
LINE
   8
LEVEL001
   6
CONTINUOUS
  62
7
  10
 216.665
  20
 481.501
  30
0.0
  11
 216.766
  21
 481.530
  31
0.0
   0
LINE
   8
LEVEL001
   6
CONTINUOUS
  62
7
  10
 216.766
  20
 481.530
  30
0.0
  11
 216.864
  21
 481.560
  31
0.0
   0
LINE
   8
LEVEL001
   6
CONTINUOUS
  62
7
  10
 216.864
  20
 481.560
  30
0.0
  11
 216.959
  21
 481.592
  31
0.0
   0
LINE
   8
LEVEL001
   6
CONTINUOUS
  62
7
  10
 216.959
  20
 481.592
  30
0.0
  11
 217.049
  21
 481.625
  31
0.0
   0
LINE
   8
LEVEL001
   6
CONTINUOUS
  62
7
  10
 217.049
  20
 481.625
  30
0.0
  11
 217.136
  21
 481.660
  31
0.0
   0
LINE
   8
LEVEL001
   6
CONTINUOUS
  62
7
  10
 217.136
  20
 481.660
  30
0.0
  11
 217.219
  21
 481.696
  31
0.0
   0
LINE
   8
LEVEL001
   6
CONTINUOUS
  62
7
  10
 217.219
  20
 481.696
  30
0.0
  11
 217.298
  21
 481.733
  31
0.0
   0
LINE
   8
LEVEL001
   6
CONTINUOUS
  62
7
  10
 217.298
  20
 481.733
  30
0.0
  11
 217.372
  21
 481.772
  31
0.0
   0
LINE
   8
LEVEL001
   6
CONTINUOUS
  62
7
  10
 217.372
  20
 481.772
  30
0.0
  11
 217.442
  21
 481.812
  31
0.0
   0
LINE
   8
LEVEL001
   6
CONTINUOUS
  62
7
  10
 217.442
  20
 481.812
  30
0.0
  11
 217.507
  21
 481.853
  31
0.0
   0
LINE
   8
LEVEL001
   6
CONTINUOUS
  62
7
  10
 217.507
  20
 481.853
  30
0.0
  11
 217.568
  21
 481.895
  31
0.0
   0
LINE
   8
LEVEL001
   6
CONTINUOUS
  62
7
  10
 217.568
  20
 481.895
  30
0.0
  11
 217.623
  21
 481.938
  31
0.0
   0
LINE
   8
LEVEL001
   6
CONTINUOUS
  62
7
  10
 217.623
  20
 481.938
  30
0.0
  11
 217.674
  21
 481.982
  31
0.0
   0
LINE
   8
LEVEL001
   6
CONTINUOUS
  62
7
  10
 217.674
  20
 481.982
  30
0.0
  11
 217.719
  21
 482.027
  31
0.0
   0
LINE
   8
LEVEL001
   6
CONTINUOUS
  62
7
  10
 217.719
  20
 482.027
  30
0.0
  11
 217.760
  21
 482.073
  31
0.0
   0
LINE
   8
LEVEL001
   6
CONTINUOUS
  62
7
  10
 217.760
  20
 482.073
  30
0.0
  11
 217.795
  21
 482.119
  31
0.0
   0
LINE
   8
LEVEL001
   6
CONTINUOUS
  62
7
  10
 217.795
  20
 482.119
  30
0.0
  11
 217.825
  21
 482.166
  31
0.0
   0
LINE
   8
LEVEL001
   6
CONTINUOUS
  62
7
  10
 217.825
  20
 482.166
  30
0.0
  11
 217.849
  21
 482.213
  31
0.0
   0
LINE
   8
LEVEL001
   6
CONTINUOUS
  62
7
  10
 217.849
  20
 482.213
  30
0.0
  11
 217.868
  21
 482.260
  31
0.0
   0
LINE
   8
LEVEL001
   6
CONTINUOUS
  62
7
  10
 217.868
  20
 482.260
  30
0.0
  11
 217.882
  21
 482.308
  31
0.0
   0
LINE
   8
LEVEL001
   6
CONTINUOUS
  62
7
  10
 217.882
  20
 482.308
  30
0.0
  11
 217.890
  21
 482.356
  31
0.0
   0
LINE
   8
LEVEL001
   6
CONTINUOUS
  62
7
  10
 217.890
  20
 482.356
  30
0.0
  11
 217.893
  21
 482.404
  31
0.0
   0
LINE
   8
LEVEL001
   6
CONTINUOUS
  62
7
  10
 211.553
  20
 481.282
  30
0.0
  11
 211.556
  21
 481.225
  31
0.0
   0
LINE
   8
LEVEL001
   6
CONTINUOUS
  62
7
  10
 211.556
  20
 481.225
  30
0.0
  11
 211.566
  21
 481.167
  31
0.0
   0
LINE
   8
LEVEL001
   6
CONTINUOUS
  62
7
  10
 211.566
  20
 481.167
  30
0.0
  11
 211.583
  21
 481.110
  31
0.0
   0
LINE
   8
LEVEL001
   6
CONTINUOUS
  62
7
  10
 211.583
  20
 481.110
  30
0.0
  11
 211.606
  21
 481.053
  31
0.0
   0
LINE
   8
LEVEL001
   6
CONTINUOUS
  62
7
  10
 211.606
  20
 481.053
  30
0.0
  11
 211.635
  21
 480.996
  31
0.0
   0
LINE
   8
LEVEL001
   6
CONTINUOUS
  62
7
  10
 211.635
  20
 480.996
  30
0.0
  11
 211.671
  21
 480.940
  31
0.0
   0
LINE
   8
LEVEL001
   6
CONTINUOUS
  62
7
  10
 211.671
  20
 480.940
  30
0.0
  11
 211.713
  21
 480.884
  31
0.0
   0
LINE
   8
LEVEL001
   6
CONTINUOUS
  62
7
  10
 211.713
  20
 480.884
  30
0.0
  11
 211.762
  21
 480.830
  31
0.0
   0
LINE
   8
LEVEL001
   6
CONTINUOUS
  62
7
  10
 211.762
  20
 480.830
  30
0.0
  11
 211.816
  21
 480.776
  31
0.0
   0
LINE
   8
LEVEL001
   6
CONTINUOUS
  62
7
  10
 211.816
  20
 480.776
  30
0.0
  11
 211.877
  21
 480.723
  31
0.0
   0
LINE
   8
LEVEL001
   6
CONTINUOUS
  62
7
  10
 211.877
  20
 480.723
  30
0.0
  11
 211.944
  21
 480.671
  31
0.0
   0
LINE
   8
LEVEL001
   6
CONTINUOUS
  62
7
  10
 211.944
  20
 480.671
  30
0.0
  11
 212.017
  21
 480.620
  31
0.0
   0
LINE
   8
LEVEL001
   6
CONTINUOUS
  62
7
  10
 212.017
  20
 480.620
  30
0.0
  11
 212.095
  21
 480.571
  31
0.0
   0
LINE
   8
LEVEL001
   6
CONTINUOUS
  62
7
  10
 212.095
  20
 480.571
  30
0.0
  11
 212.179
  21
 480.523
  31
0.0
   0
LINE
   8
LEVEL001
   6
CONTINUOUS
  62
7
  10
 212.179
  20
 480.523
  30
0.0
  11
 212.268
  21
 480.476
  31
0.0
   0
LINE
   8
LEVEL001
   6
CONTINUOUS
  62
7
  10
 212.268
  20
 480.476
  30
0.0
  11
 212.362
  21
 480.431
  31
0.0
   0
LINE
   8
LEVEL001
   6
CONTINUOUS
  62
7
  10
 212.362
  20
 480.431
  30
0.0
  11
 212.462
  21
 480.388
  31
0.0
   0
LINE
   8
LEVEL001
   6
CONTINUOUS
  62
7
  10
 212.462
  20
 480.388
  30
0.0
  11
 212.566
  21
 480.346
  31
0.0
   0
LINE
   8
LEVEL001
   6
CONTINUOUS
  62
7
  10
 212.566
  20
 480.346
  30
0.0
  11
 212.675
  21
 480.306
  31
0.0
   0
LINE
   8
LEVEL001
   6
CONTINUOUS
  62
7
  10
 212.675
  20
 480.306
  30
0.0
  11
 212.789
  21
 480.268
  31
0.0
   0
LINE
   8
LEVEL001
   6
CONTINUOUS
  62
7
  10
 212.789
  20
 480.268
  30
0.0
  11
 212.907
  21
 480.232
  31
0.0
   0
LINE
   8
LEVEL001
   6
CONTINUOUS
  62
7
  10
 212.907
  20
 480.232
  30
0.0
  11
 213.028
  21
 480.198
  31
0.0
   0
LINE
   8
LEVEL001
   6
CONTINUOUS
  62
7
  10
 213.028
  20
 480.198
  30
0.0
  11
 213.154
  21
 480.166
  31
0.0
   0
LINE
   8
LEVEL001
   6
CONTINUOUS
  62
7
  10
 213.154
  20
 480.166
  30
0.0
  11
 213.283
  21
 480.136
  31
0.0
   0
LINE
   8
LEVEL001
   6
CONTINUOUS
  62
7
  10
 213.283
  20
 480.136
  30
0.0
  11
 213.415
  21
 480.108
  31
0.0
   0
LINE
   8
LEVEL001
   6
CONTINUOUS
  62
7
  10
 213.415
  20
 480.108
  30
0.0
  11
 213.551
  21
 480.082
  31
0.0
   0
LINE
   8
LEVEL001
   6
CONTINUOUS
  62
7
  10
 213.551
  20
 480.082
  30
0.0
  11
 213.689
  21
 480.059
  31
0.0
   0
LINE
   8
LEVEL001
   6
CONTINUOUS
  62
7
  10
 213.689
  20
 480.059
  30
0.0
  11
 213.830
  21
 480.038
  31
0.0
   0
LINE
   8
LEVEL001
   6
CONTINUOUS
  62
7
  10
 213.830
  20
 480.038
  30
0.0
  11
 213.973
  21
 480.020
  31
0.0
   0
LINE
   8
LEVEL001
   6
CONTINUOUS
  62
7
  10
 213.973
  20
 480.020
  30
0.0
  11
 214.117
  21
 480.004
  31
0.0
   0
LINE
   8
LEVEL001
   6
CONTINUOUS
  62
7
  10
 214.117
  20
 480.004
  30
0.0
  11
 214.264
  21
 479.990
  31
0.0
   0
LINE
   8
LEVEL001
   6
CONTINUOUS
  62
7
  10
 214.264
  20
 479.990
  30
0.0
  11
 214.412
  21
 479.979
  31
0.0
   0
LINE
   8
LEVEL001
   6
CONTINUOUS
  62
7
  10
 214.412
  20
 479.979
  30
0.0
  11
 214.561
  21
 479.970
  31
0.0
   0
LINE
   8
LEVEL001
   6
CONTINUOUS
  62
7
  10
 214.561
  20
 479.970
  30
0.0
  11
 214.711
  21
 479.963
  31
0.0
   0
LINE
   8
LEVEL001
   6
CONTINUOUS
  62
7
  10
 214.711
  20
 479.963
  30
0.0
  11
 214.862
  21
 479.960
  31
0.0
   0
LINE
   8
LEVEL001
   6
CONTINUOUS
  62
7
  10
 214.862
  20
 479.960
  30
0.0
  11
 215.013
  21
 479.958
  31
0.0
   0
LINE
   8
LEVEL001
   6
CONTINUOUS
  62
7
  10
 215.013
  20
 479.958
  30
0.0
  11
 215.164
  21
 479.960
  31
0.0
   0
LINE
   8
LEVEL001
   6
CONTINUOUS
  62
7
  10
 215.164
  20
 479.960
  30
0.0
  11
 215.315
  21
 479.963
  31
0.0
   0
LINE
   8
LEVEL001
   6
CONTINUOUS
  62
7
  10
 215.315
  20
 479.963
  30
0.0
  11
 215.465
  21
 479.970
  31
0.0
   0
LINE
   8
LEVEL001
   6
CONTINUOUS
  62
7
  10
 215.465
  20
 479.970
  30
0.0
  11
 215.614
  21
 479.979
  31
0.0
   0
LINE
   8
LEVEL001
   6
CONTINUOUS
  62
7
  10
 215.614
  20
 479.979
  30
0.0
  11
 215.762
  21
 479.990
  31
0.0
   0
LINE
   8
LEVEL001
   6
CONTINUOUS
  62
7
  10
 215.762
  20
 479.990
  30
0.0
  11
 215.908
  21
 480.004
  31
0.0
   0
LINE
   8
LEVEL001
   6
CONTINUOUS
  62
7
  10
 215.908
  20
 480.004
  30
0.0
  11
 216.053
  21
 480.020
  31
0.0
   0
LINE
   8
LEVEL001
   6
CONTINUOUS
  62
7
  10
 216.053
  20
 480.020
  30
0.0
  11
 216.196
  21
 480.038
  31
0.0
   0
LINE
   8
LEVEL001
   6
CONTINUOUS
  62
7
  10
 216.196
  20
 480.038
  30
0.0
  11
 216.337
  21
 480.059
  31
0.0
   0
LINE
   8
LEVEL001
   6
CONTINUOUS
  62
7
  10
 216.337
  20
 480.059
  30
0.0
  11
 216.475
  21
 480.082
  31
0.0
   0
LINE
   8
LEVEL001
   6
CONTINUOUS
  62
7
  10
 216.475
  20
 480.082
  30
0.0
  11
 216.611
  21
 480.108
  31
0.0
   0
LINE
   8
LEVEL001
   6
CONTINUOUS
  62
7
  10
 216.611
  20
 480.108
  30
0.0
  11
 216.743
  21
 480.136
  31
0.0
   0
LINE
   8
LEVEL001
   6
CONTINUOUS
  62
7
  10
 216.743
  20
 480.136
  30
0.0
  11
 216.872
  21
 480.166
  31
0.0
   0
LINE
   8
LEVEL001
   6
CONTINUOUS
  62
7
  10
 216.872
  20
 480.166
  30
0.0
  11
 216.998
  21
 480.198
  31
0.0
   0
LINE
   8
LEVEL001
   6
CONTINUOUS
  62
7
  10
 216.998
  20
 480.198
  30
0.0
  11
 217.119
  21
 480.232
  31
0.0
   0
LINE
   8
LEVEL001
   6
CONTINUOUS
  62
7
  10
 217.119
  20
 480.232
  30
0.0
  11
 217.237
  21
 480.268
  31
0.0
   0
LINE
   8
LEVEL001
   6
CONTINUOUS
  62
7
  10
 217.237
  20
 480.268
  30
0.0
  11
 217.350
  21
 480.306
  31
0.0
   0
LINE
   8
LEVEL001
   6
CONTINUOUS
  62
7
  10
 217.350
  20
 480.306
  30
0.0
  11
 217.460
  21
 480.346
  31
0.0
   0
LINE
   8
LEVEL001
   6
CONTINUOUS
  62
7
  10
 217.460
  20
 480.346
  30
0.0
  11
 217.564
  21
 480.388
  31
0.0
   0
LINE
   8
LEVEL001
   6
CONTINUOUS
  62
7
  10
 217.564
  20
 480.388
  30
0.0
  11
 217.663
  21
 480.431
  31
0.0
   0
LINE
   8
LEVEL001
   6
CONTINUOUS
  62
7
  10
 217.663
  20
 480.431
  30
0.0
  11
 217.758
  21
 480.476
  31
0.0
   0
LINE
   8
LEVEL001
   6
CONTINUOUS
  62
7
  10
 217.758
  20
 480.476
  30
0.0
  11
 217.847
  21
 480.523
  31
0.0
   0
LINE
   8
LEVEL001
   6
CONTINUOUS
  62
7
  10
 217.847
  20
 480.523
  30
0.0
  11
 217.931
  21
 480.571
  31
0.0
   0
LINE
   8
LEVEL001
   6
CONTINUOUS
  62
7
  10
 217.931
  20
 480.571
  30
0.0
  11
 218.009
  21
 480.620
  31
0.0
   0
LINE
   8
LEVEL001
   6
CONTINUOUS
  62
7
  10
 218.009
  20
 480.620
  30
0.0
  11
 218.082
  21
 480.671
  31
0.0
   0
LINE
   8
LEVEL001
   6
CONTINUOUS
  62
7
  10
 218.082
  20
 480.671
  30
0.0
  11
 218.149
  21
 480.723
  31
0.0
   0
LINE
   8
LEVEL001
   6
CONTINUOUS
  62
7
  10
 218.149
  20
 480.723
  30
0.0
  11
 218.210
  21
 480.776
  31
0.0
   0
LINE
   8
LEVEL001
   6
CONTINUOUS
  62
7
  10
 218.210
  20
 480.776
  30
0.0
  11
 218.264
  21
 480.830
  31
0.0
   0
LINE
   8
LEVEL001
   6
CONTINUOUS
  62
7
  10
 218.264
  20
 480.830
  30
0.0
  11
 218.313
  21
 480.884
  31
0.0
   0
LINE
   8
LEVEL001
   6
CONTINUOUS
  62
7
  10
 218.313
  20
 480.884
  30
0.0
  11
 218.355
  21
 480.940
  31
0.0
   0
LINE
   8
LEVEL001
   6
CONTINUOUS
  62
7
  10
 218.355
  20
 480.940
  30
0.0
  11
 218.391
  21
 480.996
  31
0.0
   0
LINE
   8
LEVEL001
   6
CONTINUOUS
  62
7
  10
 218.391
  20
 480.996
  30
0.0
  11
 218.420
  21
 481.053
  31
0.0
   0
LINE
   8
LEVEL001
   6
CONTINUOUS
  62
7
  10
 218.420
  20
 481.053
  30
0.0
  11
 218.443
  21
 481.110
  31
0.0
   0
LINE
   8
LEVEL001
   6
CONTINUOUS
  62
7
  10
 218.443
  20
 481.110
  30
0.0
  11
 218.460
  21
 481.167
  31
0.0
   0
LINE
   8
LEVEL001
   6
CONTINUOUS
  62
7
  10
 218.460
  20
 481.167
  30
0.0
  11
 218.470
  21
 481.225
  31
0.0
   0
LINE
   8
LEVEL001
   6
CONTINUOUS
  62
7
  10
 218.470
  20
 481.225
  30
0.0
  11
 218.473
  21
 481.282
  31
0.0
   0
ARC
   8
LEVEL001
   6
CONTINUOUS
  62
7
  10
 212.074
  20
 484.768
  30
0.0
  40
 6.28019
  50
 337.893
  51
 352.464
   0
ARC
   8
LEVEL001
   6
CONTINUOUS
  62
7
  10
 219.026
  20
 482.279
  30
0.0
  40
 1.13965
  50
 173.696
  51
 240.986
   0
ARC
   8
LEVEL001
   6
CONTINUOUS
  62
7
  10
 217.951
  20
 484.768
  30
0.0
  40
 6.28019
  50
 187.536
  51
 202.107
   0
ARC
   8
LEVEL001
   6
CONTINUOUS
  62
7
  10
 211.000
  20
 482.279
  30
0.0
  40
 1.13965
  50
 299.014
  51
 6.30441
   0
LINE
   8
LEVEL001
   6
CONTINUOUS
  62
7
  10
 218.477
  20
 480.509
  30
0.0
  11
 215.013
  21
 479.736
  31
0.0
   0
LINE
   8
LEVEL001
   6
CONTINUOUS
  62
7
  10
 215.013
  20
 479.736
  30
0.0
  11
 211.549
  21
 480.509
  31
0.0
   0
LINE
   8
LEVEL001
   6
CONTINUOUS
  62
7
  10
 211.549
  20
 482.056
  30
0.0
  11
 212.136
  21
 482.187
  31
0.0
   0
LINE
   8
LEVEL001
   6
CONTINUOUS
  62
7
  10
 217.890
  20
 482.187
  30
0.0
  11
 218.477
  21
 482.056
  31
0.0
   0
LINE
   8
LEVEL001
   6
CONTINUOUS
  62
7
  10
 211.549
  20
 482.056
  30
0.0
  11
 211.549
  21
 478.292
  31
0.0
   0
LINE
   8
LEVEL001
   6
CONTINUOUS
  62
7
  10
 218.477
  20
 478.292
  30
0.0
  11
 218.477
  21
 482.056
  31
0.0
   0
LINE
   8
LEVEL001
   6
CONTINUOUS
  62
7
  10
 211.549
  20
 478.292
  30
0.0
  11
 215.013
  21
 477.519
  31
0.0
   0
LINE
   8
LEVEL001
   6
CONTINUOUS
  62
7
  10
 215.013
  20
 477.519
  30
0.0
  11
 218.477
  21
 478.292
  31
0.0
   0
ARC
   8
LEVEL001
   6
CONTINUOUS
  62
7
  10
 215.013
  20
 475.000
  30
0.0
  40
 5.00000
  50
 133.854
  51
 46.1462
   0
LINE
   8
LEVEL001
   6
CONTINUOUS
  62
7
  10
 220.786
  20
 475.000
  30
0.0
  11
 218.477
  21
 479.000
  31
0.0
   0
LINE
   8
LEVEL001
   6
CONTINUOUS
  62
7
  10
 211.549
  20
 479.000
  30
0.0
  11
 209.239
  21
 475.000
  31
0.0
   0
CIRCLE
   8
LEVEL001
   6
CONTINUOUS
  62
7
  10
 424.787
  20
 496.213
  30
0.0
  40
 5.50000
   0
CIRCLE
   8
LEVEL001
   6
CONTINUOUS
  62
7
  10
 424.787
  20
 496.213
  30
0.0
  40
 5.00000
   0
LINE
   8
LEVEL001
   6
CONTINUOUS
  62
7
  10
 424.787
  20
 493.326
  30
0.0
  11
 427.287
  21
 494.770
  31
0.0
   0
LINE
   8
LEVEL001
   6
CONTINUOUS
  62
7
  10
 427.287
  20
 494.770
  30
0.0
  11
 427.287
  21
 497.657
  31
0.0
   0
LINE
   8
LEVEL001
   6
CONTINUOUS
  62
7
  10
 427.287
  20
 497.657
  30
0.0
  11
 424.787
  21
 499.100
  31
0.0
   0
LINE
   8
LEVEL001
   6
CONTINUOUS
  62
7
  10
 424.787
  20
 499.100
  30
0.0
  11
 422.287
  21
 497.657
  31
0.0
   0
LINE
   8
LEVEL001
   6
CONTINUOUS
  62
7
  10
 422.287
  20
 497.657
  30
0.0
  11
 422.287
  21
 494.770
  31
0.0
   0
LINE
   8
LEVEL001
   6
CONTINUOUS
  62
7
  10
 422.287
  20
 494.770
  30
0.0
  11
 424.787
  21
 493.326
  31
0.0
   0
CIRCLE
   8
LEVEL001
   6
CONTINUOUS
  62
7
  10
 467.213
  20
 496.213
  30
0.0
  40
 5.50000
   0
CIRCLE
   8
LEVEL001
   6
CONTINUOUS
  62
7
  10
 467.213
  20
 496.213
  30
0.0
  40
 5.00000
   0
LINE
   8
LEVEL001
   6
CONTINUOUS
  62
7
  10
 467.213
  20
 493.326
  30
0.0
  11
 469.713
  21
 494.770
  31
0.0
   0
LINE
   8
LEVEL001
   6
CONTINUOUS
  62
7
  10
 469.713
  20
 494.770
  30
0.0
  11
 469.713
  21
 497.657
  31
0.0
   0
LINE
   8
LEVEL001
   6
CONTINUOUS
  62
7
  10
 469.713
  20
 497.657
  30
0.0
  11
 467.213
  21
 499.100
  31
0.0
   0
LINE
   8
LEVEL001
   6
CONTINUOUS
  62
7
  10
 467.213
  20
 499.100
  30
0.0
  11
 464.713
  21
 497.657
  31
0.0
   0
LINE
   8
LEVEL001
   6
CONTINUOUS
  62
7
  10
 464.713
  20
 497.657
  30
0.0
  11
 464.713
  21
 494.770
  31
0.0
   0
LINE
   8
LEVEL001
   6
CONTINUOUS
  62
7
  10
 464.713
  20
 494.770
  30
0.0
  11
 467.213
  21
 493.326
  31
0.0
   0
CIRCLE
   8
LEVEL001
   6
CONTINUOUS
  62
7
  10
 467.213
  20
 453.787
  30
0.0
  40
 5.50000
   0
CIRCLE
   8
LEVEL001
   6
CONTINUOUS
  62
7
  10
 467.213
  20
 453.787
  30
0.0
  40
 5.00000
   0
LINE
   8
LEVEL001
   6
CONTINUOUS
  62
7
  10
 467.213
  20
 450.900
  30
0.0
  11
 469.713
  21
 452.343
  31
0.0
   0
LINE
   8
LEVEL001
   6
CONTINUOUS
  62
7
  10
 469.713
  20
 452.343
  30
0.0
  11
 469.713
  21
 455.230
  31
0.0
   0
LINE
   8
LEVEL001
   6
CONTINUOUS
  62
7
  10
 469.713
  20
 455.230
  30
0.0
  11
 467.213
  21
 456.674
  31
0.0
   0
LINE
   8
LEVEL001
   6
CONTINUOUS
  62
7
  10
 467.213
  20
 456.674
  30
0.0
  11
 464.713
  21
 455.230
  31
0.0
   0
LINE
   8
LEVEL001
   6
CONTINUOUS
  62
7
  10
 464.713
  20
 455.230
  30
0.0
  11
 464.713
  21
 452.343
  31
0.0
   0
LINE
   8
LEVEL001
   6
CONTINUOUS
  62
7
  10
 464.713
  20
 452.343
  30
0.0
  11
 467.213
  21
 450.900
  31
0.0
   0
CIRCLE
   8
LEVEL001
   6
CONTINUOUS
  62
7
  10
 424.787
  20
 453.787
  30
0.0
  40
 5.50000
   0
CIRCLE
   8
LEVEL001
   6
CONTINUOUS
  62
7
  10
 424.787
  20
 453.787
  30
0.0
  40
 5.00000
   0
LINE
   8
LEVEL001
   6
CONTINUOUS
  62
7
  10
 424.787
  20
 450.900
  30
0.0
  11
 427.287
  21
 452.343
  31
0.0
   0
LINE
   8
LEVEL001
   6
CONTINUOUS
  62
7
  10
 427.287
  20
 452.343
  30
0.0
  11
 427.287
  21
 455.230
  31
0.0
   0
LINE
   8
LEVEL001
   6
CONTINUOUS
  62
7
  10
 427.287
  20
 455.230
  30
0.0
  11
 424.787
  21
 456.674
  31
0.0
   0
LINE
   8
LEVEL001
   6
CONTINUOUS
  62
7
  10
 424.787
  20
 456.674
  30
0.0
  11
 422.287
  21
 455.230
  31
0.0
   0
LINE
   8
LEVEL001
   6
CONTINUOUS
  62
7
  10
 422.287
  20
 455.230
  30
0.0
  11
 422.287
  21
 452.343
  31
0.0
   0
LINE
   8
LEVEL001
   6
CONTINUOUS
  62
7
  10
 422.287
  20
 452.343
  30
0.0
  11
 424.787
  21
 450.900
  31
0.0
   0
LINE
   8
LEVEL001
   6
CONTINUOUS
  62
7
  10
 470.190
  20
 510.018
  30
0.0
  11
 565.478
  21
 510.018
  31
0.0
   0
LINE
   8
LEVEL001
   6
CONTINUOUS
  62
7
  10
 144.664
  20
 438.855
  30
0.0
  11
 145.000
  21
 433.000
  31
0.0
   0
LINE
   8
LEVEL001
   6
CONTINUOUS
  62
7
  10
 255.336
  20
 438.855
  30
0.0
  11
 255.000
  21
 433.000
  31
0.0
   0
LINE
   8
LEVEL001
   6
CONTINUOUS
  62
7
  10
 255.336
  20
 438.855
  30
0.0
  11
 261.250
  21
 439.000
  31
0.0
   0
LINE
   8
LEVEL001
   6
CONTINUOUS
  62
7
  10
 144.664
  20
 438.855
  30
0.0
  11
 138.750
  21
 439.000
  31
0.0
   0
LINE
   8
LEVEL001
   6
CONTINUOUS
  62
7
  10
 154.228
  20
 444.028
  30
0.0
  11
 185.261
  21
 444.028
  31
0.0
   0
LINE
   8
LEVEL001
   6
CONTINUOUS
  62
7
  10
 217.017
  20
 444.028
  30
0.0
  11
 246.606
  21
 444.028
  31
0.0
   0
LINE
   8
LEVEL001
   6
CONTINUOUS
  62
7
  10
 164.127
  20
 510.875
  30
0.0
  11
 196.366
  21
 505.833
  31
0.0
   0
LINE
   8
LEVEL001
   6
CONTINUOUS
  62
7
  10
 235.974
  20
 510.891
  30
0.0
  11
 204.080
  21
 505.902
  31
0.0
   0
LINE
   8
LEVEL001
   6
CONTINUOUS
  62
7
  10
 240.000
  20
 511.521
  30
0.0
  11
 261.250
  21
 511.000
  31
0.0
   0
LINE
   8
LEVEL001
   6
CONTINUOUS
  62
7
  10
 160.000
  20
 511.521
  30
0.0
  11
 138.750
  21
 511.000
  31
0.0
   0
CIRCLE
   8
LEVEL001
   6
CONTINUOUS
  62
7
  10
 416.000
  20
 475.000
  30
0.0
  40
 3.00000
   0
CIRCLE
   8
LEVEL001
   6
CONTINUOUS
  62
7
  10
 416.000
  20
 475.000
  30
0.0
  40
 2.50000
   0
CIRCLE
   8
LEVEL001
   6
CONTINUOUS
  62
7
  10
 476.000
  20
 475.000
  30
0.0
  40
 3.00000
   0
CIRCLE
   8
LEVEL001
   6
CONTINUOUS
  62
7
  10
 476.000
  20
 475.000
  30
0.0
  40
 2.50000
   0
LINE
   8
LEVEL001
   6
CONTINUOUS
  62
7
  10
 449.000
  20
 488.500
  30
0.0
  11
 449.000
  21
 482.500
  31
0.0
   0
LINE
   8
LEVEL001
   6
CONTINUOUS
  62
7
  10
 443.000
  20
 488.500
  30
0.0
  11
 443.000
  21
 482.500
  31
0.0
   0
LINE
   8
LEVEL001
   6
CONTINUOUS
  62
7
  10
 443.000
  20
 488.500
  30
0.0
  11
 449.000
  21
 488.500
  31
0.0
   0
ARC
   8
LEVEL001
   6
CONTINUOUS
  62
7
  10
 446.000
  20
 475.000
  30
0.0
  40
 12.5000
  50
 103.887
  51
 76.1135
   0
LINE
   8
LEVEL001
   6
CONTINUOUS
  62
7
  10
 285.000
  20
 488.500
  30
0.0
  11
 285.000
  21
 485.583
  31
0.0
   0
LINE
   8
LEVEL001
   6
CONTINUOUS
  62
7
  10
 285.000
  20
 488.500
  30
0.0
  11
 315.000
  21
 488.500
  31
0.0
   0
LINE
   8
LEVEL001
   6
CONTINUOUS
  62
7
  10
 315.000
  20
 488.500
  30
0.0
  11
 315.000
  21
 484.539
  31
0.0
   0
LINE
   8
LEVEL001
   6
CONTINUOUS
  62
7
  10
 115.000
  20
 488.500
  30
0.0
  11
 115.000
  21
 485.583
  31
0.0
   0
LINE
   8
LEVEL001
   6
CONTINUOUS
  62
7
  10
 115.000
  20
 488.500
  30
0.0
  11
 85.0000
  21
 488.500
  31
0.0
   0
LINE
   8
LEVEL001
   6
CONTINUOUS
  62
7
  10
 85.0000
  20
 488.500
  30
0.0
  11
 85.0000
  21
 484.539
  31
0.0
   0
LINE
   8
LEVEL001
   6
CONTINUOUS
  62
7
  10
 488.000
  20
 493.000
  30
0.0
  11
 552.057
  21
 493.000
  31
0.0
   0
ARC
   8
LEVEL001
   6
CONTINUOUS
  62
7
  10
 476.237
  20
 441.000
  30
0.0
  40
 8.00000
  50
 131.647
  51
 270.000
   0
LINE
   8
LEVEL001
   6
CONTINUOUS
  62
7
  10
 589.500
  20
 433.000
  30
0.0
  11
 512.280
  21
 433.000
  31
0.0
   0
LINE
   8
LEVEL001
   6
CONTINUOUS
  62
7
  10
 488.538
  20
 433.000
  30
0.0
  11
 476.237
  21
 433.000
  31
0.0
   0
LINE
   8
LEVEL001
   6
DASHDOT
  62
1
  10
 575.000
  20
 475.000
  30
0.0
  11
 391.250
  21
 475.000
  31
0.0
   0
LINE
   8
LEVEL001
   6
DASHDOT
  62
1
  10
 446.000
  20
 505.000
  30
0.0
  11
 446.000
  21
 445.000
  31
0.0
   0
LINE
   8
LEVEL001
   6
DASHDOT
  62
1
  10
 395.000
  20
 437.500
  30
0.0
  11
 395.000
  21
 415.000
  31
0.0
   0
LINE
   8
LEVEL001
   6
DASHDOT
  62
1
  10
 570.000
  20
 437.500
  30
0.0
  11
 570.000
  21
 415.000
  31
0.0
   0
LINE
   8
LEVEL001
   6
DASHDOT
  62
1
  10
 80.0000
  20
 475.000
  30
0.0
  11
 320.000
  21
 475.000
  31
0.0
   0
LINE
   8
LEVEL001
   6
DASHDOT
  62
1
  10
 167.500
  20
 437.500
  30
0.0
  11
 167.500
  21
 415.000
  31
0.0
   0
LINE
   8
LEVEL001
   6
DASHDOT
  62
1
  10
 232.500
  20
 437.500
  30
0.0
  11
 232.500
  21
 415.000
  31
0.0
   0
ARC
   8
LEVEL001
   6
CONTINUOUS
  62
7
  10
 520.500
  20
 599.500
  30
0.0
  40
 0.500000
  50
0.0
  51
 90.0000
   0
LINE
   8
LEVEL001
   6
CONTINUOUS
  62
7
  10
 520.500
  20
 600.000
  30
0.0
  11
 505.000
  21
 600.000
  31
0.0
   0
LINE
   8
LEVEL001
   6
CONTINUOUS
  62
7
  10
 521.000
  20
 575.500
  30
0.0
  11
 521.000
  21
 599.500
  31
0.0
   0
ARC
   8
LEVEL001
   6
CONTINUOUS
  62
7
  10
 479.500
  20
 599.500
  30
0.0
  40
 0.500000
  50
 90.0000
  51
 180.000
   0
LINE
   8
LEVEL001
   6
CONTINUOUS
  62
7
  10
 495.000
  20
 600.000
  30
0.0
  11
 479.500
  21
 600.000
  31
0.0
   0
LINE
   8
LEVEL001
   6
CONTINUOUS
  62
7
  10
 479.000
  20
 575.500
  30
0.0
  11
 479.000
  21
 599.500
  31
0.0
   0
ARC
   8
LEVEL001
   6
CONTINUOUS
  62
7
  10
 220.500
  20
 599.500
  30
0.0
  40
 0.500000
  50
0.0
  51
 90.0000
   0
LINE
   8
LEVEL001
   6
CONTINUOUS
  62
7
  10
 221.000
  20
 575.500
  30
0.0
  11
 221.000
  21
 599.500
  31
0.0
   0
ARC
   8
LEVEL001
   6
CONTINUOUS
  62
7
  10
 179.500
  20
 599.500
  30
0.0
  40
 0.500000
  50
 90.0000
  51
 180.000
   0
LINE
   8
LEVEL001
   6
CONTINUOUS
  62
7
  10
 179.000
  20
 575.500
  30
0.0
  11
 179.000
  21
 599.500
  31
0.0
   0
LINE
   8
LEVEL001
   6
CONTINUOUS
  62
7
  10
 220.500
  20
 600.000
  30
0.0
  11
 179.500
  21
 600.000
  31
0.0
   0
CIRCLE
   8
LEVEL001
   6
DASHDOT
  62
1
  10
 446.000
  20
 475.000
  30
0.0
  40
 30.0000
   0
ARC
   8
LEVEL001
   6
CONTINUOUS
  62
7
  10
 520.000
  20
 601.000
  30
0.0
  40
 1.00000
  50
 180.000
  51
 270.000
   0
ARC
   8
LEVEL001
   6
CONTINUOUS
  62
7
  10
 520.000
  20
 604.000
  30
0.0
  40
 1.00000
  50
 90.0000
  51
 180.000
   0
LINE
   8
LEVEL001
   6
CONTINUOUS
  62
7
  10
 519.000
  20
 640.000
  30
0.0
  11
 519.000
  21
 604.000
  31
0.0
   0
LINE
   8
LEVEL001
   6
CONTINUOUS
  62
7
  10
 519.000
  20
 604.000
  30
0.0
  11
 519.000
  21
 601.000
  31
0.0
   0
LINE
   8
LEVEL001
   6
CONTINUOUS
  62
7
  10
 519.000
  20
 640.000
  30
0.0
  11
 520.000
  21
 639.000
  31
0.0
   0
LINE
   8
LEVEL001
   6
CONTINUOUS
  62
7
  10
 520.000
  20
 639.000
  30
0.0
  11
 520.000
  21
 605.000
  31
0.0
   0
ARC
   8
LEVEL001
   6
CONTINUOUS
  62
7
  10
 480.000
  20
 601.000
  30
0.0
  40
 1.00000
  50
 270.000
  51
0.0
   0
ARC
   8
LEVEL001
   6
CONTINUOUS
  62
7
  10
 480.000
  20
 604.000
  30
0.0
  40
 1.00000
  50
0.0
  51
 90.0000
   0
LINE
   8
LEVEL001
   6
CONTINUOUS
  62
7
  10
 481.000
  20
 640.000
  30
0.0
  11
 481.000
  21
 604.000
  31
0.0
   0
LINE
   8
LEVEL001
   6
CONTINUOUS
  62
7
  10
 481.000
  20
 604.000
  30
0.0
  11
 481.000
  21
 601.000
  31
0.0
   0
LINE
   8
LEVEL001
   6
CONTINUOUS
  62
7
  10
 481.000
  20
 640.000
  30
0.0
  11
 480.000
  21
 639.000
  31
0.0
   0
LINE
   8
LEVEL001
   6
CONTINUOUS
  62
7
  10
 480.000
  20
 639.000
  30
0.0
  11
 480.000
  21
 605.000
  31
0.0
   0
LINE
   8
LEVEL001
   6
CONTINUOUS
  62
7
  10
 520.000
  20
 605.000
  30
0.0
  11
 480.000
  21
 605.000
  31
0.0
   0
LINE
   8
LEVEL001
   6
CONTINUOUS
  62
7
  10
 520.000
  20
 639.000
  30
0.0
  11
 480.000
  21
 639.000
  31
0.0
   0
LINE
   8
LEVEL001
   6
CONTINUOUS
  62
7
  10
 519.000
  20
 640.000
  30
0.0
  11
 481.000
  21
 640.000
  31
0.0
   0
ARC
   8
LEVEL001
   6
CONTINUOUS
  62
7
  10
 220.000
  20
 601.000
  30
0.0
  40
 1.00000
  50
 180.000
  51
 270.000
   0
ARC
   8
LEVEL001
   6
CONTINUOUS
  62
7
  10
 220.000
  20
 604.000
  30
0.0
  40
 1.00000
  50
 90.0000
  51
 180.000
   0
LINE
   8
LEVEL001
   6
CONTINUOUS
  62
7
  10
 219.000
  20
 640.000
  30
0.0
  11
 219.000
  21
 604.000
  31
0.0
   0
LINE
   8
LEVEL001
   6
CONTINUOUS
  62
7
  10
 219.000
  20
 604.000
  30
0.0
  11
 219.000
  21
 601.000
  31
0.0
   0
LINE
   8
LEVEL001
   6
CONTINUOUS
  62
7
  10
 219.000
  20
 640.000
  30
0.0
  11
 220.000
  21
 639.000
  31
0.0
   0
LINE
   8
LEVEL001
   6
CONTINUOUS
  62
7
  10
 220.000
  20
 639.000
  30
0.0
  11
 220.000
  21
 605.000
  31
0.0
   0
ARC
   8
LEVEL001
   6
CONTINUOUS
  62
7
  10
 180.000
  20
 601.000
  30
0.0
  40
 1.00000
  50
 270.000
  51
0.0
   0
ARC
   8
LEVEL001
   6
CONTINUOUS
  62
7
  10
 180.000
  20
 604.000
  30
0.0
  40
 1.00000
  50
0.0
  51
 90.0000
   0
LINE
   8
LEVEL001
   6
CONTINUOUS
  62
7
  10
 181.000
  20
 640.000
  30
0.0
  11
 181.000
  21
 604.000
  31
0.0
   0
LINE
   8
LEVEL001
   6
CONTINUOUS
  62
7
  10
 181.000
  20
 604.000
  30
0.0
  11
 181.000
  21
 601.000
  31
0.0
   0
LINE
   8
LEVEL001
   6
CONTINUOUS
  62
7
  10
 181.000
  20
 640.000
  30
0.0
  11
 180.000
  21
 639.000
  31
0.0
   0
LINE
   8
LEVEL001
   6
CONTINUOUS
  62
7
  10
 180.000
  20
 639.000
  30
0.0
  11
 180.000
  21
 605.000
  31
0.0
   0
LINE
   8
LEVEL001
   6
CONTINUOUS
  62
7
  10
 220.000
  20
 605.000
  30
0.0
  11
 180.000
  21
 605.000
  31
0.0
   0
LINE
   8
LEVEL001
   6
CONTINUOUS
  62
7
  10
 220.000
  20
 639.000
  30
0.0
  11
 180.000
  21
 639.000
  31
0.0
   0
LINE
   8
LEVEL001
   6
CONTINUOUS
  62
7
  10
 219.000
  20
 640.000
  30
0.0
  11
 181.000
  21
 640.000
  31
0.0
   0
LINE
   8
LEVEL001
   6
DASHDOT
  62
1
  10
 500.000
  20
 647.500
  30
0.0
  11
 500.000
  21
 25.0000
  31
0.0
   0
LINE
   8
LEVEL001
   6
DASHDOT
  62
1
  10
 200.000
  20
 647.500
  30
0.0
  11
 200.000
  21
 25.0000
  31
0.0
   0
CIRCLE
   8
LEVEL001
   6
CONTINUOUS
  62
7
  10
 255.431
  20
 787.040
  30
0.0
  40
 5.00000
   0
CIRCLE
   8
LEVEL001
   6
CONTINUOUS
  62
7
  10
 255.431
  20
 787.040
  30
0.0
  40
 4.25000
   0
CIRCLE
   8
LEVEL001
   6
CONTINUOUS
  62
7
  10
 242.426
  20
 767.574
  30
0.0
  40
 7.13397
   0
CIRCLE
   8
LEVEL001
   6
CONTINUOUS
  62
7
  10
 242.426
  20
 767.574
  30
0.0
  40
 8.00000
   0
CIRCLE
   8
LEVEL001
   6
CONTINUOUS
  62
7
  10
 200.000
  20
 810.000
  30
0.0
  40
 33.5000
   0
LINE
   8
LEVEL001
   6
CONTINUOUS
  62
7
  10
 224.000
  20
 815.000
  30
0.0
  11
 224.000
  21
 805.000
  31
0.0
   0
LINE
   8
LEVEL001
   6
CONTINUOUS
  62
7
  10
 220.396
  20
 815.000
  30
0.0
  11
 224.000
  21
 815.000
  31
0.0
   0
LINE
   8
LEVEL001
   6
CONTINUOUS
  62
7
  10
 224.000
  20
 805.000
  30
0.0
  11
 220.396
  21
 805.000
  31
0.0
   0
CIRCLE
   8
LEVEL001
   6
CONTINUOUS
  62
7
  10
 200.000
  20
 810.000
  30
0.0
  40
 21.0000
   0
CIRCLE
   8
LEVEL001
   6
CONTINUOUS
  62
7
  10
 200.000
  20
 810.000
  30
0.0
  40
 19.0000
   0
CIRCLE
   8
LEVEL001
   6
CONTINUOUS
  62
7
  10
 200.000
  20
 810.000
  30
0.0
  40
 20.0000
   0
LINE
   8
LEVEL001
   6
CONTINUOUS
  62
7
  10
 273.500
  20
 791.000
  30
0.0
  11
 273.500
  21
 721.000
  31
0.0
   0
LINE
   8
LEVEL001
   6
CONTINUOUS
  62
7
  10
 261.250
  20
 774.521
  30
0.0
  11
 261.250
  21
 720.000
  31
0.0
   0
LINE
   8
LEVEL001
   6
CONTINUOUS
  62
7
  10
 261.500
  20
 774.597
  30
0.0
  11
 261.500
  21
 719.000
  31
0.0
   0
CIRCLE
   8
LEVEL001
   6
CONTINUOUS
  62
7
  10
 200.000
  20
 810.000
  30
0.0
  40
 71.0000
   0
LINE
   8
LEVEL001
   6
CONTINUOUS
  62
7
  10
 314.000
  20
 753.000
  30
0.0
  11
 314.000
  21
 745.000
  31
0.0
   0
LINE
   8
LEVEL001
   6
CONTINUOUS
  62
7
  10
 314.000
  20
 767.000
  30
0.0
  11
 314.000
  21
 759.000
  31
0.0
   0
LINE
   8
LEVEL001
   6
CONTINUOUS
  62
7
  10
 285.000
  20
 759.000
  30
0.0
  11
 285.000
  21
 753.000
  31
0.0
   0
LINE
   8
LEVEL001
   6
CONTINUOUS
  62
7
  10
 279.000
  20
 753.000
  30
0.0
  11
 279.000
  21
 745.000
  31
0.0
   0
LINE
   8
LEVEL001
   6
CONTINUOUS
  62
7
  10
 279.000
  20
 767.000
  30
0.0
  11
 279.000
  21
 759.000
  31
0.0
   0
LINE
   8
LEVEL001
   6
CONTINUOUS
  62
7
  10
 275.892
  20
 753.000
  30
0.0
  11
 315.000
  21
 753.000
  31
0.0
   0
LINE
   8
LEVEL001
   6
CONTINUOUS
  62
7
  10
 275.892
  20
 759.000
  30
0.0
  11
 315.000
  21
 759.000
  31
0.0
   0
LINE
   8
LEVEL001
   6
CONTINUOUS
  62
7
  10
 275.892
  20
 759.000
  30
0.0
  11
 275.892
  21
 753.000
  31
0.0
   0
LINE
   8
LEVEL001
   6
CONTINUOUS
  62
7
  10
 315.000
  20
 766.000
  30
0.0
  11
 315.000
  21
 746.000
  31
0.0
   0
LINE
   8
LEVEL001
   6
CONTINUOUS
  62
7
  10
 314.000
  20
 745.000
  30
0.0
  11
 315.000
  21
 746.000
  31
0.0
   0
LINE
   8
LEVEL001
   6
CONTINUOUS
  62
7
  10
 279.205
  20
 745.000
  30
0.0
  11
 314.000
  21
 745.000
  31
0.0
   0
ARC
   8
LEVEL001
   6
CONTINUOUS
  62
7
  10
 279.205
  20
 744.000
  30
0.0
  40
 1.00000
  50
 90.0000
  51
 113.199
   0
LINE
   8
LEVEL001
   6
CONTINUOUS
  62
7
  10
 314.000
  20
 767.000
  30
0.0
  11
 315.000
  21
 766.000
  31
0.0
   0
LINE
   8
LEVEL001
   6
CONTINUOUS
  62
7
  10
 279.205
  20
 767.000
  30
0.0
  11
 314.000
  21
 767.000
  31
0.0
   0
ARC
   8
LEVEL001
   6
CONTINUOUS
  62
7
  10
 279.205
  20
 768.000
  30
0.0
  40
 1.00000
  50
 246.801
  51
 270.000
   0
ARC
   8
LEVEL001
   6
CONTINUOUS
  62
7
  10
 232.500
  20
 705.000
  30
0.0
  40
 17.5000
  50
 187.178
  51
 56.1552
   0
ARC
   8
LEVEL001
   6
CONTINUOUS
  62
7
  10
 232.500
  20
 705.000
  30
0.0
  40
 17.5000
  50
 126.651
  51
 132.576
   0
LINE
   8
LEVEL001
   6
CONTINUOUS
  62
7
  10
 252.859
  20
 719.795
  30
0.0
  11
 252.494
  21
 704.522
  31
0.0
   0
LINE
   8
LEVEL001
   6
CONTINUOUS
  62
7
  10
 204.000
  20
 715.003
  30
0.0
  11
 204.000
  21
 688.915
  31
0.0
   0
LINE
   8
LEVEL001
   6
CONTINUOUS
  62
7
  10
 196.000
  20
 715.003
  30
0.0
  11
 196.000
  21
 688.915
  31
0.0
   0
ARC
   8
LEVEL001
   6
CONTINUOUS
  62
7
  10
 191.000
  20
 715.003
  30
0.0
  40
 5.00000
  50
0.0
  51
 88.5971
   0
ARC
   8
LEVEL001
   6
CONTINUOUS
  62
7
  10
 209.000
  20
 715.003
  30
0.0
  40
 5.00000
  50
 91.4029
  51
 180.000
   0
LINE
   8
LEVEL001
   6
CONTINUOUS
  62
7
  10
 200.000
  20
 683.500
  30
0.0
  11
 233.409
  21
 685.021
  31
0.0
   0
LINE
   8
LEVEL001
   6
CONTINUOUS
  62
7
  10
 200.000
  20
 683.500
  30
0.0
  11
 166.591
  21
 685.021
  31
0.0
   0
ARC
   8
LEVEL001
   6
CONTINUOUS
  62
7
  10
 191.000
  20
 713.719
  30
0.0
  40
 5.00000
  50
0.0
  51
 88.5971
   0
LINE
   8
LEVEL001
   6
CONTINUOUS
  62
7
  10
 191.122
  20
 718.717
  30
0.0
  11
 138.750
  21
 720.000
  31
0.0
   0
LINE
   8
LEVEL001
   6
CONTINUOUS
  62
7
  10
 208.878
  20
 718.717
  30
0.0
  11
 261.250
  21
 720.000
  31
0.0
   0
ARC
   8
LEVEL001
   6
CONTINUOUS
  62
7
  10
 209.000
  20
 713.719
  30
0.0
  40
 5.00000
  50
 91.4029
  51
 180.000
   0
ARC
   8
LEVEL001
   6
CONTINUOUS
  62
7
  10
 209.000
  20
 688.915
  30
0.0
  40
 5.00000
  50
 180.000
  51
 272.606
   0
ARC
   8
LEVEL001
   6
CONTINUOUS
  62
7
  10
 191.000
  20
 688.915
  30
0.0
  40
 5.00000
  50
 267.394
  51
 0.130276E-10
   0
ARC
   8
LEVEL001
   6
CONTINUOUS
  62
7
  10
 167.500
  20
 705.000
  30
0.0
  40
 17.5000
  50
 123.845
  51
 53.3494
   0
ARC
   8
LEVEL001
   6
CONTINUOUS
  62
7
  10
 232.500
  20
 705.000
  30
0.0
  40
 20.0000
  50
 272.606
  51
 358.631
   0
ARC
   8
LEVEL001
   6
CONTINUOUS
  62
7
  10
 167.500
  20
 705.000
  30
0.0
  40
 20.0000
  50
 181.369
  51
 267.394
   0
LINE
   8
LEVEL001
   6
CONTINUOUS
  62
7
  10
 126.500
  20
 743.500
  30
0.0
  11
 124.705
  21
 743.500
  31
0.0
   0
LINE
   8
LEVEL001
   6
CONTINUOUS
  62
7
  10
 126.500
  20
 768.500
  30
0.0
  11
 124.705
  21
 768.500
  31
0.0
   0
LINE
   8
LEVEL001
   6
CONTINUOUS
  62
7
  10
 126.500
  20
 791.000
  30
0.0
  11
 126.500
  21
 721.000
  31
0.0
   0
LINE
   8
LEVEL001
   6
CONTINUOUS
  62
7
  10
 131.065
  20
 793.000
  30
0.0
  11
 128.500
  21
 793.000
  31
0.0
   0
LINE
   8
LEVEL001
   6
CONTINUOUS
  62
7
  10
 138.750
  20
 774.091
  30
0.0
  11
 138.750
  21
 720.000
  31
0.0
   0
LINE
   8
LEVEL001
   6
CONTINUOUS
  62
7
  10
 138.500
  20
 774.521
  30
0.0
  11
 138.500
  21
 719.000
  31
0.0
   0
LINE
   8
LEVEL001
   6
CONTINUOUS
  62
7
  10
 147.506
  20
 704.522
  30
0.0
  11
 147.141
  21
 719.795
  31
0.0
   0
LINE
   8
LEVEL001
   6
CONTINUOUS
  62
7
  10
 86.0000
  20
 753.000
  30
0.0
  11
 86.0000
  21
 745.000
  31
0.0
   0
LINE
   8
LEVEL001
   6
CONTINUOUS
  62
7
  10
 86.0000
  20
 767.000
  30
0.0
  11
 86.0000
  21
 759.000
  31
0.0
   0
LINE
   8
LEVEL001
   6
CONTINUOUS
  62
7
  10
 115.000
  20
 759.000
  30
0.0
  11
 115.000
  21
 753.000
  31
0.0
   0
LINE
   8
LEVEL001
   6
CONTINUOUS
  62
7
  10
 121.000
  20
 753.000
  30
0.0
  11
 121.000
  21
 745.000
  31
0.0
   0
LINE
   8
LEVEL001
   6
CONTINUOUS
  62
7
  10
 121.000
  20
 767.000
  30
0.0
  11
 121.000
  21
 759.000
  31
0.0
   0
LINE
   8
LEVEL001
   6
CONTINUOUS
  62
7
  10
 124.108
  20
 753.000
  30
0.0
  11
 85.0000
  21
 753.000
  31
0.0
   0
LINE
   8
LEVEL001
   6
CONTINUOUS
  62
7
  10
 124.108
  20
 759.000
  30
0.0
  11
 85.0000
  21
 759.000
  31
0.0
   0
LINE
   8
LEVEL001
   6
CONTINUOUS
  62
7
  10
 124.108
  20
 759.000
  30
0.0
  11
 124.108
  21
 753.000
  31
0.0
   0
LINE
   8
LEVEL001
   6
CONTINUOUS
  62
7
  10
 85.0000
  20
 766.000
  30
0.0
  11
 85.0000
  21
 746.000
  31
0.0
   0
LINE
   8
LEVEL001
   6
CONTINUOUS
  62
7
  10
 124.500
  20
 768.419
  30
0.0
  11
 124.500
  21
 743.581
  31
0.0
   0
LINE
   8
LEVEL001
   6
CONTINUOUS
  62
7
  10
 86.0000
  20
 745.000
  30
0.0
  11
 85.0000
  21
 746.000
  31
0.0
   0
LINE
   8
LEVEL001
   6
CONTINUOUS
  62
7
  10
 120.795
  20
 745.000
  30
0.0
  11
 86.0000
  21
 745.000
  31
0.0
   0
ARC
   8
LEVEL001
   6
CONTINUOUS
  62
7
  10
 120.795
  20
 744.000
  30
0.0
  40
 1.00000
  50
 66.8014
  51
 90.0000
   0
LINE
   8
LEVEL001
   6
CONTINUOUS
  62
7
  10
 124.311
  20
 743.581
  30
0.0
  11
 121.189
  21
 744.919
  31
0.0
   0
ARC
   8
LEVEL001
   6
CONTINUOUS
  62
7
  10
 124.705
  20
 744.500
  30
0.0
  40
 1.00000
  50
 246.801
  51
 270.000
   0
LINE
   8
LEVEL001
   6
CONTINUOUS
  62
7
  10
 86.0000
  20
 767.000
  30
0.0
  11
 85.0000
  21
 766.000
  31
0.0
   0
LINE
   8
LEVEL001
   6
CONTINUOUS
  62
7
  10
 120.795
  20
 767.000
  30
0.0
  11
 86.0000
  21
 767.000
  31
0.0
   0
ARC
   8
LEVEL001
   6
CONTINUOUS
  62
7
  10
 120.795
  20
 768.000
  30
0.0
  40
 1.00000
  50
 270.000
  51
 293.199
   0
LINE
   8
LEVEL001
   6
CONTINUOUS
  62
7
  10
 124.311
  20
 768.419
  30
0.0
  11
 121.189
  21
 767.081
  31
0.0
   0
ARC
   8
LEVEL001
   6
CONTINUOUS
  62
7
  10
 124.705
  20
 767.500
  30
0.0
  40
 1.00000
  50
 90.0000
  51
 113.199
   0
ARC
   8
LEVEL001
   6
CONTINUOUS
  62
7
  10
 128.500
  20
 791.000
  30
0.0
  40
 2.00000
  50
 90.0000
  51
 180.000
   0
ARC
   8
LEVEL001
   6
CONTINUOUS
  62
7
  10
 128.500
  20
 721.000
  30
0.0
  40
 2.00000
  50
 180.000
  51
 270.000
   0
LINE
   8
LEVEL001
   6
CONTINUOUS
  62
7
  10
 138.500
  20
 719.000
  30
0.0
  11
 128.500
  21
 719.000
  31
0.0
   0
LINE
   8
LEVEL001
   6
CONTINUOUS
  62
7
  10
 252.487
  20
 880.720
  30
0.0
  11
 253.347
  21
 856.852
  31
0.0
   0
LINE
   8
LEVEL001
   6
CONTINUOUS
  62
7
  10
 147.513
  20
 880.720
  30
0.0
  11
 146.653
  21
 856.852
  31
0.0
   0
LINE
   8
LEVEL001
   6
CONTINUOUS
  62
7
  10
 204.000
  20
 896.085
  30
0.0
  11
 204.000
  21
 880.887
  31
0.0
   0
LINE
   8
LEVEL001
   6
CONTINUOUS
  62
7
  10
 196.000
  20
 896.085
  30
0.0
  11
 196.000
  21
 880.887
  31
0.0
   0
LINE
   8
LEVEL001
   6
CONTINUOUS
  62
7
  10
 200.000
  20
 901.500
  30
0.0
  11
 233.409
  21
 899.979
  31
0.0
   0
LINE
   8
LEVEL001
   6
CONTINUOUS
  62
7
  10
 200.000
  20
 901.500
  30
0.0
  11
 166.591
  21
 899.979
  31
0.0
   0
ARC
   8
LEVEL001
   6
CONTINUOUS
  62
7
  10
 209.000
  20
 896.085
  30
0.0
  40
 5.00000
  50
 87.3939
  51
 180.000
   0
ARC
   8
LEVEL001
   6
CONTINUOUS
  62
7
  10
 191.000
  20
 896.085
  30
0.0
  40
 5.00000
  50
0.0
  51
 92.6061
   0
ARC
   8
LEVEL001
   6
CONTINUOUS
  62
7
  10
 232.500
  20
 880.000
  30
0.0
  40
 17.5000
  50
 308.210
  51
 181.981
   0
ARC
   8
LEVEL001
   6
CONTINUOUS
  62
7
  10
 232.500
  20
 880.000
  30
0.0
  40
 9.00000
  50
 289.276
  51
 200.915
   0
ARC
   8
LEVEL001
   6
CONTINUOUS
  62
7
  10
 167.500
  20
 880.000
  30
0.0
  40
 17.5000
  50
 358.019
  51
 231.790
   0
ARC
   8
LEVEL001
   6
CONTINUOUS
  62
7
  10
 167.500
  20
 880.000
  30
0.0
  40
 9.00000
  50
 339.085
  51
 250.724
   0
ARC
   8
LEVEL001
   6
CONTINUOUS
  62
7
  10
 232.500
  20
 880.000
  30
0.0
  40
 20.0000
  50
 2.06398
  51
 87.3939
   0
ARC
   8
LEVEL001
   6
CONTINUOUS
  62
7
  10
 167.500
  20
 880.000
  30
0.0
  40
 20.0000
  50
 92.6061
  51
 177.936
   0
CIRCLE
   8
LEVEL001
   6
CONTINUOUS
  62
7
  10
 167.500
  20
 705.000
  30
0.0
  40
 9.00000
   0
CIRCLE
   8
LEVEL001
   6
CONTINUOUS
  62
7
  10
 232.500
  20
 705.000
  30
0.0
  40
 9.00000
   0
ARC
   8
LEVEL001
   6
CONTINUOUS
  62
7
  10
 271.500
  20
 791.000
  30
0.0
  40
 2.00000
  50
0.0
  51
 90.0000
   0
ARC
   8
LEVEL001
   6
CONTINUOUS
  62
7
  10
 271.500
  20
 721.000
  30
0.0
  40
 2.00000
  50
 270.000
  51
0.0
   0
LINE
   8
LEVEL001
   6
CONTINUOUS
  62
7
  10
 261.500
  20
 719.000
  30
0.0
  11
 271.500
  21
 719.000
  31
0.0
   0
LINE
   8
LEVEL001
   6
CONTINUOUS
  62
7
  10
 275.500
  20
 768.419
  30
0.0
  11
 275.500
  21
 743.581
  31
0.0
   0
LINE
   8
LEVEL001
   6
CONTINUOUS
  62
7
  10
 275.689
  20
 743.581
  30
0.0
  11
 278.811
  21
 744.919
  31
0.0
   0
ARC
   8
LEVEL001
   6
CONTINUOUS
  62
7
  10
 275.295
  20
 744.500
  30
0.0
  40
 1.00000
  50
 270.000
  51
 293.199
   0
LINE
   8
LEVEL001
   6
CONTINUOUS
  62
7
  10
 275.689
  20
 768.419
  30
0.0
  11
 278.811
  21
 767.081
  31
0.0
   0
ARC
   8
LEVEL001
   6
CONTINUOUS
  62
7
  10
 275.295
  20
 767.500
  30
0.0
  40
 1.00000
  50
 66.8014
  51
 90.0000
   0
LINE
   8
LEVEL001
   6
CONTINUOUS
  62
7
  10
 146.098
  20
 790.735
  30
0.0
  11
 143.036
  21
 783.343
  31
0.0
   0
LINE
   8
LEVEL001
   6
CONTINUOUS
  62
7
  10
 140.872
  20
 788.570
  30
0.0
  11
 148.263
  21
 785.508
  31
0.0
   0
LINE
   8
LEVEL001
   6
CONTINUOUS
  62
7
  10
 256.964
  20
 836.657
  30
0.0
  11
 253.902
  21
 829.265
  31
0.0
   0
LINE
   8
LEVEL001
   6
CONTINUOUS
  62
7
  10
 251.737
  20
 834.492
  30
0.0
  11
 259.128
  21
 831.430
  31
0.0
   0
CIRCLE
   8
LEVEL001
   6
CONTINUOUS
  62
7
  10
 144.567
  20
 787.039
  30
0.0
  40
 4.00000
   0
CIRCLE
   8
LEVEL001
   6
CONTINUOUS
  62
7
  10
 255.433
  20
 832.961
  30
0.0
  40
 4.00000
   0
CIRCLE
   8
LEVEL001
   6
CONTINUOUS
  62
7
  10
 144.567
  20
 832.961
  30
0.0
  40
 5.00000
   0
CIRCLE
   8
LEVEL001
   6
CONTINUOUS
  62
7
  10
 144.567
  20
 832.961
  30
0.0
  40
 4.25000
   0
CIRCLE
   8
LEVEL001
   6
CONTINUOUS
  62
7
  10
 157.574
  20
 767.574
  30
0.0
  40
 7.13397
   0
CIRCLE
   8
LEVEL001
   6
CONTINUOUS
  62
7
  10
 157.574
  20
 767.574
  30
0.0
  40
 8.00000
   0
CIRCLE
   8
LEVEL001
   6
CONTINUOUS
  62
7
  10
 157.574
  20
 852.426
  30
0.0
  40
 7.13397
   0
CIRCLE
   8
LEVEL001
   6
CONTINUOUS
  62
7
  10
 157.574
  20
 852.426
  30
0.0
  40
 8.00000
   0
CIRCLE
   8
LEVEL001
   6
CONTINUOUS
  62
7
  10
 242.426
  20
 852.426
  30
0.0
  40
 7.13397
   0
CIRCLE
   8
LEVEL001
   6
CONTINUOUS
  62
7
  10
 242.426
  20
 852.426
  30
0.0
  40
 8.00000
   0
LINE
   8
LEVEL001
   6
CONTINUOUS
  62
7
  10
 182.494
  20
 752.000
  30
0.0
  11
 180.762
  21
 749.000
  31
0.0
   0
LINE
   8
LEVEL001
   6
CONTINUOUS
  62
7
  10
 180.762
  20
 749.000
  30
0.0
  11
 208.762
  21
 749.000
  31
0.0
   0
LINE
   8
LEVEL001
   6
CONTINUOUS
  62
7
  10
 182.494
  20
 752.000
  30
0.0
  11
 198.494
  21
 752.000
  31
0.0
   0
LINE
   8
LEVEL001
   6
CONTINUOUS
  62
7
  10
 206.000
  20
 765.000
  30
0.0
  11
 218.000
  21
 765.000
  31
0.0
   0
LINE
   8
LEVEL001
   6
CONTINUOUS
  62
7
  10
 218.000
  20
 765.000
  30
0.0
  11
 208.762
  21
 749.000
  31
0.0
   0
LINE
   8
LEVEL001
   6
CONTINUOUS
  62
7
  10
 198.494
  20
 752.000
  30
0.0
  11
 206.000
  21
 765.000
  31
0.0
   0
CIRCLE
   8
LEVEL001
   6
CONTINUOUS
  62
7
  10
 193.000
  20
 760.000
  30
0.0
  40
 5.00000
   0
LINE
   8
LEVEL001
   6
CONTINUOUS
  62
7
  10
 235.000
  20
 814.480
  30
0.0
  11
 234.700
  21
 815.000
  31
0.0
   0
LINE
   8
LEVEL001
   6
CONTINUOUS
  62
7
  10
 235.000
  20
 805.520
  30
0.0
  11
 235.000
  21
 814.480
  31
0.0
   0
LINE
   8
LEVEL001
   6
CONTINUOUS
  62
7
  10
 234.700
  20
 805.000
  30
0.0
  11
 235.000
  21
 805.520
  31
0.0
   0
LINE
   8
LEVEL001
   6
CONTINUOUS
  62
7
  10
 234.700
  20
 815.000
  30
0.0
  11
 234.700
  21
 805.000
  31
0.0
   0
LINE
   8
LEVEL001
   6
CONTINUOUS
  62
7
  10
 233.884
  20
 815.001
  30
0.0
  11
 233.875
  21
 815.120
  31
0.0
   0
LINE
   8
LEVEL001
   6
CONTINUOUS
  62
7
  10
 233.875
  20
 815.120
  30
0.0
  11
 233.866
  21
 815.224
  31
0.0
   0
LINE
   8
LEVEL001
   6
CONTINUOUS
  62
7
  10
 233.866
  20
 815.224
  30
0.0
  11
 233.857
  21
 815.311
  31
0.0
   0
LINE
   8
LEVEL001
   6
CONTINUOUS
  62
7
  10
 233.857
  20
 815.311
  30
0.0
  11
 233.848
  21
 815.382
  31
0.0
   0
LINE
   8
LEVEL001
   6
CONTINUOUS
  62
7
  10
 233.848
  20
 815.382
  30
0.0
  11
 233.839
  21
 815.437
  31
0.0
   0
LINE
   8
LEVEL001
   6
CONTINUOUS
  62
7
  10
 233.839
  20
 815.437
  30
0.0
  11
 233.829
  21
 815.475
  31
0.0
   0
LINE
   8
LEVEL001
   6
CONTINUOUS
  62
7
  10
 233.829
  20
 815.475
  30
0.0
  11
 233.820
  21
 815.495
  31
0.0
   0
LINE
   8
LEVEL001
   6
CONTINUOUS
  62
7
  10
 233.820
  20
 815.495
  30
0.0
  11
 233.810
  21
 815.499
  31
0.0
   0
LINE
   8
LEVEL001
   6
CONTINUOUS
  62
7
  10
 233.810
  20
 815.499
  30
0.0
  11
 233.801
  21
 815.486
  31
0.0
   0
LINE
   8
LEVEL001
   6
CONTINUOUS
  62
7
  10
 233.801
  20
 815.486
  30
0.0
  11
 233.791
  21
 815.456
  31
0.0
   0
LINE
   8
LEVEL001
   6
CONTINUOUS
  62
7
  10
 233.791
  20
 815.456
  30
0.0
  11
 233.782
  21
 815.409
  31
0.0
   0
LINE
   8
LEVEL001
   6
CONTINUOUS
  62
7
  10
 233.782
  20
 815.409
  30
0.0
  11
 233.772
  21
 815.346
  31
0.0
   0
LINE
   8
LEVEL001
   6
CONTINUOUS
  62
7
  10
 233.772
  20
 815.346
  30
0.0
  11
 233.763
  21
 815.266
  31
0.0
   0
LINE
   8
LEVEL001
   6
CONTINUOUS
  62
7
  10
 233.763
  20
 815.266
  30
0.0
  11
 233.754
  21
 815.170
  31
0.0
   0
LINE
   8
LEVEL001
   6
CONTINUOUS
  62
7
  10
 233.754
  20
 815.170
  30
0.0
  11
 233.745
  21
 815.057
  31
0.0
   0
LINE
   8
LEVEL001
   6
CONTINUOUS
  62
7
  10
 233.745
  20
 815.057
  30
0.0
  11
 233.736
  21
 814.929
  31
0.0
   0
LINE
   8
LEVEL001
   6
CONTINUOUS
  62
7
  10
 233.736
  20
 814.929
  30
0.0
  11
 233.728
  21
 814.786
  31
0.0
   0
LINE
   8
LEVEL001
   6
CONTINUOUS
  62
7
  10
 233.728
  20
 814.786
  30
0.0
  11
 233.720
  21
 814.628
  31
0.0
   0
LINE
   8
LEVEL001
   6
CONTINUOUS
  62
7
  10
 233.720
  20
 814.628
  30
0.0
  11
 233.712
  21
 814.456
  31
0.0
   0
LINE
   8
LEVEL001
   6
CONTINUOUS
  62
7
  10
 233.712
  20
 814.456
  30
0.0
  11
 233.704
  21
 814.270
  31
0.0
   0
LINE
   8
LEVEL001
   6
CONTINUOUS
  62
7
  10
 233.704
  20
 814.270
  30
0.0
  11
 233.697
  21
 814.071
  31
0.0
   0
LINE
   8
LEVEL001
   6
CONTINUOUS
  62
7
  10
 233.697
  20
 814.071
  30
0.0
  11
 233.690
  21
 813.860
  31
0.0
   0
LINE
   8
LEVEL001
   6
CONTINUOUS
  62
7
  10
 233.690
  20
 813.860
  30
0.0
  11
 233.684
  21
 813.636
  31
0.0
   0
LINE
   8
LEVEL001
   6
CONTINUOUS
  62
7
  10
 233.684
  20
 813.636
  30
0.0
  11
 233.678
  21
 813.401
  31
0.0
   0
LINE
   8
LEVEL001
   6
CONTINUOUS
  62
7
  10
 233.678
  20
 813.401
  30
0.0
  11
 233.672
  21
 813.156
  31
0.0
   0
LINE
   8
LEVEL001
   6
CONTINUOUS
  62
7
  10
 233.672
  20
 813.156
  30
0.0
  11
 233.667
  21
 812.901
  31
0.0
   0
LINE
   8
LEVEL001
   6
CONTINUOUS
  62
7
  10
 233.667
  20
 812.901
  30
0.0
  11
 233.662
  21
 812.637
  31
0.0
   0
LINE
   8
LEVEL001
   6
CONTINUOUS
  62
7
  10
 233.662
  20
 812.637
  30
0.0
  11
 233.658
  21
 812.365
  31
0.0
   0
LINE
   8
LEVEL001
   6
CONTINUOUS
  62
7
  10
 233.658
  20
 812.365
  30
0.0
  11
 233.654
  21
 812.086
  31
0.0
   0
LINE
   8
LEVEL001
   6
CONTINUOUS
  62
7
  10
 233.654
  20
 812.086
  30
0.0
  11
 233.650
  21
 811.800
  31
0.0
   0
LINE
   8
LEVEL001
   6
CONTINUOUS
  62
7
  10
 233.650
  20
 811.800
  30
0.0
  11
 233.647
  21
 811.508
  31
0.0
   0
LINE
   8
LEVEL001
   6
CONTINUOUS
  62
7
  10
 233.647
  20
 811.508
  30
0.0
  11
 233.645
  21
 811.212
  31
0.0
   0
LINE
   8
LEVEL001
   6
CONTINUOUS
  62
7
  10
 233.645
  20
 811.212
  30
0.0
  11
 233.643
  21
 810.913
  31
0.0
   0
LINE
   8
LEVEL001
   6
CONTINUOUS
  62
7
  10
 233.643
  20
 810.913
  30
0.0
  11
 233.642
  21
 810.610
  31
0.0
   0
LINE
   8
LEVEL001
   6
CONTINUOUS
  62
7
  10
 233.642
  20
 810.610
  30
0.0
  11
 233.641
  21
 810.306
  31
0.0
   0
LINE
   8
LEVEL001
   6
CONTINUOUS
  62
7
  10
 233.641
  20
 810.306
  30
0.0
  11
 233.641
  21
 810.000
  31
0.0
   0
LINE
   8
LEVEL001
   6
CONTINUOUS
  62
7
  10
 233.641
  20
 810.000
  30
0.0
  11
 233.641
  21
 809.695
  31
0.0
   0
LINE
   8
LEVEL001
   6
CONTINUOUS
  62
7
  10
 233.641
  20
 809.695
  30
0.0
  11
 233.642
  21
 809.390
  31
0.0
   0
LINE
   8
LEVEL001
   6
CONTINUOUS
  62
7
  10
 233.642
  20
 809.390
  30
0.0
  11
 233.643
  21
 809.088
  31
0.0
   0
LINE
   8
LEVEL001
   6
CONTINUOUS
  62
7
  10
 233.643
  20
 809.088
  30
0.0
  11
 233.645
  21
 808.788
  31
0.0
   0
LINE
   8
LEVEL001
   6
CONTINUOUS
  62
7
  10
 233.645
  20
 808.788
  30
0.0
  11
 233.647
  21
 808.492
  31
0.0
   0
LINE
   8
LEVEL001
   6
CONTINUOUS
  62
7
  10
 233.647
  20
 808.492
  30
0.0
  11
 233.650
  21
 808.200
  31
0.0
   0
LINE
   8
LEVEL001
   6
CONTINUOUS
  62
7
  10
 233.650
  20
 808.200
  30
0.0
  11
 233.654
  21
 807.914
  31
0.0
   0
LINE
   8
LEVEL001
   6
CONTINUOUS
  62
7
  10
 233.654
  20
 807.914
  30
0.0
  11
 233.658
  21
 807.635
  31
0.0
   0
LINE
   8
LEVEL001
   6
CONTINUOUS
  62
7
  10
 233.658
  20
 807.635
  30
0.0
  11
 233.662
  21
 807.363
  31
0.0
   0
LINE
   8
LEVEL001
   6
CONTINUOUS
  62
7
  10
 233.662
  20
 807.363
  30
0.0
  11
 233.667
  21
 807.099
  31
0.0
   0
LINE
   8
LEVEL001
   6
CONTINUOUS
  62
7
  10
 233.667
  20
 807.099
  30
0.0
  11
 233.672
  21
 806.844
  31
0.0
   0
LINE
   8
LEVEL001
   6
CONTINUOUS
  62
7
  10
 233.672
  20
 806.844
  30
0.0
  11
 233.678
  21
 806.599
  31
0.0
   0
LINE
   8
LEVEL001
   6
CONTINUOUS
  62
7
  10
 233.678
  20
 806.599
  30
0.0
  11
 233.684
  21
 806.364
  31
0.0
   0
LINE
   8
LEVEL001
   6
CONTINUOUS
  62
7
  10
 233.684
  20
 806.364
  30
0.0
  11
 233.690
  21
 806.140
  31
0.0
   0
LINE
   8
LEVEL001
   6
CONTINUOUS
  62
7
  10
 233.690
  20
 806.140
  30
0.0
  11
 233.697
  21
 805.929
  31
0.0
   0
LINE
   8
LEVEL001
   6
CONTINUOUS
  62
7
  10
 233.697
  20
 805.929
  30
0.0
  11
 233.704
  21
 805.730
  31
0.0
   0
LINE
   8
LEVEL001
   6
CONTINUOUS
  62
7
  10
 233.704
  20
 805.730
  30
0.0
  11
 233.712
  21
 805.544
  31
0.0
   0
LINE
   8
LEVEL001
   6
CONTINUOUS
  62
7
  10
 233.712
  20
 805.544
  30
0.0
  11
 233.720
  21
 805.372
  31
0.0
   0
LINE
   8
LEVEL001
   6
CONTINUOUS
  62
7
  10
 233.720
  20
 805.372
  30
0.0
  11
 233.728
  21
 805.214
  31
0.0
   0
LINE
   8
LEVEL001
   6
CONTINUOUS
  62
7
  10
 233.728
  20
 805.214
  30
0.0
  11
 233.736
  21
 805.071
  31
0.0
   0
LINE
   8
LEVEL001
   6
CONTINUOUS
  62
7
  10
 233.736
  20
 805.071
  30
0.0
  11
 233.745
  21
 804.943
  31
0.0
   0
LINE
   8
LEVEL001
   6
CONTINUOUS
  62
7
  10
 233.745
  20
 804.943
  30
0.0
  11
 233.754
  21
 804.831
  31
0.0
   0
LINE
   8
LEVEL001
   6
CONTINUOUS
  62
7
  10
 233.754
  20
 804.831
  30
0.0
  11
 233.763
  21
 804.734
  31
0.0
   0
LINE
   8
LEVEL001
   6
CONTINUOUS
  62
7
  10
 233.763
  20
 804.734
  30
0.0
  11
 233.772
  21
 804.654
  31
0.0
   0
LINE
   8
LEVEL001
   6
CONTINUOUS
  62
7
  10
 233.772
  20
 804.654
  30
0.0
  11
 233.782
  21
 804.591
  31
0.0
   0
LINE
   8
LEVEL001
   6
CONTINUOUS
  62
7
  10
 233.782
  20
 804.591
  30
0.0
  11
 233.791
  21
 804.544
  31
0.0
   0
LINE
   8
LEVEL001
   6
CONTINUOUS
  62
7
  10
 233.791
  20
 804.544
  30
0.0
  11
 233.801
  21
 804.514
  31
0.0
   0
LINE
   8
LEVEL001
   6
CONTINUOUS
  62
7
  10
 233.801
  20
 804.514
  30
0.0
  11
 233.810
  21
 804.501
  31
0.0
   0
LINE
   8
LEVEL001
   6
CONTINUOUS
  62
7
  10
 233.810
  20
 804.501
  30
0.0
  11
 233.820
  21
 804.505
  31
0.0
   0
LINE
   8
LEVEL001
   6
CONTINUOUS
  62
7
  10
 233.820
  20
 804.505
  30
0.0
  11
 233.829
  21
 804.525
  31
0.0
   0
LINE
   8
LEVEL001
   6
CONTINUOUS
  62
7
  10
 233.829
  20
 804.525
  30
0.0
  11
 233.839
  21
 804.563
  31
0.0
   0
LINE
   8
LEVEL001
   6
CONTINUOUS
  62
7
  10
 233.839
  20
 804.563
  30
0.0
  11
 233.848
  21
 804.618
  31
0.0
   0
LINE
   8
LEVEL001
   6
CONTINUOUS
  62
7
  10
 233.848
  20
 804.618
  30
0.0
  11
 233.857
  21
 804.689
  31
0.0
   0
LINE
   8
LEVEL001
   6
CONTINUOUS
  62
7
  10
 233.857
  20
 804.689
  30
0.0
  11
 233.866
  21
 804.776
  31
0.0
   0
LINE
   8
LEVEL001
   6
CONTINUOUS
  62
7
  10
 233.866
  20
 804.776
  30
0.0
  11
 233.875
  21
 804.880
  31
0.0
   0
LINE
   8
LEVEL001
   6
CONTINUOUS
  62
7
  10
 233.875
  20
 804.880
  30
0.0
  11
 233.884
  21
 804.999
  31
0.0
   0
LINE
   8
LEVEL001
   6
CONTINUOUS
  62
7
  10
 234.700
  20
 815.000
  30
0.0
  11
 233.741
  21
 815.000
  31
0.0
   0
LINE
   8
LEVEL001
   6
CONTINUOUS
  62
7
  10
 233.741
  20
 805.000
  30
0.0
  11
 234.700
  21
 805.000
  31
0.0
   0
ARC
   8
LEVEL001
   6
CONTINUOUS
  62
7
  10
 224.208
  20
 804.198
  30
0.0
  40
 15.1103
  50
 36.1810
  51
 48.1457
   0
ARC
   8
LEVEL001
   6
CONTINUOUS
  62
7
  10
 224.208
  20
 815.802
  30
0.0
  40
 15.1103
  50
 311.854
  51
 323.819
   0
LINE
   8
LEVEL001
   6
CONTINUOUS
  62
7
  10
 236.288
  20
 806.766
  30
0.0
  11
 236.353
  21
 806.830
  31
0.0
   0
LINE
   8
LEVEL001
   6
CONTINUOUS
  62
7
  10
 236.353
  20
 806.830
  30
0.0
  11
 236.417
  21
 806.896
  31
0.0
   0
LINE
   8
LEVEL001
   6
CONTINUOUS
  62
7
  10
 236.417
  20
 806.896
  30
0.0
  11
 236.479
  21
 806.963
  31
0.0
   0
LINE
   8
LEVEL001
   6
CONTINUOUS
  62
7
  10
 236.479
  20
 806.963
  30
0.0
  11
 236.541
  21
 807.033
  31
0.0
   0
LINE
   8
LEVEL001
   6
CONTINUOUS
  62
7
  10
 236.541
  20
 807.033
  30
0.0
  11
 236.600
  21
 807.104
  31
0.0
   0
LINE
   8
LEVEL001
   6
CONTINUOUS
  62
7
  10
 236.600
  20
 807.104
  30
0.0
  11
 236.658
  21
 807.176
  31
0.0
   0
LINE
   8
LEVEL001
   6
CONTINUOUS
  62
7
  10
 236.658
  20
 807.176
  30
0.0
  11
 236.715
  21
 807.251
  31
0.0
   0
LINE
   8
LEVEL001
   6
CONTINUOUS
  62
7
  10
 236.715
  20
 807.251
  30
0.0
  11
 236.770
  21
 807.327
  31
0.0
   0
LINE
   8
LEVEL001
   6
CONTINUOUS
  62
7
  10
 236.770
  20
 807.327
  30
0.0
  11
 236.824
  21
 807.405
  31
0.0
   0
LINE
   8
LEVEL001
   6
CONTINUOUS
  62
7
  10
 236.824
  20
 807.405
  30
0.0
  11
 236.876
  21
 807.484
  31
0.0
   0
LINE
   8
LEVEL001
   6
CONTINUOUS
  62
7
  10
 236.876
  20
 807.484
  30
0.0
  11
 236.926
  21
 807.564
  31
0.0
   0
LINE
   8
LEVEL001
   6
CONTINUOUS
  62
7
  10
 236.926
  20
 807.564
  30
0.0
  11
 236.975
  21
 807.646
  31
0.0
   0
LINE
   8
LEVEL001
   6
CONTINUOUS
  62
7
  10
 236.975
  20
 807.646
  30
0.0
  11
 237.022
  21
 807.730
  31
0.0
   0
LINE
   8
LEVEL001
   6
CONTINUOUS
  62
7
  10
 237.022
  20
 807.730
  30
0.0
  11
 237.067
  21
 807.815
  31
0.0
   0
LINE
   8
LEVEL001
   6
CONTINUOUS
  62
7
  10
 237.067
  20
 807.815
  30
0.0
  11
 237.111
  21
 807.901
  31
0.0
   0
LINE
   8
LEVEL001
   6
CONTINUOUS
  62
7
  10
 237.111
  20
 807.901
  30
0.0
  11
 237.153
  21
 807.988
  31
0.0
   0
LINE
   8
LEVEL001
   6
CONTINUOUS
  62
7
  10
 237.153
  20
 807.988
  30
0.0
  11
 237.193
  21
 808.077
  31
0.0
   0
LINE
   8
LEVEL001
   6
CONTINUOUS
  62
7
  10
 237.193
  20
 808.077
  30
0.0
  11
 237.231
  21
 808.166
  31
0.0
   0
LINE
   8
LEVEL001
   6
CONTINUOUS
  62
7
  10
 237.231
  20
 808.166
  30
0.0
  11
 237.267
  21
 808.257
  31
0.0
   0
LINE
   8
LEVEL001
   6
CONTINUOUS
  62
7
  10
 237.267
  20
 808.257
  30
0.0
  11
 237.302
  21
 808.349
  31
0.0
   0
LINE
   8
LEVEL001
   6
CONTINUOUS
  62
7
  10
 237.302
  20
 808.349
  30
0.0
  11
 237.335
  21
 808.441
  31
0.0
   0
LINE
   8
LEVEL001
   6
CONTINUOUS
  62
7
  10
 237.335
  20
 808.441
  30
0.0
  11
 237.365
  21
 808.535
  31
0.0
   0
LINE
   8
LEVEL001
   6
CONTINUOUS
  62
7
  10
 237.365
  20
 808.535
  30
0.0
  11
 237.394
  21
 808.629
  31
0.0
   0
LINE
   8
LEVEL001
   6
CONTINUOUS
  62
7
  10
 237.394
  20
 808.629
  30
0.0
  11
 237.421
  21
 808.725
  31
0.0
   0
LINE
   8
LEVEL001
   6
CONTINUOUS
  62
7
  10
 237.421
  20
 808.725
  30
0.0
  11
 237.446
  21
 808.821
  31
0.0
   0
LINE
   8
LEVEL001
   6
CONTINUOUS
  62
7
  10
 237.446
  20
 808.821
  30
0.0
  11
 237.469
  21
 808.917
  31
0.0
   0
LINE
   8
LEVEL001
   6
CONTINUOUS
  62
7
  10
 237.469
  20
 808.917
  30
0.0
  11
 237.490
  21
 809.015
  31
0.0
   0
LINE
   8
LEVEL001
   6
CONTINUOUS
  62
7
  10
 237.490
  20
 809.015
  30
0.0
  11
 237.509
  21
 809.112
  31
0.0
   0
LINE
   8
LEVEL001
   6
CONTINUOUS
  62
7
  10
 237.509
  20
 809.112
  30
0.0
  11
 237.526
  21
 809.211
  31
0.0
   0
LINE
   8
LEVEL001
   6
CONTINUOUS
  62
7
  10
 237.526
  20
 809.211
  30
0.0
  11
 237.541
  21
 809.310
  31
0.0
   0
LINE
   8
LEVEL001
   6
CONTINUOUS
  62
7
  10
 237.541
  20
 809.310
  30
0.0
  11
 237.554
  21
 809.409
  31
0.0
   0
LINE
   8
LEVEL001
   6
CONTINUOUS
  62
7
  10
 237.554
  20
 809.409
  30
0.0
  11
 237.565
  21
 809.509
  31
0.0
   0
LINE
   8
LEVEL001
   6
CONTINUOUS
  62
7
  10
 237.565
  20
 809.509
  30
0.0
  11
 237.574
  21
 809.609
  31
0.0
   0
LINE
   8
LEVEL001
   6
CONTINUOUS
  62
7
  10
 237.574
  20
 809.609
  30
0.0
  11
 237.581
  21
 809.709
  31
0.0
   0
LINE
   8
LEVEL001
   6
CONTINUOUS
  62
7
  10
 237.581
  20
 809.709
  30
0.0
  11
 237.586
  21
 809.809
  31
0.0
   0
LINE
   8
LEVEL001
   6
CONTINUOUS
  62
7
  10
 237.586
  20
 809.809
  30
0.0
  11
 237.589
  21
 809.910
  31
0.0
   0
LINE
   8
LEVEL001
   6
CONTINUOUS
  62
7
  10
 237.589
  20
 809.910
  30
0.0
  11
 237.590
  21
 810.010
  31
0.0
   0
LINE
   8
LEVEL001
   6
CONTINUOUS
  62
7
  10
 237.590
  20
 810.010
  30
0.0
  11
 237.589
  21
 810.111
  31
0.0
   0
LINE
   8
LEVEL001
   6
CONTINUOUS
  62
7
  10
 237.589
  20
 810.111
  30
0.0
  11
 237.585
  21
 810.211
  31
0.0
   0
LINE
   8
LEVEL001
   6
CONTINUOUS
  62
7
  10
 237.585
  20
 810.211
  30
0.0
  11
 237.580
  21
 810.312
  31
0.0
   0
LINE
   8
LEVEL001
   6
CONTINUOUS
  62
7
  10
 237.580
  20
 810.312
  30
0.0
  11
 237.573
  21
 810.412
  31
0.0
   0
LINE
   8
LEVEL001
   6
CONTINUOUS
  62
7
  10
 237.573
  20
 810.412
  30
0.0
  11
 237.563
  21
 810.512
  31
0.0
   0
LINE
   8
LEVEL001
   6
CONTINUOUS
  62
7
  10
 237.563
  20
 810.512
  30
0.0
  11
 237.552
  21
 810.611
  31
0.0
   0
LINE
   8
LEVEL001
   6
CONTINUOUS
  62
7
  10
 237.552
  20
 810.611
  30
0.0
  11
 237.539
  21
 810.710
  31
0.0
   0
LINE
   8
LEVEL001
   6
CONTINUOUS
  62
7
  10
 237.539
  20
 810.710
  30
0.0
  11
 237.523
  21
 810.809
  31
0.0
   0
LINE
   8
LEVEL001
   6
CONTINUOUS
  62
7
  10
 237.523
  20
 810.809
  30
0.0
  11
 237.506
  21
 810.908
  31
0.0
   0
LINE
   8
LEVEL001
   6
CONTINUOUS
  62
7
  10
 237.506
  20
 810.908
  30
0.0
  11
 237.486
  21
 811.005
  31
0.0
   0
LINE
   8
LEVEL001
   6
CONTINUOUS
  62
7
  10
 237.486
  20
 811.005
  30
0.0
  11
 237.465
  21
 811.103
  31
0.0
   0
LINE
   8
LEVEL001
   6
CONTINUOUS
  62
7
  10
 237.465
  20
 811.103
  30
0.0
  11
 237.441
  21
 811.199
  31
0.0
   0
LINE
   8
LEVEL001
   6
CONTINUOUS
  62
7
  10
 237.441
  20
 811.199
  30
0.0
  11
 237.416
  21
 811.295
  31
0.0
   0
LINE
   8
LEVEL001
   6
CONTINUOUS
  62
7
  10
 237.416
  20
 811.295
  30
0.0
  11
 237.389
  21
 811.390
  31
0.0
   0
LINE
   8
LEVEL001
   6
CONTINUOUS
  62
7
  10
 237.389
  20
 811.390
  30
0.0
  11
 237.359
  21
 811.484
  31
0.0
   0
LINE
   8
LEVEL001
   6
CONTINUOUS
  62
7
  10
 237.359
  20
 811.484
  30
0.0
  11
 237.328
  21
 811.578
  31
0.0
   0
LINE
   8
LEVEL001
   6
CONTINUOUS
  62
7
  10
 237.328
  20
 811.578
  30
0.0
  11
 237.295
  21
 811.670
  31
0.0
   0
LINE
   8
LEVEL001
   6
CONTINUOUS
  62
7
  10
 237.295
  20
 811.670
  30
0.0
  11
 237.260
  21
 811.762
  31
0.0
   0
LINE
   8
LEVEL001
   6
CONTINUOUS
  62
7
  10
 237.260
  20
 811.762
  30
0.0
  11
 237.223
  21
 811.852
  31
0.0
   0
LINE
   8
LEVEL001
   6
CONTINUOUS
  62
7
  10
 237.223
  20
 811.852
  30
0.0
  11
 237.185
  21
 811.942
  31
0.0
   0
LINE
   8
LEVEL001
   6
CONTINUOUS
  62
7
  10
 237.185
  20
 811.942
  30
0.0
  11
 237.144
  21
 812.030
  31
0.0
   0
LINE
   8
LEVEL001
   6
CONTINUOUS
  62
7
  10
 237.144
  20
 812.030
  30
0.0
  11
 237.102
  21
 812.117
  31
0.0
   0
LINE
   8
LEVEL001
   6
CONTINUOUS
  62
7
  10
 237.102
  20
 812.117
  30
0.0
  11
 237.058
  21
 812.203
  31
0.0
   0
LINE
   8
LEVEL001
   6
CONTINUOUS
  62
7
  10
 237.058
  20
 812.203
  30
0.0
  11
 237.013
  21
 812.287
  31
0.0
   0
LINE
   8
LEVEL001
   6
CONTINUOUS
  62
7
  10
 237.013
  20
 812.287
  30
0.0
  11
 236.965
  21
 812.370
  31
0.0
   0
LINE
   8
LEVEL001
   6
CONTINUOUS
  62
7
  10
 236.965
  20
 812.370
  30
0.0
  11
 236.916
  21
 812.452
  31
0.0
   0
LINE
   8
LEVEL001
   6
CONTINUOUS
  62
7
  10
 236.916
  20
 812.452
  30
0.0
  11
 236.865
  21
 812.533
  31
0.0
   0
LINE
   8
LEVEL001
   6
CONTINUOUS
  62
7
  10
 236.865
  20
 812.533
  30
0.0
  11
 236.813
  21
 812.611
  31
0.0
   0
LINE
   8
LEVEL001
   6
CONTINUOUS
  62
7
  10
 236.813
  20
 812.611
  30
0.0
  11
 236.759
  21
 812.689
  31
0.0
   0
LINE
   8
LEVEL001
   6
CONTINUOUS
  62
7
  10
 236.759
  20
 812.689
  30
0.0
  11
 236.704
  21
 812.764
  31
0.0
   0
LINE
   8
LEVEL001
   6
CONTINUOUS
  62
7
  10
 236.704
  20
 812.764
  30
0.0
  11
 236.647
  21
 812.839
  31
0.0
   0
LINE
   8
LEVEL001
   6
CONTINUOUS
  62
7
  10
 236.647
  20
 812.839
  30
0.0
  11
 236.588
  21
 812.911
  31
0.0
   0
LINE
   8
LEVEL001
   6
CONTINUOUS
  62
7
  10
 236.588
  20
 812.911
  30
0.0
  11
 236.528
  21
 812.982
  31
0.0
   0
LINE
   8
LEVEL001
   6
CONTINUOUS
  62
7
  10
 236.528
  20
 812.982
  30
0.0
  11
 236.467
  21
 813.051
  31
0.0
   0
LINE
   8
LEVEL001
   6
CONTINUOUS
  62
7
  10
 236.467
  20
 813.051
  30
0.0
  11
 236.404
  21
 813.118
  31
0.0
   0
LINE
   8
LEVEL001
   6
CONTINUOUS
  62
7
  10
 234.314
  20
 815.499
  30
0.0
  11
 234.312
  21
 815.499
  31
0.0
   0
LINE
   8
LEVEL001
   6
CONTINUOUS
  62
7
  10
 234.312
  20
 815.499
  30
0.0
  11
 234.311
  21
 815.498
  31
0.0
   0
LINE
   8
LEVEL001
   6
CONTINUOUS
  62
7
  10
 234.311
  20
 815.498
  30
0.0
  11
 234.310
  21
 815.497
  31
0.0
   0
LINE
   8
LEVEL001
   6
CONTINUOUS
  62
7
  10
 234.310
  20
 815.497
  30
0.0
  11
 234.309
  21
 815.496
  31
0.0
   0
LINE
   8
LEVEL001
   6
CONTINUOUS
  62
7
  10
 234.309
  20
 815.496
  30
0.0
  11
 234.308
  21
 815.495
  31
0.0
   0
LINE
   8
LEVEL001
   6
CONTINUOUS
  62
7
  10
 234.308
  20
 815.495
  30
0.0
  11
 234.306
  21
 815.493
  31
0.0
   0
LINE
   8
LEVEL001
   6
CONTINUOUS
  62
7
  10
 234.306
  20
 815.493
  30
0.0
  11
 234.305
  21
 815.492
  31
0.0
   0
LINE
   8
LEVEL001
   6
CONTINUOUS
  62
7
  10
 234.305
  20
 815.492
  30
0.0
  11
 234.304
  21
 815.490
  31
0.0
   0
LINE
   8
LEVEL001
   6
CONTINUOUS
  62
7
  10
 234.304
  20
 815.490
  30
0.0
  11
 234.303
  21
 815.488
  31
0.0
   0
LINE
   8
LEVEL001
   6
CONTINUOUS
  62
7
  10
 234.303
  20
 815.488
  30
0.0
  11
 234.302
  21
 815.486
  31
0.0
   0
LINE
   8
LEVEL001
   6
CONTINUOUS
  62
7
  10
 234.302
  20
 815.486
  30
0.0
  11
 234.301
  21
 815.483
  31
0.0
   0
LINE
   8
LEVEL001
   6
CONTINUOUS
  62
7
  10
 234.301
  20
 815.483
  30
0.0
  11
 234.299
  21
 815.481
  31
0.0
   0
LINE
   8
LEVEL001
   6
CONTINUOUS
  62
7
  10
 234.299
  20
 815.481
  30
0.0
  11
 234.298
  21
 815.478
  31
0.0
   0
LINE
   8
LEVEL001
   6
CONTINUOUS
  62
7
  10
 234.298
  20
 815.478
  30
0.0
  11
 234.297
  21
 815.475
  31
0.0
   0
LINE
   8
LEVEL001
   6
CONTINUOUS
  62
7
  10
 234.297
  20
 815.475
  30
0.0
  11
 234.296
  21
 815.472
  31
0.0
   0
LINE
   8
LEVEL001
   6
CONTINUOUS
  62
7
  10
 234.296
  20
 815.472
  30
0.0
  11
 234.295
  21
 815.469
  31
0.0
   0
LINE
   8
LEVEL001
   6
CONTINUOUS
  62
7
  10
 234.295
  20
 815.469
  30
0.0
  11
 234.293
  21
 815.465
  31
0.0
   0
LINE
   8
LEVEL001
   6
CONTINUOUS
  62
7
  10
 234.293
  20
 815.465
  30
0.0
  11
 234.292
  21
 815.461
  31
0.0
   0
LINE
   8
LEVEL001
   6
CONTINUOUS
  62
7
  10
 234.292
  20
 815.461
  30
0.0
  11
 234.291
  21
 815.458
  31
0.0
   0
LINE
   8
LEVEL001
   6
CONTINUOUS
  62
7
  10
 234.291
  20
 815.458
  30
0.0
  11
 234.290
  21
 815.454
  31
0.0
   0
LINE
   8
LEVEL001
   6
CONTINUOUS
  62
7
  10
 234.290
  20
 815.454
  30
0.0
  11
 234.289
  21
 815.449
  31
0.0
   0
LINE
   8
LEVEL001
   6
CONTINUOUS
  62
7
  10
 234.289
  20
 815.449
  30
0.0
  11
 234.287
  21
 815.445
  31
0.0
   0
LINE
   8
LEVEL001
   6
CONTINUOUS
  62
7
  10
 234.287
  20
 815.445
  30
0.0
  11
 234.286
  21
 815.441
  31
0.0
   0
LINE
   8
LEVEL001
   6
CONTINUOUS
  62
7
  10
 234.286
  20
 815.441
  30
0.0
  11
 234.285
  21
 815.436
  31
0.0
   0
LINE
   8
LEVEL001
   6
CONTINUOUS
  62
7
  10
 234.285
  20
 815.436
  30
0.0
  11
 234.284
  21
 815.431
  31
0.0
   0
LINE
   8
LEVEL001
   6
CONTINUOUS
  62
7
  10
 234.284
  20
 815.431
  30
0.0
  11
 234.283
  21
 815.426
  31
0.0
   0
LINE
   8
LEVEL001
   6
CONTINUOUS
  62
7
  10
 234.283
  20
 815.426
  30
0.0
  11
 234.282
  21
 815.421
  31
0.0
   0
LINE
   8
LEVEL001
   6
CONTINUOUS
  62
7
  10
 234.282
  20
 815.421
  30
0.0
  11
 234.280
  21
 815.415
  31
0.0
   0
LINE
   8
LEVEL001
   6
CONTINUOUS
  62
7
  10
 234.280
  20
 815.415
  30
0.0
  11
 234.279
  21
 815.409
  31
0.0
   0
LINE
   8
LEVEL001
   6
CONTINUOUS
  62
7
  10
 234.279
  20
 815.409
  30
0.0
  11
 234.278
  21
 815.404
  31
0.0
   0
LINE
   8
LEVEL001
   6
CONTINUOUS
  62
7
  10
 234.278
  20
 815.404
  30
0.0
  11
 234.277
  21
 815.398
  31
0.0
   0
LINE
   8
LEVEL001
   6
CONTINUOUS
  62
7
  10
 234.277
  20
 815.398
  30
0.0
  11
 234.276
  21
 815.391
  31
0.0
   0
LINE
   8
LEVEL001
   6
CONTINUOUS
  62
7
  10
 234.276
  20
 815.391
  30
0.0
  11
 234.275
  21
 815.385
  31
0.0
   0
LINE
   8
LEVEL001
   6
CONTINUOUS
  62
7
  10
 234.275
  20
 815.385
  30
0.0
  11
 234.273
  21
 815.379
  31
0.0
   0
LINE
   8
LEVEL001
   6
CONTINUOUS
  62
7
  10
 234.273
  20
 815.379
  30
0.0
  11
 234.272
  21
 815.372
  31
0.0
   0
LINE
   8
LEVEL001
   6
CONTINUOUS
  62
7
  10
 234.272
  20
 815.372
  30
0.0
  11
 234.271
  21
 815.365
  31
0.0
   0
LINE
   8
LEVEL001
   6
CONTINUOUS
  62
7
  10
 234.271
  20
 815.365
  30
0.0
  11
 234.270
  21
 815.358
  31
0.0
   0
LINE
   8
LEVEL001
   6
CONTINUOUS
  62
7
  10
 234.270
  20
 815.358
  30
0.0
  11
 234.269
  21
 815.351
  31
0.0
   0
LINE
   8
LEVEL001
   6
CONTINUOUS
  62
7
  10
 234.269
  20
 815.351
  30
0.0
  11
 234.268
  21
 815.343
  31
0.0
   0
LINE
   8
LEVEL001
   6
CONTINUOUS
  62
7
  10
 234.268
  20
 815.343
  30
0.0
  11
 234.266
  21
 815.336
  31
0.0
   0
LINE
   8
LEVEL001
   6
CONTINUOUS
  62
7
  10
 234.266
  20
 815.336
  30
0.0
  11
 234.265
  21
 815.328
  31
0.0
   0
LINE
   8
LEVEL001
   6
CONTINUOUS
  62
7
  10
 234.265
  20
 815.328
  30
0.0
  11
 234.264
  21
 815.320
  31
0.0
   0
LINE
   8
LEVEL001
   6
CONTINUOUS
  62
7
  10
 234.264
  20
 815.320
  30
0.0
  11
 234.263
  21
 815.312
  31
0.0
   0
LINE
   8
LEVEL001
   6
CONTINUOUS
  62
7
  10
 234.263
  20
 815.312
  30
0.0
  11
 234.262
  21
 815.304
  31
0.0
   0
LINE
   8
LEVEL001
   6
CONTINUOUS
  62
7
  10
 234.262
  20
 815.304
  30
0.0
  11
 234.261
  21
 815.295
  31
0.0
   0
LINE
   8
LEVEL001
   6
CONTINUOUS
  62
7
  10
 234.261
  20
 815.295
  30
0.0
  11
 234.259
  21
 815.286
  31
0.0
   0
LINE
   8
LEVEL001
   6
CONTINUOUS
  62
7
  10
 234.259
  20
 815.286
  30
0.0
  11
 234.258
  21
 815.278
  31
0.0
   0
LINE
   8
LEVEL001
   6
CONTINUOUS
  62
7
  10
 234.258
  20
 815.278
  30
0.0
  11
 234.257
  21
 815.269
  31
0.0
   0
LINE
   8
LEVEL001
   6
CONTINUOUS
  62
7
  10
 234.257
  20
 815.269
  30
0.0
  11
 234.256
  21
 815.259
  31
0.0
   0
LINE
   8
LEVEL001
   6
CONTINUOUS
  62
7
  10
 234.256
  20
 815.259
  30
0.0
  11
 234.255
  21
 815.250
  31
0.0
   0
LINE
   8
LEVEL001
   6
CONTINUOUS
  62
7
  10
 234.255
  20
 815.250
  30
0.0
  11
 234.254
  21
 815.241
  31
0.0
   0
LINE
   8
LEVEL001
   6
CONTINUOUS
  62
7
  10
 234.254
  20
 815.241
  30
0.0
  11
 234.253
  21
 815.231
  31
0.0
   0
LINE
   8
LEVEL001
   6
CONTINUOUS
  62
7
  10
 234.253
  20
 815.231
  30
0.0
  11
 234.251
  21
 815.221
  31
0.0
   0
LINE
   8
LEVEL001
   6
CONTINUOUS
  62
7
  10
 234.251
  20
 815.221
  30
0.0
  11
 234.250
  21
 815.211
  31
0.0
   0
LINE
   8
LEVEL001
   6
CONTINUOUS
  62
7
  10
 234.250
  20
 815.211
  30
0.0
  11
 234.249
  21
 815.201
  31
0.0
   0
LINE
   8
LEVEL001
   6
CONTINUOUS
  62
7
  10
 234.249
  20
 815.201
  30
0.0
  11
 234.248
  21
 815.190
  31
0.0
   0
LINE
   8
LEVEL001
   6
CONTINUOUS
  62
7
  10
 234.248
  20
 815.190
  30
0.0
  11
 234.247
  21
 815.180
  31
0.0
   0
LINE
   8
LEVEL001
   6
CONTINUOUS
  62
7
  10
 234.247
  20
 815.180
  30
0.0
  11
 234.246
  21
 815.169
  31
0.0
   0
LINE
   8
LEVEL001
   6
CONTINUOUS
  62
7
  10
 234.246
  20
 815.169
  30
0.0
  11
 234.245
  21
 815.158
  31
0.0
   0
LINE
   8
LEVEL001
   6
CONTINUOUS
  62
7
  10
 234.245
  20
 815.158
  30
0.0
  11
 234.244
  21
 815.147
  31
0.0
   0
LINE
   8
LEVEL001
   6
CONTINUOUS
  62
7
  10
 234.244
  20
 815.147
  30
0.0
  11
 234.242
  21
 815.136
  31
0.0
   0
LINE
   8
LEVEL001
   6
CONTINUOUS
  62
7
  10
 234.242
  20
 815.136
  30
0.0
  11
 234.241
  21
 815.125
  31
0.0
   0
LINE
   8
LEVEL001
   6
CONTINUOUS
  62
7
  10
 234.241
  20
 815.125
  30
0.0
  11
 234.240
  21
 815.113
  31
0.0
   0
LINE
   8
LEVEL001
   6
CONTINUOUS
  62
7
  10
 234.240
  20
 815.113
  30
0.0
  11
 234.239
  21
 815.101
  31
0.0
   0
LINE
   8
LEVEL001
   6
CONTINUOUS
  62
7
  10
 234.239
  20
 815.101
  30
0.0
  11
 234.238
  21
 815.089
  31
0.0
   0
LINE
   8
LEVEL001
   6
CONTINUOUS
  62
7
  10
 234.238
  20
 815.089
  30
0.0
  11
 234.237
  21
 815.077
  31
0.0
   0
LINE
   8
LEVEL001
   6
CONTINUOUS
  62
7
  10
 234.237
  20
 815.077
  30
0.0
  11
 234.236
  21
 815.065
  31
0.0
   0
LINE
   8
LEVEL001
   6
CONTINUOUS
  62
7
  10
 234.236
  20
 815.065
  30
0.0
  11
 234.235
  21
 815.053
  31
0.0
   0
LINE
   8
LEVEL001
   6
CONTINUOUS
  62
7
  10
 234.235
  20
 815.053
  30
0.0
  11
 234.234
  21
 815.040
  31
0.0
   0
LINE
   8
LEVEL001
   6
CONTINUOUS
  62
7
  10
 234.234
  20
 815.040
  30
0.0
  11
 234.232
  21
 815.027
  31
0.0
   0
LINE
   8
LEVEL001
   6
CONTINUOUS
  62
7
  10
 234.232
  20
 815.027
  30
0.0
  11
 234.231
  21
 815.014
  31
0.0
   0
LINE
   8
LEVEL001
   6
CONTINUOUS
  62
7
  10
 234.231
  20
 815.014
  30
0.0
  11
 234.230
  21
 815.001
  31
0.0
   0
LINE
   8
LEVEL001
   6
CONTINUOUS
  62
7
  10
 234.230
  20
 804.999
  30
0.0
  11
 234.231
  21
 804.985
  31
0.0
   0
LINE
   8
LEVEL001
   6
CONTINUOUS
  62
7
  10
 234.231
  20
 804.985
  30
0.0
  11
 234.233
  21
 804.971
  31
0.0
   0
LINE
   8
LEVEL001
   6
CONTINUOUS
  62
7
  10
 234.233
  20
 804.971
  30
0.0
  11
 234.234
  21
 804.958
  31
0.0
   0
LINE
   8
LEVEL001
   6
CONTINUOUS
  62
7
  10
 234.234
  20
 804.958
  30
0.0
  11
 234.235
  21
 804.944
  31
0.0
   0
LINE
   8
LEVEL001
   6
CONTINUOUS
  62
7
  10
 234.235
  20
 804.944
  30
0.0
  11
 234.236
  21
 804.931
  31
0.0
   0
LINE
   8
LEVEL001
   6
CONTINUOUS
  62
7
  10
 234.236
  20
 804.931
  30
0.0
  11
 234.237
  21
 804.918
  31
0.0
   0
LINE
   8
LEVEL001
   6
CONTINUOUS
  62
7
  10
 234.237
  20
 804.918
  30
0.0
  11
 234.238
  21
 804.905
  31
0.0
   0
LINE
   8
LEVEL001
   6
CONTINUOUS
  62
7
  10
 234.238
  20
 804.905
  30
0.0
  11
 234.240
  21
 804.892
  31
0.0
   0
LINE
   8
LEVEL001
   6
CONTINUOUS
  62
7
  10
 234.240
  20
 804.892
  30
0.0
  11
 234.241
  21
 804.880
  31
0.0
   0
LINE
   8
LEVEL001
   6
CONTINUOUS
  62
7
  10
 234.241
  20
 804.880
  30
0.0
  11
 234.242
  21
 804.868
  31
0.0
   0
LINE
   8
LEVEL001
   6
CONTINUOUS
  62
7
  10
 234.242
  20
 804.868
  30
0.0
  11
 234.243
  21
 804.856
  31
0.0
   0
LINE
   8
LEVEL001
   6
CONTINUOUS
  62
7
  10
 234.243
  20
 804.856
  30
0.0
  11
 234.244
  21
 804.844
  31
0.0
   0
LINE
   8
LEVEL001
   6
CONTINUOUS
  62
7
  10
 234.244
  20
 804.844
  30
0.0
  11
 234.246
  21
 804.832
  31
0.0
   0
LINE
   8
LEVEL001
   6
CONTINUOUS
  62
7
  10
 234.246
  20
 804.832
  30
0.0
  11
 234.247
  21
 804.820
  31
0.0
   0
LINE
   8
LEVEL001
   6
CONTINUOUS
  62
7
  10
 234.247
  20
 804.820
  30
0.0
  11
 234.248
  21
 804.809
  31
0.0
   0
LINE
   8
LEVEL001
   6
CONTINUOUS
  62
7
  10
 234.248
  20
 804.809
  30
0.0
  11
 234.249
  21
 804.798
  31
0.0
   0
LINE
   8
LEVEL001
   6
CONTINUOUS
  62
7
  10
 234.249
  20
 804.798
  30
0.0
  11
 234.251
  21
 804.787
  31
0.0
   0
LINE
   8
LEVEL001
   6
CONTINUOUS
  62
7
  10
 234.251
  20
 804.787
  30
0.0
  11
 234.252
  21
 804.776
  31
0.0
   0
LINE
   8
LEVEL001
   6
CONTINUOUS
  62
7
  10
 234.252
  20
 804.776
  30
0.0
  11
 234.253
  21
 804.766
  31
0.0
   0
LINE
   8
LEVEL001
   6
CONTINUOUS
  62
7
  10
 234.253
  20
 804.766
  30
0.0
  11
 234.254
  21
 804.755
  31
0.0
   0
LINE
   8
LEVEL001
   6
CONTINUOUS
  62
7
  10
 234.254
  20
 804.755
  30
0.0
  11
 234.255
  21
 804.745
  31
0.0
   0
LINE
   8
LEVEL001
   6
CONTINUOUS
  62
7
  10
 234.255
  20
 804.745
  30
0.0
  11
 234.257
  21
 804.735
  31
0.0
   0
LINE
   8
LEVEL001
   6
CONTINUOUS
  62
7
  10
 234.257
  20
 804.735
  30
0.0
  11
 234.258
  21
 804.726
  31
0.0
   0
LINE
   8
LEVEL001
   6
CONTINUOUS
  62
7
  10
 234.258
  20
 804.726
  30
0.0
  11
 234.259
  21
 804.716
  31
0.0
   0
LINE
   8
LEVEL001
   6
CONTINUOUS
  62
7
  10
 234.259
  20
 804.716
  30
0.0
  11
 234.260
  21
 804.707
  31
0.0
   0
LINE
   8
LEVEL001
   6
CONTINUOUS
  62
7
  10
 234.260
  20
 804.707
  30
0.0
  11
 234.262
  21
 804.698
  31
0.0
   0
LINE
   8
LEVEL001
   6
CONTINUOUS
  62
7
  10
 234.262
  20
 804.698
  30
0.0
  11
 234.263
  21
 804.689
  31
0.0
   0
LINE
   8
LEVEL001
   6
CONTINUOUS
  62
7
  10
 234.263
  20
 804.689
  30
0.0
  11
 234.264
  21
 804.680
  31
0.0
   0
LINE
   8
LEVEL001
   6
CONTINUOUS
  62
7
  10
 234.264
  20
 804.680
  30
0.0
  11
 234.265
  21
 804.672
  31
0.0
   0
LINE
   8
LEVEL001
   6
CONTINUOUS
  62
7
  10
 234.265
  20
 804.672
  30
0.0
  11
 234.266
  21
 804.663
  31
0.0
   0
LINE
   8
LEVEL001
   6
CONTINUOUS
  62
7
  10
 234.266
  20
 804.663
  30
0.0
  11
 234.268
  21
 804.655
  31
0.0
   0
LINE
   8
LEVEL001
   6
CONTINUOUS
  62
7
  10
 234.268
  20
 804.655
  30
0.0
  11
 234.269
  21
 804.647
  31
0.0
   0
LINE
   8
LEVEL001
   6
CONTINUOUS
  62
7
  10
 234.269
  20
 804.647
  30
0.0
  11
 234.270
  21
 804.640
  31
0.0
   0
LINE
   8
LEVEL001
   6
CONTINUOUS
  62
7
  10
 234.270
  20
 804.640
  30
0.0
  11
 234.271
  21
 804.632
  31
0.0
   0
LINE
   8
LEVEL001
   6
CONTINUOUS
  62
7
  10
 234.271
  20
 804.632
  30
0.0
  11
 234.273
  21
 804.625
  31
0.0
   0
LINE
   8
LEVEL001
   6
CONTINUOUS
  62
7
  10
 234.273
  20
 804.625
  30
0.0
  11
 234.274
  21
 804.618
  31
0.0
   0
LINE
   8
LEVEL001
   6
CONTINUOUS
  62
7
  10
 234.274
  20
 804.618
  30
0.0
  11
 234.275
  21
 804.611
  31
0.0
   0
LINE
   8
LEVEL001
   6
CONTINUOUS
  62
7
  10
 234.275
  20
 804.611
  30
0.0
  11
 234.277
  21
 804.604
  31
0.0
   0
LINE
   8
LEVEL001
   6
CONTINUOUS
  62
7
  10
 234.277
  20
 804.604
  30
0.0
  11
 234.278
  21
 804.598
  31
0.0
   0
LINE
   8
LEVEL001
   6
CONTINUOUS
  62
7
  10
 234.278
  20
 804.598
  30
0.0
  11
 234.279
  21
 804.591
  31
0.0
   0
LINE
   8
LEVEL001
   6
CONTINUOUS
  62
7
  10
 234.279
  20
 804.591
  30
0.0
  11
 234.280
  21
 804.585
  31
0.0
   0
LINE
   8
LEVEL001
   6
CONTINUOUS
  62
7
  10
 234.280
  20
 804.585
  30
0.0
  11
 234.282
  21
 804.580
  31
0.0
   0
LINE
   8
LEVEL001
   6
CONTINUOUS
  62
7
  10
 234.282
  20
 804.580
  30
0.0
  11
 234.283
  21
 804.574
  31
0.0
   0
LINE
   8
LEVEL001
   6
CONTINUOUS
  62
7
  10
 234.283
  20
 804.574
  30
0.0
  11
 234.284
  21
 804.568
  31
0.0
   0
LINE
   8
LEVEL001
   6
CONTINUOUS
  62
7
  10
 234.284
  20
 804.568
  30
0.0
  11
 234.285
  21
 804.563
  31
0.0
   0
LINE
   8
LEVEL001
   6
CONTINUOUS
  62
7
  10
 234.285
  20
 804.563
  30
0.0
  11
 234.287
  21
 804.558
  31
0.0
   0
LINE
   8
LEVEL001
   6
CONTINUOUS
  62
7
  10
 234.287
  20
 804.558
  30
0.0
  11
 234.288
  21
 804.553
  31
0.0
   0
LINE
   8
LEVEL001
   6
CONTINUOUS
  62
7
  10
 234.288
  20
 804.553
  30
0.0
  11
 234.289
  21
 804.549
  31
0.0
   0
LINE
   8
LEVEL001
   6
CONTINUOUS
  62
7
  10
 234.289
  20
 804.549
  30
0.0
  11
 234.290
  21
 804.544
  31
0.0
   0
LINE
   8
LEVEL001
   6
CONTINUOUS
  62
7
  10
 234.290
  20
 804.544
  30
0.0
  11
 234.292
  21
 804.540
  31
0.0
   0
LINE
   8
LEVEL001
   6
CONTINUOUS
  62
7
  10
 234.292
  20
 804.540
  30
0.0
  11
 234.293
  21
 804.536
  31
0.0
   0
LINE
   8
LEVEL001
   6
CONTINUOUS
  62
7
  10
 234.293
  20
 804.536
  30
0.0
  11
 234.294
  21
 804.532
  31
0.0
   0
LINE
   8
LEVEL001
   6
CONTINUOUS
  62
7
  10
 234.294
  20
 804.532
  30
0.0
  11
 234.296
  21
 804.529
  31
0.0
   0
LINE
   8
LEVEL001
   6
CONTINUOUS
  62
7
  10
 234.296
  20
 804.529
  30
0.0
  11
 234.297
  21
 804.525
  31
0.0
   0
LINE
   8
LEVEL001
   6
CONTINUOUS
  62
7
  10
 234.297
  20
 804.525
  30
0.0
  11
 234.298
  21
 804.522
  31
0.0
   0
LINE
   8
LEVEL001
   6
CONTINUOUS
  62
7
  10
 234.298
  20
 804.522
  30
0.0
  11
 234.299
  21
 804.519
  31
0.0
   0
LINE
   8
LEVEL001
   6
CONTINUOUS
  62
7
  10
 234.299
  20
 804.519
  30
0.0
  11
 234.301
  21
 804.517
  31
0.0
   0
LINE
   8
LEVEL001
   6
CONTINUOUS
  62
7
  10
 234.301
  20
 804.517
  30
0.0
  11
 234.302
  21
 804.514
  31
0.0
   0
LINE
   8
LEVEL001
   6
CONTINUOUS
  62
7
  10
 234.302
  20
 804.514
  30
0.0
  11
 234.303
  21
 804.512
  31
0.0
   0
LINE
   8
LEVEL001
   6
CONTINUOUS
  62
7
  10
 234.303
  20
 804.512
  30
0.0
  11
 234.304
  21
 804.510
  31
0.0
   0
LINE
   8
LEVEL001
   6
CONTINUOUS
  62
7
  10
 234.304
  20
 804.510
  30
0.0
  11
 234.306
  21
 804.508
  31
0.0
   0
LINE
   8
LEVEL001
   6
CONTINUOUS
  62
7
  10
 234.306
  20
 804.508
  30
0.0
  11
 234.307
  21
 804.506
  31
0.0
   0
LINE
   8
LEVEL001
   6
CONTINUOUS
  62
7
  10
 234.307
  20
 804.506
  30
0.0
  11
 234.308
  21
 804.505
  31
0.0
   0
LINE
   8
LEVEL001
   6
CONTINUOUS
  62
7
  10
 234.308
  20
 804.505
  30
0.0
  11
 234.310
  21
 804.503
  31
0.0
   0
LINE
   8
LEVEL001
   6
CONTINUOUS
  62
7
  10
 234.310
  20
 804.503
  30
0.0
  11
 234.311
  21
 804.502
  31
0.0
   0
LINE
   8
LEVEL001
   6
CONTINUOUS
  62
7
  10
 234.311
  20
 804.502
  30
0.0
  11
 234.312
  21
 804.501
  31
0.0
   0
LINE
   8
LEVEL001
   6
CONTINUOUS
  62
7
  10
 234.312
  20
 804.501
  30
0.0
  11
 234.313
  21
 804.501
  31
0.0
   0
LINE
   8
LEVEL001
   6
CONTINUOUS
  62
7
  10
 234.313
  20
 804.501
  30
0.0
  11
 234.315
  21
 804.500
  31
0.0
   0
LINE
   8
LEVEL001
   6
CONTINUOUS
  62
7
  10
 234.315
  20
 804.500
  30
0.0
  11
 234.316
  21
 804.500
  31
0.0
   0
LINE
   8
LEVEL001
   6
CONTINUOUS
  62
7
  10
 234.316
  20
 804.500
  30
0.0
  11
 234.317
  21
 804.500
  31
0.0
   0
LINE
   8
LEVEL001
   6
CONTINUOUS
  62
7
  10
 234.317
  20
 804.500
  30
0.0
  11
 234.319
  21
 804.500
  31
0.0
   0
LINE
   8
LEVEL001
   6
CONTINUOUS
  62
7
  10
 234.319
  20
 804.500
  30
0.0
  11
 234.320
  21
 804.501
  31
0.0
   0
LINE
   8
LEVEL001
   6
CONTINUOUS
  62
7
  10
 245.692
  20
 764.308
  30
0.0
  11
 246.888
  21
 768.769
  31
0.0
   0
LINE
   8
LEVEL001
   6
CONTINUOUS
  62
7
  10
 246.888
  20
 768.769
  30
0.0
  11
 243.622
  21
 772.035
  31
0.0
   0
LINE
   8
LEVEL001
   6
CONTINUOUS
  62
7
  10
 243.622
  20
 772.035
  30
0.0
  11
 239.160
  21
 770.840
  31
0.0
   0
LINE
   8
LEVEL001
   6
CONTINUOUS
  62
7
  10
 239.160
  20
 770.840
  30
0.0
  11
 237.965
  21
 766.378
  31
0.0
   0
LINE
   8
LEVEL001
   6
CONTINUOUS
  62
7
  10
 237.965
  20
 766.378
  30
0.0
  11
 241.231
  21
 763.112
  31
0.0
   0
LINE
   8
LEVEL001
   6
CONTINUOUS
  62
7
  10
 241.231
  20
 763.112
  30
0.0
  11
 245.692
  21
 764.308
  31
0.0
   0
LINE
   8
LEVEL001
   6
DASHDOT
  62
7
  10
 273.500
  20
 721.520
  30
0.0
  11
 273.500
  21
 730.480
  31
0.0
   0
LINE
   8
LEVEL001
   6
CONTINUOUS
  62
7
  10
 154.308
  20
 764.308
  30
0.0
  11
 153.112
  21
 768.769
  31
0.0
   0
LINE
   8
LEVEL001
   6
CONTINUOUS
  62
7
  10
 153.112
  20
 768.769
  30
0.0
  11
 156.378
  21
 772.035
  31
0.0
   0
LINE
   8
LEVEL001
   6
CONTINUOUS
  62
7
  10
 156.378
  20
 772.035
  30
0.0
  11
 160.840
  21
 770.840
  31
0.0
   0
LINE
   8
LEVEL001
   6
CONTINUOUS
  62
7
  10
 160.840
  20
 770.840
  30
0.0
  11
 162.035
  21
 766.378
  31
0.0
   0
LINE
   8
LEVEL001
   6
CONTINUOUS
  62
7
  10
 162.035
  20
 766.378
  30
0.0
  11
 158.769
  21
 763.112
  31
0.0
   0
LINE
   8
LEVEL001
   6
CONTINUOUS
  62
7
  10
 158.769
  20
 763.112
  30
0.0
  11
 154.308
  21
 764.308
  31
0.0
   0
LINE
   8
LEVEL001
   6
CONTINUOUS
  62
7
  10
 154.308
  20
 855.692
  30
0.0
  11
 158.769
  21
 856.888
  31
0.0
   0
LINE
   8
LEVEL001
   6
CONTINUOUS
  62
7
  10
 158.769
  20
 856.888
  30
0.0
  11
 162.035
  21
 853.622
  31
0.0
   0
LINE
   8
LEVEL001
   6
CONTINUOUS
  62
7
  10
 162.035
  20
 853.622
  30
0.0
  11
 160.840
  21
 849.160
  31
0.0
   0
LINE
   8
LEVEL001
   6
CONTINUOUS
  62
7
  10
 160.840
  20
 849.160
  30
0.0
  11
 156.378
  21
 847.965
  31
0.0
   0
LINE
   8
LEVEL001
   6
CONTINUOUS
  62
7
  10
 156.378
  20
 847.965
  30
0.0
  11
 153.112
  21
 851.231
  31
0.0
   0
LINE
   8
LEVEL001
   6
CONTINUOUS
  62
7
  10
 153.112
  20
 851.231
  30
0.0
  11
 154.308
  21
 855.692
  31
0.0
   0
LINE
   8
LEVEL001
   6
CONTINUOUS
  62
7
  10
 245.692
  20
 855.692
  30
0.0
  11
 246.888
  21
 851.231
  31
0.0
   0
LINE
   8
LEVEL001
   6
CONTINUOUS
  62
7
  10
 246.888
  20
 851.231
  30
0.0
  11
 243.622
  21
 847.965
  31
0.0
   0
LINE
   8
LEVEL001
   6
CONTINUOUS
  62
7
  10
 243.622
  20
 847.965
  30
0.0
  11
 239.160
  21
 849.160
  31
0.0
   0
LINE
   8
LEVEL001
   6
CONTINUOUS
  62
7
  10
 239.160
  20
 849.160
  30
0.0
  11
 237.965
  21
 853.622
  31
0.0
   0
LINE
   8
LEVEL001
   6
CONTINUOUS
  62
7
  10
 237.965
  20
 853.622
  30
0.0
  11
 241.231
  21
 856.888
  31
0.0
   0
LINE
   8
LEVEL001
   6
CONTINUOUS
  62
7
  10
 241.231
  20
 856.888
  30
0.0
  11
 245.692
  21
 855.692
  31
0.0
   0
LINE
   8
LEVEL001
   6
CONTINUOUS
  62
7
  10
 273.500
  20
 768.500
  30
0.0
  11
 275.295
  21
 768.500
  31
0.0
   0
LINE
   8
LEVEL001
   6
CONTINUOUS
  62
7
  10
 273.500
  20
 743.500
  30
0.0
  11
 275.295
  21
 743.500
  31
0.0
   0
LINE
   8
LEVEL001
   6
CONTINUOUS
  62
7
  10
 268.935
  20
 793.000
  30
0.0
  11
 271.500
  21
 793.000
  31
0.0
   0
LINE
   8
LEVEL001
   6
CONTINUOUS
  62
7
  10
 220.773
  20
 715.115
  30
0.0
  11
 220.773
  21
 717.822
  31
0.0
   0
LINE
   8
LEVEL001
   6
CONTINUOUS
  62
7
  10
 220.000
  20
 714.668
  30
0.0
  11
 220.773
  21
 715.115
  31
0.0
   0
LINE
   8
LEVEL001
   6
CONTINUOUS
  62
7
  10
 210.000
  20
 714.668
  30
0.0
  11
 220.000
  21
 714.668
  31
0.0
   0
LINE
   8
LEVEL001
   6
CONTINUOUS
  62
7
  10
 209.227
  20
 715.115
  30
0.0
  11
 210.000
  21
 714.668
  31
0.0
   0
LINE
   8
LEVEL001
   6
CONTINUOUS
  62
7
  10
 209.227
  20
 717.822
  30
0.0
  11
 209.227
  21
 715.115
  31
0.0
   0
LINE
   8
LEVEL001
   6
CONTINUOUS
  62
7
  10
 210.000
  20
 718.268
  30
0.0
  11
 209.227
  21
 717.822
  31
0.0
   0
LINE
   8
LEVEL001
   6
CONTINUOUS
  62
7
  10
 220.000
  20
 718.268
  30
0.0
  11
 210.000
  21
 718.268
  31
0.0
   0
LINE
   8
LEVEL001
   6
CONTINUOUS
  62
7
  10
 220.773
  20
 717.822
  30
0.0
  11
 220.000
  21
 718.268
  31
0.0
   0
LINE
   8
LEVEL001
   6
CONTINUOUS
  62
7
  10
 219.883
  20
 718.268
  30
0.0
  11
 219.283
  21
 718.868
  31
0.0
   0
ARC
   8
LEVEL001
   6
CONTINUOUS
  62
7
  10
 219.910
  20
 713.469
  30
0.0
  40
 4.80000
  50
 88.9304
  51
 114.935
   0
ARC
   8
LEVEL001
   6
CONTINUOUS
  62
7
  10
 210.090
  20
 713.469
  30
0.0
  40
 4.80000
  50
 65.0648
  51
 91.0696
   0
ARC
   8
LEVEL001
   6
CONTINUOUS
  62
7
  10
 215.000
  20
 708.715
  30
0.0
  40
 9.55316
  50
 72.4116
  51
 107.588
   0
LINE
   8
LEVEL001
   6
CONTINUOUS
  62
7
  10
 217.887
  20
 717.822
  30
0.0
  11
 217.887
  21
 715.115
  31
0.0
   0
LINE
   8
LEVEL001
   6
CONTINUOUS
  62
7
  10
 212.113
  20
 717.822
  30
0.0
  11
 212.113
  21
 715.115
  31
0.0
   0
LINE
   8
LEVEL001
   6
CONTINUOUS
  62
7
  10
 219.883
  20
 718.268
  30
0.0
  11
 219.861
  21
 718.958
  31
0.0
   0
ARC
   8
LEVEL001
   6
CONTINUOUS
  62
7
  10
 215.000
  20
 709.812
  30
0.0
  40
 5.62228
  50
 308.501
  51
 332.788
   0
ARC
   8
LEVEL001
   6
CONTINUOUS
  62
7
  10
 215.000
  20
 709.812
  30
0.0
  40
 5.62228
  50
 207.212
  51
 231.499
   0
LINE
   8
LEVEL001
   6
CONTINUOUS
  62
7
  10
 220.000
  20
 714.668
  30
0.0
  11
 220.000
  21
 707.241
  31
0.0
   0
LINE
   8
LEVEL001
   6
CONTINUOUS
  62
7
  10
 210.000
  20
 707.241
  30
0.0
  11
 210.000
  21
 714.668
  31
0.0
   0
ARC
   8
LEVEL001
   6
CONTINUOUS
  62
7
  10
 215.000
  20
 724.222
  30
0.0
  40
 9.55313
  50
 252.412
  51
 287.588
   0
ARC
   8
LEVEL001
   6
CONTINUOUS
  62
7
  10
 219.910
  20
 719.468
  30
0.0
  40
 4.80000
  50
 245.065
  51
 271.070
   0
ARC
   8
LEVEL001
   6
CONTINUOUS
  62
7
  10
 210.090
  20
 719.468
  30
0.0
  40
 4.80000
  50
 268.930
  51
 294.935
   0
LINE
   8
LEVEL001
   6
CONTINUOUS
  62
7
  10
 215.000
  20
 711.861
  30
0.0
  11
 215.000
  21
 710.943
  31
0.0
   0
LINE
   8
LEVEL001
   6
CONTINUOUS
  62
7
  10
 211.501
  20
 709.994
  30
0.0
  11
 211.501
  21
 709.075
  31
0.0
   0
LINE
   8
LEVEL001
   6
CONTINUOUS
  62
7
  10
 218.499
  20
 709.994
  30
0.0
  11
 218.499
  21
 709.075
  31
0.0
   0
LINE
   8
LEVEL001
   6
CONTINUOUS
  62
7
  10
 215.000
  20
 711.861
  30
0.0
  11
 211.501
  21
 709.994
  31
0.0
   0
LINE
   8
LEVEL001
   6
CONTINUOUS
  62
7
  10
 215.000
  20
 711.861
  30
0.0
  11
 218.499
  21
 709.994
  31
0.0
   0
LINE
   8
LEVEL001
   6
CONTINUOUS
  62
7
  10
 211.501
  20
 705.342
  30
0.0
  11
 211.849
  21
 705.156
  31
0.0
   0
LINE
   8
LEVEL001
   6
CONTINUOUS
  62
7
  10
 218.137
  20
 705.148
  30
0.0
  11
 218.499
  21
 705.342
  31
0.0
   0
LINE
   8
LEVEL001
   6
CONTINUOUS
  62
7
  10
 218.499
  20
 705.342
  30
0.0
  11
 218.499
  21
 709.075
  31
0.0
   0
LINE
   8
LEVEL001
   6
CONTINUOUS
  62
7
  10
 211.501
  20
 709.075
  30
0.0
  11
 211.501
  21
 705.342
  31
0.0
   0
LINE
   8
LEVEL001
   6
CONTINUOUS
  62
7
  10
 215.000
  20
 710.943
  30
0.0
  11
 211.501
  21
 709.075
  31
0.0
   0
LINE
   8
LEVEL001
   6
CONTINUOUS
  62
7
  10
 215.000
  20
 710.943
  30
0.0
  11
 218.499
  21
 709.075
  31
0.0
   0
LINE
   8
LEVEL001
   6
CONTINUOUS
  62
7
  10
 218.277
  20
 706.072
  30
0.0
  11
 218.338
  21
 706.236
  31
0.0
   0
LINE
   8
LEVEL001
   6
CONTINUOUS
  62
7
  10
 218.338
  20
 706.236
  30
0.0
  11
 218.389
  21
 706.402
  31
0.0
   0
LINE
   8
LEVEL001
   6
CONTINUOUS
  62
7
  10
 218.389
  20
 706.402
  30
0.0
  11
 218.431
  21
 706.571
  31
0.0
   0
LINE
   8
LEVEL001
   6
CONTINUOUS
  62
7
  10
 218.431
  20
 706.571
  30
0.0
  11
 218.463
  21
 706.742
  31
0.0
   0
LINE
   8
LEVEL001
   6
CONTINUOUS
  62
7
  10
 218.463
  20
 706.742
  30
0.0
  11
 218.485
  21
 706.914
  31
0.0
   0
LINE
   8
LEVEL001
   6
CONTINUOUS
  62
7
  10
 218.485
  20
 706.914
  30
0.0
  11
 218.498
  21
 707.087
  31
0.0
   0
LINE
   8
LEVEL001
   6
CONTINUOUS
  62
7
  10
 218.498
  20
 707.087
  30
0.0
  11
 218.500
  21
 707.261
  31
0.0
   0
LINE
   8
LEVEL001
   6
CONTINUOUS
  62
7
  10
 218.500
  20
 707.261
  30
0.0
  11
 218.491
  21
 707.434
  31
0.0
   0
LINE
   8
LEVEL001
   6
CONTINUOUS
  62
7
  10
 218.491
  20
 707.434
  30
0.0
  11
 218.473
  21
 707.606
  31
0.0
   0
LINE
   8
LEVEL001
   6
CONTINUOUS
  62
7
  10
 218.473
  20
 707.606
  30
0.0
  11
 218.445
  21
 707.778
  31
0.0
   0
LINE
   8
LEVEL001
   6
CONTINUOUS
  62
7
  10
 218.445
  20
 707.778
  30
0.0
  11
 218.407
  21
 707.948
  31
0.0
   0
LINE
   8
LEVEL001
   6
CONTINUOUS
  62
7
  10
 218.407
  20
 707.948
  30
0.0
  11
 218.360
  21
 708.115
  31
0.0
   0
LINE
   8
LEVEL001
   6
CONTINUOUS
  62
7
  10
 218.360
  20
 708.115
  30
0.0
  11
 218.302
  21
 708.280
  31
0.0
   0
LINE
   8
LEVEL001
   6
CONTINUOUS
  62
7
  10
 218.302
  20
 708.280
  30
0.0
  11
 218.235
  21
 708.442
  31
0.0
   0
LINE
   8
LEVEL001
   6
CONTINUOUS
  62
7
  10
 218.235
  20
 708.442
  30
0.0
  11
 218.159
  21
 708.601
  31
0.0
   0
LINE
   8
LEVEL001
   6
CONTINUOUS
  62
7
  10
 218.159
  20
 708.601
  30
0.0
  11
 218.074
  21
 708.755
  31
0.0
   0
LINE
   8
LEVEL001
   6
CONTINUOUS
  62
7
  10
 218.074
  20
 708.755
  30
0.0
  11
 217.980
  21
 708.905
  31
0.0
   0
LINE
   8
LEVEL001
   6
CONTINUOUS
  62
7
  10
 217.980
  20
 708.905
  30
0.0
  11
 217.877
  21
 709.050
  31
0.0
   0
LINE
   8
LEVEL001
   6
CONTINUOUS
  62
7
  10
 217.877
  20
 709.050
  30
0.0
  11
 217.766
  21
 709.190
  31
0.0
   0
LINE
   8
LEVEL001
   6
CONTINUOUS
  62
7
  10
 217.766
  20
 709.190
  30
0.0
  11
 217.647
  21
 709.324
  31
0.0
   0
LINE
   8
LEVEL001
   6
CONTINUOUS
  62
7
  10
 217.647
  20
 709.324
  30
0.0
  11
 217.520
  21
 709.452
  31
0.0
   0
LINE
   8
LEVEL001
   6
CONTINUOUS
  62
7
  10
 217.520
  20
 709.452
  30
0.0
  11
 217.387
  21
 709.574
  31
0.0
   0
LINE
   8
LEVEL001
   6
CONTINUOUS
  62
7
  10
 217.387
  20
 709.574
  30
0.0
  11
 217.246
  21
 709.689
  31
0.0
   0
LINE
   8
LEVEL001
   6
CONTINUOUS
  62
7
  10
 217.246
  20
 709.689
  30
0.0
  11
 217.099
  21
 709.796
  31
0.0
   0
LINE
   8
LEVEL001
   6
CONTINUOUS
  62
7
  10
 217.099
  20
 709.796
  30
0.0
  11
 216.946
  21
 709.897
  31
0.0
   0
LINE
   8
LEVEL001
   6
CONTINUOUS
  62
7
  10
 216.946
  20
 709.897
  30
0.0
  11
 216.787
  21
 709.989
  31
0.0
   0
LINE
   8
LEVEL001
   6
CONTINUOUS
  62
7
  10
 216.787
  20
 709.989
  30
0.0
  11
 216.623
  21
 710.074
  31
0.0
   0
LINE
   8
LEVEL001
   6
CONTINUOUS
  62
7
  10
 216.623
  20
 710.074
  30
0.0
  11
 216.455
  21
 710.150
  31
0.0
   0
LINE
   8
LEVEL001
   6
CONTINUOUS
  62
7
  10
 216.455
  20
 710.150
  30
0.0
  11
 216.282
  21
 710.218
  31
0.0
   0
LINE
   8
LEVEL001
   6
CONTINUOUS
  62
7
  10
 216.282
  20
 710.218
  30
0.0
  11
 216.105
  21
 710.277
  31
0.0
   0
LINE
   8
LEVEL001
   6
CONTINUOUS
  62
7
  10
 216.105
  20
 710.277
  30
0.0
  11
 215.926
  21
 710.327
  31
0.0
   0
LINE
   8
LEVEL001
   6
CONTINUOUS
  62
7
  10
 215.926
  20
 710.327
  30
0.0
  11
 215.744
  21
 710.368
  31
0.0
   0
LINE
   8
LEVEL001
   6
CONTINUOUS
  62
7
  10
 215.744
  20
 710.368
  30
0.0
  11
 215.559
  21
 710.401
  31
0.0
   0
LINE
   8
LEVEL001
   6
CONTINUOUS
  62
7
  10
 215.559
  20
 710.401
  30
0.0
  11
 215.373
  21
 710.424
  31
0.0
   0
LINE
   8
LEVEL001
   6
CONTINUOUS
  62
7
  10
 215.373
  20
 710.424
  30
0.0
  11
 215.186
  21
 710.438
  31
0.0
   0
LINE
   8
LEVEL001
   6
CONTINUOUS
  62
7
  10
 215.186
  20
 710.438
  30
0.0
  11
 214.999
  21
 710.442
  31
0.0
   0
LINE
   8
LEVEL001
   6
CONTINUOUS
  62
7
  10
 214.999
  20
 710.442
  30
0.0
  11
 214.811
  21
 710.438
  31
0.0
   0
LINE
   8
LEVEL001
   6
CONTINUOUS
  62
7
  10
 214.811
  20
 710.438
  30
0.0
  11
 214.624
  21
 710.424
  31
0.0
   0
LINE
   8
LEVEL001
   6
CONTINUOUS
  62
7
  10
 214.624
  20
 710.424
  30
0.0
  11
 214.438
  21
 710.400
  31
0.0
   0
LINE
   8
LEVEL001
   6
CONTINUOUS
  62
7
  10
 214.438
  20
 710.400
  30
0.0
  11
 214.254
  21
 710.368
  31
0.0
   0
LINE
   8
LEVEL001
   6
CONTINUOUS
  62
7
  10
 214.254
  20
 710.368
  30
0.0
  11
 214.071
  21
 710.326
  31
0.0
   0
LINE
   8
LEVEL001
   6
CONTINUOUS
  62
7
  10
 214.071
  20
 710.326
  30
0.0
  11
 213.892
  21
 710.276
  31
0.0
   0
LINE
   8
LEVEL001
   6
CONTINUOUS
  62
7
  10
 213.892
  20
 710.276
  30
0.0
  11
 213.715
  21
 710.217
  31
0.0
   0
LINE
   8
LEVEL001
   6
CONTINUOUS
  62
7
  10
 213.715
  20
 710.217
  30
0.0
  11
 213.543
  21
 710.149
  31
0.0
   0
LINE
   8
LEVEL001
   6
CONTINUOUS
  62
7
  10
 213.543
  20
 710.149
  30
0.0
  11
 213.374
  21
 710.072
  31
0.0
   0
LINE
   8
LEVEL001
   6
CONTINUOUS
  62
7
  10
 213.374
  20
 710.072
  30
0.0
  11
 213.211
  21
 709.988
  31
0.0
   0
LINE
   8
LEVEL001
   6
CONTINUOUS
  62
7
  10
 213.211
  20
 709.988
  30
0.0
  11
 213.052
  21
 709.895
  31
0.0
   0
LINE
   8
LEVEL001
   6
CONTINUOUS
  62
7
  10
 213.052
  20
 709.895
  30
0.0
  11
 212.899
  21
 709.795
  31
0.0
   0
LINE
   8
LEVEL001
   6
CONTINUOUS
  62
7
  10
 212.899
  20
 709.795
  30
0.0
  11
 212.752
  21
 709.687
  31
0.0
   0
LINE
   8
LEVEL001
   6
CONTINUOUS
  62
7
  10
 212.752
  20
 709.687
  30
0.0
  11
 212.611
  21
 709.572
  31
0.0
   0
LINE
   8
LEVEL001
   6
CONTINUOUS
  62
7
  10
 212.611
  20
 709.572
  30
0.0
  11
 212.478
  21
 709.450
  31
0.0
   0
LINE
   8
LEVEL001
   6
CONTINUOUS
  62
7
  10
 212.478
  20
 709.450
  30
0.0
  11
 212.351
  21
 709.322
  31
0.0
   0
LINE
   8
LEVEL001
   6
CONTINUOUS
  62
7
  10
 212.351
  20
 709.322
  30
0.0
  11
 212.232
  21
 709.188
  31
0.0
   0
LINE
   8
LEVEL001
   6
CONTINUOUS
  62
7
  10
 212.232
  20
 709.188
  30
0.0
  11
 212.121
  21
 709.048
  31
0.0
   0
LINE
   8
LEVEL001
   6
CONTINUOUS
  62
7
  10
 212.121
  20
 709.048
  30
0.0
  11
 212.019
  21
 708.903
  31
0.0
   0
LINE
   8
LEVEL001
   6
CONTINUOUS
  62
7
  10
 212.019
  20
 708.903
  30
0.0
  11
 211.925
  21
 708.753
  31
0.0
   0
LINE
   8
LEVEL001
   6
CONTINUOUS
  62
7
  10
 211.925
  20
 708.753
  30
0.0
  11
 211.840
  21
 708.598
  31
0.0
   0
LINE
   8
LEVEL001
   6
CONTINUOUS
  62
7
  10
 211.840
  20
 708.598
  30
0.0
  11
 211.764
  21
 708.440
  31
0.0
   0
LINE
   8
LEVEL001
   6
CONTINUOUS
  62
7
  10
 211.764
  20
 708.440
  30
0.0
  11
 211.697
  21
 708.278
  31
0.0
   0
LINE
   8
LEVEL001
   6
CONTINUOUS
  62
7
  10
 211.697
  20
 708.278
  30
0.0
  11
 211.640
  21
 708.113
  31
0.0
   0
LINE
   8
LEVEL001
   6
CONTINUOUS
  62
7
  10
 211.640
  20
 708.113
  30
0.0
  11
 211.592
  21
 707.945
  31
0.0
   0
LINE
   8
LEVEL001
   6
CONTINUOUS
  62
7
  10
 211.592
  20
 707.945
  30
0.0
  11
 211.554
  21
 707.775
  31
0.0
   0
LINE
   8
LEVEL001
   6
CONTINUOUS
  62
7
  10
 211.554
  20
 707.775
  30
0.0
  11
 211.526
  21
 707.604
  31
0.0
   0
LINE
   8
LEVEL001
   6
CONTINUOUS
  62
7
  10
 211.526
  20
 707.604
  30
0.0
  11
 211.508
  21
 707.431
  31
0.0
   0
LINE
   8
LEVEL001
   6
CONTINUOUS
  62
7
  10
 211.508
  20
 707.431
  30
0.0
  11
 211.500
  21
 707.258
  31
0.0
   0
LINE
   8
LEVEL001
   6
CONTINUOUS
  62
7
  10
 211.500
  20
 707.258
  30
0.0
  11
 211.503
  21
 707.085
  31
0.0
   0
LINE
   8
LEVEL001
   6
CONTINUOUS
  62
7
  10
 211.503
  20
 707.085
  30
0.0
  11
 211.515
  21
 706.912
  31
0.0
   0
LINE
   8
LEVEL001
   6
CONTINUOUS
  62
7
  10
 211.515
  20
 706.912
  30
0.0
  11
 211.537
  21
 706.739
  31
0.0
   0
LINE
   8
LEVEL001
   6
CONTINUOUS
  62
7
  10
 211.537
  20
 706.739
  30
0.0
  11
 211.569
  21
 706.569
  31
0.0
   0
LINE
   8
LEVEL001
   6
CONTINUOUS
  62
7
  10
 211.569
  20
 706.569
  30
0.0
  11
 211.611
  21
 706.400
  31
0.0
   0
LINE
   8
LEVEL001
   6
CONTINUOUS
  62
7
  10
 211.611
  20
 706.400
  30
0.0
  11
 211.663
  21
 706.233
  31
0.0
   0
LINE
   8
LEVEL001
   6
CONTINUOUS
  62
7
  10
 211.663
  20
 706.233
  30
0.0
  11
 211.725
  21
 706.069
  31
0.0
   0
LINE
   8
LEVEL001
   6
CONTINUOUS
  62
7
  10
 216.527
  20
 703.358
  30
0.0
  11
 216.736
  21
 703.468
  31
0.0
   0
LINE
   8
LEVEL001
   6
CONTINUOUS
  62
7
  10
 216.736
  20
 703.468
  30
0.0
  11
 216.936
  21
 703.592
  31
0.0
   0
LINE
   8
LEVEL001
   6
CONTINUOUS
  62
7
  10
 216.936
  20
 703.592
  30
0.0
  11
 217.126
  21
 703.729
  31
0.0
   0
LINE
   8
LEVEL001
   6
CONTINUOUS
  62
7
  10
 217.126
  20
 703.729
  30
0.0
  11
 217.305
  21
 703.879
  31
0.0
   0
LINE
   8
LEVEL001
   6
CONTINUOUS
  62
7
  10
 217.305
  20
 703.879
  30
0.0
  11
 217.471
  21
 704.040
  31
0.0
   0
LINE
   8
LEVEL001
   6
CONTINUOUS
  62
7
  10
 217.471
  20
 704.040
  30
0.0
  11
 217.624
  21
 704.212
  31
0.0
   0
LINE
   8
LEVEL001
   6
CONTINUOUS
  62
7
  10
 217.624
  20
 704.212
  30
0.0
  11
 217.763
  21
 704.394
  31
0.0
   0
LINE
   8
LEVEL001
   6
CONTINUOUS
  62
7
  10
 217.763
  20
 704.394
  30
0.0
  11
 217.887
  21
 704.584
  31
0.0
   0
LINE
   8
LEVEL001
   6
CONTINUOUS
  62
7
  10
 217.887
  20
 704.584
  30
0.0
  11
 217.996
  21
 704.783
  31
0.0
   0
LINE
   8
LEVEL001
   6
CONTINUOUS
  62
7
  10
 217.996
  20
 704.783
  30
0.0
  11
 218.089
  21
 704.988
  31
0.0
   0
LINE
   8
LEVEL001
   6
CONTINUOUS
  62
7
  10
 218.089
  20
 704.988
  30
0.0
  11
 218.166
  21
 705.200
  31
0.0
   0
LINE
   8
LEVEL001
   6
CONTINUOUS
  62
7
  10
 218.166
  20
 705.200
  30
0.0
  11
 218.225
  21
 705.415
  31
0.0
   0
LINE
   8
LEVEL001
   6
CONTINUOUS
  62
7
  10
 218.225
  20
 705.415
  30
0.0
  11
 218.268
  21
 705.635
  31
0.0
   0
LINE
   8
LEVEL001
   6
CONTINUOUS
  62
7
  10
 218.268
  20
 705.635
  30
0.0
  11
 218.293
  21
 705.856
  31
0.0
   0
LINE
   8
LEVEL001
   6
CONTINUOUS
  62
7
  10
 218.293
  20
 705.856
  30
0.0
  11
 218.300
  21
 706.079
  31
0.0
   0
LINE
   8
LEVEL001
   6
CONTINUOUS
  62
7
  10
 218.300
  20
 706.079
  30
0.0
  11
 218.290
  21
 706.301
  31
0.0
   0
LINE
   8
LEVEL001
   6
CONTINUOUS
  62
7
  10
 218.290
  20
 706.301
  30
0.0
  11
 218.262
  21
 706.522
  31
0.0
   0
LINE
   8
LEVEL001
   6
CONTINUOUS
  62
7
  10
 218.262
  20
 706.522
  30
0.0
  11
 218.217
  21
 706.741
  31
0.0
   0
LINE
   8
LEVEL001
   6
CONTINUOUS
  62
7
  10
 218.217
  20
 706.741
  30
0.0
  11
 218.154
  21
 706.956
  31
0.0
   0
LINE
   8
LEVEL001
   6
CONTINUOUS
  62
7
  10
 218.154
  20
 706.956
  30
0.0
  11
 218.075
  21
 707.166
  31
0.0
   0
LINE
   8
LEVEL001
   6
CONTINUOUS
  62
7
  10
 218.075
  20
 707.166
  30
0.0
  11
 217.980
  21
 707.371
  31
0.0
   0
LINE
   8
LEVEL001
   6
CONTINUOUS
  62
7
  10
 217.980
  20
 707.371
  30
0.0
  11
 217.868
  21
 707.568
  31
0.0
   0
LINE
   8
LEVEL001
   6
CONTINUOUS
  62
7
  10
 217.868
  20
 707.568
  30
0.0
  11
 217.742
  21
 707.758
  31
0.0
   0
LINE
   8
LEVEL001
   6
CONTINUOUS
  62
7
  10
 217.742
  20
 707.758
  30
0.0
  11
 217.600
  21
 707.938
  31
0.0
   0
LINE
   8
LEVEL001
   6
CONTINUOUS
  62
7
  10
 217.600
  20
 707.938
  30
0.0
  11
 217.445
  21
 708.108
  31
0.0
   0
LINE
   8
LEVEL001
   6
CONTINUOUS
  62
7
  10
 217.445
  20
 708.108
  30
0.0
  11
 217.277
  21
 708.268
  31
0.0
   0
LINE
   8
LEVEL001
   6
CONTINUOUS
  62
7
  10
 217.277
  20
 708.268
  30
0.0
  11
 217.096
  21
 708.415
  31
0.0
   0
LINE
   8
LEVEL001
   6
CONTINUOUS
  62
7
  10
 217.096
  20
 708.415
  30
0.0
  11
 216.905
  21
 708.550
  31
0.0
   0
LINE
   8
LEVEL001
   6
CONTINUOUS
  62
7
  10
 216.905
  20
 708.550
  30
0.0
  11
 216.703
  21
 708.672
  31
0.0
   0
LINE
   8
LEVEL001
   6
CONTINUOUS
  62
7
  10
 216.703
  20
 708.672
  30
0.0
  11
 216.492
  21
 708.780
  31
0.0
   0
LINE
   8
LEVEL001
   6
CONTINUOUS
  62
7
  10
 216.492
  20
 708.780
  30
0.0
  11
 216.273
  21
 708.873
  31
0.0
   0
LINE
   8
LEVEL001
   6
CONTINUOUS
  62
7
  10
 216.273
  20
 708.873
  30
0.0
  11
 216.047
  21
 708.952
  31
0.0
   0
LINE
   8
LEVEL001
   6
CONTINUOUS
  62
7
  10
 216.047
  20
 708.952
  30
0.0
  11
 215.816
  21
 709.015
  31
0.0
   0
LINE
   8
LEVEL001
   6
CONTINUOUS
  62
7
  10
 215.816
  20
 709.015
  30
0.0
  11
 215.581
  21
 709.062
  31
0.0
   0
LINE
   8
LEVEL001
   6
CONTINUOUS
  62
7
  10
 215.581
  20
 709.062
  30
0.0
  11
 215.342
  21
 709.093
  31
0.0
   0
LINE
   8
LEVEL001
   6
CONTINUOUS
  62
7
  10
 215.342
  20
 709.093
  30
0.0
  11
 215.102
  21
 709.108
  31
0.0
   0
LINE
   8
LEVEL001
   6
CONTINUOUS
  62
7
  10
 215.102
  20
 709.108
  30
0.0
  11
 214.861
  21
 709.107
  31
0.0
   0
LINE
   8
LEVEL001
   6
CONTINUOUS
  62
7
  10
 214.861
  20
 709.107
  30
0.0
  11
 214.620
  21
 709.089
  31
0.0
   0
LINE
   8
LEVEL001
   6
CONTINUOUS
  62
7
  10
 214.620
  20
 709.089
  30
0.0
  11
 214.382
  21
 709.056
  31
0.0
   0
LINE
   8
LEVEL001
   6
CONTINUOUS
  62
7
  10
 214.382
  20
 709.056
  30
0.0
  11
 214.147
  21
 709.006
  31
0.0
   0
LINE
   8
LEVEL001
   6
CONTINUOUS
  62
7
  10
 214.147
  20
 709.006
  30
0.0
  11
 213.917
  21
 708.941
  31
0.0
   0
LINE
   8
LEVEL001
   6
CONTINUOUS
  62
7
  10
 213.917
  20
 708.941
  30
0.0
  11
 213.692
  21
 708.860
  31
0.0
   0
LINE
   8
LEVEL001
   6
CONTINUOUS
  62
7
  10
 213.692
  20
 708.860
  30
0.0
  11
 213.474
  21
 708.764
  31
0.0
   0
LINE
   8
LEVEL001
   6
CONTINUOUS
  62
7
  10
 213.474
  20
 708.764
  30
0.0
  11
 213.265
  21
 708.654
  31
0.0
   0
LINE
   8
LEVEL001
   6
CONTINUOUS
  62
7
  10
 213.265
  20
 708.654
  30
0.0
  11
 213.065
  21
 708.530
  31
0.0
   0
LINE
   8
LEVEL001
   6
CONTINUOUS
  62
7
  10
 213.065
  20
 708.530
  30
0.0
  11
 212.875
  21
 708.393
  31
0.0
   0
LINE
   8
LEVEL001
   6
CONTINUOUS
  62
7
  10
 212.875
  20
 708.393
  30
0.0
  11
 212.696
  21
 708.244
  31
0.0
   0
LINE
   8
LEVEL001
   6
CONTINUOUS
  62
7
  10
 212.696
  20
 708.244
  30
0.0
  11
 212.530
  21
 708.082
  31
0.0
   0
LINE
   8
LEVEL001
   6
CONTINUOUS
  62
7
  10
 212.530
  20
 708.082
  30
0.0
  11
 212.377
  21
 707.910
  31
0.0
   0
LINE
   8
LEVEL001
   6
CONTINUOUS
  62
7
  10
 212.377
  20
 707.910
  30
0.0
  11
 212.238
  21
 707.729
  31
0.0
   0
LINE
   8
LEVEL001
   6
CONTINUOUS
  62
7
  10
 212.238
  20
 707.729
  30
0.0
  11
 212.113
  21
 707.538
  31
0.0
   0
LINE
   8
LEVEL001
   6
CONTINUOUS
  62
7
  10
 212.113
  20
 707.538
  30
0.0
  11
 212.004
  21
 707.339
  31
0.0
   0
LINE
   8
LEVEL001
   6
CONTINUOUS
  62
7
  10
 212.004
  20
 707.339
  30
0.0
  11
 211.911
  21
 707.134
  31
0.0
   0
LINE
   8
LEVEL001
   6
CONTINUOUS
  62
7
  10
 211.911
  20
 707.134
  30
0.0
  11
 211.835
  21
 706.923
  31
0.0
   0
LINE
   8
LEVEL001
   6
CONTINUOUS
  62
7
  10
 211.835
  20
 706.923
  30
0.0
  11
 211.775
  21
 706.707
  31
0.0
   0
LINE
   8
LEVEL001
   6
CONTINUOUS
  62
7
  10
 211.775
  20
 706.707
  30
0.0
  11
 211.733
  21
 706.488
  31
0.0
   0
LINE
   8
LEVEL001
   6
CONTINUOUS
  62
7
  10
 211.733
  20
 706.488
  30
0.0
  11
 211.708
  21
 706.266
  31
0.0
   0
LINE
   8
LEVEL001
   6
CONTINUOUS
  62
7
  10
 211.708
  20
 706.266
  30
0.0
  11
 211.700
  21
 706.044
  31
0.0
   0
LINE
   8
LEVEL001
   6
CONTINUOUS
  62
7
  10
 211.700
  20
 706.044
  30
0.0
  11
 211.710
  21
 705.821
  31
0.0
   0
LINE
   8
LEVEL001
   6
CONTINUOUS
  62
7
  10
 211.710
  20
 705.821
  30
0.0
  11
 211.738
  21
 705.600
  31
0.0
   0
LINE
   8
LEVEL001
   6
CONTINUOUS
  62
7
  10
 211.738
  20
 705.600
  30
0.0
  11
 211.783
  21
 705.381
  31
0.0
   0
LINE
   8
LEVEL001
   6
CONTINUOUS
  62
7
  10
 211.783
  20
 705.381
  30
0.0
  11
 211.845
  21
 705.166
  31
0.0
   0
LINE
   8
LEVEL001
   6
CONTINUOUS
  62
7
  10
 211.845
  20
 705.166
  30
0.0
  11
 211.924
  21
 704.956
  31
0.0
   0
LINE
   8
LEVEL001
   6
CONTINUOUS
  62
7
  10
 211.924
  20
 704.956
  30
0.0
  11
 212.020
  21
 704.751
  31
0.0
   0
LINE
   8
LEVEL001
   6
CONTINUOUS
  62
7
  10
 212.020
  20
 704.751
  30
0.0
  11
 212.131
  21
 704.554
  31
0.0
   0
LINE
   8
LEVEL001
   6
CONTINUOUS
  62
7
  10
 212.131
  20
 704.554
  30
0.0
  11
 212.258
  21
 704.364
  31
0.0
   0
LINE
   8
LEVEL001
   6
CONTINUOUS
  62
7
  10
 212.258
  20
 704.364
  30
0.0
  11
 212.399
  21
 704.184
  31
0.0
   0
LINE
   8
LEVEL001
   6
CONTINUOUS
  62
7
  10
 212.399
  20
 704.184
  30
0.0
  11
 212.554
  21
 704.014
  31
0.0
   0
LINE
   8
LEVEL001
   6
CONTINUOUS
  62
7
  10
 212.554
  20
 704.014
  30
0.0
  11
 212.723
  21
 703.854
  31
0.0
   0
LINE
   8
LEVEL001
   6
CONTINUOUS
  62
7
  10
 212.723
  20
 703.854
  30
0.0
  11
 212.903
  21
 703.707
  31
0.0
   0
LINE
   8
LEVEL001
   6
CONTINUOUS
  62
7
  10
 212.903
  20
 703.707
  30
0.0
  11
 213.095
  21
 703.571
  31
0.0
   0
LINE
   8
LEVEL001
   6
CONTINUOUS
  62
7
  10
 213.095
  20
 703.571
  30
0.0
  11
 213.296
  21
 703.450
  31
0.0
   0
LINE
   8
LEVEL001
   6
CONTINUOUS
  62
7
  10
 217.400
  20
 705.028
  30
0.0
  11
 217.391
  21
 705.221
  31
0.0
   0
LINE
   8
LEVEL001
   6
CONTINUOUS
  62
7
  10
 217.391
  20
 705.221
  30
0.0
  11
 217.364
  21
 705.413
  31
0.0
   0
LINE
   8
LEVEL001
   6
CONTINUOUS
  62
7
  10
 217.364
  20
 705.413
  30
0.0
  11
 217.318
  21
 705.602
  31
0.0
   0
LINE
   8
LEVEL001
   6
CONTINUOUS
  62
7
  10
 217.318
  20
 705.602
  30
0.0
  11
 217.255
  21
 705.786
  31
0.0
   0
LINE
   8
LEVEL001
   6
CONTINUOUS
  62
7
  10
 217.255
  20
 705.786
  30
0.0
  11
 217.175
  21
 705.965
  31
0.0
   0
LINE
   8
LEVEL001
   6
CONTINUOUS
  62
7
  10
 217.175
  20
 705.965
  30
0.0
  11
 217.078
  21
 706.136
  31
0.0
   0
LINE
   8
LEVEL001
   6
CONTINUOUS
  62
7
  10
 217.078
  20
 706.136
  30
0.0
  11
 216.966
  21
 706.299
  31
0.0
   0
LINE
   8
LEVEL001
   6
CONTINUOUS
  62
7
  10
 216.966
  20
 706.299
  30
0.0
  11
 216.839
  21
 706.453
  31
0.0
   0
LINE
   8
LEVEL001
   6
CONTINUOUS
  62
7
  10
 216.839
  20
 706.453
  30
0.0
  11
 216.697
  21
 706.596
  31
0.0
   0
LINE
   8
LEVEL001
   6
CONTINUOUS
  62
7
  10
 216.697
  20
 706.596
  30
0.0
  11
 216.543
  21
 706.726
  31
0.0
   0
LINE
   8
LEVEL001
   6
CONTINUOUS
  62
7
  10
 216.543
  20
 706.726
  30
0.0
  11
 216.377
  21
 706.844
  31
0.0
   0
LINE
   8
LEVEL001
   6
CONTINUOUS
  62
7
  10
 216.377
  20
 706.844
  30
0.0
  11
 216.200
  21
 706.948
  31
0.0
   0
LINE
   8
LEVEL001
   6
CONTINUOUS
  62
7
  10
 216.200
  20
 706.948
  30
0.0
  11
 216.014
  21
 707.037
  31
0.0
   0
LINE
   8
LEVEL001
   6
CONTINUOUS
  62
7
  10
 216.014
  20
 707.037
  30
0.0
  11
 215.821
  21
 707.111
  31
0.0
   0
LINE
   8
LEVEL001
   6
CONTINUOUS
  62
7
  10
 215.821
  20
 707.111
  30
0.0
  11
 215.621
  21
 707.169
  31
0.0
   0
LINE
   8
LEVEL001
   6
CONTINUOUS
  62
7
  10
 215.621
  20
 707.169
  30
0.0
  11
 215.417
  21
 707.211
  31
0.0
   0
LINE
   8
LEVEL001
   6
CONTINUOUS
  62
7
  10
 215.417
  20
 707.211
  30
0.0
  11
 215.209
  21
 707.237
  31
0.0
   0
LINE
   8
LEVEL001
   6
CONTINUOUS
  62
7
  10
 215.209
  20
 707.237
  30
0.0
  11
 215.000
  21
 707.245
  31
0.0
   0
LINE
   8
LEVEL001
   6
CONTINUOUS
  62
7
  10
 215.000
  20
 707.245
  30
0.0
  11
 214.791
  21
 707.237
  31
0.0
   0
LINE
   8
LEVEL001
   6
CONTINUOUS
  62
7
  10
 214.791
  20
 707.237
  30
0.0
  11
 214.583
  21
 707.211
  31
0.0
   0
LINE
   8
LEVEL001
   6
CONTINUOUS
  62
7
  10
 214.583
  20
 707.211
  30
0.0
  11
 214.379
  21
 707.169
  31
0.0
   0
LINE
   8
LEVEL001
   6
CONTINUOUS
  62
7
  10
 214.379
  20
 707.169
  30
0.0
  11
 214.179
  21
 707.111
  31
0.0
   0
LINE
   8
LEVEL001
   6
CONTINUOUS
  62
7
  10
 214.179
  20
 707.111
  30
0.0
  11
 213.986
  21
 707.037
  31
0.0
   0
LINE
   8
LEVEL001
   6
CONTINUOUS
  62
7
  10
 213.986
  20
 707.037
  30
0.0
  11
 213.800
  21
 706.948
  31
0.0
   0
LINE
   8
LEVEL001
   6
CONTINUOUS
  62
7
  10
 213.800
  20
 706.948
  30
0.0
  11
 213.623
  21
 706.844
  31
0.0
   0
LINE
   8
LEVEL001
   6
CONTINUOUS
  62
7
  10
 213.623
  20
 706.844
  30
0.0
  11
 213.457
  21
 706.726
  31
0.0
   0
LINE
   8
LEVEL001
   6
CONTINUOUS
  62
7
  10
 213.457
  20
 706.726
  30
0.0
  11
 213.303
  21
 706.596
  31
0.0
   0
LINE
   8
LEVEL001
   6
CONTINUOUS
  62
7
  10
 213.303
  20
 706.596
  30
0.0
  11
 213.161
  21
 706.453
  31
0.0
   0
LINE
   8
LEVEL001
   6
CONTINUOUS
  62
7
  10
 213.161
  20
 706.453
  30
0.0
  11
 213.034
  21
 706.299
  31
0.0
   0
LINE
   8
LEVEL001
   6
CONTINUOUS
  62
7
  10
 213.034
  20
 706.299
  30
0.0
  11
 212.922
  21
 706.136
  31
0.0
   0
LINE
   8
LEVEL001
   6
CONTINUOUS
  62
7
  10
 212.922
  20
 706.136
  30
0.0
  11
 212.825
  21
 705.965
  31
0.0
   0
LINE
   8
LEVEL001
   6
CONTINUOUS
  62
7
  10
 212.825
  20
 705.965
  30
0.0
  11
 212.745
  21
 705.786
  31
0.0
   0
LINE
   8
LEVEL001
   6
CONTINUOUS
  62
7
  10
 212.745
  20
 705.786
  30
0.0
  11
 212.682
  21
 705.602
  31
0.0
   0
LINE
   8
LEVEL001
   6
CONTINUOUS
  62
7
  10
 212.682
  20
 705.602
  30
0.0
  11
 212.636
  21
 705.413
  31
0.0
   0
LINE
   8
LEVEL001
   6
CONTINUOUS
  62
7
  10
 212.636
  20
 705.413
  30
0.0
  11
 212.609
  21
 705.221
  31
0.0
   0
LINE
   8
LEVEL001
   6
CONTINUOUS
  62
7
  10
 212.609
  20
 705.221
  30
0.0
  11
 212.600
  21
 705.028
  31
0.0
   0
LINE
   8
LEVEL001
   6
CONTINUOUS
  62
7
  10
 212.600
  20
 705.028
  30
0.0
  11
 212.609
  21
 704.834
  31
0.0
   0
LINE
   8
LEVEL001
   6
CONTINUOUS
  62
7
  10
 212.609
  20
 704.834
  30
0.0
  11
 212.636
  21
 704.643
  31
0.0
   0
LINE
   8
LEVEL001
   6
CONTINUOUS
  62
7
  10
 212.636
  20
 704.643
  30
0.0
  11
 212.682
  21
 704.454
  31
0.0
   0
LINE
   8
LEVEL001
   6
CONTINUOUS
  62
7
  10
 212.682
  20
 704.454
  30
0.0
  11
 212.745
  21
 704.269
  31
0.0
   0
LINE
   8
LEVEL001
   6
CONTINUOUS
  62
7
  10
 212.745
  20
 704.269
  30
0.0
  11
 212.825
  21
 704.091
  31
0.0
   0
LINE
   8
LEVEL001
   6
CONTINUOUS
  62
7
  10
 212.825
  20
 704.091
  30
0.0
  11
 212.922
  21
 703.919
  31
0.0
   0
LINE
   8
LEVEL001
   6
CONTINUOUS
  62
7
  10
 212.922
  20
 703.919
  30
0.0
  11
 213.034
  21
 703.756
  31
0.0
   0
LINE
   8
LEVEL001
   6
CONTINUOUS
  62
7
  10
 213.034
  20
 703.756
  30
0.0
  11
 213.161
  21
 703.602
  31
0.0
   0
LINE
   8
LEVEL001
   6
CONTINUOUS
  62
7
  10
 213.161
  20
 703.602
  30
0.0
  11
 213.303
  21
 703.460
  31
0.0
   0
LINE
   8
LEVEL001
   6
CONTINUOUS
  62
7
  10
 213.303
  20
 703.460
  30
0.0
  11
 213.457
  21
 703.329
  31
0.0
   0
LINE
   8
LEVEL001
   6
CONTINUOUS
  62
7
  10
 213.457
  20
 703.329
  30
0.0
  11
 213.623
  21
 703.211
  31
0.0
   0
LINE
   8
LEVEL001
   6
CONTINUOUS
  62
7
  10
 213.623
  20
 703.211
  30
0.0
  11
 213.800
  21
 703.107
  31
0.0
   0
LINE
   8
LEVEL001
   6
CONTINUOUS
  62
7
  10
 213.800
  20
 703.107
  30
0.0
  11
 213.986
  21
 703.018
  31
0.0
   0
LINE
   8
LEVEL001
   6
CONTINUOUS
  62
7
  10
 213.986
  20
 703.018
  30
0.0
  11
 214.179
  21
 702.944
  31
0.0
   0
LINE
   8
LEVEL001
   6
CONTINUOUS
  62
7
  10
 214.179
  20
 702.944
  30
0.0
  11
 214.379
  21
 702.886
  31
0.0
   0
LINE
   8
LEVEL001
   6
CONTINUOUS
  62
7
  10
 214.379
  20
 702.886
  30
0.0
  11
 214.583
  21
 702.844
  31
0.0
   0
LINE
   8
LEVEL001
   6
CONTINUOUS
  62
7
  10
 214.583
  20
 702.844
  30
0.0
  11
 214.791
  21
 702.819
  31
0.0
   0
LINE
   8
LEVEL001
   6
CONTINUOUS
  62
7
  10
 214.791
  20
 702.819
  30
0.0
  11
 215.000
  21
 702.810
  31
0.0
   0
LINE
   8
LEVEL001
   6
CONTINUOUS
  62
7
  10
 215.000
  20
 702.810
  30
0.0
  11
 215.209
  21
 702.819
  31
0.0
   0
LINE
   8
LEVEL001
   6
CONTINUOUS
  62
7
  10
 215.209
  20
 702.819
  30
0.0
  11
 215.417
  21
 702.844
  31
0.0
   0
LINE
   8
LEVEL001
   6
CONTINUOUS
  62
7
  10
 215.417
  20
 702.844
  30
0.0
  11
 215.621
  21
 702.886
  31
0.0
   0
LINE
   8
LEVEL001
   6
CONTINUOUS
  62
7
  10
 215.621
  20
 702.886
  30
0.0
  11
 215.821
  21
 702.944
  31
0.0
   0
LINE
   8
LEVEL001
   6
CONTINUOUS
  62
7
  10
 215.821
  20
 702.944
  30
0.0
  11
 216.014
  21
 703.018
  31
0.0
   0
LINE
   8
LEVEL001
   6
CONTINUOUS
  62
7
  10
 216.014
  20
 703.018
  30
0.0
  11
 216.200
  21
 703.107
  31
0.0
   0
LINE
   8
LEVEL001
   6
CONTINUOUS
  62
7
  10
 216.200
  20
 703.107
  30
0.0
  11
 216.377
  21
 703.211
  31
0.0
   0
LINE
   8
LEVEL001
   6
CONTINUOUS
  62
7
  10
 216.377
  20
 703.211
  30
0.0
  11
 216.543
  21
 703.329
  31
0.0
   0
LINE
   8
LEVEL001
   6
CONTINUOUS
  62
7
  10
 216.543
  20
 703.329
  30
0.0
  11
 216.697
  21
 703.460
  31
0.0
   0
LINE
   8
LEVEL001
   6
CONTINUOUS
  62
7
  10
 216.697
  20
 703.460
  30
0.0
  11
 216.839
  21
 703.602
  31
0.0
   0
LINE
   8
LEVEL001
   6
CONTINUOUS
  62
7
  10
 216.839
  20
 703.602
  30
0.0
  11
 216.966
  21
 703.756
  31
0.0
   0
LINE
   8
LEVEL001
   6
CONTINUOUS
  62
7
  10
 216.966
  20
 703.756
  30
0.0
  11
 217.078
  21
 703.919
  31
0.0
   0
LINE
   8
LEVEL001
   6
CONTINUOUS
  62
7
  10
 217.078
  20
 703.919
  30
0.0
  11
 217.175
  21
 704.091
  31
0.0
   0
LINE
   8
LEVEL001
   6
CONTINUOUS
  62
7
  10
 217.175
  20
 704.091
  30
0.0
  11
 217.255
  21
 704.269
  31
0.0
   0
LINE
   8
LEVEL001
   6
CONTINUOUS
  62
7
  10
 217.255
  20
 704.269
  30
0.0
  11
 217.318
  21
 704.454
  31
0.0
   0
LINE
   8
LEVEL001
   6
CONTINUOUS
  62
7
  10
 217.318
  20
 704.454
  30
0.0
  11
 217.364
  21
 704.643
  31
0.0
   0
LINE
   8
LEVEL001
   6
CONTINUOUS
  62
7
  10
 217.364
  20
 704.643
  30
0.0
  11
 217.391
  21
 704.834
  31
0.0
   0
LINE
   8
LEVEL001
   6
CONTINUOUS
  62
7
  10
 217.391
  20
 704.834
  30
0.0
  11
 217.400
  21
 705.028
  31
0.0
   0
LINE
   8
LEVEL001
   6
CONTINUOUS
  62
7
  10
 210.132
  20
 718.748
  30
0.0
  11
 210.117
  21
 718.268
  31
0.0
   0
LINE
   8
LEVEL001
   6
CONTINUOUS
  62
7
  10
 210.117
  20
 718.268
  30
0.0
  11
 210.608
  21
 718.759
  31
0.0
   0
LINE
   8
LEVEL001
   6
CONTINUOUS
  62
7
  10
 219.283
  20
 718.868
  30
0.0
  11
 215.000
  21
 718.868
  31
0.0
   0
LINE
   8
LEVEL001
   6
CONTINUOUS
  62
7
  10
 219.283
  20
 718.868
  30
0.0
  11
 219.280
  21
 718.972
  31
0.0
   0
CIRCLE
   8
LEVEL001
   6
CONTINUOUS
  62
7
  10
 200.000
  20
 810.000
  30
0.0
  40
 4.30000
   0
CIRCLE
   8
LEVEL001
   6
CONTINUOUS
  62
7
  10
 200.000
  20
 810.000
  30
0.0
  40
 5.00000
   0
ARC
   8
LEVEL001
   6
CONTINUOUS
  62
7
  10
 215.001
  20
 705.028
  30
0.0
  40
 1.00000
  50
 180.020
  51
 0.201250E-1
   0
LINE
   8
LEVEL001
   6
CONTINUOUS
  62
7
  10
 216.000
  20
 705.028
  30
0.0
  11
 215.999
  21
 705.068
  31
0.0
   0
LINE
   8
LEVEL001
   6
CONTINUOUS
  62
7
  10
 215.999
  20
 705.068
  30
0.0
  11
 215.996
  21
 705.109
  31
0.0
   0
LINE
   8
LEVEL001
   6
CONTINUOUS
  62
7
  10
 215.996
  20
 705.109
  30
0.0
  11
 215.991
  21
 705.149
  31
0.0
   0
LINE
   8
LEVEL001
   6
CONTINUOUS
  62
7
  10
 215.991
  20
 705.149
  30
0.0
  11
 215.985
  21
 705.188
  31
0.0
   0
LINE
   8
LEVEL001
   6
CONTINUOUS
  62
7
  10
 215.985
  20
 705.188
  30
0.0
  11
 215.976
  21
 705.228
  31
0.0
   0
LINE
   8
LEVEL001
   6
CONTINUOUS
  62
7
  10
 215.976
  20
 705.228
  30
0.0
  11
 215.966
  21
 705.267
  31
0.0
   0
LINE
   8
LEVEL001
   6
CONTINUOUS
  62
7
  10
 215.966
  20
 705.267
  30
0.0
  11
 215.954
  21
 705.306
  31
0.0
   0
LINE
   8
LEVEL001
   6
CONTINUOUS
  62
7
  10
 215.954
  20
 705.306
  30
0.0
  11
 215.940
  21
 705.344
  31
0.0
   0
LINE
   8
LEVEL001
   6
CONTINUOUS
  62
7
  10
 215.940
  20
 705.344
  30
0.0
  11
 215.924
  21
 705.381
  31
0.0
   0
LINE
   8
LEVEL001
   6
CONTINUOUS
  62
7
  10
 215.924
  20
 705.381
  30
0.0
  11
 215.906
  21
 705.418
  31
0.0
   0
LINE
   8
LEVEL001
   6
CONTINUOUS
  62
7
  10
 215.906
  20
 705.418
  30
0.0
  11
 215.887
  21
 705.455
  31
0.0
   0
LINE
   8
LEVEL001
   6
CONTINUOUS
  62
7
  10
 215.887
  20
 705.455
  30
0.0
  11
 215.866
  21
 705.490
  31
0.0
   0
LINE
   8
LEVEL001
   6
CONTINUOUS
  62
7
  10
 215.866
  20
 705.490
  30
0.0
  11
 215.843
  21
 705.524
  31
0.0
   0
LINE
   8
LEVEL001
   6
CONTINUOUS
  62
7
  10
 215.843
  20
 705.524
  30
0.0
  11
 215.819
  21
 705.558
  31
0.0
   0
LINE
   8
LEVEL001
   6
CONTINUOUS
  62
7
  10
 215.819
  20
 705.558
  30
0.0
  11
 215.793
  21
 705.590
  31
0.0
   0
LINE
   8
LEVEL001
   6
CONTINUOUS
  62
7
  10
 215.793
  20
 705.590
  30
0.0
  11
 215.766
  21
 705.622
  31
0.0
   0
LINE
   8
LEVEL001
   6
CONTINUOUS
  62
7
  10
 215.766
  20
 705.622
  30
0.0
  11
 215.737
  21
 705.652
  31
0.0
   0
LINE
   8
LEVEL001
   6
CONTINUOUS
  62
7
  10
 215.737
  20
 705.652
  30
0.0
  11
 215.707
  21
 705.681
  31
0.0
   0
LINE
   8
LEVEL001
   6
CONTINUOUS
  62
7
  10
 215.707
  20
 705.681
  30
0.0
  11
 215.675
  21
 705.709
  31
0.0
   0
LINE
   8
LEVEL001
   6
CONTINUOUS
  62
7
  10
 215.675
  20
 705.709
  30
0.0
  11
 215.643
  21
 705.736
  31
0.0
   0
LINE
   8
LEVEL001
   6
CONTINUOUS
  62
7
  10
 215.643
  20
 705.736
  30
0.0
  11
 215.609
  21
 705.761
  31
0.0
   0
LINE
   8
LEVEL001
   6
CONTINUOUS
  62
7
  10
 215.609
  20
 705.761
  30
0.0
  11
 215.573
  21
 705.785
  31
0.0
   0
LINE
   8
LEVEL001
   6
CONTINUOUS
  62
7
  10
 215.573
  20
 705.785
  30
0.0
  11
 215.537
  21
 705.807
  31
0.0
   0
LINE
   8
LEVEL001
   6
CONTINUOUS
  62
7
  10
 215.537
  20
 705.807
  30
0.0
  11
 215.500
  21
 705.828
  31
0.0
   0
LINE
   8
LEVEL001
   6
CONTINUOUS
  62
7
  10
 215.500
  20
 705.828
  30
0.0
  11
 215.462
  21
 705.847
  31
0.0
   0
LINE
   8
LEVEL001
   6
CONTINUOUS
  62
7
  10
 215.462
  20
 705.847
  30
0.0
  11
 215.422
  21
 705.865
  31
0.0
   0
LINE
   8
LEVEL001
   6
CONTINUOUS
  62
7
  10
 215.422
  20
 705.865
  30
0.0
  11
 215.382
  21
 705.881
  31
0.0
   0
LINE
   8
LEVEL001
   6
CONTINUOUS
  62
7
  10
 215.382
  20
 705.881
  30
0.0
  11
 215.342
  21
 705.896
  31
0.0
   0
LINE
   8
LEVEL001
   6
CONTINUOUS
  62
7
  10
 215.342
  20
 705.896
  30
0.0
  11
 215.300
  21
 705.909
  31
0.0
   0
LINE
   8
LEVEL001
   6
CONTINUOUS
  62
7
  10
 215.300
  20
 705.909
  30
0.0
  11
 215.259
  21
 705.920
  31
0.0
   0
LINE
   8
LEVEL001
   6
CONTINUOUS
  62
7
  10
 215.259
  20
 705.920
  30
0.0
  11
 215.216
  21
 705.930
  31
0.0
   0
LINE
   8
LEVEL001
   6
CONTINUOUS
  62
7
  10
 215.216
  20
 705.930
  30
0.0
  11
 215.173
  21
 705.938
  31
0.0
   0
LINE
   8
LEVEL001
   6
CONTINUOUS
  62
7
  10
 215.173
  20
 705.938
  30
0.0
  11
 215.130
  21
 705.944
  31
0.0
   0
LINE
   8
LEVEL001
   6
CONTINUOUS
  62
7
  10
 215.130
  20
 705.944
  30
0.0
  11
 215.087
  21
 705.948
  31
0.0
   0
LINE
   8
LEVEL001
   6
CONTINUOUS
  62
7
  10
 215.087
  20
 705.948
  30
0.0
  11
 215.043
  21
 705.951
  31
0.0
   0
LINE
   8
LEVEL001
   6
CONTINUOUS
  62
7
  10
 215.043
  20
 705.951
  30
0.0
  11
 215.000
  21
 705.952
  31
0.0
   0
LINE
   8
LEVEL001
   6
CONTINUOUS
  62
7
  10
 215.000
  20
 705.952
  30
0.0
  11
 214.956
  21
 705.951
  31
0.0
   0
LINE
   8
LEVEL001
   6
CONTINUOUS
  62
7
  10
 214.956
  20
 705.951
  30
0.0
  11
 214.913
  21
 705.948
  31
0.0
   0
LINE
   8
LEVEL001
   6
CONTINUOUS
  62
7
  10
 214.913
  20
 705.948
  30
0.0
  11
 214.869
  21
 705.944
  31
0.0
   0
LINE
   8
LEVEL001
   6
CONTINUOUS
  62
7
  10
 214.869
  20
 705.944
  30
0.0
  11
 214.826
  21
 705.937
  31
0.0
   0
LINE
   8
LEVEL001
   6
CONTINUOUS
  62
7
  10
 214.826
  20
 705.937
  30
0.0
  11
 214.783
  21
 705.930
  31
0.0
   0
LINE
   8
LEVEL001
   6
CONTINUOUS
  62
7
  10
 214.783
  20
 705.930
  30
0.0
  11
 214.741
  21
 705.920
  31
0.0
   0
LINE
   8
LEVEL001
   6
CONTINUOUS
  62
7
  10
 214.741
  20
 705.920
  30
0.0
  11
 214.699
  21
 705.909
  31
0.0
   0
LINE
   8
LEVEL001
   6
CONTINUOUS
  62
7
  10
 214.699
  20
 705.909
  30
0.0
  11
 214.658
  21
 705.896
  31
0.0
   0
LINE
   8
LEVEL001
   6
CONTINUOUS
  62
7
  10
 214.658
  20
 705.896
  30
0.0
  11
 214.617
  21
 705.881
  31
0.0
   0
LINE
   8
LEVEL001
   6
CONTINUOUS
  62
7
  10
 214.617
  20
 705.881
  30
0.0
  11
 214.577
  21
 705.865
  31
0.0
   0
LINE
   8
LEVEL001
   6
CONTINUOUS
  62
7
  10
 214.577
  20
 705.865
  30
0.0
  11
 214.538
  21
 705.847
  31
0.0
   0
LINE
   8
LEVEL001
   6
CONTINUOUS
  62
7
  10
 214.538
  20
 705.847
  30
0.0
  11
 214.500
  21
 705.828
  31
0.0
   0
LINE
   8
LEVEL001
   6
CONTINUOUS
  62
7
  10
 214.500
  20
 705.828
  30
0.0
  11
 214.463
  21
 705.807
  31
0.0
   0
LINE
   8
LEVEL001
   6
CONTINUOUS
  62
7
  10
 214.463
  20
 705.807
  30
0.0
  11
 214.426
  21
 705.784
  31
0.0
   0
LINE
   8
LEVEL001
   6
CONTINUOUS
  62
7
  10
 214.426
  20
 705.784
  30
0.0
  11
 214.391
  21
 705.761
  31
0.0
   0
LINE
   8
LEVEL001
   6
CONTINUOUS
  62
7
  10
 214.391
  20
 705.761
  30
0.0
  11
 214.357
  21
 705.735
  31
0.0
   0
LINE
   8
LEVEL001
   6
CONTINUOUS
  62
7
  10
 214.357
  20
 705.735
  30
0.0
  11
 214.324
  21
 705.709
  31
0.0
   0
LINE
   8
LEVEL001
   6
CONTINUOUS
  62
7
  10
 214.324
  20
 705.709
  30
0.0
  11
 214.293
  21
 705.681
  31
0.0
   0
LINE
   8
LEVEL001
   6
CONTINUOUS
  62
7
  10
 214.293
  20
 705.681
  30
0.0
  11
 214.263
  21
 705.652
  31
0.0
   0
LINE
   8
LEVEL001
   6
CONTINUOUS
  62
7
  10
 214.263
  20
 705.652
  30
0.0
  11
 214.234
  21
 705.621
  31
0.0
   0
LINE
   8
LEVEL001
   6
CONTINUOUS
  62
7
  10
 214.234
  20
 705.621
  30
0.0
  11
 214.207
  21
 705.590
  31
0.0
   0
LINE
   8
LEVEL001
   6
CONTINUOUS
  62
7
  10
 214.207
  20
 705.590
  30
0.0
  11
 214.181
  21
 705.558
  31
0.0
   0
LINE
   8
LEVEL001
   6
CONTINUOUS
  62
7
  10
 214.181
  20
 705.558
  30
0.0
  11
 214.157
  21
 705.524
  31
0.0
   0
LINE
   8
LEVEL001
   6
CONTINUOUS
  62
7
  10
 214.157
  20
 705.524
  30
0.0
  11
 214.134
  21
 705.490
  31
0.0
   0
LINE
   8
LEVEL001
   6
CONTINUOUS
  62
7
  10
 214.134
  20
 705.490
  30
0.0
  11
 214.113
  21
 705.454
  31
0.0
   0
LINE
   8
LEVEL001
   6
CONTINUOUS
  62
7
  10
 214.113
  20
 705.454
  30
0.0
  11
 214.094
  21
 705.418
  31
0.0
   0
LINE
   8
LEVEL001
   6
CONTINUOUS
  62
7
  10
 214.094
  20
 705.418
  30
0.0
  11
 214.076
  21
 705.381
  31
0.0
   0
LINE
   8
LEVEL001
   6
CONTINUOUS
  62
7
  10
 214.076
  20
 705.381
  30
0.0
  11
 214.060
  21
 705.344
  31
0.0
   0
LINE
   8
LEVEL001
   6
CONTINUOUS
  62
7
  10
 214.060
  20
 705.344
  30
0.0
  11
 214.046
  21
 705.305
  31
0.0
   0
LINE
   8
LEVEL001
   6
CONTINUOUS
  62
7
  10
 214.046
  20
 705.305
  30
0.0
  11
 214.034
  21
 705.267
  31
0.0
   0
LINE
   8
LEVEL001
   6
CONTINUOUS
  62
7
  10
 214.034
  20
 705.267
  30
0.0
  11
 214.024
  21
 705.228
  31
0.0
   0
LINE
   8
LEVEL001
   6
CONTINUOUS
  62
7
  10
 214.024
  20
 705.228
  30
0.0
  11
 214.015
  21
 705.188
  31
0.0
   0
LINE
   8
LEVEL001
   6
CONTINUOUS
  62
7
  10
 214.015
  20
 705.188
  30
0.0
  11
 214.009
  21
 705.148
  31
0.0
   0
LINE
   8
LEVEL001
   6
CONTINUOUS
  62
7
  10
 214.009
  20
 705.148
  30
0.0
  11
 214.004
  21
 705.108
  31
0.0
   0
LINE
   8
LEVEL001
   6
CONTINUOUS
  62
7
  10
 214.004
  20
 705.108
  30
0.0
  11
 214.001
  21
 705.068
  31
0.0
   0
LINE
   8
LEVEL001
   6
CONTINUOUS
  62
7
  10
 214.001
  20
 705.068
  30
0.0
  11
 214.000
  21
 705.028
  31
0.0
   0
LINE
   8
LEVEL001
   6
DASHDOT
  62
1
  10
 125.000
  20
 810.000
  30
0.0
  11
 275.000
  21
 810.000
  31
0.0
   0
LINE
   8
LEVEL001
   6
DASHDOT
  62
1
  10
 193.750
  20
 880.000
  30
0.0
  11
 141.250
  21
 880.000
  31
0.0
   0
LINE
   8
LEVEL001
   6
DASHDOT
  62
1
  10
 167.500
  20
 906.250
  30
0.0
  11
 167.500
  21
 853.750
  31
0.0
   0
LINE
   8
LEVEL001
   6
DASHDOT
  62
1
  10
 258.750
  20
 880.000
  30
0.0
  11
 206.250
  21
 880.000
  31
0.0
   0
LINE
   8
LEVEL001
   6
DASHDOT
  62
1
  10
 232.500
  20
 906.250
  30
0.0
  11
 232.500
  21
 853.750
  31
0.0
   0
LINE
   8
LEVEL001
   6
DASHDOT
  62
1
  10
 200.000
  20
 907.500
  30
0.0
  11
 200.000
  21
 675.000
  31
0.0
   0
LINE
   8
LEVEL001
   6
DASHDOT
  62
1
  10
 258.750
  20
 705.000
  30
0.0
  11
 206.250
  21
 705.000
  31
0.0
   0
LINE
   8
LEVEL001
   6
DASHDOT
  62
1
  10
 232.500
  20
 731.250
  30
0.0
  11
 232.500
  21
 678.750
  31
0.0
   0
LINE
   8
LEVEL001
   6
DASHDOT
  62
1
  10
 193.750
  20
 705.000
  30
0.0
  11
 141.250
  21
 705.000
  31
0.0
   0
LINE
   8
LEVEL001
   6
DASHDOT
  62
1
  10
 167.500
  20
 731.250
  30
0.0
  11
 167.500
  21
 678.750
  31
0.0
   0
LINE
   8
LEVEL001
   6
DASHDOT
  62
1
  10
 80.0000
  20
 756.000
  30
0.0
  11
 320.000
  21
 756.000
  31
0.0
   0
TEXT
   8
LEVEL001
  62
7
  10
 187.385
  20
 854.106
  30
0.0
  40
 18.0000
   1
Ｊ
  50
 7.50000
  41
 0.625000
   7
STANDARD
   0
TEXT
   8
LEVEL001
  62
7
  10
 176.400
  20
 849.338
  30
0.0
  40
 18.0000
   1
Ｗ
  50
 22.5000
  41
 0.625000
   7
STANDARD
   0
TEXT
   8
LEVEL001
  62
7
  10
 211.128
  20
 854.504
  30
0.0
  40
 18.0000
   1
５
  50
 337.500
  41
 0.625000
   7
STANDARD
   0
TEXT
   8
LEVEL001
  62
7
  10
 199.231
  20
 855.868
  30
0.0
  40
 18.0000
   1
０
  50
 352.500
  41
 0.625000
   7
STANDARD
   0
LINE
   8
LEVEL003
   6
CONTINUOUS
  62
3
  10
 167.500
  20
 907.250
  30
0.0
  11
 167.500
  21
 928.000
  31
0.0
   0
LINE
   8
LEVEL003
   6
CONTINUOUS
  62
3
  10
 232.500
  20
 907.250
  30
0.0
  11
 232.500
  21
 928.000
  31
0.0
   0
LINE
   8
LEVEL003
   6
CONTINUOUS
  62
3
  10
 167.500
  20
 926.000
  30
0.0
  11
 232.500
  21
 926.000
  31
0.0
   0
LINE
   8
LEVEL003
   6
CONTINUOUS
  62
3
  10
 167.500
  20
 926.000
  30
0.0
  11
 170.500
  21
 925.196
  31
0.0
   0
LINE
   8
LEVEL003
   6
CONTINUOUS
  62
3
  10
 167.500
  20
 926.000
  30
0.0
  11
 170.500
  21
 926.804
  31
0.0
   0
LINE
   8
LEVEL003
   6
CONTINUOUS
  62
3
  10
 232.500
  20
 926.000
  30
0.0
  11
 229.500
  21
 926.804
  31
0.0
   0
LINE
   8
LEVEL003
   6
CONTINUOUS
  62
3
  10
 232.500
  20
 926.000
  30
0.0
  11
 229.500
  21
 925.196
  31
0.0
   0
TEXT
   8
LEVEL003
  62
3
  10
 198.000
  20
 927.714
  30
0.0
  40
 4.00000
   1
65
  41
 0.500000
   7
STANDARD
  72
1
  11
 200.000
  21
 927.714
  31
0.0
   0
LINE
   8
LEVEL003
   6
CONTINUOUS
  62
3
  10
 259.750
  20
 880.000
  30
0.0
  11
 352.000
  21
 880.000
  31
0.0
   0
LINE
   8
LEVEL003
   6
CONTINUOUS
  62
3
  10
 276.000
  20
 810.000
  30
0.0
  11
 352.000
  21
 810.000
  31
0.0
   0
LINE
   8
LEVEL003
   6
CONTINUOUS
  62
3
  10
 350.000
  20
 880.000
  30
0.0
  11
 350.000
  21
 810.000
  31
0.0
   0
LINE
   8
LEVEL003
   6
CONTINUOUS
  62
3
  10
 350.000
  20
 880.000
  30
0.0
  11
 349.196
  21
 877.000
  31
0.0
   0
LINE
   8
LEVEL003
   6
CONTINUOUS
  62
3
  10
 350.000
  20
 880.000
  30
0.0
  11
 350.804
  21
 877.000
  31
0.0
   0
LINE
   8
LEVEL003
   6
CONTINUOUS
  62
3
  10
 350.000
  20
 810.000
  30
0.0
  11
 350.804
  21
 813.000
  31
0.0
   0
LINE
   8
LEVEL003
   6
CONTINUOUS
  62
3
  10
 350.000
  20
 810.000
  30
0.0
  11
 349.196
  21
 813.000
  31
0.0
   0
TEXT
   8
LEVEL003
  62
3
  10
 348.286
  20
 843.000
  30
0.0
  40
 4.00000
   1
70
  50
 90.0000
  41
 0.500000
   7
STANDARD
  72
1
  11
 348.286
  21
 845.000
  31
0.0
   0
LINE
   8
LEVEL003
   6
CONTINUOUS
  62
3
  10
 276.000
  20
 810.000
  30
0.0
  11
 352.000
  21
 810.000
  31
0.0
   0
LINE
   8
LEVEL003
   6
CONTINUOUS
  62
3
  10
 259.750
  20
 705.000
  30
0.0
  11
 352.000
  21
 705.000
  31
0.0
   0
LINE
   8
LEVEL003
   6
CONTINUOUS
  62
3
  10
 350.000
  20
 810.000
  30
0.0
  11
 350.000
  21
 705.000
  31
0.0
   0
LINE
   8
LEVEL003
   6
CONTINUOUS
  62
3
  10
 350.000
  20
 810.000
  30
0.0
  11
 349.196
  21
 807.000
  31
0.0
   0
LINE
   8
LEVEL003
   6
CONTINUOUS
  62
3
  10
 350.000
  20
 810.000
  30
0.0
  11
 350.804
  21
 807.000
  31
0.0
   0
LINE
   8
LEVEL003
   6
CONTINUOUS
  62
3
  10
 350.000
  20
 705.000
  30
0.0
  11
 350.804
  21
 708.000
  31
0.0
   0
LINE
   8
LEVEL003
   6
CONTINUOUS
  62
3
  10
 350.000
  20
 705.000
  30
0.0
  11
 349.196
  21
 708.000
  31
0.0
   0
TEXT
   8
LEVEL003
  62
3
  10
 348.286
  20
 754.500
  30
0.0
  40
 4.00000
   1
105
  50
 90.0000
  41
 0.500000
   7
STANDARD
  72
1
  11
 348.286
  21
 757.500
  31
0.0
   0
LINE
   8
LEVEL003
   6
CONTINUOUS
  62
3
  10
 85.0000
  20
 745.000
  30
0.0
  11
 85.0000
  21
 663.000
  31
0.0
   0
LINE
   8
LEVEL003
   6
CONTINUOUS
  62
3
  10
 315.000
  20
 665.000
  30
0.0
  11
 85.0000
  21
 665.000
  31
0.0
   0
LINE
   8
LEVEL003
   6
CONTINUOUS
  62
3
  10
 85.0000
  20
 665.000
  30
0.0
  11
 88.0000
  21
 664.196
  31
0.0
   0
LINE
   8
LEVEL003
   6
CONTINUOUS
  62
3
  10
 85.0000
  20
 665.000
  30
0.0
  11
 88.0000
  21
 665.804
  31
0.0
   0
TEXT
   8
LEVEL003
  62
3
  10
 197.000
  20
 666.714
  30
0.0
  40
 4.00000
   1
230
  41
 0.500000
   7
STANDARD
  72
1
  11
 200.000
  21
 666.714
  31
0.0
   0
LINE
   8
LEVEL003
   6
CONTINUOUS
  62
3
  10
 315.000
  20
 745.000
  30
0.0
  11
 315.000
  21
 663.000
  31
0.0
   0
LINE
   8
LEVEL003
   6
CONTINUOUS
  62
3
  10
 315.000
  20
 665.000
  30
0.0
  11
 312.000
  21
 665.804
  31
0.0
   0
LINE
   8
LEVEL003
   6
CONTINUOUS
  62
3
  10
 315.000
  20
 665.000
  30
0.0
  11
 312.000
  21
 664.196
  31
0.0
   0
LINE
   8
LEVEL003
   6
CONTINUOUS
  62
3
  10
 480.000
  20
 640.000
  30
0.0
  11
 480.000
  21
 672.000
  31
0.0
   0
LINE
   8
LEVEL003
   6
CONTINUOUS
  62
3
  10
 520.000
  20
 640.000
  30
0.0
  11
 520.000
  21
 672.000
  31
0.0
   0
LINE
   8
LEVEL003
   6
CONTINUOUS
  62
3
  10
 480.000
  20
 670.000
  30
0.0
  11
 520.000
  21
 670.000
  31
0.0
   0
LINE
   8
LEVEL003
   6
CONTINUOUS
  62
3
  10
 480.000
  20
 670.000
  30
0.0
  11
 483.000
  21
 669.196
  31
0.0
   0
LINE
   8
LEVEL003
   6
CONTINUOUS
  62
3
  10
 480.000
  20
 670.000
  30
0.0
  11
 483.000
  21
 670.804
  31
0.0
   0
LINE
   8
LEVEL003
   6
CONTINUOUS
  62
3
  10
 520.000
  20
 670.000
  30
0.0
  11
 517.000
  21
 670.804
  31
0.0
   0
LINE
   8
LEVEL003
   6
CONTINUOUS
  62
3
  10
 520.000
  20
 670.000
  30
0.0
  11
 517.000
  21
 669.196
  31
0.0
   0
TEXT
   8
LEVEL003
  62
3
  10
 494.000
  20
 671.714
  30
0.0
  40
 4.00000
   1
M40×2
   7
STANDARD
  72
1
  11
 500.000
  21
 671.714
  31
0.0
   0
LINE
   8
LEVEL003
   6
CONTINUOUS
  62
3
  10
 520.000
  20
 640.000
  30
0.0
  11
 552.000
  21
 640.000
  31
0.0
   0
LINE
   8
LEVEL003
   6
CONTINUOUS
  62
3
  10
 521.500
  20
 600.000
  30
0.0
  11
 552.000
  21
 600.000
  31
0.0
   0
LINE
   8
LEVEL003
   6
CONTINUOUS
  62
3
  10
 550.000
  20
 640.000
  30
0.0
  11
 550.000
  21
 600.000
  31
0.0
   0
LINE
   8
LEVEL003
   6
CONTINUOUS
  62
3
  10
 550.000
  20
 640.000
  30
0.0
  11
 549.196
  21
 637.000
  31
0.0
   0
LINE
   8
LEVEL003
   6
CONTINUOUS
  62
3
  10
 550.000
  20
 640.000
  30
0.0
  11
 550.804
  21
 637.000
  31
0.0
   0
LINE
   8
LEVEL003
   6
CONTINUOUS
  62
3
  10
 550.000
  20
 600.000
  30
0.0
  11
 550.804
  21
 603.000
  31
0.0
   0
LINE
   8
LEVEL003
   6
CONTINUOUS
  62
3
  10
 550.000
  20
 600.000
  30
0.0
  11
 549.196
  21
 603.000
  31
0.0
   0
TEXT
   8
LEVEL003
  62
3
  10
 548.286
  20
 618.000
  30
0.0
  40
 4.00000
   1
40
  50
 90.0000
  41
 0.500000
   7
STANDARD
  72
1
  11
 548.286
  21
 620.000
  31
0.0
   0
LINE
   8
LEVEL003
   6
CONTINUOUS
  62
3
  10
 520.000
  20
 640.000
  30
0.0
  11
 652.000
  21
 640.000
  31
0.0
   0
LINE
   8
LEVEL003
   6
CONTINUOUS
  62
3
  10
 650.000
  20
 640.000
  30
0.0
  11
 650.000
  21
 420.000
  31
0.0
   0
LINE
   8
LEVEL003
   6
CONTINUOUS
  62
3
  10
 592.500
  20
 420.000
  30
0.0
  11
 652.000
  21
 420.000
  31
0.0
   0
LINE
   8
LEVEL003
   6
CONTINUOUS
  62
3
  10
 650.000
  20
 420.000
  30
0.0
  11
 650.804
  21
 423.000
  31
0.0
   0
LINE
   8
LEVEL003
   6
CONTINUOUS
  62
3
  10
 650.000
  20
 420.000
  30
0.0
  11
 649.196
  21
 423.000
  31
0.0
   0
TEXT
   8
LEVEL003
  62
3
  10
 648.286
  20
 527.000
  30
0.0
  40
 4.00000
   1
220
  50
 90.0000
  41
 0.500000
   7
STANDARD
  72
1
  11
 648.286
  21
 530.000
  31
0.0
   0
LINE
   8
LEVEL003
   6
CONTINUOUS
  62
3
  10
 576.000
  20
 475.000
  30
0.0
  11
 632.000
  21
 475.000
  31
0.0
   0
LINE
   8
LEVEL003
   6
CONTINUOUS
  62
3
  10
 592.500
  20
 420.000
  30
0.0
  11
 632.000
  21
 420.000
  31
0.0
   0
LINE
   8
LEVEL003
   6
CONTINUOUS
  62
3
  10
 630.000
  20
 475.000
  30
0.0
  11
 630.000
  21
 420.000
  31
0.0
   0
LINE
   8
LEVEL003
   6
CONTINUOUS
  62
3
  10
 630.000
  20
 475.000
  30
0.0
  11
 629.196
  21
 472.000
  31
0.0
   0
LINE
   8
LEVEL003
   6
CONTINUOUS
  62
3
  10
 630.000
  20
 475.000
  30
0.0
  11
 630.804
  21
 472.000
  31
0.0
   0
LINE
   8
LEVEL003
   6
CONTINUOUS
  62
3
  10
 630.000
  20
 420.000
  30
0.0
  11
 630.804
  21
 423.000
  31
0.0
   0
LINE
   8
LEVEL003
   6
CONTINUOUS
  62
3
  10
 630.000
  20
 420.000
  30
0.0
  11
 629.196
  21
 423.000
  31
0.0
   0
TEXT
   8
LEVEL003
  62
3
  10
 628.286
  20
 445.500
  30
0.0
  40
 4.00000
   1
55
  50
 90.0000
  41
 0.500000
   7
STANDARD
  72
1
  11
 628.286
  21
 447.500
  31
0.0
   0
LINE
   8
LEVEL003
   6
CONTINUOUS
  62
3
  10
 588.500
  20
 432.000
  30
0.0
  11
 612.000
  21
 432.000
  31
0.0
   0
LINE
   8
LEVEL003
   6
CONTINUOUS
  62
3
  10
 592.500
  20
 420.000
  30
0.0
  11
 612.000
  21
 420.000
  31
0.0
   0
LINE
   8
LEVEL003
   6
CONTINUOUS
  62
3
  10
 610.000
  20
 432.000
  30
0.0
  11
 610.000
  21
 420.000
  31
0.0
   0
LINE
   8
LEVEL003
   6
CONTINUOUS
  62
3
  10
 610.000
  20
 432.000
  30
0.0
  11
 609.196
  21
 429.000
  31
0.0
   0
LINE
   8
LEVEL003
   6
CONTINUOUS
  62
3
  10
 610.000
  20
 432.000
  30
0.0
  11
 610.804
  21
 429.000
  31
0.0
   0
LINE
   8
LEVEL003
   6
CONTINUOUS
  62
3
  10
 610.000
  20
 420.000
  30
0.0
  11
 610.804
  21
 423.000
  31
0.0
   0
LINE
   8
LEVEL003
   6
CONTINUOUS
  62
3
  10
 610.000
  20
 420.000
  30
0.0
  11
 609.196
  21
 423.000
  31
0.0
   0
TEXT
   8
LEVEL003
  62
3
  10
 608.286
  20
 424.000
  30
0.0
  40
 4.00000
   1
12
  50
 90.0000
  41
 0.500000
   7
STANDARD
  72
1
  11
 608.286
  21
 426.000
  31
0.0
   0
LINE
   8
LEVEL003
   6
CONTINUOUS
  62
3
  10
 279.000
  20
 486.583
  30
0.0
  11
 279.000
  21
 527.000
  31
0.0
   0
LINE
   8
LEVEL003
   6
CONTINUOUS
  62
3
  10
 315.000
  20
 489.500
  30
0.0
  11
 315.000
  21
 527.000
  31
0.0
   0
LINE
   8
LEVEL003
   6
CONTINUOUS
  62
3
  10
 279.000
  20
 525.000
  30
0.0
  11
 315.000
  21
 525.000
  31
0.0
   0
LINE
   8
LEVEL003
   6
CONTINUOUS
  62
3
  10
 279.000
  20
 525.000
  30
0.0
  11
 282.000
  21
 524.196
  31
0.0
   0
LINE
   8
LEVEL003
   6
CONTINUOUS
  62
3
  10
 279.000
  20
 525.000
  30
0.0
  11
 282.000
  21
 525.804
  31
0.0
   0
LINE
   8
LEVEL003
   6
CONTINUOUS
  62
3
  10
 315.000
  20
 525.000
  30
0.0
  11
 312.000
  21
 525.804
  31
0.0
   0
LINE
   8
LEVEL003
   6
CONTINUOUS
  62
3
  10
 315.000
  20
 525.000
  30
0.0
  11
 312.000
  21
 524.196
  31
0.0
   0
TEXT
   8
LEVEL003
  62
3
  10
 295.000
  20
 526.714
  30
0.0
  40
 4.00000
   1
36
  41
 0.500000
   7
STANDARD
  72
1
  11
 297.000
  21
 526.714
  31
0.0
   0
LINE
   8
LEVEL003
   6
CONTINUOUS
  62
3
  10
 285.000
  20
 489.500
  30
0.0
  11
 285.000
  21
 512.000
  31
0.0
   0
LINE
   8
LEVEL003
   6
CONTINUOUS
  62
3
  10
 315.000
  20
 489.500
  30
0.0
  11
 315.000
  21
 512.000
  31
0.0
   0
LINE
   8
LEVEL003
   6
CONTINUOUS
  62
3
  10
 285.000
  20
 510.000
  30
0.0
  11
 315.000
  21
 510.000
  31
0.0
   0
LINE
   8
LEVEL003
   6
CONTINUOUS
  62
3
  10
 285.000
  20
 510.000
  30
0.0
  11
 288.000
  21
 509.196
  31
0.0
   0
LINE
   8
LEVEL003
   6
CONTINUOUS
  62
3
  10
 285.000
  20
 510.000
  30
0.0
  11
 288.000
  21
 510.804
  31
0.0
   0
LINE
   8
LEVEL003
   6
CONTINUOUS
  62
3
  10
 315.000
  20
 510.000
  30
0.0
  11
 312.000
  21
 510.804
  31
0.0
   0
LINE
   8
LEVEL003
   6
CONTINUOUS
  62
3
  10
 315.000
  20
 510.000
  30
0.0
  11
 312.000
  21
 509.196
  31
0.0
   0
TEXT
   8
LEVEL003
  62
3
  10
 298.000
  20
 511.714
  30
0.0
  40
 4.00000
   1
30
  41
 0.500000
   7
STANDARD
  72
1
  11
 300.000
  21
 511.714
  31
0.0
   0
LINE
   8
LEVEL003
   6
CONTINUOUS
  62
3
  10
 256.000
  20
 420.000
  30
0.0
  11
 322.000
  21
 420.000
  31
0.0
   0
LINE
   8
LEVEL003
   6
CONTINUOUS
  62
3
  10
 229.000
  20
 30.0000
  30
0.0
  11
 322.000
  21
 30.0000
  31
0.0
   0
LINE
   8
LEVEL003
   6
CONTINUOUS
  62
3
  10
 320.000
  20
 420.000
  30
0.0
  11
 320.000
  21
 30.0000
  31
0.0
   0
LINE
   8
LEVEL003
   6
CONTINUOUS
  62
3
  10
 320.000
  20
 420.000
  30
0.0
  11
 319.196
  21
 417.000
  31
0.0
   0
LINE
   8
LEVEL003
   6
CONTINUOUS
  62
3
  10
 320.000
  20
 420.000
  30
0.0
  11
 320.804
  21
 417.000
  31
0.0
   0
LINE
   8
LEVEL003
   6
CONTINUOUS
  62
3
  10
 320.000
  20
 30.0000
  30
0.0
  11
 320.804
  21
 33.0000
  31
0.0
   0
LINE
   8
LEVEL003
   6
CONTINUOUS
  62
3
  10
 320.000
  20
 30.0000
  30
0.0
  11
 319.196
  21
 33.0000
  31
0.0
   0
TEXT
   8
LEVEL003
  62
3
  10
 318.286
  20
 212.000
  30
0.0
  40
 4.00000
   1
40+ストローク
  50
 90.0000
   7
STANDARD
  72
1
  11
 318.286
  21
 225.000
  31
0.0
   0
LINE
   8
LEVEL003
   6
CONTINUOUS
  62
3
  10
 650.000
  20
 640.000
  30
0.0
  11
 649.196
  21
 637.000
  31
0.0
   0
LINE
   8
LEVEL003
   6
CONTINUOUS
  62
3
  10
 650.000
  20
 640.000
  30
0.0
  11
 650.804
  21
 637.000
  31
0.0
   0
LINE
   8
LEVEL004
   6
DOT
  62
3
  10
 587.500
  20
 433.000
  30
0.0
  11
 587.500
  21
 432.000
  31
0.0
   0
LINE
   8
LEVEL004
   6
DOT
  62
3
  10
 587.500
  20
 432.000
  30
0.0
  11
 552.500
  21
 432.000
  31
0.0
   0
LINE
   8
LEVEL004
   6
DOT
  62
3
  10
 552.500
  20
 433.000
  30
0.0
  11
 552.500
  21
 432.000
  31
0.0
   0
ENDSEC
   0
EOF
