   0
SECTION
   2
HEADER
   9
$LIMMIN
  10
0.0
  20
0.0
   9
$LIMMAX
  10
 1188.00
  20
 1106.00
   9
$EXTMIN
  10
0.0
  20
0.0
   9
$EXTMAX
  10
 1188.00
  20
 1106.00
   9
$LTSCALE
  40
 23.7600
   0
ENDSEC
   0
SECTION
   2
TABLES
  0
TABLE
  2
LTYPE
 70
    25
  0
LTYPE
  2
CONTINUOUS
 70
    64
  3
Solid line
 72
    65
 73
     0
 40
0.0
  0
LTYPE
  2
BORDER
 70
    64
  3
__ __ . __ __ . __ __ . __ __ . __ __ . __ __ .
 72
    65
 73
     6
 40
1.75
 49
0.5
 49
-0.25
 49
0.5
 49
-0.25
 49
0.0
 49
-0.25
  0
LTYPE
  2
BORDER2
 70
    64
  3
__.__.__.__.__.__.__.__.__.__.__.__.__.__.__.__
 72
    65
 73
     6
 40
0.875
 49
0.25
 49
-0.125
 49
0.25
 49
-0.125
 49
0.0
 49
-0.125
  0
LTYPE
  2
BORDERX2
 70
    64
  3
____  ____  .  ____  ____  .  ____  ____  .  __
 72
    65
 73
     6
 40
3.5
 49
1.0
 49
-0.5
 49
1.0
 49
-0.5
 49
0.0
 49
-0.5
  0
LTYPE
  2
CENTER
 70
    64
  3
____ _ ____ _ ____ _ ____ _ ____ _ ____ _ ____ 
 72
    65
 73
     4
 40
2.0
 49
1.25
 49
-0.25
 49
0.25
 49
-0.25
  0
LTYPE
  2
CENTER2
 70
    64
  3
___ _ ___ _ ___ _ ___ _ ___ _ ___ _ ___ _ ___ _
 72
    65
 73
     4
 40
1.125
 49
0.75
 49
-0.125
 49
0.125
 49
-0.125
  0
LTYPE
  2
CENTERX2
 70
    64
  3
________  __  ________  __  ________  __  _____
 72
    65
 73
     4
 40
4.0
 49
2.5
 49
-0.5
 49
0.5
 49
-0.5
  0
LTYPE
  2
DASHDOT
 70
    64
  3
__ . __ . __ . __ . __ . __ . __ . __ . __ . __
 72
    65
 73
     4
 40
1.0
 49
0.5
 49
-0.25
 49
0.0
 49
-0.25
  0
LTYPE
  2
DASHDOT2
 70
    64
  3
_._._._._._._._._._._._._._._._._._._._._._._._
 72
    65
 73
     4
 40
0.5
 49
0.25
 49
-0.125
 49
0.0
 49
-0.125
  0
LTYPE
  2
DASHDOTX2
 70
    64
  3
____  .  ____  .  ____  .  ____  .  ____  .  __
 72
    65
 73
     4
 40
2.0
 49
1.0
 49
-0.5
 49
0.0
 49
-0.5
  0
LTYPE
  2
DASHED
 70
    64
  3
__ __ __ __ __ __ __ __ __ __ __ __ __ __ __ __
 72
    65
 73
     2
 40
0.75
 49
0.5
 49
-0.25
  0
LTYPE
  2
DASHED2
 70
    64
  3
_ _ _ _ _ _ _ _ _ _ _ _ _ _ _ _ _ _ _ _ _ _ _ _
 72
    65
 73
     2
 40
0.375
 49
0.25
 49
-0.125
  0
LTYPE
  2
DASHEDX2
 70
    64
  3
____  ____  ____  ____  ____  ____  ____  ____ 
 72
    65
 73
     2
 40
1.5
 49
1.0
 49
-0.5
  0
LTYPE
  2
DIVIDE
 70
    64
  3
____ . . ____ . . ____ . . ____ . . ____ . . __
 72
    65
 73
     6
 40
1.25
 49
0.5
 49
-0.25
 49
0.0
 49
-0.25
 49
0.0
 49
-0.25
  0
LTYPE
  2
DIVIDE2
 70
    64
  3
__..__..__..__..__..__..__..__..__..__..__..__.
 72
    65
 73
     6
 40
0.625
 49
0.25
 49
-0.125
 49
0.0
 49
-0.125
 49
0.0
 49
-0.125
  0
LTYPE
  2
DIVIDEX2
 70
    64
  3
________  .  .  ________  .  .  ________  .  . 
 72
    65
 73
     6
 40
2.5
 49
1.0
 49
-0.5
 49
0.0
 49
-0.5
 49
0.0
 49
-0.5
  0
LTYPE
  2
DOT
 70
    64
  3
. . . . . . . . . . . . . . . . . . . . . . . .
 72
    65
 73
     2
 40
0.25
 49
0.0
 49
-0.25
  0
LTYPE
  2
DOT2
 70
    64
  3
...............................................
 72
    65
 73
     2
 40
0.125
 49
0.0
 49
-0.125
  0
LTYPE
  2
DOTX2
 70
    64
  3
.  .  .  .  .  .  .  .  .  .  .  .  .  .  .  . 
 72
    65
 73
     2
 40
0.5
 49
0.0
 49
-0.5
  0
LTYPE
  2
HIDDEN
 70
    64
  3
__ __ __ __ __ __ __ __ __ __ __ __ __ __ __ __
 72
    65
 73
     2
 40
0.375
 49
0.25
 49
-0.125
  0
LTYPE
  2
HIDDEN2
 70
    64
  3
_ _ _ _ _ _ _ _ _ _ _ _ _ _ _ _ _ _ _ _ _ _ _ _
 72
    65
 73
     2
 40
0.1875
 49
0.125
 49
-0.0625
  0
LTYPE
  2
HIDDENX2
 70
    64
  3
____ ____ ____ ____ ____ ____ ____ ____ ____ __
 72
    65
 73
     2
 40
0.75
 49
0.5
 49
-0.25
  0
LTYPE
  2
PHANTOM
 70
    64
  3
______  __  __  ______  __  __  ______  __  __ 
 72
    65
 73
     6
 40
2.5
 49
1.25
 49
-0.25
 49
0.25
 49
-0.25
 49
0.25
 49
-0.25
  0
LTYPE
  2
PHANTOM2
 70
    64
  3
___ _ _ ___ _ _ ___ _ _ ___ _ _ ___ _ _ ___ _ _
 72
    65
 73
     6
 40
1.25
 49
0.625
 49
-0.125
 49
0.125
 49
-0.125
 49
0.125
 49
-0.125
  0
LTYPE
  2
PHANTOMX2
 70
    64
  3
____________    ____    ____    ____________   
 72
    65
 73
     6
 40
5.0
 49
2.5
 49
-0.5
 49
0.5
 49
-0.5
 49
0.5
 49
-0.5
  0
ENDTAB
  0
TABLE
  2
STYLE
 70
     2
  0
STYLE
  2
STANDARD
 70
0
 40
0.0
 41
1.0
 50
0.0
 71
0
 42
0.2
  3
TXT
  4
BIGFONT
  0
STYLE
  2
STANDARD1
 70
     4
 40
0.0
 41
1.0
 50
0.0
 71
     0
 42
0.2
  3
TXT
  4
BIGFONT
  0
ENDTAB
   0
TABLE
   2
LAYER
  70
4
   0
LAYER
   2
0
  70
0
  62
7
   6
CONTINUOUS
   0
LAYER
   2
LEVEL001
  70
0
  62
7
   6
CONTINUOUS
   0
LAYER
   2
LEVEL003
  70
0
  62
7
   6
CONTINUOUS
   0
LAYER
   2
LEVEL004
  70
0
  62
7
   6
CONTINUOUS
   0
ENDTAB
   0
ENDSEC
   0
SECTION
   2
ENTITIES
   0
LINE
   8
LEVEL001
   6
CONTINUOUS
  62
7
  10
 172.750
  20
 665.000
  30
0.0
  11
 172.750
  21
 662.000
  31
0.0
   0
LINE
   8
LEVEL001
   6
CONTINUOUS
  62
7
  10
 227.250
  20
 665.000
  30
0.0
  11
 227.250
  21
 662.000
  31
0.0
   0
LINE
   8
LEVEL001
   6
CONTINUOUS
  62
7
  10
 172.500
  20
 696.500
  30
0.0
  11
 172.500
  21
 665.000
  31
0.0
   0
LINE
   8
LEVEL001
   6
CONTINUOUS
  62
7
  10
 225.000
  20
 746.000
  30
0.0
  11
 175.000
  21
 746.000
  31
0.0
   0
LINE
   8
LEVEL001
   6
CONTINUOUS
  62
7
  10
 224.000
  20
 747.000
  30
0.0
  11
 176.000
  21
 747.000
  31
0.0
   0
LINE
   8
LEVEL001
   6
CONTINUOUS
  62
7
  10
 227.000
  20
 697.000
  30
0.0
  11
 173.000
  21
 697.000
  31
0.0
   0
LINE
   8
LEVEL001
   6
CONTINUOUS
  62
7
  10
 225.000
  20
 702.000
  30
0.0
  11
 175.000
  21
 702.000
  31
0.0
   0
ARC
   8
LEVEL001
   6
CONTINUOUS
  62
7
  10
 173.000
  20
 696.500
  30
0.0
  40
 0.500000
  50
 90.0000
  51
 180.000
   0
LINE
   8
LEVEL001
   6
CONTINUOUS
  62
7
  10
 176.000
  20
 747.000
  30
0.0
  11
 176.000
  21
 701.000
  31
0.0
   0
LINE
   8
LEVEL001
   6
CONTINUOUS
  62
7
  10
 176.000
  20
 701.000
  30
0.0
  11
 176.000
  21
 698.000
  31
0.0
   0
ARC
   8
LEVEL001
   6
CONTINUOUS
  62
7
  10
 175.000
  20
 698.000
  30
0.0
  40
 1.00000
  50
 270.000
  51
0.0
   0
ARC
   8
LEVEL001
   6
CONTINUOUS
  62
7
  10
 175.000
  20
 701.000
  30
0.0
  40
 1.00000
  50
0.0
  51
 90.0000
   0
ARC
   8
LEVEL001
   6
CONTINUOUS
  62
7
  10
 160.316
  20
 659.000
  30
0.0
  40
 3.00000
  50
 90.0000
  51
 176.379
   0
ARC
   8
LEVEL001
   6
CONTINUOUS
  62
7
  10
 110.000
  20
 620.500
  30
0.0
  40
 2.00000
  50
 90.0000
  51
 180.000
   0
LINE
   8
LEVEL001
   6
CONTINUOUS
  62
7
  10
 108.000
  20
 610.500
  30
0.0
  11
 108.000
  21
 620.500
  31
0.0
   0
LINE
   8
LEVEL001
   6
CONTINUOUS
  62
7
  10
 162.500
  20
 462.268
  30
0.0
  11
 161.850
  21
 459.842
  31
0.0
   0
LINE
   8
LEVEL001
   6
CONTINUOUS
  62
7
  10
 163.500
  20
 466.000
  30
0.0
  11
 162.500
  21
 462.268
  31
0.0
   0
LINE
   8
LEVEL001
   6
CONTINUOUS
  62
7
  10
 155.000
  20
 469.000
  30
0.0
  11
 157.000
  21
 467.000
  31
0.0
   0
LINE
   8
LEVEL001
   6
CONTINUOUS
  62
7
  10
 155.000
  20
 484.000
  30
0.0
  11
 155.000
  21
 469.000
  31
0.0
   0
ARC
   8
LEVEL001
   6
CONTINUOUS
  62
7
  10
 152.000
  20
 484.000
  30
0.0
  40
 3.00000
  50
0.0
  51
 90.0000
   0
LINE
   8
LEVEL001
   6
CONTINUOUS
  62
7
  10
 224.000
  20
 747.000
  30
0.0
  11
 224.000
  21
 701.000
  31
0.0
   0
LINE
   8
LEVEL001
   6
CONTINUOUS
  62
7
  10
 224.000
  20
 701.000
  30
0.0
  11
 224.000
  21
 698.000
  31
0.0
   0
ARC
   8
LEVEL001
   6
CONTINUOUS
  62
7
  10
 225.000
  20
 698.000
  30
0.0
  40
 1.00000
  50
 180.000
  51
 270.000
   0
ARC
   8
LEVEL001
   6
CONTINUOUS
  62
7
  10
 225.000
  20
 701.000
  30
0.0
  40
 1.00000
  50
 90.0000
  51
 180.000
   0
ARC
   8
LEVEL001
   6
CONTINUOUS
  62
7
  10
 239.684
  20
 659.000
  30
0.0
  40
 3.00000
  50
 3.62150
  51
 90.0000
   0
ARC
   8
LEVEL001
   6
CONTINUOUS
  62
7
  10
 290.000
  20
 620.500
  30
0.0
  40
 2.00000
  50
0.0
  51
 90.0000
   0
LINE
   8
LEVEL001
   6
CONTINUOUS
  62
7
  10
 237.500
  20
 462.268
  30
0.0
  11
 238.150
  21
 459.842
  31
0.0
   0
LINE
   8
LEVEL001
   6
CONTINUOUS
  62
7
  10
 236.500
  20
 466.000
  30
0.0
  11
 237.500
  21
 462.268
  31
0.0
   0
LINE
   8
LEVEL001
   6
CONTINUOUS
  62
7
  10
 245.000
  20
 469.000
  30
0.0
  11
 243.000
  21
 467.000
  31
0.0
   0
LINE
   8
LEVEL001
   6
CONTINUOUS
  62
7
  10
 245.000
  20
 484.000
  30
0.0
  11
 245.000
  21
 469.000
  31
0.0
   0
ARC
   8
LEVEL001
   6
CONTINUOUS
  62
7
  10
 248.000
  20
 484.000
  30
0.0
  40
 3.00000
  50
 90.0000
  51
 180.000
   0
LINE
   8
LEVEL001
   6
CONTINUOUS
  62
7
  10
 161.850
  20
 96.5000
  30
0.0
  11
 164.000
  21
 92.0000
  31
0.0
   0
LINE
   8
LEVEL001
   6
CONTINUOUS
  62
7
  10
 161.850
  20
 459.842
  30
0.0
  11
 161.850
  21
 96.5000
  31
0.0
   0
LINE
   8
LEVEL001
   6
CONTINUOUS
  62
7
  10
 192.503
  20
 91.3000
  30
0.0
  11
 207.497
  21
 91.3000
  31
0.0
   0
LINE
   8
LEVEL001
   6
CONTINUOUS
  62
7
  10
 161.850
  20
 96.5000
  30
0.0
  11
 238.150
  21
 96.5000
  31
0.0
   0
LINE
   8
LEVEL001
   6
CONTINUOUS
  62
7
  10
 238.150
  20
 459.842
  30
0.0
  11
 238.150
  21
 96.5000
  31
0.0
   0
LINE
   8
LEVEL001
   6
CONTINUOUS
  62
7
  10
 238.150
  20
 96.5000
  30
0.0
  11
 236.000
  21
 92.0000
  31
0.0
   0
LINE
   8
LEVEL001
   6
CONTINUOUS
  62
7
  10
 164.000
  20
 92.0000
  30
0.0
  11
 236.000
  21
 92.0000
  31
0.0
   0
LINE
   8
LEVEL001
   6
CONTINUOUS
  62
7
  10
 207.497
  20
 91.3000
  30
0.0
  11
 207.475
  21
 92.0000
  31
0.0
   0
LINE
   8
LEVEL001
   6
CONTINUOUS
  62
7
  10
 192.503
  20
 91.3000
  30
0.0
  11
 192.525
  21
 92.0000
  31
0.0
   0
LINE
   8
LEVEL001
   6
CONTINUOUS
  62
7
  10
 207.497
  20
 91.3000
  30
0.0
  11
 208.197
  21
 92.0000
  31
0.0
   0
LINE
   8
LEVEL001
   6
CONTINUOUS
  62
7
  10
 191.803
  20
 92.0000
  30
0.0
  11
 192.503
  21
 91.3000
  31
0.0
   0
LINE
   8
LEVEL001
   6
CONTINUOUS
  62
7
  10
 157.000
  20
 467.000
  30
0.0
  11
 243.000
  21
 467.000
  31
0.0
   0
LINE
   8
LEVEL001
   6
CONTINUOUS
  62
7
  10
 237.500
  20
 467.000
  30
0.0
  11
 237.500
  21
 462.268
  31
0.0
   0
LINE
   8
LEVEL001
   6
CONTINUOUS
  62
7
  10
 236.500
  20
 467.000
  30
0.0
  11
 236.500
  21
 466.000
  31
0.0
   0
LINE
   8
LEVEL001
   6
CONTINUOUS
  62
7
  10
 162.500
  20
 467.000
  30
0.0
  11
 162.500
  21
 462.268
  31
0.0
   0
LINE
   8
LEVEL001
   6
CONTINUOUS
  62
7
  10
 163.500
  20
 467.000
  30
0.0
  11
 163.500
  21
 466.000
  31
0.0
   0
LINE
   8
LEVEL001
   6
CONTINUOUS
  62
7
  10
 238.150
  20
 459.842
  30
0.0
  11
 161.850
  21
 459.842
  31
0.0
   0
LINE
   8
LEVEL001
   6
CONTINUOUS
  62
7
  10
 162.500
  20
 462.268
  30
0.0
  11
 237.500
  21
 462.268
  31
0.0
   0
LINE
   8
LEVEL001
   6
CONTINUOUS
  62
7
  10
 237.500
  20
 466.000
  30
0.0
  11
 162.500
  21
 466.000
  31
0.0
   0
LINE
   8
LEVEL001
   6
CONTINUOUS
  62
7
  10
 245.000
  20
 469.000
  30
0.0
  11
 155.000
  21
 469.000
  31
0.0
   0
LINE
   8
LEVEL001
   6
CONTINUOUS
  62
7
  10
 160.316
  20
 662.000
  30
0.0
  11
 239.684
  21
 662.000
  31
0.0
   0
LINE
   8
LEVEL001
   6
CONTINUOUS
  62
7
  10
 108.000
  20
 610.500
  30
0.0
  11
 292.000
  21
 610.500
  31
0.0
   0
LINE
   8
LEVEL001
   6
CONTINUOUS
  62
7
  10
 292.000
  20
 610.500
  30
0.0
  11
 292.000
  21
 620.500
  31
0.0
   0
LINE
   8
LEVEL001
   6
CONTINUOUS
  62
7
  10
 109.000
  20
 610.000
  30
0.0
  11
 291.000
  21
 610.000
  31
0.0
   0
LINE
   8
LEVEL001
   6
CONTINUOUS
  62
7
  10
 189.111
  20
 589.299
  30
0.0
  11
 118.750
  21
 588.000
  31
0.0
   0
LINE
   8
LEVEL001
   6
CONTINUOUS
  62
7
  10
 118.750
  20
 577.000
  30
0.0
  11
 118.750
  21
 588.000
  31
0.0
   0
LINE
   8
LEVEL001
   6
CONTINUOUS
  62
7
  10
 210.889
  20
 589.299
  30
0.0
  11
 281.250
  21
 588.000
  31
0.0
   0
LINE
   8
LEVEL001
   6
CONTINUOUS
  62
7
  10
 293.500
  20
 564.000
  30
0.0
  11
 297.853
  21
 564.000
  31
0.0
   0
LINE
   8
LEVEL001
   6
CONTINUOUS
  62
7
  10
 293.500
  20
 536.000
  30
0.0
  11
 297.853
  21
 536.000
  31
0.0
   0
LINE
   8
LEVEL001
   6
CONTINUOUS
  62
7
  10
 293.500
  20
 513.000
  30
0.0
  11
 293.500
  21
 587.000
  31
0.0
   0
ARC
   8
LEVEL001
   6
CONTINUOUS
  62
7
  10
 291.500
  20
 587.000
  30
0.0
  40
 2.00000
  50
0.0
  51
 90.0000
   0
LINE
   8
LEVEL001
   6
CONTINUOUS
  62
7
  10
 281.500
  20
 589.000
  30
0.0
  11
 291.500
  21
 589.000
  31
0.0
   0
ARC
   8
LEVEL001
   6
CONTINUOUS
  62
7
  10
 291.500
  20
 513.000
  30
0.0
  40
 2.00000
  50
 270.000
  51
0.0
   0
ARC
   8
LEVEL001
   6
CONTINUOUS
  62
7
  10
 297.853
  20
 563.000
  30
0.0
  40
 1.00000
  50
 73.3010
  51
 90.0000
   0
LINE
   8
LEVEL001
   6
CONTINUOUS
  62
7
  10
 298.000
  20
 536.042
  30
0.0
  11
 298.000
  21
 563.958
  31
0.0
   0
ARC
   8
LEVEL001
   6
CONTINUOUS
  62
7
  10
 297.853
  20
 537.000
  30
0.0
  40
 1.00000
  50
 270.000
  51
 286.699
   0
LINE
   8
LEVEL001
   6
CONTINUOUS
  62
7
  10
 298.141
  20
 536.042
  30
0.0
  11
 302.859
  21
 537.458
  31
0.0
   0
ARC
   8
LEVEL001
   6
CONTINUOUS
  62
7
  10
 303.147
  20
 536.500
  30
0.0
  40
 1.00000
  50
 90.0000
  51
 106.699
   0
LINE
   8
LEVEL001
   6
CONTINUOUS
  62
7
  10
 303.147
  20
 537.500
  30
0.0
  11
 344.000
  21
 537.500
  31
0.0
   0
LINE
   8
LEVEL001
   6
CONTINUOUS
  62
7
  10
 344.000
  20
 537.500
  30
0.0
  11
 345.000
  21
 538.500
  31
0.0
   0
LINE
   8
LEVEL001
   6
CONTINUOUS
  62
7
  10
 344.000
  20
 561.843
  30
0.0
  11
 345.000
  21
 560.782
  31
0.0
   0
LINE
   8
LEVEL001
   6
CONTINUOUS
  62
7
  10
 298.140
  20
 563.958
  30
0.0
  11
 303.000
  21
 561.843
  31
0.0
   0
LINE
   8
LEVEL001
   6
CONTINUOUS
  62
7
  10
 345.000
  20
 538.500
  30
0.0
  11
 345.000
  21
 560.782
  31
0.0
   0
LINE
   8
LEVEL001
   6
CONTINUOUS
  62
7
  10
 309.000
  20
 565.500
  30
0.0
  11
 309.000
  21
 561.843
  31
0.0
   0
LINE
   8
LEVEL001
   6
CONTINUOUS
  62
7
  10
 309.000
  20
 565.500
  30
0.0
  11
 345.000
  21
 565.500
  31
0.0
   0
LINE
   8
LEVEL001
   6
CONTINUOUS
  62
7
  10
 345.000
  20
 565.500
  30
0.0
  11
 345.000
  21
 560.782
  31
0.0
   0
LINE
   8
LEVEL001
   6
CONTINUOUS
  62
7
  10
 303.000
  20
 537.500
  30
0.0
  11
 303.000
  21
 561.843
  31
0.0
   0
LINE
   8
LEVEL001
   6
CONTINUOUS
  62
7
  10
 303.000
  20
 561.843
  30
0.0
  11
 344.000
  21
 561.843
  31
0.0
   0
LINE
   8
LEVEL001
   6
CONTINUOUS
  62
7
  10
 344.000
  20
 537.500
  30
0.0
  11
 344.000
  21
 561.843
  31
0.0
   0
LINE
   8
LEVEL001
   6
CONTINUOUS
  62
7
  10
 281.500
  20
 589.000
  30
0.0
  11
 281.500
  21
 511.000
  31
0.0
   0
LINE
   8
LEVEL001
   6
CONTINUOUS
  62
7
  10
 281.500
  20
 511.000
  30
0.0
  11
 291.500
  21
 511.000
  31
0.0
   0
LINE
   8
LEVEL001
   6
CONTINUOUS
  62
7
  10
 106.500
  20
 564.000
  30
0.0
  11
 102.147
  21
 564.000
  31
0.0
   0
LINE
   8
LEVEL001
   6
CONTINUOUS
  62
7
  10
 106.500
  20
 536.000
  30
0.0
  11
 102.147
  21
 536.000
  31
0.0
   0
LINE
   8
LEVEL001
   6
CONTINUOUS
  62
7
  10
 106.500
  20
 513.000
  30
0.0
  11
 106.500
  21
 587.000
  31
0.0
   0
ARC
   8
LEVEL001
   6
CONTINUOUS
  62
7
  10
 108.500
  20
 587.000
  30
0.0
  40
 2.00000
  50
 90.0000
  51
 180.000
   0
LINE
   8
LEVEL001
   6
CONTINUOUS
  62
7
  10
 118.500
  20
 589.000
  30
0.0
  11
 108.500
  21
 589.000
  31
0.0
   0
ARC
   8
LEVEL001
   6
CONTINUOUS
  62
7
  10
 108.500
  20
 513.000
  30
0.0
  40
 2.00000
  50
 180.000
  51
 270.000
   0
ARC
   8
LEVEL001
   6
CONTINUOUS
  62
7
  10
 102.147
  20
 563.000
  30
0.0
  40
 1.00000
  50
 90.0000
  51
 106.699
   0
LINE
   8
LEVEL001
   6
CONTINUOUS
  62
7
  10
 102.000
  20
 536.042
  30
0.0
  11
 102.000
  21
 563.958
  31
0.0
   0
ARC
   8
LEVEL001
   6
CONTINUOUS
  62
7
  10
 102.147
  20
 537.000
  30
0.0
  40
 1.00000
  50
 253.301
  51
 270.000
   0
LINE
   8
LEVEL001
   6
CONTINUOUS
  62
7
  10
 101.859
  20
 536.042
  30
0.0
  11
 97.1410
  21
 537.458
  31
0.0
   0
ARC
   8
LEVEL001
   6
CONTINUOUS
  62
7
  10
 96.8530
  20
 536.500
  30
0.0
  40
 1.00000
  50
 73.3010
  51
 90.0000
   0
LINE
   8
LEVEL001
   6
CONTINUOUS
  62
7
  10
 96.8530
  20
 537.500
  30
0.0
  11
 56.0000
  21
 537.500
  31
0.0
   0
LINE
   8
LEVEL001
   6
CONTINUOUS
  62
7
  10
 56.0000
  20
 537.500
  30
0.0
  11
 55.0000
  21
 538.500
  31
0.0
   0
LINE
   8
LEVEL001
   6
CONTINUOUS
  62
7
  10
 56.0000
  20
 561.843
  30
0.0
  11
 55.0000
  21
 560.782
  31
0.0
   0
LINE
   8
LEVEL001
   6
CONTINUOUS
  62
7
  10
 101.860
  20
 563.958
  30
0.0
  11
 97.0000
  21
 561.843
  31
0.0
   0
LINE
   8
LEVEL001
   6
CONTINUOUS
  62
7
  10
 55.0000
  20
 538.500
  30
0.0
  11
 55.0000
  21
 560.782
  31
0.0
   0
LINE
   8
LEVEL001
   6
CONTINUOUS
  62
7
  10
 91.0000
  20
 565.500
  30
0.0
  11
 91.0000
  21
 561.843
  31
0.0
   0
LINE
   8
LEVEL001
   6
CONTINUOUS
  62
7
  10
 91.0000
  20
 565.500
  30
0.0
  11
 55.0000
  21
 565.500
  31
0.0
   0
LINE
   8
LEVEL001
   6
CONTINUOUS
  62
7
  10
 55.0000
  20
 565.500
  30
0.0
  11
 55.0000
  21
 560.782
  31
0.0
   0
LINE
   8
LEVEL001
   6
CONTINUOUS
  62
7
  10
 97.0000
  20
 537.500
  30
0.0
  11
 97.0000
  21
 561.843
  31
0.0
   0
LINE
   8
LEVEL001
   6
CONTINUOUS
  62
7
  10
 97.0000
  20
 561.843
  30
0.0
  11
 56.0000
  21
 561.843
  31
0.0
   0
LINE
   8
LEVEL001
   6
CONTINUOUS
  62
7
  10
 56.0000
  20
 537.500
  30
0.0
  11
 56.0000
  21
 561.843
  31
0.0
   0
LINE
   8
LEVEL001
   6
CONTINUOUS
  62
7
  10
 118.500
  20
 589.000
  30
0.0
  11
 118.500
  21
 511.000
  31
0.0
   0
LINE
   8
LEVEL001
   6
CONTINUOUS
  62
7
  10
 118.500
  20
 511.000
  30
0.0
  11
 108.500
  21
 511.000
  31
0.0
   0
LINE
   8
LEVEL001
   6
CONTINUOUS
  62
7
  10
 122.000
  20
 487.000
  30
0.0
  11
 278.000
  21
 487.000
  31
0.0
   0
LINE
   8
LEVEL001
   6
CONTINUOUS
  62
7
  10
 122.000
  20
 502.000
  30
0.0
  11
 122.000
  21
 487.000
  31
0.0
   0
LINE
   8
LEVEL001
   6
CONTINUOUS
  62
7
  10
 278.000
  20
 502.000
  30
0.0
  11
 278.000
  21
 487.000
  31
0.0
   0
LINE
   8
LEVEL001
   6
CONTINUOUS
  62
7
  10
 281.250
  20
 512.000
  30
0.0
  11
 281.250
  21
 588.000
  31
0.0
   0
LINE
   8
LEVEL001
   6
CONTINUOUS
  62
7
  10
 118.750
  20
 512.000
  30
0.0
  11
 118.750
  21
 588.000
  31
0.0
   0
LINE
   8
LEVEL001
   6
CONTINUOUS
  62
7
  10
 227.500
  20
 665.000
  30
0.0
  11
 172.500
  21
 665.000
  31
0.0
   0
LINE
   8
LEVEL001
   6
CONTINUOUS
  62
7
  10
 227.500
  20
 696.500
  30
0.0
  11
 227.500
  21
 665.000
  31
0.0
   0
LINE
   8
LEVEL001
   6
CONTINUOUS
  62
7
  10
 246.500
  20
 655.807
  30
0.0
  11
 246.100
  21
 656.500
  31
0.0
   0
LINE
   8
LEVEL001
   6
CONTINUOUS
  62
7
  10
 246.500
  20
 644.193
  30
0.0
  11
 246.500
  21
 655.807
  31
0.0
   0
LINE
   8
LEVEL001
   6
CONTINUOUS
  62
7
  10
 246.100
  20
 643.500
  30
0.0
  11
 246.500
  21
 644.193
  31
0.0
   0
LINE
   8
LEVEL001
   6
CONTINUOUS
  62
7
  10
 246.500
  20
 637.807
  30
0.0
  11
 246.100
  21
 638.500
  31
0.0
   0
LINE
   8
LEVEL001
   6
CONTINUOUS
  62
7
  10
 246.100
  20
 656.500
  30
0.0
  11
 246.100
  21
 643.500
  31
0.0
   0
LINE
   8
LEVEL001
   6
CONTINUOUS
  62
7
  10
 246.100
  20
 656.500
  30
0.0
  11
 242.848
  21
 656.500
  31
0.0
   0
LINE
   8
LEVEL001
   6
CONTINUOUS
  62
7
  10
 243.671
  20
 643.500
  30
0.0
  11
 246.100
  21
 643.500
  31
0.0
   0
LINE
   8
LEVEL001
   6
CONTINUOUS
  62
7
  10
 246.100
  20
 638.500
  30
0.0
  11
 243.987
  21
 638.500
  31
0.0
   0
LINE
   8
LEVEL001
   6
CONTINUOUS
  62
7
  10
 176.000
  20
 747.000
  30
0.0
  11
 175.000
  21
 746.000
  31
0.0
   0
LINE
   8
LEVEL001
   6
CONTINUOUS
  62
7
  10
 175.000
  20
 746.000
  30
0.0
  11
 175.000
  21
 702.000
  31
0.0
   0
LINE
   8
LEVEL001
   6
CONTINUOUS
  62
7
  10
 224.000
  20
 747.000
  30
0.0
  11
 225.000
  21
 746.000
  31
0.0
   0
LINE
   8
LEVEL001
   6
CONTINUOUS
  62
7
  10
 225.000
  20
 746.000
  30
0.0
  11
 225.000
  21
 702.000
  31
0.0
   0
LINE
   8
LEVEL001
   6
CONTINUOUS
  62
7
  10
 110.000
  20
 622.500
  30
0.0
  11
 290.000
  21
 622.500
  31
0.0
   0
LINE
   8
LEVEL001
   6
CONTINUOUS
  62
7
  10
 155.548
  20
 634.521
  30
0.0
  11
 156.760
  21
 633.821
  31
0.0
   0
LINE
   8
LEVEL001
   6
CONTINUOUS
  62
7
  10
 136.972
  20
 634.521
  30
0.0
  11
 155.548
  21
 634.521
  31
0.0
   0
LINE
   8
LEVEL001
   6
CONTINUOUS
  62
7
  10
 135.760
  20
 633.821
  30
0.0
  11
 136.972
  21
 634.521
  31
0.0
   0
LINE
   8
LEVEL001
   6
CONTINUOUS
  62
7
  10
 156.760
  20
 633.821
  30
0.0
  11
 135.760
  21
 633.821
  31
0.0
   0
LINE
   8
LEVEL001
   6
CONTINUOUS
  62
7
  10
 263.028
  20
 634.521
  30
0.0
  11
 264.240
  21
 633.821
  31
0.0
   0
LINE
   8
LEVEL001
   6
CONTINUOUS
  62
7
  10
 244.452
  20
 634.521
  30
0.0
  11
 263.028
  21
 634.521
  31
0.0
   0
LINE
   8
LEVEL001
   6
CONTINUOUS
  62
7
  10
 243.240
  20
 633.821
  30
0.0
  11
 244.452
  21
 634.521
  31
0.0
   0
LINE
   8
LEVEL001
   6
CONTINUOUS
  62
7
  10
 264.240
  20
 633.821
  30
0.0
  11
 243.240
  21
 633.821
  31
0.0
   0
LINE
   8
LEVEL001
   6
CONTINUOUS
  62
7
  10
 135.760
  20
 622.500
  30
0.0
  11
 135.760
  21
 633.821
  31
0.0
   0
LINE
   8
LEVEL001
   6
CONTINUOUS
  62
7
  10
 156.760
  20
 633.821
  30
0.0
  11
 156.760
  21
 622.500
  31
0.0
   0
LINE
   8
LEVEL001
   6
CONTINUOUS
  62
7
  10
 264.240
  20
 633.821
  30
0.0
  11
 264.240
  21
 622.500
  31
0.0
   0
LINE
   8
LEVEL001
   6
CONTINUOUS
  62
7
  10
 243.240
  20
 622.500
  30
0.0
  11
 243.240
  21
 633.821
  31
0.0
   0
LINE
   8
LEVEL001
   6
CONTINUOUS
  62
7
  10
 157.322
  20
 659.189
  30
0.0
  11
 155.753
  21
 634.402
  31
0.0
   0
LINE
   8
LEVEL001
   6
CONTINUOUS
  62
7
  10
 242.678
  20
 659.189
  30
0.0
  11
 244.247
  21
 634.402
  31
0.0
   0
LINE
   8
LEVEL001
   6
CONTINUOUS
  62
7
  10
 246.500
  20
 634.521
  30
0.0
  11
 246.500
  21
 637.807
  31
0.0
   0
LINE
   8
LEVEL001
   6
CONTINUOUS
  62
7
  10
 246.100
  20
 638.500
  30
0.0
  11
 246.100
  21
 634.521
  31
0.0
   0
LINE
   8
LEVEL001
   6
CONTINUOUS
  62
7
  10
 109.000
  20
 610.000
  30
0.0
  11
 109.000
  21
 589.000
  31
0.0
   0
LINE
   8
LEVEL001
   6
CONTINUOUS
  62
7
  10
 278.000
  20
 502.000
  30
0.0
  11
 278.000
  21
 508.750
  31
0.0
   0
ARC
   8
LEVEL001
   6
CONTINUOUS
  62
7
  10
 281.250
  20
 508.750
  30
0.0
  40
 3.25000
  50
 90.0000
  51
 180.000
   0
LINE
   8
LEVEL001
   6
CONTINUOUS
  62
7
  10
 122.000
  20
 502.000
  30
0.0
  11
 122.000
  21
 508.750
  31
0.0
   0
ARC
   8
LEVEL001
   6
CONTINUOUS
  62
7
  10
 118.750
  20
 508.750
  30
0.0
  40
 3.25000
  50
0.0
  51
 90.0000
   0
LINE
   8
LEVEL001
   6
CONTINUOUS
  62
7
  10
 291.000
  20
 610.000
  30
0.0
  11
 291.000
  21
 589.000
  31
0.0
   0
LINE
   8
LEVEL001
   6
CONTINUOUS
  62
7
  10
 195.000
  20
 550.000
  30
0.0
  11
 195.000
  21
 508.000
  31
0.0
   0
ARC
   8
LEVEL001
   6
CONTINUOUS
  62
7
  10
 190.000
  20
 550.000
  30
0.0
  40
 5.00000
  50
0.0
  51
 90.0000
   0
LINE
   8
LEVEL001
   6
CONTINUOUS
  62
7
  10
 205.000
  20
 550.000
  30
0.0
  11
 205.000
  21
 508.000
  31
0.0
   0
ARC
   8
LEVEL001
   6
CONTINUOUS
  62
7
  10
 210.000
  20
 550.000
  30
0.0
  40
 5.00000
  50
 90.0000
  51
 180.000
   0
LINE
   8
LEVEL001
   6
CONTINUOUS
  62
7
  10
 189.000
  20
 502.000
  30
0.0
  11
 122.000
  21
 502.000
  31
0.0
   0
ARC
   8
LEVEL001
   6
CONTINUOUS
  62
7
  10
 189.000
  20
 508.000
  30
0.0
  40
 6.00000
  50
 270.000
  51
0.0
   0
LINE
   8
LEVEL001
   6
CONTINUOUS
  62
7
  10
 278.000
  20
 502.000
  30
0.0
  11
 211.000
  21
 502.000
  31
0.0
   0
ARC
   8
LEVEL001
   6
CONTINUOUS
  62
7
  10
 211.000
  20
 508.000
  30
0.0
  40
 6.00000
  50
 180.000
  51
 270.000
   0
LINE
   8
LEVEL001
   6
CONTINUOUS
  62
7
  10
 131.769
  20
 512.000
  30
0.0
  11
 186.238
  21
 512.000
  31
0.0
   0
LINE
   8
LEVEL001
   6
CONTINUOUS
  62
7
  10
 268.231
  20
 512.000
  30
0.0
  11
 213.762
  21
 512.000
  31
0.0
   0
LINE
   8
LEVEL001
   6
CONTINUOUS
  62
7
  10
 214.226
  20
 550.000
  30
0.0
  11
 217.113
  21
 545.000
  31
0.0
   0
LINE
   8
LEVEL001
   6
CONTINUOUS
  62
7
  10
 217.113
  20
 545.000
  30
0.0
  11
 222.887
  21
 545.000
  31
0.0
   0
LINE
   8
LEVEL001
   6
CONTINUOUS
  62
7
  10
 222.887
  20
 545.000
  30
0.0
  11
 225.774
  21
 550.000
  31
0.0
   0
LINE
   8
LEVEL001
   6
CONTINUOUS
  62
7
  10
 222.400
  20
 561.548
  30
0.0
  11
 222.391
  21
 561.628
  31
0.0
   0
LINE
   8
LEVEL001
   6
CONTINUOUS
  62
7
  10
 222.391
  20
 561.628
  30
0.0
  11
 222.364
  21
 561.707
  31
0.0
   0
LINE
   8
LEVEL001
   6
CONTINUOUS
  62
7
  10
 222.364
  20
 561.707
  30
0.0
  11
 222.318
  21
 561.786
  31
0.0
   0
LINE
   8
LEVEL001
   6
CONTINUOUS
  62
7
  10
 222.318
  20
 561.786
  30
0.0
  11
 222.255
  21
 561.862
  31
0.0
   0
LINE
   8
LEVEL001
   6
CONTINUOUS
  62
7
  10
 222.255
  20
 561.862
  30
0.0
  11
 222.175
  21
 561.936
  31
0.0
   0
LINE
   8
LEVEL001
   6
CONTINUOUS
  62
7
  10
 222.175
  20
 561.936
  30
0.0
  11
 222.078
  21
 562.007
  31
0.0
   0
LINE
   8
LEVEL001
   6
CONTINUOUS
  62
7
  10
 222.078
  20
 562.007
  30
0.0
  11
 221.966
  21
 562.075
  31
0.0
   0
LINE
   8
LEVEL001
   6
CONTINUOUS
  62
7
  10
 221.966
  20
 562.075
  30
0.0
  11
 221.839
  21
 562.138
  31
0.0
   0
LINE
   8
LEVEL001
   6
CONTINUOUS
  62
7
  10
 221.839
  20
 562.138
  30
0.0
  11
 221.697
  21
 562.197
  31
0.0
   0
LINE
   8
LEVEL001
   6
CONTINUOUS
  62
7
  10
 221.697
  20
 562.197
  30
0.0
  11
 221.543
  21
 562.252
  31
0.0
   0
LINE
   8
LEVEL001
   6
CONTINUOUS
  62
7
  10
 221.543
  20
 562.252
  30
0.0
  11
 221.377
  21
 562.300
  31
0.0
   0
LINE
   8
LEVEL001
   6
CONTINUOUS
  62
7
  10
 221.377
  20
 562.300
  30
0.0
  11
 221.200
  21
 562.343
  31
0.0
   0
LINE
   8
LEVEL001
   6
CONTINUOUS
  62
7
  10
 221.200
  20
 562.343
  30
0.0
  11
 221.014
  21
 562.380
  31
0.0
   0
LINE
   8
LEVEL001
   6
CONTINUOUS
  62
7
  10
 221.014
  20
 562.380
  30
0.0
  11
 220.821
  21
 562.411
  31
0.0
   0
LINE
   8
LEVEL001
   6
CONTINUOUS
  62
7
  10
 220.821
  20
 562.411
  30
0.0
  11
 220.621
  21
 562.435
  31
0.0
   0
LINE
   8
LEVEL001
   6
CONTINUOUS
  62
7
  10
 220.621
  20
 562.435
  30
0.0
  11
 220.417
  21
 562.452
  31
0.0
   0
LINE
   8
LEVEL001
   6
CONTINUOUS
  62
7
  10
 220.417
  20
 562.452
  30
0.0
  11
 220.209
  21
 562.463
  31
0.0
   0
LINE
   8
LEVEL001
   6
CONTINUOUS
  62
7
  10
 220.209
  20
 562.463
  30
0.0
  11
 220.000
  21
 562.466
  31
0.0
   0
LINE
   8
LEVEL001
   6
CONTINUOUS
  62
7
  10
 220.000
  20
 562.466
  30
0.0
  11
 219.791
  21
 562.463
  31
0.0
   0
LINE
   8
LEVEL001
   6
CONTINUOUS
  62
7
  10
 219.791
  20
 562.463
  30
0.0
  11
 219.583
  21
 562.452
  31
0.0
   0
LINE
   8
LEVEL001
   6
CONTINUOUS
  62
7
  10
 219.583
  20
 562.452
  30
0.0
  11
 219.379
  21
 562.435
  31
0.0
   0
LINE
   8
LEVEL001
   6
CONTINUOUS
  62
7
  10
 219.379
  20
 562.435
  30
0.0
  11
 219.179
  21
 562.411
  31
0.0
   0
LINE
   8
LEVEL001
   6
CONTINUOUS
  62
7
  10
 219.179
  20
 562.411
  30
0.0
  11
 218.986
  21
 562.380
  31
0.0
   0
LINE
   8
LEVEL001
   6
CONTINUOUS
  62
7
  10
 218.986
  20
 562.380
  30
0.0
  11
 218.800
  21
 562.343
  31
0.0
   0
LINE
   8
LEVEL001
   6
CONTINUOUS
  62
7
  10
 218.800
  20
 562.343
  30
0.0
  11
 218.623
  21
 562.300
  31
0.0
   0
LINE
   8
LEVEL001
   6
CONTINUOUS
  62
7
  10
 218.623
  20
 562.300
  30
0.0
  11
 218.457
  21
 562.252
  31
0.0
   0
LINE
   8
LEVEL001
   6
CONTINUOUS
  62
7
  10
 218.457
  20
 562.252
  30
0.0
  11
 218.303
  21
 562.197
  31
0.0
   0
LINE
   8
LEVEL001
   6
CONTINUOUS
  62
7
  10
 218.303
  20
 562.197
  30
0.0
  11
 218.161
  21
 562.138
  31
0.0
   0
LINE
   8
LEVEL001
   6
CONTINUOUS
  62
7
  10
 218.161
  20
 562.138
  30
0.0
  11
 218.034
  21
 562.075
  31
0.0
   0
LINE
   8
LEVEL001
   6
CONTINUOUS
  62
7
  10
 218.034
  20
 562.075
  30
0.0
  11
 217.922
  21
 562.007
  31
0.0
   0
LINE
   8
LEVEL001
   6
CONTINUOUS
  62
7
  10
 217.922
  20
 562.007
  30
0.0
  11
 217.825
  21
 561.936
  31
0.0
   0
LINE
   8
LEVEL001
   6
CONTINUOUS
  62
7
  10
 217.825
  20
 561.936
  30
0.0
  11
 217.745
  21
 561.862
  31
0.0
   0
LINE
   8
LEVEL001
   6
CONTINUOUS
  62
7
  10
 217.745
  20
 561.862
  30
0.0
  11
 217.682
  21
 561.786
  31
0.0
   0
LINE
   8
LEVEL001
   6
CONTINUOUS
  62
7
  10
 217.682
  20
 561.786
  30
0.0
  11
 217.636
  21
 561.707
  31
0.0
   0
LINE
   8
LEVEL001
   6
CONTINUOUS
  62
7
  10
 217.636
  20
 561.707
  30
0.0
  11
 217.609
  21
 561.628
  31
0.0
   0
LINE
   8
LEVEL001
   6
CONTINUOUS
  62
7
  10
 217.609
  20
 561.628
  30
0.0
  11
 217.600
  21
 561.548
  31
0.0
   0
LINE
   8
LEVEL001
   6
CONTINUOUS
  62
7
  10
 217.600
  20
 561.548
  30
0.0
  11
 217.609
  21
 561.468
  31
0.0
   0
LINE
   8
LEVEL001
   6
CONTINUOUS
  62
7
  10
 217.609
  20
 561.468
  30
0.0
  11
 217.636
  21
 561.389
  31
0.0
   0
LINE
   8
LEVEL001
   6
CONTINUOUS
  62
7
  10
 217.636
  20
 561.389
  30
0.0
  11
 217.682
  21
 561.310
  31
0.0
   0
LINE
   8
LEVEL001
   6
CONTINUOUS
  62
7
  10
 217.682
  20
 561.310
  30
0.0
  11
 217.745
  21
 561.234
  31
0.0
   0
LINE
   8
LEVEL001
   6
CONTINUOUS
  62
7
  10
 217.745
  20
 561.234
  30
0.0
  11
 217.825
  21
 561.160
  31
0.0
   0
LINE
   8
LEVEL001
   6
CONTINUOUS
  62
7
  10
 217.825
  20
 561.160
  30
0.0
  11
 217.922
  21
 561.089
  31
0.0
   0
LINE
   8
LEVEL001
   6
CONTINUOUS
  62
7
  10
 217.922
  20
 561.089
  30
0.0
  11
 218.034
  21
 561.021
  31
0.0
   0
LINE
   8
LEVEL001
   6
CONTINUOUS
  62
7
  10
 218.034
  20
 561.021
  30
0.0
  11
 218.161
  21
 560.958
  31
0.0
   0
LINE
   8
LEVEL001
   6
CONTINUOUS
  62
7
  10
 218.161
  20
 560.958
  30
0.0
  11
 218.303
  21
 560.899
  31
0.0
   0
LINE
   8
LEVEL001
   6
CONTINUOUS
  62
7
  10
 218.303
  20
 560.899
  30
0.0
  11
 218.457
  21
 560.844
  31
0.0
   0
LINE
   8
LEVEL001
   6
CONTINUOUS
  62
7
  10
 218.457
  20
 560.844
  30
0.0
  11
 218.623
  21
 560.796
  31
0.0
   0
LINE
   8
LEVEL001
   6
CONTINUOUS
  62
7
  10
 218.623
  20
 560.796
  30
0.0
  11
 218.800
  21
 560.753
  31
0.0
   0
LINE
   8
LEVEL001
   6
CONTINUOUS
  62
7
  10
 218.800
  20
 560.753
  30
0.0
  11
 218.986
  21
 560.716
  31
0.0
   0
LINE
   8
LEVEL001
   6
CONTINUOUS
  62
7
  10
 218.986
  20
 560.716
  30
0.0
  11
 219.179
  21
 560.685
  31
0.0
   0
LINE
   8
LEVEL001
   6
CONTINUOUS
  62
7
  10
 219.179
  20
 560.685
  30
0.0
  11
 219.379
  21
 560.661
  31
0.0
   0
LINE
   8
LEVEL001
   6
CONTINUOUS
  62
7
  10
 219.379
  20
 560.661
  30
0.0
  11
 219.583
  21
 560.644
  31
0.0
   0
LINE
   8
LEVEL001
   6
CONTINUOUS
  62
7
  10
 219.583
  20
 560.644
  30
0.0
  11
 219.791
  21
 560.633
  31
0.0
   0
LINE
   8
LEVEL001
   6
CONTINUOUS
  62
7
  10
 219.791
  20
 560.633
  30
0.0
  11
 220.000
  21
 560.630
  31
0.0
   0
LINE
   8
LEVEL001
   6
CONTINUOUS
  62
7
  10
 220.000
  20
 560.630
  30
0.0
  11
 220.209
  21
 560.633
  31
0.0
   0
LINE
   8
LEVEL001
   6
CONTINUOUS
  62
7
  10
 220.209
  20
 560.633
  30
0.0
  11
 220.417
  21
 560.644
  31
0.0
   0
LINE
   8
LEVEL001
   6
CONTINUOUS
  62
7
  10
 220.417
  20
 560.644
  30
0.0
  11
 220.621
  21
 560.661
  31
0.0
   0
LINE
   8
LEVEL001
   6
CONTINUOUS
  62
7
  10
 220.621
  20
 560.661
  30
0.0
  11
 220.821
  21
 560.685
  31
0.0
   0
LINE
   8
LEVEL001
   6
CONTINUOUS
  62
7
  10
 220.821
  20
 560.685
  30
0.0
  11
 221.014
  21
 560.716
  31
0.0
   0
LINE
   8
LEVEL001
   6
CONTINUOUS
  62
7
  10
 221.014
  20
 560.716
  30
0.0
  11
 221.200
  21
 560.753
  31
0.0
   0
LINE
   8
LEVEL001
   6
CONTINUOUS
  62
7
  10
 221.200
  20
 560.753
  30
0.0
  11
 221.377
  21
 560.796
  31
0.0
   0
LINE
   8
LEVEL001
   6
CONTINUOUS
  62
7
  10
 221.377
  20
 560.796
  30
0.0
  11
 221.543
  21
 560.844
  31
0.0
   0
LINE
   8
LEVEL001
   6
CONTINUOUS
  62
7
  10
 221.543
  20
 560.844
  30
0.0
  11
 221.697
  21
 560.899
  31
0.0
   0
LINE
   8
LEVEL001
   6
CONTINUOUS
  62
7
  10
 221.697
  20
 560.899
  30
0.0
  11
 221.839
  21
 560.958
  31
0.0
   0
LINE
   8
LEVEL001
   6
CONTINUOUS
  62
7
  10
 221.839
  20
 560.958
  30
0.0
  11
 221.966
  21
 561.021
  31
0.0
   0
LINE
   8
LEVEL001
   6
CONTINUOUS
  62
7
  10
 221.966
  20
 561.021
  30
0.0
  11
 222.078
  21
 561.089
  31
0.0
   0
LINE
   8
LEVEL001
   6
CONTINUOUS
  62
7
  10
 222.078
  20
 561.089
  30
0.0
  11
 222.175
  21
 561.160
  31
0.0
   0
LINE
   8
LEVEL001
   6
CONTINUOUS
  62
7
  10
 222.175
  20
 561.160
  30
0.0
  11
 222.255
  21
 561.234
  31
0.0
   0
LINE
   8
LEVEL001
   6
CONTINUOUS
  62
7
  10
 222.255
  20
 561.234
  30
0.0
  11
 222.318
  21
 561.310
  31
0.0
   0
LINE
   8
LEVEL001
   6
CONTINUOUS
  62
7
  10
 222.318
  20
 561.310
  30
0.0
  11
 222.364
  21
 561.389
  31
0.0
   0
LINE
   8
LEVEL001
   6
CONTINUOUS
  62
7
  10
 222.364
  20
 561.389
  30
0.0
  11
 222.391
  21
 561.468
  31
0.0
   0
LINE
   8
LEVEL001
   6
CONTINUOUS
  62
7
  10
 222.391
  20
 561.468
  30
0.0
  11
 222.400
  21
 561.548
  31
0.0
   0
LINE
   8
LEVEL001
   6
CONTINUOUS
  62
7
  10
 219.000
  20
 561.548
  30
0.0
  11
 219.001
  21
 561.531
  31
0.0
   0
LINE
   8
LEVEL001
   6
CONTINUOUS
  62
7
  10
 219.001
  20
 561.531
  30
0.0
  11
 219.004
  21
 561.515
  31
0.0
   0
LINE
   8
LEVEL001
   6
CONTINUOUS
  62
7
  10
 219.004
  20
 561.515
  30
0.0
  11
 219.009
  21
 561.498
  31
0.0
   0
LINE
   8
LEVEL001
   6
CONTINUOUS
  62
7
  10
 219.009
  20
 561.498
  30
0.0
  11
 219.015
  21
 561.482
  31
0.0
   0
LINE
   8
LEVEL001
   6
CONTINUOUS
  62
7
  10
 219.015
  20
 561.482
  30
0.0
  11
 219.024
  21
 561.465
  31
0.0
   0
LINE
   8
LEVEL001
   6
CONTINUOUS
  62
7
  10
 219.024
  20
 561.465
  30
0.0
  11
 219.034
  21
 561.449
  31
0.0
   0
LINE
   8
LEVEL001
   6
CONTINUOUS
  62
7
  10
 219.034
  20
 561.449
  30
0.0
  11
 219.046
  21
 561.433
  31
0.0
   0
LINE
   8
LEVEL001
   6
CONTINUOUS
  62
7
  10
 219.046
  20
 561.433
  30
0.0
  11
 219.060
  21
 561.417
  31
0.0
   0
LINE
   8
LEVEL001
   6
CONTINUOUS
  62
7
  10
 219.060
  20
 561.417
  30
0.0
  11
 219.076
  21
 561.402
  31
0.0
   0
LINE
   8
LEVEL001
   6
CONTINUOUS
  62
7
  10
 219.076
  20
 561.402
  30
0.0
  11
 219.094
  21
 561.386
  31
0.0
   0
LINE
   8
LEVEL001
   6
CONTINUOUS
  62
7
  10
 219.094
  20
 561.386
  30
0.0
  11
 219.113
  21
 561.371
  31
0.0
   0
LINE
   8
LEVEL001
   6
CONTINUOUS
  62
7
  10
 219.113
  20
 561.371
  30
0.0
  11
 219.134
  21
 561.357
  31
0.0
   0
LINE
   8
LEVEL001
   6
CONTINUOUS
  62
7
  10
 219.134
  20
 561.357
  30
0.0
  11
 219.157
  21
 561.342
  31
0.0
   0
LINE
   8
LEVEL001
   6
CONTINUOUS
  62
7
  10
 219.157
  20
 561.342
  30
0.0
  11
 219.181
  21
 561.329
  31
0.0
   0
LINE
   8
LEVEL001
   6
CONTINUOUS
  62
7
  10
 219.181
  20
 561.329
  30
0.0
  11
 219.207
  21
 561.315
  31
0.0
   0
LINE
   8
LEVEL001
   6
CONTINUOUS
  62
7
  10
 219.207
  20
 561.315
  30
0.0
  11
 219.234
  21
 561.302
  31
0.0
   0
LINE
   8
LEVEL001
   6
CONTINUOUS
  62
7
  10
 219.234
  20
 561.302
  30
0.0
  11
 219.263
  21
 561.289
  31
0.0
   0
LINE
   8
LEVEL001
   6
CONTINUOUS
  62
7
  10
 219.263
  20
 561.289
  30
0.0
  11
 219.293
  21
 561.277
  31
0.0
   0
LINE
   8
LEVEL001
   6
CONTINUOUS
  62
7
  10
 219.293
  20
 561.277
  30
0.0
  11
 219.324
  21
 561.266
  31
0.0
   0
LINE
   8
LEVEL001
   6
CONTINUOUS
  62
7
  10
 219.324
  20
 561.266
  30
0.0
  11
 219.357
  21
 561.255
  31
0.0
   0
LINE
   8
LEVEL001
   6
CONTINUOUS
  62
7
  10
 219.357
  20
 561.255
  30
0.0
  11
 219.391
  21
 561.244
  31
0.0
   0
LINE
   8
LEVEL001
   6
CONTINUOUS
  62
7
  10
 219.391
  20
 561.244
  30
0.0
  11
 219.426
  21
 561.235
  31
0.0
   0
LINE
   8
LEVEL001
   6
CONTINUOUS
  62
7
  10
 219.426
  20
 561.235
  30
0.0
  11
 219.463
  21
 561.225
  31
0.0
   0
LINE
   8
LEVEL001
   6
CONTINUOUS
  62
7
  10
 219.463
  20
 561.225
  30
0.0
  11
 219.500
  21
 561.217
  31
0.0
   0
LINE
   8
LEVEL001
   6
CONTINUOUS
  62
7
  10
 219.500
  20
 561.217
  30
0.0
  11
 219.538
  21
 561.209
  31
0.0
   0
LINE
   8
LEVEL001
   6
CONTINUOUS
  62
7
  10
 219.538
  20
 561.209
  30
0.0
  11
 219.577
  21
 561.201
  31
0.0
   0
LINE
   8
LEVEL001
   6
CONTINUOUS
  62
7
  10
 219.577
  20
 561.201
  30
0.0
  11
 219.617
  21
 561.194
  31
0.0
   0
LINE
   8
LEVEL001
   6
CONTINUOUS
  62
7
  10
 219.617
  20
 561.194
  30
0.0
  11
 219.658
  21
 561.188
  31
0.0
   0
LINE
   8
LEVEL001
   6
CONTINUOUS
  62
7
  10
 219.658
  20
 561.188
  30
0.0
  11
 219.699
  21
 561.183
  31
0.0
   0
LINE
   8
LEVEL001
   6
CONTINUOUS
  62
7
  10
 219.699
  20
 561.183
  30
0.0
  11
 219.741
  21
 561.178
  31
0.0
   0
LINE
   8
LEVEL001
   6
CONTINUOUS
  62
7
  10
 219.741
  20
 561.178
  30
0.0
  11
 219.784
  21
 561.174
  31
0.0
   0
LINE
   8
LEVEL001
   6
CONTINUOUS
  62
7
  10
 219.784
  20
 561.174
  30
0.0
  11
 219.826
  21
 561.171
  31
0.0
   0
LINE
   8
LEVEL001
   6
CONTINUOUS
  62
7
  10
 219.826
  20
 561.171
  30
0.0
  11
 219.869
  21
 561.169
  31
0.0
   0
LINE
   8
LEVEL001
   6
CONTINUOUS
  62
7
  10
 219.869
  20
 561.169
  30
0.0
  11
 219.913
  21
 561.167
  31
0.0
   0
LINE
   8
LEVEL001
   6
CONTINUOUS
  62
7
  10
 219.913
  20
 561.167
  30
0.0
  11
 219.956
  21
 561.166
  31
0.0
   0
LINE
   8
LEVEL001
   6
CONTINUOUS
  62
7
  10
 219.956
  20
 561.166
  30
0.0
  11
 220.000
  21
 561.165
  31
0.0
   0
LINE
   8
LEVEL001
   6
CONTINUOUS
  62
7
  10
 220.000
  20
 561.165
  30
0.0
  11
 220.044
  21
 561.166
  31
0.0
   0
LINE
   8
LEVEL001
   6
CONTINUOUS
  62
7
  10
 220.044
  20
 561.166
  30
0.0
  11
 220.087
  21
 561.167
  31
0.0
   0
LINE
   8
LEVEL001
   6
CONTINUOUS
  62
7
  10
 220.087
  20
 561.167
  30
0.0
  11
 220.131
  21
 561.169
  31
0.0
   0
LINE
   8
LEVEL001
   6
CONTINUOUS
  62
7
  10
 220.131
  20
 561.169
  30
0.0
  11
 220.174
  21
 561.171
  31
0.0
   0
LINE
   8
LEVEL001
   6
CONTINUOUS
  62
7
  10
 220.174
  20
 561.171
  30
0.0
  11
 220.216
  21
 561.174
  31
0.0
   0
LINE
   8
LEVEL001
   6
CONTINUOUS
  62
7
  10
 220.216
  20
 561.174
  30
0.0
  11
 220.259
  21
 561.178
  31
0.0
   0
LINE
   8
LEVEL001
   6
CONTINUOUS
  62
7
  10
 220.259
  20
 561.178
  30
0.0
  11
 220.301
  21
 561.183
  31
0.0
   0
LINE
   8
LEVEL001
   6
CONTINUOUS
  62
7
  10
 220.301
  20
 561.183
  30
0.0
  11
 220.342
  21
 561.188
  31
0.0
   0
LINE
   8
LEVEL001
   6
CONTINUOUS
  62
7
  10
 220.342
  20
 561.188
  30
0.0
  11
 220.383
  21
 561.194
  31
0.0
   0
LINE
   8
LEVEL001
   6
CONTINUOUS
  62
7
  10
 220.383
  20
 561.194
  30
0.0
  11
 220.423
  21
 561.201
  31
0.0
   0
LINE
   8
LEVEL001
   6
CONTINUOUS
  62
7
  10
 220.423
  20
 561.201
  30
0.0
  11
 220.462
  21
 561.209
  31
0.0
   0
LINE
   8
LEVEL001
   6
CONTINUOUS
  62
7
  10
 220.462
  20
 561.209
  30
0.0
  11
 220.500
  21
 561.217
  31
0.0
   0
LINE
   8
LEVEL001
   6
CONTINUOUS
  62
7
  10
 220.500
  20
 561.217
  30
0.0
  11
 220.537
  21
 561.225
  31
0.0
   0
LINE
   8
LEVEL001
   6
CONTINUOUS
  62
7
  10
 220.537
  20
 561.225
  30
0.0
  11
 220.574
  21
 561.235
  31
0.0
   0
LINE
   8
LEVEL001
   6
CONTINUOUS
  62
7
  10
 220.574
  20
 561.235
  30
0.0
  11
 220.609
  21
 561.244
  31
0.0
   0
LINE
   8
LEVEL001
   6
CONTINUOUS
  62
7
  10
 220.609
  20
 561.244
  30
0.0
  11
 220.643
  21
 561.255
  31
0.0
   0
LINE
   8
LEVEL001
   6
CONTINUOUS
  62
7
  10
 220.643
  20
 561.255
  30
0.0
  11
 220.676
  21
 561.266
  31
0.0
   0
LINE
   8
LEVEL001
   6
CONTINUOUS
  62
7
  10
 220.676
  20
 561.266
  30
0.0
  11
 220.707
  21
 561.277
  31
0.0
   0
LINE
   8
LEVEL001
   6
CONTINUOUS
  62
7
  10
 220.707
  20
 561.277
  30
0.0
  11
 220.737
  21
 561.289
  31
0.0
   0
LINE
   8
LEVEL001
   6
CONTINUOUS
  62
7
  10
 220.737
  20
 561.289
  30
0.0
  11
 220.766
  21
 561.302
  31
0.0
   0
LINE
   8
LEVEL001
   6
CONTINUOUS
  62
7
  10
 220.766
  20
 561.302
  30
0.0
  11
 220.793
  21
 561.315
  31
0.0
   0
LINE
   8
LEVEL001
   6
CONTINUOUS
  62
7
  10
 220.793
  20
 561.315
  30
0.0
  11
 220.819
  21
 561.329
  31
0.0
   0
LINE
   8
LEVEL001
   6
CONTINUOUS
  62
7
  10
 220.819
  20
 561.329
  30
0.0
  11
 220.843
  21
 561.342
  31
0.0
   0
LINE
   8
LEVEL001
   6
CONTINUOUS
  62
7
  10
 220.843
  20
 561.342
  30
0.0
  11
 220.866
  21
 561.357
  31
0.0
   0
LINE
   8
LEVEL001
   6
CONTINUOUS
  62
7
  10
 220.866
  20
 561.357
  30
0.0
  11
 220.887
  21
 561.371
  31
0.0
   0
LINE
   8
LEVEL001
   6
CONTINUOUS
  62
7
  10
 220.887
  20
 561.371
  30
0.0
  11
 220.906
  21
 561.386
  31
0.0
   0
LINE
   8
LEVEL001
   6
CONTINUOUS
  62
7
  10
 220.906
  20
 561.386
  30
0.0
  11
 220.924
  21
 561.402
  31
0.0
   0
LINE
   8
LEVEL001
   6
CONTINUOUS
  62
7
  10
 220.924
  20
 561.402
  30
0.0
  11
 220.940
  21
 561.417
  31
0.0
   0
LINE
   8
LEVEL001
   6
CONTINUOUS
  62
7
  10
 220.940
  20
 561.417
  30
0.0
  11
 220.954
  21
 561.433
  31
0.0
   0
LINE
   8
LEVEL001
   6
CONTINUOUS
  62
7
  10
 220.954
  20
 561.433
  30
0.0
  11
 220.966
  21
 561.449
  31
0.0
   0
LINE
   8
LEVEL001
   6
CONTINUOUS
  62
7
  10
 220.966
  20
 561.449
  30
0.0
  11
 220.976
  21
 561.465
  31
0.0
   0
LINE
   8
LEVEL001
   6
CONTINUOUS
  62
7
  10
 220.976
  20
 561.465
  30
0.0
  11
 220.985
  21
 561.482
  31
0.0
   0
LINE
   8
LEVEL001
   6
CONTINUOUS
  62
7
  10
 220.985
  20
 561.482
  30
0.0
  11
 220.991
  21
 561.498
  31
0.0
   0
LINE
   8
LEVEL001
   6
CONTINUOUS
  62
7
  10
 220.991
  20
 561.498
  30
0.0
  11
 220.996
  21
 561.515
  31
0.0
   0
LINE
   8
LEVEL001
   6
CONTINUOUS
  62
7
  10
 220.996
  20
 561.515
  30
0.0
  11
 220.999
  21
 561.531
  31
0.0
   0
LINE
   8
LEVEL001
   6
CONTINUOUS
  62
7
  10
 220.999
  20
 561.531
  30
0.0
  11
 221.000
  21
 561.548
  31
0.0
   0
ARC
   8
LEVEL001
   6
CONTINUOUS
  62
7
  10
 220.000
  20
 561.320
  30
0.0
  40
 1.00000
  50
 11.9426
  51
 167.156
   0
LINE
   8
LEVEL001
   6
CONTINUOUS
  62
7
  10
 216.700
  20
 559.054
  30
0.0
  11
 216.703
  21
 558.999
  31
0.0
   0
LINE
   8
LEVEL001
   6
CONTINUOUS
  62
7
  10
 216.703
  20
 558.999
  30
0.0
  11
 216.713
  21
 558.944
  31
0.0
   0
LINE
   8
LEVEL001
   6
CONTINUOUS
  62
7
  10
 216.713
  20
 558.944
  30
0.0
  11
 216.728
  21
 558.889
  31
0.0
   0
LINE
   8
LEVEL001
   6
CONTINUOUS
  62
7
  10
 216.728
  20
 558.889
  30
0.0
  11
 216.750
  21
 558.835
  31
0.0
   0
LINE
   8
LEVEL001
   6
CONTINUOUS
  62
7
  10
 216.750
  20
 558.835
  30
0.0
  11
 216.778
  21
 558.781
  31
0.0
   0
LINE
   8
LEVEL001
   6
CONTINUOUS
  62
7
  10
 216.778
  20
 558.781
  30
0.0
  11
 216.812
  21
 558.727
  31
0.0
   0
LINE
   8
LEVEL001
   6
CONTINUOUS
  62
7
  10
 216.812
  20
 558.727
  30
0.0
  11
 216.853
  21
 558.674
  31
0.0
   0
LINE
   8
LEVEL001
   6
CONTINUOUS
  62
7
  10
 216.853
  20
 558.674
  30
0.0
  11
 216.899
  21
 558.622
  31
0.0
   0
LINE
   8
LEVEL001
   6
CONTINUOUS
  62
7
  10
 216.899
  20
 558.622
  30
0.0
  11
 216.951
  21
 558.571
  31
0.0
   0
LINE
   8
LEVEL001
   6
CONTINUOUS
  62
7
  10
 216.951
  20
 558.571
  30
0.0
  11
 217.009
  21
 558.520
  31
0.0
   0
LINE
   8
LEVEL001
   6
CONTINUOUS
  62
7
  10
 217.009
  20
 558.520
  30
0.0
  11
 217.073
  21
 558.471
  31
0.0
   0
LINE
   8
LEVEL001
   6
CONTINUOUS
  62
7
  10
 217.073
  20
 558.471
  30
0.0
  11
 217.142
  21
 558.423
  31
0.0
   0
LINE
   8
LEVEL001
   6
CONTINUOUS
  62
7
  10
 217.142
  20
 558.423
  30
0.0
  11
 217.217
  21
 558.376
  31
0.0
   0
LINE
   8
LEVEL001
   6
CONTINUOUS
  62
7
  10
 217.217
  20
 558.376
  30
0.0
  11
 217.297
  21
 558.330
  31
0.0
   0
LINE
   8
LEVEL001
   6
CONTINUOUS
  62
7
  10
 217.297
  20
 558.330
  30
0.0
  11
 217.382
  21
 558.285
  31
0.0
   0
LINE
   8
LEVEL001
   6
CONTINUOUS
  62
7
  10
 217.382
  20
 558.285
  30
0.0
  11
 217.472
  21
 558.242
  31
0.0
   0
LINE
   8
LEVEL001
   6
CONTINUOUS
  62
7
  10
 217.472
  20
 558.242
  30
0.0
  11
 217.567
  21
 558.201
  31
0.0
   0
LINE
   8
LEVEL001
   6
CONTINUOUS
  62
7
  10
 217.567
  20
 558.201
  30
0.0
  11
 217.667
  21
 558.161
  31
0.0
   0
LINE
   8
LEVEL001
   6
CONTINUOUS
  62
7
  10
 217.667
  20
 558.161
  30
0.0
  11
 217.771
  21
 558.123
  31
0.0
   0
LINE
   8
LEVEL001
   6
CONTINUOUS
  62
7
  10
 217.771
  20
 558.123
  30
0.0
  11
 217.879
  21
 558.087
  31
0.0
   0
LINE
   8
LEVEL001
   6
CONTINUOUS
  62
7
  10
 217.879
  20
 558.087
  30
0.0
  11
 217.991
  21
 558.052
  31
0.0
   0
LINE
   8
LEVEL001
   6
CONTINUOUS
  62
7
  10
 217.991
  20
 558.052
  30
0.0
  11
 218.107
  21
 558.020
  31
0.0
   0
LINE
   8
LEVEL001
   6
CONTINUOUS
  62
7
  10
 218.107
  20
 558.020
  30
0.0
  11
 218.227
  21
 557.989
  31
0.0
   0
LINE
   8
LEVEL001
   6
CONTINUOUS
  62
7
  10
 218.227
  20
 557.989
  30
0.0
  11
 218.350
  21
 557.960
  31
0.0
   0
LINE
   8
LEVEL001
   6
CONTINUOUS
  62
7
  10
 218.350
  20
 557.960
  30
0.0
  11
 218.476
  21
 557.934
  31
0.0
   0
LINE
   8
LEVEL001
   6
CONTINUOUS
  62
7
  10
 218.476
  20
 557.934
  30
0.0
  11
 218.605
  21
 557.910
  31
0.0
   0
LINE
   8
LEVEL001
   6
CONTINUOUS
  62
7
  10
 218.605
  20
 557.910
  30
0.0
  11
 218.737
  21
 557.887
  31
0.0
   0
LINE
   8
LEVEL001
   6
CONTINUOUS
  62
7
  10
 218.737
  20
 557.887
  30
0.0
  11
 218.871
  21
 557.867
  31
0.0
   0
LINE
   8
LEVEL001
   6
CONTINUOUS
  62
7
  10
 218.871
  20
 557.867
  30
0.0
  11
 219.008
  21
 557.850
  31
0.0
   0
LINE
   8
LEVEL001
   6
CONTINUOUS
  62
7
  10
 219.008
  20
 557.850
  30
0.0
  11
 219.146
  21
 557.834
  31
0.0
   0
LINE
   8
LEVEL001
   6
CONTINUOUS
  62
7
  10
 219.146
  20
 557.834
  30
0.0
  11
 219.286
  21
 557.821
  31
0.0
   0
LINE
   8
LEVEL001
   6
CONTINUOUS
  62
7
  10
 219.286
  20
 557.821
  30
0.0
  11
 219.427
  21
 557.810
  31
0.0
   0
LINE
   8
LEVEL001
   6
CONTINUOUS
  62
7
  10
 219.427
  20
 557.810
  30
0.0
  11
 219.569
  21
 557.802
  31
0.0
   0
LINE
   8
LEVEL001
   6
CONTINUOUS
  62
7
  10
 219.569
  20
 557.802
  30
0.0
  11
 219.712
  21
 557.796
  31
0.0
   0
LINE
   8
LEVEL001
   6
CONTINUOUS
  62
7
  10
 219.712
  20
 557.796
  30
0.0
  11
 219.856
  21
 557.792
  31
0.0
   0
LINE
   8
LEVEL001
   6
CONTINUOUS
  62
7
  10
 219.856
  20
 557.792
  30
0.0
  11
 220.000
  21
 557.791
  31
0.0
   0
LINE
   8
LEVEL001
   6
CONTINUOUS
  62
7
  10
 220.000
  20
 557.791
  30
0.0
  11
 220.144
  21
 557.792
  31
0.0
   0
LINE
   8
LEVEL001
   6
CONTINUOUS
  62
7
  10
 220.144
  20
 557.792
  30
0.0
  11
 220.288
  21
 557.796
  31
0.0
   0
LINE
   8
LEVEL001
   6
CONTINUOUS
  62
7
  10
 220.288
  20
 557.796
  30
0.0
  11
 220.431
  21
 557.802
  31
0.0
   0
LINE
   8
LEVEL001
   6
CONTINUOUS
  62
7
  10
 220.431
  20
 557.802
  30
0.0
  11
 220.573
  21
 557.810
  31
0.0
   0
LINE
   8
LEVEL001
   6
CONTINUOUS
  62
7
  10
 220.573
  20
 557.810
  30
0.0
  11
 220.714
  21
 557.821
  31
0.0
   0
LINE
   8
LEVEL001
   6
CONTINUOUS
  62
7
  10
 220.714
  20
 557.821
  30
0.0
  11
 220.854
  21
 557.834
  31
0.0
   0
LINE
   8
LEVEL001
   6
CONTINUOUS
  62
7
  10
 220.854
  20
 557.834
  30
0.0
  11
 220.992
  21
 557.850
  31
0.0
   0
LINE
   8
LEVEL001
   6
CONTINUOUS
  62
7
  10
 220.992
  20
 557.850
  30
0.0
  11
 221.129
  21
 557.867
  31
0.0
   0
LINE
   8
LEVEL001
   6
CONTINUOUS
  62
7
  10
 221.129
  20
 557.867
  30
0.0
  11
 221.263
  21
 557.887
  31
0.0
   0
LINE
   8
LEVEL001
   6
CONTINUOUS
  62
7
  10
 221.263
  20
 557.887
  30
0.0
  11
 221.395
  21
 557.910
  31
0.0
   0
LINE
   8
LEVEL001
   6
CONTINUOUS
  62
7
  10
 221.395
  20
 557.910
  30
0.0
  11
 221.524
  21
 557.934
  31
0.0
   0
LINE
   8
LEVEL001
   6
CONTINUOUS
  62
7
  10
 221.524
  20
 557.934
  30
0.0
  11
 221.650
  21
 557.960
  31
0.0
   0
LINE
   8
LEVEL001
   6
CONTINUOUS
  62
7
  10
 221.650
  20
 557.960
  30
0.0
  11
 221.773
  21
 557.989
  31
0.0
   0
LINE
   8
LEVEL001
   6
CONTINUOUS
  62
7
  10
 221.773
  20
 557.989
  30
0.0
  11
 221.893
  21
 558.020
  31
0.0
   0
LINE
   8
LEVEL001
   6
CONTINUOUS
  62
7
  10
 221.893
  20
 558.020
  30
0.0
  11
 222.009
  21
 558.052
  31
0.0
   0
LINE
   8
LEVEL001
   6
CONTINUOUS
  62
7
  10
 222.009
  20
 558.052
  30
0.0
  11
 222.121
  21
 558.087
  31
0.0
   0
LINE
   8
LEVEL001
   6
CONTINUOUS
  62
7
  10
 222.121
  20
 558.087
  30
0.0
  11
 222.229
  21
 558.123
  31
0.0
   0
LINE
   8
LEVEL001
   6
CONTINUOUS
  62
7
  10
 222.229
  20
 558.123
  30
0.0
  11
 222.333
  21
 558.161
  31
0.0
   0
LINE
   8
LEVEL001
   6
CONTINUOUS
  62
7
  10
 222.333
  20
 558.161
  30
0.0
  11
 222.433
  21
 558.201
  31
0.0
   0
LINE
   8
LEVEL001
   6
CONTINUOUS
  62
7
  10
 222.433
  20
 558.201
  30
0.0
  11
 222.528
  21
 558.242
  31
0.0
   0
LINE
   8
LEVEL001
   6
CONTINUOUS
  62
7
  10
 222.528
  20
 558.242
  30
0.0
  11
 222.618
  21
 558.285
  31
0.0
   0
LINE
   8
LEVEL001
   6
CONTINUOUS
  62
7
  10
 222.618
  20
 558.285
  30
0.0
  11
 222.703
  21
 558.330
  31
0.0
   0
LINE
   8
LEVEL001
   6
CONTINUOUS
  62
7
  10
 222.703
  20
 558.330
  30
0.0
  11
 222.783
  21
 558.376
  31
0.0
   0
LINE
   8
LEVEL001
   6
CONTINUOUS
  62
7
  10
 222.783
  20
 558.376
  30
0.0
  11
 222.858
  21
 558.423
  31
0.0
   0
LINE
   8
LEVEL001
   6
CONTINUOUS
  62
7
  10
 222.858
  20
 558.423
  30
0.0
  11
 222.927
  21
 558.471
  31
0.0
   0
LINE
   8
LEVEL001
   6
CONTINUOUS
  62
7
  10
 222.927
  20
 558.471
  30
0.0
  11
 222.991
  21
 558.520
  31
0.0
   0
LINE
   8
LEVEL001
   6
CONTINUOUS
  62
7
  10
 222.991
  20
 558.520
  30
0.0
  11
 223.049
  21
 558.571
  31
0.0
   0
LINE
   8
LEVEL001
   6
CONTINUOUS
  62
7
  10
 223.049
  20
 558.571
  30
0.0
  11
 223.101
  21
 558.622
  31
0.0
   0
LINE
   8
LEVEL001
   6
CONTINUOUS
  62
7
  10
 223.101
  20
 558.622
  30
0.0
  11
 223.147
  21
 558.674
  31
0.0
   0
LINE
   8
LEVEL001
   6
CONTINUOUS
  62
7
  10
 223.147
  20
 558.674
  30
0.0
  11
 223.188
  21
 558.727
  31
0.0
   0
LINE
   8
LEVEL001
   6
CONTINUOUS
  62
7
  10
 223.188
  20
 558.727
  30
0.0
  11
 223.222
  21
 558.781
  31
0.0
   0
LINE
   8
LEVEL001
   6
CONTINUOUS
  62
7
  10
 223.222
  20
 558.781
  30
0.0
  11
 223.250
  21
 558.835
  31
0.0
   0
LINE
   8
LEVEL001
   6
CONTINUOUS
  62
7
  10
 223.250
  20
 558.835
  30
0.0
  11
 223.272
  21
 558.889
  31
0.0
   0
LINE
   8
LEVEL001
   6
CONTINUOUS
  62
7
  10
 223.272
  20
 558.889
  30
0.0
  11
 223.287
  21
 558.944
  31
0.0
   0
LINE
   8
LEVEL001
   6
CONTINUOUS
  62
7
  10
 223.287
  20
 558.944
  30
0.0
  11
 223.297
  21
 558.999
  31
0.0
   0
LINE
   8
LEVEL001
   6
CONTINUOUS
  62
7
  10
 223.297
  20
 558.999
  30
0.0
  11
 223.300
  21
 559.054
  31
0.0
   0
LINE
   8
LEVEL001
   6
CONTINUOUS
  62
7
  10
 216.700
  20
 559.054
  30
0.0
  11
 217.602
  21
 561.588
  31
0.0
   0
LINE
   8
LEVEL001
   6
CONTINUOUS
  62
7
  10
 223.297
  20
 558.999
  30
0.0
  11
 222.391
  21
 561.628
  31
0.0
   0
LINE
   8
LEVEL001
   6
CONTINUOUS
  62
7
  10
 217.120
  20
 557.404
  30
0.0
  11
 217.123
  21
 557.356
  31
0.0
   0
LINE
   8
LEVEL001
   6
CONTINUOUS
  62
7
  10
 217.123
  20
 557.356
  30
0.0
  11
 217.131
  21
 557.308
  31
0.0
   0
LINE
   8
LEVEL001
   6
CONTINUOUS
  62
7
  10
 217.131
  20
 557.308
  30
0.0
  11
 217.145
  21
 557.260
  31
0.0
   0
LINE
   8
LEVEL001
   6
CONTINUOUS
  62
7
  10
 217.145
  20
 557.260
  30
0.0
  11
 217.164
  21
 557.213
  31
0.0
   0
LINE
   8
LEVEL001
   6
CONTINUOUS
  62
7
  10
 217.164
  20
 557.213
  30
0.0
  11
 217.188
  21
 557.166
  31
0.0
   0
LINE
   8
LEVEL001
   6
CONTINUOUS
  62
7
  10
 217.188
  20
 557.166
  30
0.0
  11
 217.218
  21
 557.119
  31
0.0
   0
LINE
   8
LEVEL001
   6
CONTINUOUS
  62
7
  10
 217.218
  20
 557.119
  30
0.0
  11
 217.253
  21
 557.073
  31
0.0
   0
LINE
   8
LEVEL001
   6
CONTINUOUS
  62
7
  10
 217.253
  20
 557.073
  30
0.0
  11
 217.294
  21
 557.027
  31
0.0
   0
LINE
   8
LEVEL001
   6
CONTINUOUS
  62
7
  10
 217.294
  20
 557.027
  30
0.0
  11
 217.339
  21
 556.982
  31
0.0
   0
LINE
   8
LEVEL001
   6
CONTINUOUS
  62
7
  10
 217.339
  20
 556.982
  30
0.0
  11
 217.390
  21
 556.938
  31
0.0
   0
LINE
   8
LEVEL001
   6
CONTINUOUS
  62
7
  10
 217.390
  20
 556.938
  30
0.0
  11
 217.445
  21
 556.895
  31
0.0
   0
LINE
   8
LEVEL001
   6
CONTINUOUS
  62
7
  10
 217.445
  20
 556.895
  30
0.0
  11
 217.506
  21
 556.853
  31
0.0
   0
LINE
   8
LEVEL001
   6
CONTINUOUS
  62
7
  10
 217.506
  20
 556.853
  30
0.0
  11
 217.571
  21
 556.812
  31
0.0
   0
LINE
   8
LEVEL001
   6
CONTINUOUS
  62
7
  10
 217.571
  20
 556.812
  30
0.0
  11
 217.641
  21
 556.772
  31
0.0
   0
LINE
   8
LEVEL001
   6
CONTINUOUS
  62
7
  10
 217.641
  20
 556.772
  30
0.0
  11
 217.715
  21
 556.733
  31
0.0
   0
LINE
   8
LEVEL001
   6
CONTINUOUS
  62
7
  10
 217.715
  20
 556.733
  30
0.0
  11
 217.794
  21
 556.696
  31
0.0
   0
LINE
   8
LEVEL001
   6
CONTINUOUS
  62
7
  10
 217.794
  20
 556.696
  30
0.0
  11
 217.877
  21
 556.660
  31
0.0
   0
LINE
   8
LEVEL001
   6
CONTINUOUS
  62
7
  10
 217.877
  20
 556.660
  30
0.0
  11
 217.964
  21
 556.625
  31
0.0
   0
LINE
   8
LEVEL001
   6
CONTINUOUS
  62
7
  10
 217.964
  20
 556.625
  30
0.0
  11
 218.054
  21
 556.592
  31
0.0
   0
LINE
   8
LEVEL001
   6
CONTINUOUS
  62
7
  10
 218.054
  20
 556.592
  30
0.0
  11
 218.149
  21
 556.560
  31
0.0
   0
LINE
   8
LEVEL001
   6
CONTINUOUS
  62
7
  10
 218.149
  20
 556.560
  30
0.0
  11
 218.247
  21
 556.530
  31
0.0
   0
LINE
   8
LEVEL001
   6
CONTINUOUS
  62
7
  10
 218.247
  20
 556.530
  30
0.0
  11
 218.348
  21
 556.501
  31
0.0
   0
LINE
   8
LEVEL001
   6
CONTINUOUS
  62
7
  10
 218.348
  20
 556.501
  30
0.0
  11
 218.453
  21
 556.475
  31
0.0
   0
LINE
   8
LEVEL001
   6
CONTINUOUS
  62
7
  10
 218.453
  20
 556.475
  30
0.0
  11
 218.560
  21
 556.450
  31
0.0
   0
LINE
   8
LEVEL001
   6
CONTINUOUS
  62
7
  10
 218.560
  20
 556.450
  30
0.0
  11
 218.670
  21
 556.427
  31
0.0
   0
LINE
   8
LEVEL001
   6
CONTINUOUS
  62
7
  10
 218.670
  20
 556.427
  30
0.0
  11
 218.783
  21
 556.405
  31
0.0
   0
LINE
   8
LEVEL001
   6
CONTINUOUS
  62
7
  10
 218.783
  20
 556.405
  30
0.0
  11
 218.898
  21
 556.386
  31
0.0
   0
LINE
   8
LEVEL001
   6
CONTINUOUS
  62
7
  10
 218.898
  20
 556.386
  30
0.0
  11
 219.015
  21
 556.369
  31
0.0
   0
LINE
   8
LEVEL001
   6
CONTINUOUS
  62
7
  10
 219.015
  20
 556.369
  30
0.0
  11
 219.134
  21
 556.353
  31
0.0
   0
LINE
   8
LEVEL001
   6
CONTINUOUS
  62
7
  10
 219.134
  20
 556.353
  30
0.0
  11
 219.255
  21
 556.340
  31
0.0
   0
LINE
   8
LEVEL001
   6
CONTINUOUS
  62
7
  10
 219.255
  20
 556.340
  30
0.0
  11
 219.377
  21
 556.328
  31
0.0
   0
LINE
   8
LEVEL001
   6
CONTINUOUS
  62
7
  10
 219.377
  20
 556.328
  30
0.0
  11
 219.500
  21
 556.319
  31
0.0
   0
LINE
   8
LEVEL001
   6
CONTINUOUS
  62
7
  10
 219.500
  20
 556.319
  30
0.0
  11
 219.624
  21
 556.312
  31
0.0
   0
LINE
   8
LEVEL001
   6
CONTINUOUS
  62
7
  10
 219.624
  20
 556.312
  30
0.0
  11
 219.749
  21
 556.306
  31
0.0
   0
LINE
   8
LEVEL001
   6
CONTINUOUS
  62
7
  10
 219.749
  20
 556.306
  30
0.0
  11
 219.874
  21
 556.303
  31
0.0
   0
LINE
   8
LEVEL001
   6
CONTINUOUS
  62
7
  10
 219.874
  20
 556.303
  30
0.0
  11
 220.000
  21
 556.302
  31
0.0
   0
LINE
   8
LEVEL001
   6
CONTINUOUS
  62
7
  10
 220.000
  20
 556.302
  30
0.0
  11
 220.126
  21
 556.303
  31
0.0
   0
LINE
   8
LEVEL001
   6
CONTINUOUS
  62
7
  10
 220.126
  20
 556.303
  30
0.0
  11
 220.251
  21
 556.306
  31
0.0
   0
LINE
   8
LEVEL001
   6
CONTINUOUS
  62
7
  10
 220.251
  20
 556.306
  30
0.0
  11
 220.376
  21
 556.312
  31
0.0
   0
LINE
   8
LEVEL001
   6
CONTINUOUS
  62
7
  10
 220.376
  20
 556.312
  30
0.0
  11
 220.500
  21
 556.319
  31
0.0
   0
LINE
   8
LEVEL001
   6
CONTINUOUS
  62
7
  10
 220.500
  20
 556.319
  30
0.0
  11
 220.623
  21
 556.328
  31
0.0
   0
LINE
   8
LEVEL001
   6
CONTINUOUS
  62
7
  10
 220.623
  20
 556.328
  30
0.0
  11
 220.745
  21
 556.340
  31
0.0
   0
LINE
   8
LEVEL001
   6
CONTINUOUS
  62
7
  10
 220.745
  20
 556.340
  30
0.0
  11
 220.866
  21
 556.353
  31
0.0
   0
LINE
   8
LEVEL001
   6
CONTINUOUS
  62
7
  10
 220.866
  20
 556.353
  30
0.0
  11
 220.985
  21
 556.369
  31
0.0
   0
LINE
   8
LEVEL001
   6
CONTINUOUS
  62
7
  10
 220.985
  20
 556.369
  30
0.0
  11
 221.102
  21
 556.386
  31
0.0
   0
LINE
   8
LEVEL001
   6
CONTINUOUS
  62
7
  10
 221.102
  20
 556.386
  30
0.0
  11
 221.217
  21
 556.405
  31
0.0
   0
LINE
   8
LEVEL001
   6
CONTINUOUS
  62
7
  10
 221.217
  20
 556.405
  30
0.0
  11
 221.330
  21
 556.427
  31
0.0
   0
LINE
   8
LEVEL001
   6
CONTINUOUS
  62
7
  10
 221.330
  20
 556.427
  30
0.0
  11
 221.440
  21
 556.450
  31
0.0
   0
LINE
   8
LEVEL001
   6
CONTINUOUS
  62
7
  10
 221.440
  20
 556.450
  30
0.0
  11
 221.547
  21
 556.475
  31
0.0
   0
LINE
   8
LEVEL001
   6
CONTINUOUS
  62
7
  10
 221.547
  20
 556.475
  30
0.0
  11
 221.652
  21
 556.501
  31
0.0
   0
LINE
   8
LEVEL001
   6
CONTINUOUS
  62
7
  10
 221.652
  20
 556.501
  30
0.0
  11
 221.753
  21
 556.530
  31
0.0
   0
LINE
   8
LEVEL001
   6
CONTINUOUS
  62
7
  10
 221.753
  20
 556.530
  30
0.0
  11
 221.851
  21
 556.560
  31
0.0
   0
LINE
   8
LEVEL001
   6
CONTINUOUS
  62
7
  10
 221.851
  20
 556.560
  30
0.0
  11
 221.946
  21
 556.592
  31
0.0
   0
LINE
   8
LEVEL001
   6
CONTINUOUS
  62
7
  10
 221.946
  20
 556.592
  30
0.0
  11
 222.036
  21
 556.625
  31
0.0
   0
LINE
   8
LEVEL001
   6
CONTINUOUS
  62
7
  10
 222.036
  20
 556.625
  30
0.0
  11
 222.123
  21
 556.660
  31
0.0
   0
LINE
   8
LEVEL001
   6
CONTINUOUS
  62
7
  10
 222.123
  20
 556.660
  30
0.0
  11
 222.206
  21
 556.696
  31
0.0
   0
LINE
   8
LEVEL001
   6
CONTINUOUS
  62
7
  10
 222.206
  20
 556.696
  30
0.0
  11
 222.285
  21
 556.733
  31
0.0
   0
LINE
   8
LEVEL001
   6
CONTINUOUS
  62
7
  10
 222.285
  20
 556.733
  30
0.0
  11
 222.359
  21
 556.772
  31
0.0
   0
LINE
   8
LEVEL001
   6
CONTINUOUS
  62
7
  10
 222.359
  20
 556.772
  30
0.0
  11
 222.429
  21
 556.812
  31
0.0
   0
LINE
   8
LEVEL001
   6
CONTINUOUS
  62
7
  10
 222.429
  20
 556.812
  30
0.0
  11
 222.494
  21
 556.853
  31
0.0
   0
LINE
   8
LEVEL001
   6
CONTINUOUS
  62
7
  10
 222.494
  20
 556.853
  30
0.0
  11
 222.555
  21
 556.895
  31
0.0
   0
LINE
   8
LEVEL001
   6
CONTINUOUS
  62
7
  10
 222.555
  20
 556.895
  30
0.0
  11
 222.610
  21
 556.938
  31
0.0
   0
LINE
   8
LEVEL001
   6
CONTINUOUS
  62
7
  10
 222.610
  20
 556.938
  30
0.0
  11
 222.661
  21
 556.982
  31
0.0
   0
LINE
   8
LEVEL001
   6
CONTINUOUS
  62
7
  10
 222.661
  20
 556.982
  30
0.0
  11
 222.706
  21
 557.027
  31
0.0
   0
LINE
   8
LEVEL001
   6
CONTINUOUS
  62
7
  10
 222.706
  20
 557.027
  30
0.0
  11
 222.747
  21
 557.073
  31
0.0
   0
LINE
   8
LEVEL001
   6
CONTINUOUS
  62
7
  10
 222.747
  20
 557.073
  30
0.0
  11
 222.782
  21
 557.119
  31
0.0
   0
LINE
   8
LEVEL001
   6
CONTINUOUS
  62
7
  10
 222.782
  20
 557.119
  30
0.0
  11
 222.812
  21
 557.166
  31
0.0
   0
LINE
   8
LEVEL001
   6
CONTINUOUS
  62
7
  10
 222.812
  20
 557.166
  30
0.0
  11
 222.836
  21
 557.213
  31
0.0
   0
LINE
   8
LEVEL001
   6
CONTINUOUS
  62
7
  10
 222.836
  20
 557.213
  30
0.0
  11
 222.855
  21
 557.260
  31
0.0
   0
LINE
   8
LEVEL001
   6
CONTINUOUS
  62
7
  10
 222.855
  20
 557.260
  30
0.0
  11
 222.869
  21
 557.308
  31
0.0
   0
LINE
   8
LEVEL001
   6
CONTINUOUS
  62
7
  10
 222.869
  20
 557.308
  30
0.0
  11
 222.877
  21
 557.356
  31
0.0
   0
LINE
   8
LEVEL001
   6
CONTINUOUS
  62
7
  10
 222.877
  20
 557.356
  30
0.0
  11
 222.880
  21
 557.404
  31
0.0
   0
LINE
   8
LEVEL001
   6
CONTINUOUS
  62
7
  10
 216.540
  20
 556.282
  30
0.0
  11
 216.543
  21
 556.225
  31
0.0
   0
LINE
   8
LEVEL001
   6
CONTINUOUS
  62
7
  10
 216.543
  20
 556.225
  30
0.0
  11
 216.553
  21
 556.167
  31
0.0
   0
LINE
   8
LEVEL001
   6
CONTINUOUS
  62
7
  10
 216.553
  20
 556.167
  30
0.0
  11
 216.570
  21
 556.110
  31
0.0
   0
LINE
   8
LEVEL001
   6
CONTINUOUS
  62
7
  10
 216.570
  20
 556.110
  30
0.0
  11
 216.593
  21
 556.053
  31
0.0
   0
LINE
   8
LEVEL001
   6
CONTINUOUS
  62
7
  10
 216.593
  20
 556.053
  30
0.0
  11
 216.622
  21
 555.996
  31
0.0
   0
LINE
   8
LEVEL001
   6
CONTINUOUS
  62
7
  10
 216.622
  20
 555.996
  30
0.0
  11
 216.658
  21
 555.940
  31
0.0
   0
LINE
   8
LEVEL001
   6
CONTINUOUS
  62
7
  10
 216.658
  20
 555.940
  30
0.0
  11
 216.700
  21
 555.884
  31
0.0
   0
LINE
   8
LEVEL001
   6
CONTINUOUS
  62
7
  10
 216.700
  20
 555.884
  30
0.0
  11
 216.749
  21
 555.830
  31
0.0
   0
LINE
   8
LEVEL001
   6
CONTINUOUS
  62
7
  10
 216.749
  20
 555.830
  30
0.0
  11
 216.803
  21
 555.776
  31
0.0
   0
LINE
   8
LEVEL001
   6
CONTINUOUS
  62
7
  10
 216.803
  20
 555.776
  30
0.0
  11
 216.864
  21
 555.723
  31
0.0
   0
LINE
   8
LEVEL001
   6
CONTINUOUS
  62
7
  10
 216.864
  20
 555.723
  30
0.0
  11
 216.931
  21
 555.671
  31
0.0
   0
LINE
   8
LEVEL001
   6
CONTINUOUS
  62
7
  10
 216.931
  20
 555.671
  30
0.0
  11
 217.004
  21
 555.620
  31
0.0
   0
LINE
   8
LEVEL001
   6
CONTINUOUS
  62
7
  10
 217.004
  20
 555.620
  30
0.0
  11
 217.082
  21
 555.571
  31
0.0
   0
LINE
   8
LEVEL001
   6
CONTINUOUS
  62
7
  10
 217.082
  20
 555.571
  30
0.0
  11
 217.166
  21
 555.523
  31
0.0
   0
LINE
   8
LEVEL001
   6
CONTINUOUS
  62
7
  10
 217.166
  20
 555.523
  30
0.0
  11
 217.255
  21
 555.476
  31
0.0
   0
LINE
   8
LEVEL001
   6
CONTINUOUS
  62
7
  10
 217.255
  20
 555.476
  30
0.0
  11
 217.349
  21
 555.431
  31
0.0
   0
LINE
   8
LEVEL001
   6
CONTINUOUS
  62
7
  10
 217.349
  20
 555.431
  30
0.0
  11
 217.449
  21
 555.388
  31
0.0
   0
LINE
   8
LEVEL001
   6
CONTINUOUS
  62
7
  10
 217.449
  20
 555.388
  30
0.0
  11
 217.553
  21
 555.346
  31
0.0
   0
LINE
   8
LEVEL001
   6
CONTINUOUS
  62
7
  10
 217.553
  20
 555.346
  30
0.0
  11
 217.662
  21
 555.306
  31
0.0
   0
LINE
   8
LEVEL001
   6
CONTINUOUS
  62
7
  10
 217.662
  20
 555.306
  30
0.0
  11
 217.776
  21
 555.268
  31
0.0
   0
LINE
   8
LEVEL001
   6
CONTINUOUS
  62
7
  10
 217.776
  20
 555.268
  30
0.0
  11
 217.894
  21
 555.232
  31
0.0
   0
LINE
   8
LEVEL001
   6
CONTINUOUS
  62
7
  10
 217.894
  20
 555.232
  30
0.0
  11
 218.015
  21
 555.198
  31
0.0
   0
LINE
   8
LEVEL001
   6
CONTINUOUS
  62
7
  10
 218.015
  20
 555.198
  30
0.0
  11
 218.141
  21
 555.166
  31
0.0
   0
LINE
   8
LEVEL001
   6
CONTINUOUS
  62
7
  10
 218.141
  20
 555.166
  30
0.0
  11
 218.270
  21
 555.136
  31
0.0
   0
LINE
   8
LEVEL001
   6
CONTINUOUS
  62
7
  10
 218.270
  20
 555.136
  30
0.0
  11
 218.402
  21
 555.108
  31
0.0
   0
LINE
   8
LEVEL001
   6
CONTINUOUS
  62
7
  10
 218.402
  20
 555.108
  30
0.0
  11
 218.538
  21
 555.082
  31
0.0
   0
LINE
   8
LEVEL001
   6
CONTINUOUS
  62
7
  10
 218.538
  20
 555.082
  30
0.0
  11
 218.676
  21
 555.059
  31
0.0
   0
LINE
   8
LEVEL001
   6
CONTINUOUS
  62
7
  10
 218.676
  20
 555.059
  30
0.0
  11
 218.817
  21
 555.038
  31
0.0
   0
LINE
   8
LEVEL001
   6
CONTINUOUS
  62
7
  10
 218.817
  20
 555.038
  30
0.0
  11
 218.960
  21
 555.020
  31
0.0
   0
LINE
   8
LEVEL001
   6
CONTINUOUS
  62
7
  10
 218.960
  20
 555.020
  30
0.0
  11
 219.104
  21
 555.004
  31
0.0
   0
LINE
   8
LEVEL001
   6
CONTINUOUS
  62
7
  10
 219.104
  20
 555.004
  30
0.0
  11
 219.251
  21
 554.990
  31
0.0
   0
LINE
   8
LEVEL001
   6
CONTINUOUS
  62
7
  10
 219.251
  20
 554.990
  30
0.0
  11
 219.399
  21
 554.979
  31
0.0
   0
LINE
   8
LEVEL001
   6
CONTINUOUS
  62
7
  10
 219.399
  20
 554.979
  30
0.0
  11
 219.548
  21
 554.970
  31
0.0
   0
LINE
   8
LEVEL001
   6
CONTINUOUS
  62
7
  10
 219.548
  20
 554.970
  30
0.0
  11
 219.698
  21
 554.963
  31
0.0
   0
LINE
   8
LEVEL001
   6
CONTINUOUS
  62
7
  10
 219.698
  20
 554.963
  30
0.0
  11
 219.849
  21
 554.960
  31
0.0
   0
LINE
   8
LEVEL001
   6
CONTINUOUS
  62
7
  10
 219.849
  20
 554.960
  30
0.0
  11
 220.000
  21
 554.958
  31
0.0
   0
LINE
   8
LEVEL001
   6
CONTINUOUS
  62
7
  10
 220.000
  20
 554.958
  30
0.0
  11
 220.151
  21
 554.960
  31
0.0
   0
LINE
   8
LEVEL001
   6
CONTINUOUS
  62
7
  10
 220.151
  20
 554.960
  30
0.0
  11
 220.302
  21
 554.963
  31
0.0
   0
LINE
   8
LEVEL001
   6
CONTINUOUS
  62
7
  10
 220.302
  20
 554.963
  30
0.0
  11
 220.452
  21
 554.970
  31
0.0
   0
LINE
   8
LEVEL001
   6
CONTINUOUS
  62
7
  10
 220.452
  20
 554.970
  30
0.0
  11
 220.601
  21
 554.979
  31
0.0
   0
LINE
   8
LEVEL001
   6
CONTINUOUS
  62
7
  10
 220.601
  20
 554.979
  30
0.0
  11
 220.749
  21
 554.990
  31
0.0
   0
LINE
   8
LEVEL001
   6
CONTINUOUS
  62
7
  10
 220.749
  20
 554.990
  30
0.0
  11
 220.896
  21
 555.004
  31
0.0
   0
LINE
   8
LEVEL001
   6
CONTINUOUS
  62
7
  10
 220.896
  20
 555.004
  30
0.0
  11
 221.040
  21
 555.020
  31
0.0
   0
LINE
   8
LEVEL001
   6
CONTINUOUS
  62
7
  10
 221.040
  20
 555.020
  30
0.0
  11
 221.183
  21
 555.038
  31
0.0
   0
LINE
   8
LEVEL001
   6
CONTINUOUS
  62
7
  10
 221.183
  20
 555.038
  30
0.0
  11
 221.324
  21
 555.059
  31
0.0
   0
LINE
   8
LEVEL001
   6
CONTINUOUS
  62
7
  10
 221.324
  20
 555.059
  30
0.0
  11
 221.462
  21
 555.082
  31
0.0
   0
LINE
   8
LEVEL001
   6
CONTINUOUS
  62
7
  10
 221.462
  20
 555.082
  30
0.0
  11
 221.598
  21
 555.108
  31
0.0
   0
LINE
   8
LEVEL001
   6
CONTINUOUS
  62
7
  10
 221.598
  20
 555.108
  30
0.0
  11
 221.730
  21
 555.136
  31
0.0
   0
LINE
   8
LEVEL001
   6
CONTINUOUS
  62
7
  10
 221.730
  20
 555.136
  30
0.0
  11
 221.859
  21
 555.166
  31
0.0
   0
LINE
   8
LEVEL001
   6
CONTINUOUS
  62
7
  10
 221.859
  20
 555.166
  30
0.0
  11
 221.985
  21
 555.198
  31
0.0
   0
LINE
   8
LEVEL001
   6
CONTINUOUS
  62
7
  10
 221.985
  20
 555.198
  30
0.0
  11
 222.106
  21
 555.232
  31
0.0
   0
LINE
   8
LEVEL001
   6
CONTINUOUS
  62
7
  10
 222.106
  20
 555.232
  30
0.0
  11
 222.224
  21
 555.268
  31
0.0
   0
LINE
   8
LEVEL001
   6
CONTINUOUS
  62
7
  10
 222.224
  20
 555.268
  30
0.0
  11
 222.338
  21
 555.306
  31
0.0
   0
LINE
   8
LEVEL001
   6
CONTINUOUS
  62
7
  10
 222.338
  20
 555.306
  30
0.0
  11
 222.447
  21
 555.346
  31
0.0
   0
LINE
   8
LEVEL001
   6
CONTINUOUS
  62
7
  10
 222.447
  20
 555.346
  30
0.0
  11
 222.551
  21
 555.388
  31
0.0
   0
LINE
   8
LEVEL001
   6
CONTINUOUS
  62
7
  10
 222.551
  20
 555.388
  30
0.0
  11
 222.651
  21
 555.431
  31
0.0
   0
LINE
   8
LEVEL001
   6
CONTINUOUS
  62
7
  10
 222.651
  20
 555.431
  30
0.0
  11
 222.745
  21
 555.476
  31
0.0
   0
LINE
   8
LEVEL001
   6
CONTINUOUS
  62
7
  10
 222.745
  20
 555.476
  30
0.0
  11
 222.834
  21
 555.523
  31
0.0
   0
LINE
   8
LEVEL001
   6
CONTINUOUS
  62
7
  10
 222.834
  20
 555.523
  30
0.0
  11
 222.918
  21
 555.571
  31
0.0
   0
LINE
   8
LEVEL001
   6
CONTINUOUS
  62
7
  10
 222.918
  20
 555.571
  30
0.0
  11
 222.996
  21
 555.620
  31
0.0
   0
LINE
   8
LEVEL001
   6
CONTINUOUS
  62
7
  10
 222.996
  20
 555.620
  30
0.0
  11
 223.069
  21
 555.671
  31
0.0
   0
LINE
   8
LEVEL001
   6
CONTINUOUS
  62
7
  10
 223.069
  20
 555.671
  30
0.0
  11
 223.136
  21
 555.723
  31
0.0
   0
LINE
   8
LEVEL001
   6
CONTINUOUS
  62
7
  10
 223.136
  20
 555.723
  30
0.0
  11
 223.197
  21
 555.776
  31
0.0
   0
LINE
   8
LEVEL001
   6
CONTINUOUS
  62
7
  10
 223.197
  20
 555.776
  30
0.0
  11
 223.251
  21
 555.830
  31
0.0
   0
LINE
   8
LEVEL001
   6
CONTINUOUS
  62
7
  10
 223.251
  20
 555.830
  30
0.0
  11
 223.300
  21
 555.884
  31
0.0
   0
LINE
   8
LEVEL001
   6
CONTINUOUS
  62
7
  10
 223.300
  20
 555.884
  30
0.0
  11
 223.342
  21
 555.940
  31
0.0
   0
LINE
   8
LEVEL001
   6
CONTINUOUS
  62
7
  10
 223.342
  20
 555.940
  30
0.0
  11
 223.378
  21
 555.996
  31
0.0
   0
LINE
   8
LEVEL001
   6
CONTINUOUS
  62
7
  10
 223.378
  20
 555.996
  30
0.0
  11
 223.407
  21
 556.053
  31
0.0
   0
LINE
   8
LEVEL001
   6
CONTINUOUS
  62
7
  10
 223.407
  20
 556.053
  30
0.0
  11
 223.430
  21
 556.110
  31
0.0
   0
LINE
   8
LEVEL001
   6
CONTINUOUS
  62
7
  10
 223.430
  20
 556.110
  30
0.0
  11
 223.447
  21
 556.167
  31
0.0
   0
LINE
   8
LEVEL001
   6
CONTINUOUS
  62
7
  10
 223.447
  20
 556.167
  30
0.0
  11
 223.457
  21
 556.225
  31
0.0
   0
LINE
   8
LEVEL001
   6
CONTINUOUS
  62
7
  10
 223.457
  20
 556.225
  30
0.0
  11
 223.460
  21
 556.282
  31
0.0
   0
ARC
   8
LEVEL001
   6
CONTINUOUS
  62
7
  10
 217.061
  20
 559.768
  30
0.0
  40
 6.28019
  50
 337.893
  51
 352.464
   0
ARC
   8
LEVEL001
   6
CONTINUOUS
  62
7
  10
 224.013
  20
 557.279
  30
0.0
  40
 1.13965
  50
 173.696
  51
 240.986
   0
ARC
   8
LEVEL001
   6
CONTINUOUS
  62
7
  10
 222.939
  20
 559.768
  30
0.0
  40
 6.28019
  50
 187.536
  51
 202.107
   0
ARC
   8
LEVEL001
   6
CONTINUOUS
  62
7
  10
 215.987
  20
 557.279
  30
0.0
  40
 1.13965
  50
 299.014
  51
 6.30441
   0
LINE
   8
LEVEL001
   6
CONTINUOUS
  62
7
  10
 223.464
  20
 555.509
  30
0.0
  11
 220.000
  21
 554.736
  31
0.0
   0
LINE
   8
LEVEL001
   6
CONTINUOUS
  62
7
  10
 220.000
  20
 554.736
  30
0.0
  11
 216.536
  21
 555.509
  31
0.0
   0
LINE
   8
LEVEL001
   6
CONTINUOUS
  62
7
  10
 216.536
  20
 557.056
  30
0.0
  11
 217.123
  21
 557.187
  31
0.0
   0
LINE
   8
LEVEL001
   6
CONTINUOUS
  62
7
  10
 222.877
  20
 557.187
  30
0.0
  11
 223.464
  21
 557.056
  31
0.0
   0
LINE
   8
LEVEL001
   6
CONTINUOUS
  62
7
  10
 216.536
  20
 557.056
  30
0.0
  11
 216.536
  21
 553.292
  31
0.0
   0
LINE
   8
LEVEL001
   6
CONTINUOUS
  62
7
  10
 223.464
  20
 553.292
  30
0.0
  11
 223.464
  21
 557.056
  31
0.0
   0
LINE
   8
LEVEL001
   6
CONTINUOUS
  62
7
  10
 216.536
  20
 553.292
  30
0.0
  11
 220.000
  21
 552.519
  31
0.0
   0
LINE
   8
LEVEL001
   6
CONTINUOUS
  62
7
  10
 220.000
  20
 552.519
  30
0.0
  11
 223.464
  21
 553.292
  31
0.0
   0
ARC
   8
LEVEL001
   6
CONTINUOUS
  62
7
  10
 220.000
  20
 550.000
  30
0.0
  40
 5.00000
  50
 133.854
  51
 46.1462
   0
LINE
   8
LEVEL001
   6
CONTINUOUS
  62
7
  10
 225.774
  20
 550.000
  30
0.0
  11
 223.464
  21
 554.000
  31
0.0
   0
LINE
   8
LEVEL001
   6
CONTINUOUS
  62
7
  10
 216.536
  20
 554.000
  30
0.0
  11
 214.226
  21
 550.000
  31
0.0
   0
LINE
   8
LEVEL001
   6
CONTINUOUS
  62
7
  10
 456.900
  20
 555.000
  30
0.0
  11
 449.691
  21
 555.000
  31
0.0
   0
ARC
   8
LEVEL001
   6
CONTINUOUS
  62
7
  10
 452.303
  20
 562.639
  30
0.0
  40
 6.00000
  50
 227.432
  51
 237.018
   0
ARC
   8
LEVEL001
   6
CONTINUOUS
  62
7
  10
 436.777
  20
 556.208
  30
0.0
  40
 6.00000
  50
 347.981
  51
 357.567
   0
ARC
   8
LEVEL001
   6
CONTINUOUS
  62
7
  10
 448.443
  20
 550.000
  30
0.0
  40
 5.62228
  50
 151.001
  51
 242.788
   0
LINE
   8
LEVEL001
   6
CONTINUOUS
  62
7
  10
 445.872
  20
 545.000
  30
0.0
  11
 456.900
  21
 545.000
  31
0.0
   0
LINE
   8
LEVEL001
   6
CONTINUOUS
  62
7
  10
 457.500
  20
 554.283
  30
0.0
  11
 457.500
  21
 545.717
  31
0.0
   0
ARC
   8
LEVEL001
   6
CONTINUOUS
  62
7
  10
 444.693
  20
 559.054
  30
0.0
  40
 6.43506
  50
 259.551
  51
 325.449
   0
ARC
   8
LEVEL001
   6
CONTINUOUS
  62
7
  10
 444.693
  20
 559.054
  30
0.0
  40
 3.30000
  50
 202.500
  51
 228.418
   0
ARC
   8
LEVEL001
   6
CONTINUOUS
  62
7
  10
 444.693
  20
 559.054
  30
0.0
  40
 3.30000
  50
 356.582
  51
 22.5000
   0
LINE
   8
LEVEL001
   6
CONTINUOUS
  62
7
  10
 444.773
  20
 553.581
  30
0.0
  11
 444.094
  21
 555.220
  31
0.0
   0
LINE
   8
LEVEL001
   6
CONTINUOUS
  62
7
  10
 448.507
  20
 555.127
  30
0.0
  11
 447.828
  21
 556.767
  31
0.0
   0
ARC
   8
LEVEL001
   6
CONTINUOUS
  62
7
  10
 448.400
  20
 550.104
  30
0.0
  40
 6.68738
  50
 94.9120
  51
 130.088
   0
ARC
   8
LEVEL001
   6
CONTINUOUS
  62
7
  10
 444.200
  20
 560.243
  30
0.0
  40
 6.68738
  50
 274.912
  51
 310.088
   0
ARC
   8
LEVEL001
   6
CONTINUOUS
  62
7
  10
 450.209
  20
 554.630
  30
0.0
  40
 3.20000
  50
 110.768
  51
 138.098
   0
ARC
   8
LEVEL001
   6
CONTINUOUS
  62
7
  10
 443.921
  20
 552.025
  30
0.0
  40
 3.20000
  50
 86.9030
  51
 114.232
   0
ARC
   8
LEVEL001
   6
CONTINUOUS
  62
7
  10
 442.391
  20
 555.718
  30
0.0
  40
 3.20000
  50
 290.767
  51
 318.097
   0
ARC
   8
LEVEL001
   6
CONTINUOUS
  62
7
  10
 448.680
  20
 558.322
  30
0.0
  40
 3.20000
  50
 266.903
  51
 294.232
   0
LINE
   8
LEVEL001
   6
CONTINUOUS
  62
7
  10
 448.044
  20
 558.509
  30
0.0
  11
 442.720
  21
 556.304
  31
0.0
   0
ARC
   8
LEVEL001
   6
CONTINUOUS
  62
7
  10
 443.755
  20
 561.318
  30
0.0
  40
 1.00000
  50
 36.9770
  51
 188.021
   0
ARC
   8
LEVEL001
   6
CONTINUOUS
  62
7
  10
 448.786
  20
 558.809
  30
0.0
  40
 0.800000
  50
 176.573
  51
 227.428
   0
ARC
   8
LEVEL001
   6
CONTINUOUS
  62
7
  10
 441.972
  20
 555.987
  30
0.0
  40
 0.800000
  50
 357.573
  51
 48.4260
   0
ARC
   8
LEVEL001
   6
CONTINUOUS
  62
7
  10
 449.722
  20
 552.500
  30
0.0
  40
 7.22093
  50
 339.744
  51
 20.2560
   0
LINE
   8
LEVEL001
   6
CONTINUOUS
  62
7
  10
 453.300
  20
 555.000
  30
0.0
  11
 453.300
  21
 545.000
  31
0.0
   0
LINE
   8
LEVEL001
   6
CONTINUOUS
  62
7
  10
 456.454
  20
 550.000
  30
0.0
  11
 453.747
  21
 550.000
  31
0.0
   0
ARC
   8
LEVEL001
   6
CONTINUOUS
  62
7
  10
 460.521
  20
 552.500
  30
0.0
  40
 7.22070
  50
 159.743
  51
 200.257
   0
ARC
   8
LEVEL001
   6
CONTINUOUS
  62
7
  10
 460.521
  20
 547.500
  30
0.0
  40
 7.22070
  50
 159.743
  51
 200.257
   0
ARC
   8
LEVEL001
   6
CONTINUOUS
  62
7
  10
 449.679
  20
 547.500
  30
0.0
  40
 7.22093
  50
 339.744
  51
 20.2560
   0
ARC
   8
LEVEL001
   6
CONTINUOUS
  62
7
  10
 497.000
  20
 550.000
  30
0.0
  40
 39.5000
  50
 129.692
  51
 215.588
   0
ARC
   8
LEVEL001
   6
CONTINUOUS
  62
7
  10
 459.000
  20
 595.785
  30
0.0
  40
 20.0000
  50
 309.692
  51
 0.100964E-10
   0
LINE
   8
LEVEL001
   6
CONTINUOUS
  62
7
  10
 563.000
  20
 665.000
  30
0.0
  11
 542.500
  21
 665.000
  31
0.0
   0
LINE
   8
LEVEL001
   6
CONTINUOUS
  62
7
  10
 597.500
  20
 665.000
  30
0.0
  11
 577.000
  21
 665.000
  31
0.0
   0
LINE
   8
LEVEL001
   6
CONTINUOUS
  62
7
  10
 577.000
  20
 669.000
  30
0.0
  11
 563.000
  21
 669.000
  31
0.0
   0
LINE
   8
LEVEL001
   6
CONTINUOUS
  62
7
  10
 542.750
  20
 665.000
  30
0.0
  11
 542.750
  21
 662.000
  31
0.0
   0
LINE
   8
LEVEL001
   6
CONTINUOUS
  62
7
  10
 597.250
  20
 665.000
  30
0.0
  11
 597.250
  21
 662.000
  31
0.0
   0
LINE
   8
LEVEL001
   6
CONTINUOUS
  62
7
  10
 542.500
  20
 696.500
  30
0.0
  11
 542.500
  21
 665.000
  31
0.0
   0
LINE
   8
LEVEL001
   6
CONTINUOUS
  62
7
  10
 597.500
  20
 696.500
  30
0.0
  11
 597.500
  21
 665.000
  31
0.0
   0
LINE
   8
LEVEL001
   6
CONTINUOUS
  62
7
  10
 443.836
  20
 518.828
  30
0.0
  11
 415.953
  21
 501.704
  31
0.0
   0
ARC
   8
LEVEL001
   6
CONTINUOUS
  62
7
  10
 435.986
  20
 531.610
  30
0.0
  40
 15.0000
  50
 301.556
  51
 345.558
   0
LINE
   8
LEVEL001
   6
CONTINUOUS
  62
7
  10
 417.000
  20
 502.000
  30
0.0
  11
 463.324
  21
 502.000
  31
0.0
   0
LINE
   8
LEVEL001
   6
CONTINUOUS
  62
7
  10
 415.000
  20
 500.000
  30
0.0
  11
 415.000
  21
 487.000
  31
0.0
   0
ARC
   8
LEVEL001
   6
CONTINUOUS
  62
7
  10
 417.000
  20
 500.000
  30
0.0
  40
 2.00000
  50
 90.0000
  51
 180.000
   0
ARC
   8
LEVEL001
   6
CONTINUOUS
  62
7
  10
 463.324
  20
 512.000
  30
0.0
  40
 10.0000
  50
 270.000
  51
 35.5880
   0
LINE
   8
LEVEL001
   6
CONTINUOUS
  62
7
  10
 471.457
  20
 517.820
  30
0.0
  11
 464.878
  21
 527.013
  31
0.0
   0
LINE
   8
LEVEL001
   6
CONTINUOUS
  62
7
  10
 479.000
  20
 610.000
  30
0.0
  11
 479.000
  21
 595.785
  31
0.0
   0
LINE
   8
LEVEL001
   6
CONTINUOUS
  62
7
  10
 595.000
  20
 746.000
  30
0.0
  11
 545.000
  21
 746.000
  31
0.0
   0
LINE
   8
LEVEL001
   6
CONTINUOUS
  62
7
  10
 594.000
  20
 747.000
  30
0.0
  11
 546.000
  21
 747.000
  31
0.0
   0
LINE
   8
LEVEL001
   6
CONTINUOUS
  62
7
  10
 597.000
  20
 697.000
  30
0.0
  11
 543.000
  21
 697.000
  31
0.0
   0
LINE
   8
LEVEL001
   6
CONTINUOUS
  62
7
  10
 595.000
  20
 702.000
  30
0.0
  11
 545.000
  21
 702.000
  31
0.0
   0
ARC
   8
LEVEL001
   6
CONTINUOUS
  62
7
  10
 543.000
  20
 696.500
  30
0.0
  40
 0.500000
  50
 90.0000
  51
 180.000
   0
LINE
   8
LEVEL001
   6
CONTINUOUS
  62
7
  10
 546.000
  20
 747.000
  30
0.0
  11
 546.000
  21
 701.000
  31
0.0
   0
LINE
   8
LEVEL001
   6
CONTINUOUS
  62
7
  10
 546.000
  20
 701.000
  30
0.0
  11
 546.000
  21
 698.000
  31
0.0
   0
ARC
   8
LEVEL001
   6
CONTINUOUS
  62
7
  10
 545.000
  20
 698.000
  30
0.0
  40
 1.00000
  50
 270.000
  51
0.0
   0
ARC
   8
LEVEL001
   6
CONTINUOUS
  62
7
  10
 545.000
  20
 701.000
  30
0.0
  40
 1.00000
  50
0.0
  51
 90.0000
   0
ARC
   8
LEVEL001
   6
CONTINUOUS
  62
7
  10
 530.316
  20
 659.000
  30
0.0
  40
 3.00000
  50
 90.0000
  51
 176.379
   0
ARC
   8
LEVEL001
   6
CONTINUOUS
  62
7
  10
 480.000
  20
 620.500
  30
0.0
  40
 2.00000
  50
 90.0000
  51
 180.000
   0
LINE
   8
LEVEL001
   6
CONTINUOUS
  62
7
  10
 478.000
  20
 610.500
  30
0.0
  11
 478.000
  21
 620.500
  31
0.0
   0
LINE
   8
LEVEL001
   6
CONTINUOUS
  62
7
  10
 532.500
  20
 462.268
  30
0.0
  11
 531.850
  21
 459.842
  31
0.0
   0
LINE
   8
LEVEL001
   6
CONTINUOUS
  62
7
  10
 533.500
  20
 466.000
  30
0.0
  11
 532.500
  21
 462.268
  31
0.0
   0
LINE
   8
LEVEL001
   6
CONTINUOUS
  62
7
  10
 525.000
  20
 469.000
  30
0.0
  11
 527.000
  21
 467.000
  31
0.0
   0
LINE
   8
LEVEL001
   6
CONTINUOUS
  62
7
  10
 525.000
  20
 484.000
  30
0.0
  11
 525.000
  21
 469.000
  31
0.0
   0
ARC
   8
LEVEL001
   6
CONTINUOUS
  62
7
  10
 522.000
  20
 484.000
  30
0.0
  40
 3.00000
  50
0.0
  51
 90.0000
   0
LINE
   8
LEVEL001
   6
CONTINUOUS
  62
7
  10
 594.000
  20
 747.000
  30
0.0
  11
 594.000
  21
 701.000
  31
0.0
   0
LINE
   8
LEVEL001
   6
CONTINUOUS
  62
7
  10
 594.000
  20
 701.000
  30
0.0
  11
 594.000
  21
 698.000
  31
0.0
   0
ARC
   8
LEVEL001
   6
CONTINUOUS
  62
7
  10
 595.000
  20
 698.000
  30
0.0
  40
 1.00000
  50
 180.000
  51
 270.000
   0
ARC
   8
LEVEL001
   6
CONTINUOUS
  62
7
  10
 595.000
  20
 701.000
  30
0.0
  40
 1.00000
  50
 90.0000
  51
 180.000
   0
ARC
   8
LEVEL001
   6
CONTINUOUS
  62
7
  10
 609.684
  20
 659.000
  30
0.0
  40
 3.00000
  50
 3.62150
  51
 90.0000
   0
ARC
   8
LEVEL001
   6
CONTINUOUS
  62
7
  10
 660.000
  20
 620.500
  30
0.0
  40
 2.00000
  50
0.0
  51
 90.0000
   0
LINE
   8
LEVEL001
   6
CONTINUOUS
  62
7
  10
 607.500
  20
 462.268
  30
0.0
  11
 608.150
  21
 459.842
  31
0.0
   0
LINE
   8
LEVEL001
   6
CONTINUOUS
  62
7
  10
 606.500
  20
 466.000
  30
0.0
  11
 607.500
  21
 462.268
  31
0.0
   0
LINE
   8
LEVEL001
   6
CONTINUOUS
  62
7
  10
 615.000
  20
 469.000
  30
0.0
  11
 613.000
  21
 467.000
  31
0.0
   0
LINE
   8
LEVEL001
   6
CONTINUOUS
  62
7
  10
 615.000
  20
 484.000
  30
0.0
  11
 615.000
  21
 469.000
  31
0.0
   0
ARC
   8
LEVEL001
   6
CONTINUOUS
  62
7
  10
 618.000
  20
 484.000
  30
0.0
  40
 3.00000
  50
 90.0000
  51
 180.000
   0
LINE
   8
LEVEL001
   6
CONTINUOUS
  62
7
  10
 661.000
  20
 585.000
  30
0.0
  11
 664.633
  21
 533.233
  31
0.0
   0
ARC
   8
LEVEL001
   6
CONTINUOUS
  62
7
  10
 679.596
  20
 534.283
  30
0.0
  40
 15.0000
  50
 184.014
  51
 222.565
   0
LINE
   8
LEVEL001
   6
CONTINUOUS
  62
7
  10
 668.548
  20
 524.137
  30
0.0
  11
 689.473
  21
 501.353
  31
0.0
   0
ARC
   8
LEVEL001
   6
CONTINUOUS
  62
7
  10
 688.000
  20
 500.000
  30
0.0
  40
 2.00000
  50
0.0
  51
 90.0000
   0
LINE
   8
LEVEL001
   6
CONTINUOUS
  62
7
  10
 648.940
  20
 565.890
  30
0.0
  11
 648.149
  21
 512.147
  31
0.0
   0
ARC
   8
LEVEL001
   6
CONTINUOUS
  62
7
  10
 660.938
  20
 565.713
  30
0.0
  40
 12.0000
  50
 141.340
  51
 179.157
   0
LINE
   8
LEVEL001
   6
CONTINUOUS
  62
7
  10
 658.370
  20
 581.713
  30
0.0
  11
 651.568
  21
 573.210
  31
0.0
   0
ARC
   8
LEVEL001
   6
CONTINUOUS
  62
7
  10
 658.148
  20
 512.000
  30
0.0
  40
 10.0000
  50
 179.157
  51
 270.000
   0
LINE
   8
LEVEL001
   6
CONTINUOUS
  62
7
  10
 531.850
  20
 96.5000
  30
0.0
  11
 534.000
  21
 92.0000
  31
0.0
   0
LINE
   8
LEVEL001
   6
CONTINUOUS
  62
7
  10
 531.850
  20
 459.842
  30
0.0
  11
 531.850
  21
 96.5000
  31
0.0
   0
LINE
   8
LEVEL001
   6
CONTINUOUS
  62
7
  10
 562.503
  20
 91.3000
  30
0.0
  11
 577.497
  21
 91.3000
  31
0.0
   0
LINE
   8
LEVEL001
   6
CONTINUOUS
  62
7
  10
 531.850
  20
 96.5000
  30
0.0
  11
 608.150
  21
 96.5000
  31
0.0
   0
LINE
   8
LEVEL001
   6
CONTINUOUS
  62
7
  10
 608.150
  20
 459.842
  30
0.0
  11
 608.150
  21
 96.5000
  31
0.0
   0
LINE
   8
LEVEL001
   6
CONTINUOUS
  62
7
  10
 608.150
  20
 96.5000
  30
0.0
  11
 606.000
  21
 92.0000
  31
0.0
   0
LINE
   8
LEVEL001
   6
CONTINUOUS
  62
7
  10
 534.000
  20
 92.0000
  30
0.0
  11
 606.000
  21
 92.0000
  31
0.0
   0
LINE
   8
LEVEL001
   6
CONTINUOUS
  62
7
  10
 577.497
  20
 91.3000
  30
0.0
  11
 577.475
  21
 92.0000
  31
0.0
   0
LINE
   8
LEVEL001
   6
CONTINUOUS
  62
7
  10
 562.503
  20
 91.3000
  30
0.0
  11
 562.525
  21
 92.0000
  31
0.0
   0
LINE
   8
LEVEL001
   6
CONTINUOUS
  62
7
  10
 577.497
  20
 91.3000
  30
0.0
  11
 578.197
  21
 92.0000
  31
0.0
   0
LINE
   8
LEVEL001
   6
CONTINUOUS
  62
7
  10
 561.803
  20
 92.0000
  30
0.0
  11
 562.503
  21
 91.3000
  31
0.0
   0
LINE
   8
LEVEL001
   6
CONTINUOUS
  62
7
  10
 527.000
  20
 467.000
  30
0.0
  11
 613.000
  21
 467.000
  31
0.0
   0
LINE
   8
LEVEL001
   6
CONTINUOUS
  62
7
  10
 607.500
  20
 467.000
  30
0.0
  11
 607.500
  21
 462.268
  31
0.0
   0
LINE
   8
LEVEL001
   6
CONTINUOUS
  62
7
  10
 606.500
  20
 467.000
  30
0.0
  11
 606.500
  21
 466.000
  31
0.0
   0
LINE
   8
LEVEL001
   6
CONTINUOUS
  62
7
  10
 532.500
  20
 467.000
  30
0.0
  11
 532.500
  21
 462.268
  31
0.0
   0
LINE
   8
LEVEL001
   6
CONTINUOUS
  62
7
  10
 533.500
  20
 467.000
  30
0.0
  11
 533.500
  21
 466.000
  31
0.0
   0
LINE
   8
LEVEL001
   6
CONTINUOUS
  62
7
  10
 608.150
  20
 459.842
  30
0.0
  11
 531.850
  21
 459.842
  31
0.0
   0
LINE
   8
LEVEL001
   6
CONTINUOUS
  62
7
  10
 532.500
  20
 462.268
  30
0.0
  11
 607.500
  21
 462.268
  31
0.0
   0
LINE
   8
LEVEL001
   6
CONTINUOUS
  62
7
  10
 607.500
  20
 466.000
  30
0.0
  11
 532.500
  21
 466.000
  31
0.0
   0
LINE
   8
LEVEL001
   6
CONTINUOUS
  62
7
  10
 615.000
  20
 469.000
  30
0.0
  11
 525.000
  21
 469.000
  31
0.0
   0
LINE
   8
LEVEL001
   6
CONTINUOUS
  62
7
  10
 690.000
  20
 500.000
  30
0.0
  11
 690.000
  21
 487.000
  31
0.0
   0
LINE
   8
LEVEL001
   6
CONTINUOUS
  62
7
  10
 415.000
  20
 487.000
  30
0.0
  11
 690.000
  21
 487.000
  31
0.0
   0
LINE
   8
LEVEL001
   6
CONTINUOUS
  62
7
  10
 530.316
  20
 662.000
  30
0.0
  11
 609.684
  21
 662.000
  31
0.0
   0
LINE
   8
LEVEL001
   6
CONTINUOUS
  62
7
  10
 577.000
  20
 697.000
  30
0.0
  11
 577.000
  21
 662.000
  31
0.0
   0
LINE
   8
LEVEL001
   6
CONTINUOUS
  62
7
  10
 563.000
  20
 697.000
  30
0.0
  11
 563.000
  21
 662.000
  31
0.0
   0
LINE
   8
LEVEL001
   6
CONTINUOUS
  62
7
  10
 478.000
  20
 610.500
  30
0.0
  11
 662.000
  21
 610.500
  31
0.0
   0
LINE
   8
LEVEL001
   6
CONTINUOUS
  62
7
  10
 662.000
  20
 610.500
  30
0.0
  11
 662.000
  21
 620.500
  31
0.0
   0
LINE
   8
LEVEL001
   6
CONTINUOUS
  62
7
  10
 479.000
  20
 610.000
  30
0.0
  11
 661.000
  21
 610.000
  31
0.0
   0
LINE
   8
LEVEL001
   6
CONTINUOUS
  62
7
  10
 661.000
  20
 610.000
  30
0.0
  11
 661.000
  21
 585.000
  31
0.0
   0
ARC
   8
LEVEL001
   6
CONTINUOUS
  62
7
  10
 649.000
  20
 589.209
  30
0.0
  40
 12.0000
  50
 321.340
  51
 351.869
   0
LINE
   8
LEVEL001
   6
CONTINUOUS
  62
7
  10
 501.000
  20
 558.500
  30
0.0
  11
 501.000
  21
 565.500
  31
0.0
   0
LINE
   8
LEVEL001
   6
CONTINUOUS
  62
7
  10
 493.000
  20
 558.500
  30
0.0
  11
 493.000
  21
 565.500
  31
0.0
   0
LINE
   8
LEVEL001
   6
CONTINUOUS
  62
7
  10
 493.000
  20
 558.500
  30
0.0
  11
 501.000
  21
 558.500
  31
0.0
   0
ARC
   8
LEVEL001
   6
CONTINUOUS
  62
7
  10
 497.000
  20
 550.000
  30
0.0
  40
 12.5000
  50
 108.663
  51
 71.3370
   0
LINE
   8
LEVEL001
   6
CONTINUOUS
  62
7
  10
 493.000
  20
 565.500
  30
0.0
  11
 501.000
  21
 565.500
  31
0.0
   0
CIRCLE
   8
LEVEL001
   6
CONTINUOUS
  62
7
  10
 497.000
  20
 550.000
  30
0.0
  40
 39.0000
   0
ARC
   8
LEVEL001
   6
CONTINUOUS
  62
7
  10
 497.000
  20
 550.000
  30
0.0
  40
 11.5000
  50
 110.354
  51
 69.6456
   0
ARC
   8
LEVEL001
   6
CONTINUOUS
  62
7
  10
 497.000
  20
 550.000
  30
0.0
  40
 14.0000
  50
 106.602
  51
 73.3984
   0
CIRCLE
   8
LEVEL001
   6
CONTINUOUS
  62
7
  10
 519.627
  20
 572.627
  30
0.0
  40
 5.50000
   0
CIRCLE
   8
LEVEL001
   6
CONTINUOUS
  62
7
  10
 519.627
  20
 572.627
  30
0.0
  40
 5.00000
   0
CIRCLE
   8
LEVEL001
   6
CONTINUOUS
  62
7
  10
 474.373
  20
 527.373
  30
0.0
  40
 5.50000
   0
CIRCLE
   8
LEVEL001
   6
CONTINUOUS
  62
7
  10
 474.373
  20
 527.373
  30
0.0
  40
 5.00000
   0
CIRCLE
   8
LEVEL001
   6
CONTINUOUS
  62
7
  10
 474.373
  20
 572.627
  30
0.0
  40
 5.50000
   0
CIRCLE
   8
LEVEL001
   6
CONTINUOUS
  62
7
  10
 474.373
  20
 572.627
  30
0.0
  40
 5.00000
   0
CIRCLE
   8
LEVEL001
   6
CONTINUOUS
  62
7
  10
 519.627
  20
 527.373
  30
0.0
  40
 5.50000
   0
CIRCLE
   8
LEVEL001
   6
CONTINUOUS
  62
7
  10
 519.627
  20
 527.373
  30
0.0
  40
 5.00000
   0
LINE
   8
LEVEL001
   6
CONTINUOUS
  62
7
  10
 521.669
  20
 574.669
  30
0.0
  11
 518.880
  21
 575.416
  31
0.0
   0
LINE
   8
LEVEL001
   6
CONTINUOUS
  62
7
  10
 518.880
  20
 575.416
  30
0.0
  11
 516.839
  21
 573.375
  31
0.0
   0
LINE
   8
LEVEL001
   6
CONTINUOUS
  62
7
  10
 516.839
  20
 573.375
  30
0.0
  11
 517.586
  21
 570.586
  31
0.0
   0
LINE
   8
LEVEL001
   6
CONTINUOUS
  62
7
  10
 517.586
  20
 570.586
  30
0.0
  11
 520.375
  21
 569.839
  31
0.0
   0
LINE
   8
LEVEL001
   6
CONTINUOUS
  62
7
  10
 520.375
  20
 569.839
  30
0.0
  11
 522.416
  21
 571.880
  31
0.0
   0
LINE
   8
LEVEL001
   6
CONTINUOUS
  62
7
  10
 522.416
  20
 571.880
  30
0.0
  11
 521.669
  21
 574.669
  31
0.0
   0
LINE
   8
LEVEL001
   6
CONTINUOUS
  62
7
  10
 472.331
  20
 525.331
  30
0.0
  11
 471.584
  21
 528.120
  31
0.0
   0
LINE
   8
LEVEL001
   6
CONTINUOUS
  62
7
  10
 471.584
  20
 528.120
  30
0.0
  11
 473.625
  21
 530.161
  31
0.0
   0
LINE
   8
LEVEL001
   6
CONTINUOUS
  62
7
  10
 473.625
  20
 530.161
  30
0.0
  11
 476.414
  21
 529.414
  31
0.0
   0
LINE
   8
LEVEL001
   6
CONTINUOUS
  62
7
  10
 476.414
  20
 529.414
  30
0.0
  11
 477.161
  21
 526.625
  31
0.0
   0
LINE
   8
LEVEL001
   6
CONTINUOUS
  62
7
  10
 477.161
  20
 526.625
  30
0.0
  11
 475.120
  21
 524.584
  31
0.0
   0
LINE
   8
LEVEL001
   6
CONTINUOUS
  62
7
  10
 475.120
  20
 524.584
  30
0.0
  11
 472.331
  21
 525.331
  31
0.0
   0
LINE
   8
LEVEL001
   6
CONTINUOUS
  62
7
  10
 472.331
  20
 574.669
  30
0.0
  11
 471.584
  21
 571.880
  31
0.0
   0
LINE
   8
LEVEL001
   6
CONTINUOUS
  62
7
  10
 471.584
  20
 571.880
  30
0.0
  11
 473.625
  21
 569.839
  31
0.0
   0
LINE
   8
LEVEL001
   6
CONTINUOUS
  62
7
  10
 473.625
  20
 569.839
  30
0.0
  11
 476.414
  21
 570.586
  31
0.0
   0
LINE
   8
LEVEL001
   6
CONTINUOUS
  62
7
  10
 476.414
  20
 570.586
  30
0.0
  11
 477.161
  21
 573.375
  31
0.0
   0
LINE
   8
LEVEL001
   6
CONTINUOUS
  62
7
  10
 477.161
  20
 573.375
  30
0.0
  11
 475.120
  21
 575.416
  31
0.0
   0
LINE
   8
LEVEL001
   6
CONTINUOUS
  62
7
  10
 475.120
  20
 575.416
  30
0.0
  11
 472.331
  21
 574.669
  31
0.0
   0
LINE
   8
LEVEL001
   6
CONTINUOUS
  62
7
  10
 521.669
  20
 525.331
  30
0.0
  11
 518.880
  21
 524.584
  31
0.0
   0
LINE
   8
LEVEL001
   6
CONTINUOUS
  62
7
  10
 518.880
  20
 524.584
  30
0.0
  11
 516.839
  21
 526.625
  31
0.0
   0
LINE
   8
LEVEL001
   6
CONTINUOUS
  62
7
  10
 516.839
  20
 526.625
  30
0.0
  11
 517.586
  21
 529.414
  31
0.0
   0
LINE
   8
LEVEL001
   6
CONTINUOUS
  62
7
  10
 517.586
  20
 529.414
  30
0.0
  11
 520.375
  21
 530.161
  31
0.0
   0
LINE
   8
LEVEL001
   6
CONTINUOUS
  62
7
  10
 520.375
  20
 530.161
  30
0.0
  11
 522.416
  21
 528.120
  31
0.0
   0
LINE
   8
LEVEL001
   6
CONTINUOUS
  62
7
  10
 522.416
  20
 528.120
  30
0.0
  11
 521.669
  21
 525.331
  31
0.0
   0
LINE
   8
LEVEL001
   6
CONTINUOUS
  62
7
  10
 456.900
  20
 545.000
  30
0.0
  11
 456.900
  21
 550.000
  31
0.0
   0
LINE
   8
LEVEL001
   6
CONTINUOUS
  62
7
  10
 456.900
  20
 550.000
  30
0.0
  11
 456.900
  21
 555.000
  31
0.0
   0
LINE
   8
LEVEL001
   6
CONTINUOUS
  62
7
  10
 456.900
  20
 554.883
  30
0.0
  11
 457.500
  21
 554.283
  31
0.0
   0
LINE
   8
LEVEL001
   6
CONTINUOUS
  62
7
  10
 456.900
  20
 545.117
  30
0.0
  11
 457.500
  21
 545.717
  31
0.0
   0
LINE
   8
LEVEL001
   6
CONTINUOUS
  62
7
  10
 457.500
  20
 554.283
  30
0.0
  11
 457.732
  21
 554.276
  31
0.0
   0
LINE
   8
LEVEL001
   6
CONTINUOUS
  62
7
  10
 456.900
  20
 554.883
  30
0.0
  11
 457.799
  21
 554.855
  31
0.0
   0
LINE
   8
LEVEL001
   6
CONTINUOUS
  62
7
  10
 457.500
  20
 545.717
  30
0.0
  11
 457.732
  21
 545.724
  31
0.0
   0
LINE
   8
LEVEL001
   6
CONTINUOUS
  62
7
  10
 457.799
  20
 545.145
  30
0.0
  11
 456.900
  21
 545.117
  31
0.0
   0
LINE
   8
LEVEL001
   6
CONTINUOUS
  62
7
  10
 450.512
  20
 527.869
  30
0.0
  11
 454.924
  21
 545.000
  31
0.0
   0
LINE
   8
LEVEL001
   6
CONTINUOUS
  62
7
  10
 457.464
  20
 554.865
  30
0.0
  11
 458.748
  21
 559.851
  31
0.0
   0
CIRCLE
   8
LEVEL001
   6
CONTINUOUS
  62
7
  10
 465.000
  20
 550.000
  30
0.0
  40
 3.00000
   0
CIRCLE
   8
LEVEL001
   6
CONTINUOUS
  62
7
  10
 465.000
  20
 550.000
  30
0.0
  40
 2.50000
   0
CIRCLE
   8
LEVEL001
   6
CONTINUOUS
  62
7
  10
 529.000
  20
 550.000
  30
0.0
  40
 3.00000
   0
CIRCLE
   8
LEVEL001
   6
CONTINUOUS
  62
7
  10
 529.000
  20
 550.000
  30
0.0
  40
 2.50000
   0
CIRCLE
   8
LEVEL001
   6
CONTINUOUS
  62
7
  10
 497.000
  20
 550.000
  30
0.0
  40
 20.0000
   0
CIRCLE
   8
LEVEL001
   6
CONTINUOUS
  62
7
  10
 570.000
  20
 650.000
  30
0.0
  40
 7.00000
   0
CIRCLE
   8
LEVEL001
   6
CONTINUOUS
  62
7
  10
 570.000
  20
 650.000
  30
0.0
  40
 6.50000
   0
CIRCLE
   8
LEVEL001
   6
CONTINUOUS
  62
7
  10
 570.000
  20
 632.000
  30
0.0
  40
 7.00000
   0
CIRCLE
   8
LEVEL001
   6
CONTINUOUS
  62
7
  10
 570.000
  20
 632.000
  30
0.0
  40
 6.50000
   0
LINE
   8
LEVEL001
   6
CONTINUOUS
  62
7
  10
 450.374
  20
 555.900
  30
0.0
  11
 449.993
  21
 555.404
  31
0.0
   0
LINE
   8
LEVEL001
   6
CONTINUOUS
  62
7
  10
 449.993
  20
 555.404
  30
0.0
  11
 443.526
  21
 552.726
  31
0.0
   0
LINE
   8
LEVEL001
   6
CONTINUOUS
  62
7
  10
 443.526
  20
 552.726
  30
0.0
  11
 442.906
  21
 552.807
  31
0.0
   0
LINE
   8
LEVEL001
   6
CONTINUOUS
  62
7
  10
 442.906
  20
 552.807
  30
0.0
  11
 442.227
  21
 554.447
  31
0.0
   0
LINE
   8
LEVEL001
   6
CONTINUOUS
  62
7
  10
 442.227
  20
 554.447
  30
0.0
  11
 442.608
  21
 554.943
  31
0.0
   0
LINE
   8
LEVEL001
   6
CONTINUOUS
  62
7
  10
 442.608
  20
 554.943
  30
0.0
  11
 449.075
  21
 557.622
  31
0.0
   0
LINE
   8
LEVEL001
   6
CONTINUOUS
  62
7
  10
 449.075
  20
 557.622
  30
0.0
  11
 449.695
  21
 557.540
  31
0.0
   0
LINE
   8
LEVEL001
   6
CONTINUOUS
  62
7
  10
 449.695
  20
 557.540
  30
0.0
  11
 450.374
  21
 555.900
  31
0.0
   0
LINE
   8
LEVEL001
   6
CONTINUOUS
  62
7
  10
 443.660
  20
 561.548
  30
0.0
  11
 445.877
  21
 562.467
  31
0.0
   0
LINE
   8
LEVEL001
   6
CONTINUOUS
  62
7
  10
 445.877
  20
 562.467
  30
0.0
  11
 447.742
  21
 560.317
  31
0.0
   0
LINE
   8
LEVEL001
   6
CONTINUOUS
  62
7
  10
 447.742
  20
 560.317
  30
0.0
  11
 444.693
  21
 559.054
  31
0.0
   0
LINE
   8
LEVEL001
   6
CONTINUOUS
  62
7
  10
 444.693
  20
 559.054
  30
0.0
  11
 441.644
  21
 557.791
  31
0.0
   0
LINE
   8
LEVEL001
   6
CONTINUOUS
  62
7
  10
 441.644
  20
 557.791
  30
0.0
  11
 441.443
  21
 560.630
  31
0.0
   0
LINE
   8
LEVEL001
   6
CONTINUOUS
  62
7
  10
 441.443
  20
 560.630
  30
0.0
  11
 443.660
  21
 561.548
  31
0.0
   0
LINE
   8
LEVEL001
   6
CONTINUOUS
  62
7
  10
 546.000
  20
 747.000
  30
0.0
  11
 545.000
  21
 746.000
  31
0.0
   0
LINE
   8
LEVEL001
   6
CONTINUOUS
  62
7
  10
 545.000
  20
 746.000
  30
0.0
  11
 545.000
  21
 702.000
  31
0.0
   0
LINE
   8
LEVEL001
   6
CONTINUOUS
  62
7
  10
 594.000
  20
 747.000
  30
0.0
  11
 595.000
  21
 746.000
  31
0.0
   0
LINE
   8
LEVEL001
   6
CONTINUOUS
  62
7
  10
 595.000
  20
 746.000
  30
0.0
  11
 595.000
  21
 702.000
  31
0.0
   0
LINE
   8
LEVEL001
   6
CONTINUOUS
  62
7
  10
 570.000
  20
 653.464
  30
0.0
  11
 567.000
  21
 651.732
  31
0.0
   0
LINE
   8
LEVEL001
   6
CONTINUOUS
  62
7
  10
 567.000
  20
 651.732
  30
0.0
  11
 567.000
  21
 648.268
  31
0.0
   0
LINE
   8
LEVEL001
   6
CONTINUOUS
  62
7
  10
 567.000
  20
 648.268
  30
0.0
  11
 570.000
  21
 646.536
  31
0.0
   0
LINE
   8
LEVEL001
   6
CONTINUOUS
  62
7
  10
 570.000
  20
 646.536
  30
0.0
  11
 573.000
  21
 648.268
  31
0.0
   0
LINE
   8
LEVEL001
   6
CONTINUOUS
  62
7
  10
 573.000
  20
 648.268
  30
0.0
  11
 573.000
  21
 651.732
  31
0.0
   0
LINE
   8
LEVEL001
   6
CONTINUOUS
  62
7
  10
 573.000
  20
 651.732
  30
0.0
  11
 570.000
  21
 653.464
  31
0.0
   0
LINE
   8
LEVEL001
   6
CONTINUOUS
  62
7
  10
 570.000
  20
 635.464
  30
0.0
  11
 567.000
  21
 633.732
  31
0.0
   0
LINE
   8
LEVEL001
   6
CONTINUOUS
  62
7
  10
 567.000
  20
 633.732
  30
0.0
  11
 567.000
  21
 630.268
  31
0.0
   0
LINE
   8
LEVEL001
   6
CONTINUOUS
  62
7
  10
 567.000
  20
 630.268
  30
0.0
  11
 570.000
  21
 628.536
  31
0.0
   0
LINE
   8
LEVEL001
   6
CONTINUOUS
  62
7
  10
 570.000
  20
 628.536
  30
0.0
  11
 573.000
  21
 630.268
  31
0.0
   0
LINE
   8
LEVEL001
   6
CONTINUOUS
  62
7
  10
 573.000
  20
 630.268
  30
0.0
  11
 573.000
  21
 633.732
  31
0.0
   0
LINE
   8
LEVEL001
   6
CONTINUOUS
  62
7
  10
 573.000
  20
 633.732
  30
0.0
  11
 570.000
  21
 635.464
  31
0.0
   0
LINE
   8
LEVEL001
   6
CONTINUOUS
  62
7
  10
 480.000
  20
 622.500
  30
0.0
  11
 660.000
  21
 622.500
  31
0.0
   0
LINE
   8
LEVEL001
   6
CONTINUOUS
  62
7
  10
 525.548
  20
 634.521
  30
0.0
  11
 526.760
  21
 633.821
  31
0.0
   0
LINE
   8
LEVEL001
   6
CONTINUOUS
  62
7
  10
 506.972
  20
 634.521
  30
0.0
  11
 525.548
  21
 634.521
  31
0.0
   0
LINE
   8
LEVEL001
   6
CONTINUOUS
  62
7
  10
 505.760
  20
 633.821
  30
0.0
  11
 506.972
  21
 634.521
  31
0.0
   0
LINE
   8
LEVEL001
   6
CONTINUOUS
  62
7
  10
 526.760
  20
 633.821
  30
0.0
  11
 505.760
  21
 633.821
  31
0.0
   0
LINE
   8
LEVEL001
   6
CONTINUOUS
  62
7
  10
 633.028
  20
 634.521
  30
0.0
  11
 634.240
  21
 633.821
  31
0.0
   0
LINE
   8
LEVEL001
   6
CONTINUOUS
  62
7
  10
 614.452
  20
 634.521
  30
0.0
  11
 633.028
  21
 634.521
  31
0.0
   0
LINE
   8
LEVEL001
   6
CONTINUOUS
  62
7
  10
 613.240
  20
 633.821
  30
0.0
  11
 614.452
  21
 634.521
  31
0.0
   0
LINE
   8
LEVEL001
   6
CONTINUOUS
  62
7
  10
 634.240
  20
 633.821
  30
0.0
  11
 613.240
  21
 633.821
  31
0.0
   0
LINE
   8
LEVEL001
   6
CONTINUOUS
  62
7
  10
 505.760
  20
 622.500
  30
0.0
  11
 505.760
  21
 633.821
  31
0.0
   0
LINE
   8
LEVEL001
   6
CONTINUOUS
  62
7
  10
 526.760
  20
 633.821
  30
0.0
  11
 526.760
  21
 622.500
  31
0.0
   0
LINE
   8
LEVEL001
   6
CONTINUOUS
  62
7
  10
 527.322
  20
 659.189
  30
0.0
  11
 525.753
  21
 634.402
  31
0.0
   0
LINE
   8
LEVEL001
   6
CONTINUOUS
  62
7
  10
 634.240
  20
 633.821
  30
0.0
  11
 634.240
  21
 622.500
  31
0.0
   0
LINE
   8
LEVEL001
   6
CONTINUOUS
  62
7
  10
 613.240
  20
 622.500
  30
0.0
  11
 613.240
  21
 633.821
  31
0.0
   0
LINE
   8
LEVEL001
   6
CONTINUOUS
  62
7
  10
 612.678
  20
 659.189
  30
0.0
  11
 614.247
  21
 634.402
  31
0.0
   0
LINE
   8
LEVEL001
   6
CONTINUOUS
  62
7
  10
 525.850
  20
 587.512
  30
0.0
  11
 655.661
  21
 587.512
  31
0.0
   0
LINE
   8
LEVEL001
   6
CONTINUOUS
  62
7
  10
 542.469
  20
 569.510
  30
0.0
  11
 643.983
  21
 569.510
  31
0.0
   0
LINE
   8
LEVEL001
   6
CONTINUOUS
  62
7
  10
 688.000
  20
 502.000
  30
0.0
  11
 584.414
  21
 502.000
  31
0.0
   0
LINE
   8
LEVEL001
   6
CONTINUOUS
  62
7
  10
 555.785
  20
 502.000
  30
0.0
  11
 530.676
  21
 502.000
  31
0.0
   0
ARC
   8
LEVEL001
   6
CONTINUOUS
  62
7
  10
 530.676
  20
 512.000
  30
0.0
  40
 10.0000
  50
 144.412
  51
 270.000
   0
LINE
   8
LEVEL001
   6
DASHDOT
  62
1
  10
 440.000
  20
 510.000
  30
0.0
  11
 440.000
  21
 480.000
  31
0.0
   0
LINE
   8
LEVEL001
   6
DASHDOT
  62
1
  10
 665.000
  20
 510.000
  30
0.0
  11
 665.000
  21
 480.000
  31
0.0
   0
LINE
   8
LEVEL001
   6
DASHDOT
  62
1
  10
 497.000
  20
 593.000
  30
0.0
  11
 497.000
  21
 506.000
  31
0.0
   0
LINE
   8
LEVEL001
   6
DASHDOT
  62
1
  10
 440.000
  20
 550.000
  30
0.0
  11
 660.000
  21
 550.000
  31
0.0
   0
LINE
   8
LEVEL001
   6
DASHDOT
  62
1
  10
 442.225
  20
 565.013
  30
0.0
  11
 451.550
  21
 542.500
  31
0.0
   0
LINE
   8
LEVEL001
   6
DASHDOT
  62
1
  10
 577.000
  20
 650.000
  30
0.0
  11
 561.000
  21
 650.000
  31
0.0
   0
LINE
   8
LEVEL001
   6
DASHDOT
  62
1
  10
 577.000
  20
 632.000
  30
0.0
  11
 563.000
  21
 632.000
  31
0.0
   0
LINE
   8
LEVEL001
   6
DASHDOT
  62
1
  10
 570.000
  20
 755.000
  30
0.0
  11
 570.000
  21
 59.0000
  31
0.0
   0
LINE
   8
LEVEL001
   6
DASHDOT
  62
1
  10
 350.000
  20
 550.000
  30
0.0
  11
 50.0000
  21
 550.000
  31
0.0
   0
LINE
   8
LEVEL001
   6
DASHDOT
  62
1
  10
 200.000
  20
 755.000
  30
0.0
  11
 200.000
  21
 59.0000
  31
0.0
   0
LINE
   8
LEVEL001
   6
DASHDOT
  62
1
  10
 155.000
  20
 510.000
  30
0.0
  11
 155.000
  21
 480.000
  31
0.0
   0
LINE
   8
LEVEL001
   6
DASHDOT
  62
1
  10
 245.000
  20
 510.000
  30
0.0
  11
 245.000
  21
 480.000
  31
0.0
   0
LINE
   8
LEVEL001
   6
CONTINUOUS
  62
7
  10
 224.283
  20
 847.500
  30
0.0
  11
 224.270
  21
 848.007
  31
0.0
   0
LINE
   8
LEVEL001
   6
CONTINUOUS
  62
7
  10
 224.283
  20
 847.500
  30
0.0
  11
 215.716
  21
 847.500
  31
0.0
   0
LINE
   8
LEVEL001
   6
CONTINUOUS
  62
7
  10
 215.117
  20
 846.900
  30
0.0
  11
 215.716
  21
 847.500
  31
0.0
   0
LINE
   8
LEVEL001
   6
CONTINUOUS
  62
7
  10
 225.773
  20
 843.747
  30
0.0
  11
 225.773
  21
 846.454
  31
0.0
   0
LINE
   8
LEVEL001
   6
CONTINUOUS
  62
7
  10
 225.000
  20
 843.300
  30
0.0
  11
 225.773
  21
 843.747
  31
0.0
   0
LINE
   8
LEVEL001
   6
CONTINUOUS
  62
7
  10
 215.000
  20
 843.300
  30
0.0
  11
 225.000
  21
 843.300
  31
0.0
   0
LINE
   8
LEVEL001
   6
CONTINUOUS
  62
7
  10
 214.227
  20
 843.747
  30
0.0
  11
 215.000
  21
 843.300
  31
0.0
   0
LINE
   8
LEVEL001
   6
CONTINUOUS
  62
7
  10
 214.227
  20
 846.454
  30
0.0
  11
 214.227
  21
 843.747
  31
0.0
   0
LINE
   8
LEVEL001
   6
CONTINUOUS
  62
7
  10
 215.000
  20
 846.900
  30
0.0
  11
 214.227
  21
 846.454
  31
0.0
   0
LINE
   8
LEVEL001
   6
CONTINUOUS
  62
7
  10
 225.000
  20
 846.900
  30
0.0
  11
 215.000
  21
 846.900
  31
0.0
   0
LINE
   8
LEVEL001
   6
CONTINUOUS
  62
7
  10
 225.773
  20
 846.454
  30
0.0
  11
 225.000
  21
 846.900
  31
0.0
   0
LINE
   8
LEVEL001
   6
CONTINUOUS
  62
7
  10
 224.883
  20
 846.900
  30
0.0
  11
 224.283
  21
 847.500
  31
0.0
   0
ARC
   8
LEVEL001
   6
CONTINUOUS
  62
7
  10
 224.910
  20
 842.101
  30
0.0
  40
 4.80000
  50
 88.9304
  51
 114.935
   0
ARC
   8
LEVEL001
   6
CONTINUOUS
  62
7
  10
 215.090
  20
 842.101
  30
0.0
  40
 4.80000
  50
 65.0648
  51
 91.0696
   0
ARC
   8
LEVEL001
   6
CONTINUOUS
  62
7
  10
 220.000
  20
 837.347
  30
0.0
  40
 9.55316
  50
 72.4116
  51
 107.588
   0
LINE
   8
LEVEL001
   6
CONTINUOUS
  62
7
  10
 222.887
  20
 846.454
  30
0.0
  11
 222.887
  21
 843.747
  31
0.0
   0
LINE
   8
LEVEL001
   6
CONTINUOUS
  62
7
  10
 217.113
  20
 846.454
  30
0.0
  11
 217.113
  21
 843.747
  31
0.0
   0
ARC
   8
LEVEL001
   6
CONTINUOUS
  62
7
  10
 220.000
  20
 838.444
  30
0.0
  40
 5.62228
  50
 308.501
  51
 332.788
   0
ARC
   8
LEVEL001
   6
CONTINUOUS
  62
7
  10
 220.000
  20
 838.444
  30
0.0
  40
 5.62228
  50
 207.212
  51
 231.499
   0
LINE
   8
LEVEL001
   6
CONTINUOUS
  62
7
  10
 225.000
  20
 843.300
  30
0.0
  11
 225.000
  21
 835.873
  31
0.0
   0
LINE
   8
LEVEL001
   6
CONTINUOUS
  62
7
  10
 215.000
  20
 835.873
  30
0.0
  11
 215.000
  21
 843.300
  31
0.0
   0
ARC
   8
LEVEL001
   6
CONTINUOUS
  62
7
  10
 220.000
  20
 852.854
  30
0.0
  40
 9.55313
  50
 252.412
  51
 287.588
   0
ARC
   8
LEVEL001
   6
CONTINUOUS
  62
7
  10
 224.910
  20
 848.100
  30
0.0
  40
 4.80000
  50
 245.065
  51
 271.070
   0
ARC
   8
LEVEL001
   6
CONTINUOUS
  62
7
  10
 215.090
  20
 848.100
  30
0.0
  40
 4.80000
  50
 268.930
  51
 294.935
   0
LINE
   8
LEVEL001
   6
CONTINUOUS
  62
7
  10
 220.000
  20
 840.494
  30
0.0
  11
 220.000
  21
 839.575
  31
0.0
   0
LINE
   8
LEVEL001
   6
CONTINUOUS
  62
7
  10
 216.501
  20
 838.626
  30
0.0
  11
 216.501
  21
 837.708
  31
0.0
   0
LINE
   8
LEVEL001
   6
CONTINUOUS
  62
7
  10
 223.499
  20
 838.626
  30
0.0
  11
 223.499
  21
 837.708
  31
0.0
   0
LINE
   8
LEVEL001
   6
CONTINUOUS
  62
7
  10
 220.000
  20
 840.494
  30
0.0
  11
 216.501
  21
 838.626
  31
0.0
   0
LINE
   8
LEVEL001
   6
CONTINUOUS
  62
7
  10
 220.000
  20
 840.494
  30
0.0
  11
 223.499
  21
 838.626
  31
0.0
   0
LINE
   8
LEVEL001
   6
CONTINUOUS
  62
7
  10
 216.501
  20
 833.974
  30
0.0
  11
 216.849
  21
 833.788
  31
0.0
   0
LINE
   8
LEVEL001
   6
CONTINUOUS
  62
7
  10
 223.137
  20
 833.781
  30
0.0
  11
 223.499
  21
 833.974
  31
0.0
   0
LINE
   8
LEVEL001
   6
CONTINUOUS
  62
7
  10
 223.499
  20
 833.974
  30
0.0
  11
 223.499
  21
 837.708
  31
0.0
   0
LINE
   8
LEVEL001
   6
CONTINUOUS
  62
7
  10
 216.501
  20
 837.708
  30
0.0
  11
 216.501
  21
 833.974
  31
0.0
   0
LINE
   8
LEVEL001
   6
CONTINUOUS
  62
7
  10
 220.000
  20
 839.575
  30
0.0
  11
 216.501
  21
 837.708
  31
0.0
   0
LINE
   8
LEVEL001
   6
CONTINUOUS
  62
7
  10
 220.000
  20
 839.575
  30
0.0
  11
 223.499
  21
 837.708
  31
0.0
   0
LINE
   8
LEVEL001
   6
CONTINUOUS
  62
7
  10
 223.277
  20
 834.704
  30
0.0
  11
 223.338
  21
 834.868
  31
0.0
   0
LINE
   8
LEVEL001
   6
CONTINUOUS
  62
7
  10
 223.338
  20
 834.868
  30
0.0
  11
 223.389
  21
 835.035
  31
0.0
   0
LINE
   8
LEVEL001
   6
CONTINUOUS
  62
7
  10
 223.389
  20
 835.035
  30
0.0
  11
 223.431
  21
 835.204
  31
0.0
   0
LINE
   8
LEVEL001
   6
CONTINUOUS
  62
7
  10
 223.431
  20
 835.204
  30
0.0
  11
 223.463
  21
 835.375
  31
0.0
   0
LINE
   8
LEVEL001
   6
CONTINUOUS
  62
7
  10
 223.463
  20
 835.375
  30
0.0
  11
 223.485
  21
 835.547
  31
0.0
   0
LINE
   8
LEVEL001
   6
CONTINUOUS
  62
7
  10
 223.485
  20
 835.547
  30
0.0
  11
 223.498
  21
 835.720
  31
0.0
   0
LINE
   8
LEVEL001
   6
CONTINUOUS
  62
7
  10
 223.498
  20
 835.720
  30
0.0
  11
 223.500
  21
 835.893
  31
0.0
   0
LINE
   8
LEVEL001
   6
CONTINUOUS
  62
7
  10
 223.500
  20
 835.893
  30
0.0
  11
 223.491
  21
 836.066
  31
0.0
   0
LINE
   8
LEVEL001
   6
CONTINUOUS
  62
7
  10
 223.491
  20
 836.066
  30
0.0
  11
 223.473
  21
 836.239
  31
0.0
   0
LINE
   8
LEVEL001
   6
CONTINUOUS
  62
7
  10
 223.473
  20
 836.239
  30
0.0
  11
 223.445
  21
 836.410
  31
0.0
   0
LINE
   8
LEVEL001
   6
CONTINUOUS
  62
7
  10
 223.445
  20
 836.410
  30
0.0
  11
 223.407
  21
 836.580
  31
0.0
   0
LINE
   8
LEVEL001
   6
CONTINUOUS
  62
7
  10
 223.407
  20
 836.580
  30
0.0
  11
 223.360
  21
 836.748
  31
0.0
   0
LINE
   8
LEVEL001
   6
CONTINUOUS
  62
7
  10
 223.360
  20
 836.748
  30
0.0
  11
 223.302
  21
 836.913
  31
0.0
   0
LINE
   8
LEVEL001
   6
CONTINUOUS
  62
7
  10
 223.302
  20
 836.913
  30
0.0
  11
 223.235
  21
 837.075
  31
0.0
   0
LINE
   8
LEVEL001
   6
CONTINUOUS
  62
7
  10
 223.235
  20
 837.075
  30
0.0
  11
 223.159
  21
 837.233
  31
0.0
   0
LINE
   8
LEVEL001
   6
CONTINUOUS
  62
7
  10
 223.159
  20
 837.233
  30
0.0
  11
 223.074
  21
 837.388
  31
0.0
   0
LINE
   8
LEVEL001
   6
CONTINUOUS
  62
7
  10
 223.074
  20
 837.388
  30
0.0
  11
 222.980
  21
 837.538
  31
0.0
   0
LINE
   8
LEVEL001
   6
CONTINUOUS
  62
7
  10
 222.980
  20
 837.538
  30
0.0
  11
 222.877
  21
 837.683
  31
0.0
   0
LINE
   8
LEVEL001
   6
CONTINUOUS
  62
7
  10
 222.877
  20
 837.683
  30
0.0
  11
 222.766
  21
 837.823
  31
0.0
   0
LINE
   8
LEVEL001
   6
CONTINUOUS
  62
7
  10
 222.766
  20
 837.823
  30
0.0
  11
 222.647
  21
 837.957
  31
0.0
   0
LINE
   8
LEVEL001
   6
CONTINUOUS
  62
7
  10
 222.647
  20
 837.957
  30
0.0
  11
 222.520
  21
 838.085
  31
0.0
   0
LINE
   8
LEVEL001
   6
CONTINUOUS
  62
7
  10
 222.520
  20
 838.085
  30
0.0
  11
 222.387
  21
 838.206
  31
0.0
   0
LINE
   8
LEVEL001
   6
CONTINUOUS
  62
7
  10
 222.387
  20
 838.206
  30
0.0
  11
 222.246
  21
 838.321
  31
0.0
   0
LINE
   8
LEVEL001
   6
CONTINUOUS
  62
7
  10
 222.246
  20
 838.321
  30
0.0
  11
 222.099
  21
 838.429
  31
0.0
   0
LINE
   8
LEVEL001
   6
CONTINUOUS
  62
7
  10
 222.099
  20
 838.429
  30
0.0
  11
 221.946
  21
 838.529
  31
0.0
   0
LINE
   8
LEVEL001
   6
CONTINUOUS
  62
7
  10
 221.946
  20
 838.529
  30
0.0
  11
 221.787
  21
 838.622
  31
0.0
   0
LINE
   8
LEVEL001
   6
CONTINUOUS
  62
7
  10
 221.787
  20
 838.622
  30
0.0
  11
 221.623
  21
 838.706
  31
0.0
   0
LINE
   8
LEVEL001
   6
CONTINUOUS
  62
7
  10
 221.623
  20
 838.706
  30
0.0
  11
 221.455
  21
 838.782
  31
0.0
   0
LINE
   8
LEVEL001
   6
CONTINUOUS
  62
7
  10
 221.455
  20
 838.782
  30
0.0
  11
 221.282
  21
 838.850
  31
0.0
   0
LINE
   8
LEVEL001
   6
CONTINUOUS
  62
7
  10
 221.282
  20
 838.850
  30
0.0
  11
 221.105
  21
 838.909
  31
0.0
   0
LINE
   8
LEVEL001
   6
CONTINUOUS
  62
7
  10
 221.105
  20
 838.909
  30
0.0
  11
 220.926
  21
 838.960
  31
0.0
   0
LINE
   8
LEVEL001
   6
CONTINUOUS
  62
7
  10
 220.926
  20
 838.960
  30
0.0
  11
 220.744
  21
 839.001
  31
0.0
   0
LINE
   8
LEVEL001
   6
CONTINUOUS
  62
7
  10
 220.744
  20
 839.001
  30
0.0
  11
 220.559
  21
 839.033
  31
0.0
   0
LINE
   8
LEVEL001
   6
CONTINUOUS
  62
7
  10
 220.559
  20
 839.033
  30
0.0
  11
 220.373
  21
 839.056
  31
0.0
   0
LINE
   8
LEVEL001
   6
CONTINUOUS
  62
7
  10
 220.373
  20
 839.056
  30
0.0
  11
 220.186
  21
 839.070
  31
0.0
   0
LINE
   8
LEVEL001
   6
CONTINUOUS
  62
7
  10
 220.186
  20
 839.070
  30
0.0
  11
 219.999
  21
 839.075
  31
0.0
   0
LINE
   8
LEVEL001
   6
CONTINUOUS
  62
7
  10
 219.999
  20
 839.075
  30
0.0
  11
 219.811
  21
 839.070
  31
0.0
   0
LINE
   8
LEVEL001
   6
CONTINUOUS
  62
7
  10
 219.811
  20
 839.070
  30
0.0
  11
 219.624
  21
 839.056
  31
0.0
   0
LINE
   8
LEVEL001
   6
CONTINUOUS
  62
7
  10
 219.624
  20
 839.056
  30
0.0
  11
 219.438
  21
 839.033
  31
0.0
   0
LINE
   8
LEVEL001
   6
CONTINUOUS
  62
7
  10
 219.438
  20
 839.033
  30
0.0
  11
 219.254
  21
 839.000
  31
0.0
   0
LINE
   8
LEVEL001
   6
CONTINUOUS
  62
7
  10
 219.254
  20
 839.000
  30
0.0
  11
 219.071
  21
 838.959
  31
0.0
   0
LINE
   8
LEVEL001
   6
CONTINUOUS
  62
7
  10
 219.071
  20
 838.959
  30
0.0
  11
 218.892
  21
 838.908
  31
0.0
   0
LINE
   8
LEVEL001
   6
CONTINUOUS
  62
7
  10
 218.892
  20
 838.908
  30
0.0
  11
 218.715
  21
 838.849
  31
0.0
   0
LINE
   8
LEVEL001
   6
CONTINUOUS
  62
7
  10
 218.715
  20
 838.849
  30
0.0
  11
 218.543
  21
 838.781
  31
0.0
   0
LINE
   8
LEVEL001
   6
CONTINUOUS
  62
7
  10
 218.543
  20
 838.781
  30
0.0
  11
 218.374
  21
 838.705
  31
0.0
   0
LINE
   8
LEVEL001
   6
CONTINUOUS
  62
7
  10
 218.374
  20
 838.705
  30
0.0
  11
 218.211
  21
 838.620
  31
0.0
   0
LINE
   8
LEVEL001
   6
CONTINUOUS
  62
7
  10
 218.211
  20
 838.620
  30
0.0
  11
 218.052
  21
 838.528
  31
0.0
   0
LINE
   8
LEVEL001
   6
CONTINUOUS
  62
7
  10
 218.052
  20
 838.528
  30
0.0
  11
 217.899
  21
 838.427
  31
0.0
   0
LINE
   8
LEVEL001
   6
CONTINUOUS
  62
7
  10
 217.899
  20
 838.427
  30
0.0
  11
 217.752
  21
 838.320
  31
0.0
   0
LINE
   8
LEVEL001
   6
CONTINUOUS
  62
7
  10
 217.752
  20
 838.320
  30
0.0
  11
 217.611
  21
 838.205
  31
0.0
   0
LINE
   8
LEVEL001
   6
CONTINUOUS
  62
7
  10
 217.611
  20
 838.205
  30
0.0
  11
 217.478
  21
 838.083
  31
0.0
   0
LINE
   8
LEVEL001
   6
CONTINUOUS
  62
7
  10
 217.478
  20
 838.083
  30
0.0
  11
 217.351
  21
 837.955
  31
0.0
   0
LINE
   8
LEVEL001
   6
CONTINUOUS
  62
7
  10
 217.351
  20
 837.955
  30
0.0
  11
 217.232
  21
 837.821
  31
0.0
   0
LINE
   8
LEVEL001
   6
CONTINUOUS
  62
7
  10
 217.232
  20
 837.821
  30
0.0
  11
 217.121
  21
 837.681
  31
0.0
   0
LINE
   8
LEVEL001
   6
CONTINUOUS
  62
7
  10
 217.121
  20
 837.681
  30
0.0
  11
 217.019
  21
 837.536
  31
0.0
   0
LINE
   8
LEVEL001
   6
CONTINUOUS
  62
7
  10
 217.019
  20
 837.536
  30
0.0
  11
 216.925
  21
 837.385
  31
0.0
   0
LINE
   8
LEVEL001
   6
CONTINUOUS
  62
7
  10
 216.925
  20
 837.385
  30
0.0
  11
 216.840
  21
 837.231
  31
0.0
   0
LINE
   8
LEVEL001
   6
CONTINUOUS
  62
7
  10
 216.840
  20
 837.231
  30
0.0
  11
 216.764
  21
 837.072
  31
0.0
   0
LINE
   8
LEVEL001
   6
CONTINUOUS
  62
7
  10
 216.764
  20
 837.072
  30
0.0
  11
 216.697
  21
 836.910
  31
0.0
   0
LINE
   8
LEVEL001
   6
CONTINUOUS
  62
7
  10
 216.697
  20
 836.910
  30
0.0
  11
 216.640
  21
 836.745
  31
0.0
   0
LINE
   8
LEVEL001
   6
CONTINUOUS
  62
7
  10
 216.640
  20
 836.745
  30
0.0
  11
 216.592
  21
 836.578
  31
0.0
   0
LINE
   8
LEVEL001
   6
CONTINUOUS
  62
7
  10
 216.592
  20
 836.578
  30
0.0
  11
 216.554
  21
 836.408
  31
0.0
   0
LINE
   8
LEVEL001
   6
CONTINUOUS
  62
7
  10
 216.554
  20
 836.408
  30
0.0
  11
 216.526
  21
 836.236
  31
0.0
   0
LINE
   8
LEVEL001
   6
CONTINUOUS
  62
7
  10
 216.526
  20
 836.236
  30
0.0
  11
 216.508
  21
 836.064
  31
0.0
   0
LINE
   8
LEVEL001
   6
CONTINUOUS
  62
7
  10
 216.508
  20
 836.064
  30
0.0
  11
 216.500
  21
 835.891
  31
0.0
   0
LINE
   8
LEVEL001
   6
CONTINUOUS
  62
7
  10
 216.500
  20
 835.891
  30
0.0
  11
 216.503
  21
 835.717
  31
0.0
   0
LINE
   8
LEVEL001
   6
CONTINUOUS
  62
7
  10
 216.503
  20
 835.717
  30
0.0
  11
 216.515
  21
 835.544
  31
0.0
   0
LINE
   8
LEVEL001
   6
CONTINUOUS
  62
7
  10
 216.515
  20
 835.544
  30
0.0
  11
 216.537
  21
 835.372
  31
0.0
   0
LINE
   8
LEVEL001
   6
CONTINUOUS
  62
7
  10
 216.537
  20
 835.372
  30
0.0
  11
 216.569
  21
 835.201
  31
0.0
   0
LINE
   8
LEVEL001
   6
CONTINUOUS
  62
7
  10
 216.569
  20
 835.201
  30
0.0
  11
 216.611
  21
 835.032
  31
0.0
   0
LINE
   8
LEVEL001
   6
CONTINUOUS
  62
7
  10
 216.611
  20
 835.032
  30
0.0
  11
 216.663
  21
 834.866
  31
0.0
   0
LINE
   8
LEVEL001
   6
CONTINUOUS
  62
7
  10
 216.663
  20
 834.866
  30
0.0
  11
 216.725
  21
 834.702
  31
0.0
   0
LINE
   8
LEVEL001
   6
CONTINUOUS
  62
7
  10
 221.527
  20
 831.990
  30
0.0
  11
 221.736
  21
 832.100
  31
0.0
   0
LINE
   8
LEVEL001
   6
CONTINUOUS
  62
7
  10
 221.736
  20
 832.100
  30
0.0
  11
 221.936
  21
 832.224
  31
0.0
   0
LINE
   8
LEVEL001
   6
CONTINUOUS
  62
7
  10
 221.936
  20
 832.224
  30
0.0
  11
 222.126
  21
 832.361
  31
0.0
   0
LINE
   8
LEVEL001
   6
CONTINUOUS
  62
7
  10
 222.126
  20
 832.361
  30
0.0
  11
 222.305
  21
 832.511
  31
0.0
   0
LINE
   8
LEVEL001
   6
CONTINUOUS
  62
7
  10
 222.305
  20
 832.511
  30
0.0
  11
 222.471
  21
 832.672
  31
0.0
   0
LINE
   8
LEVEL001
   6
CONTINUOUS
  62
7
  10
 222.471
  20
 832.672
  30
0.0
  11
 222.624
  21
 832.844
  31
0.0
   0
LINE
   8
LEVEL001
   6
CONTINUOUS
  62
7
  10
 222.624
  20
 832.844
  30
0.0
  11
 222.763
  21
 833.026
  31
0.0
   0
LINE
   8
LEVEL001
   6
CONTINUOUS
  62
7
  10
 222.763
  20
 833.026
  30
0.0
  11
 222.887
  21
 833.217
  31
0.0
   0
LINE
   8
LEVEL001
   6
CONTINUOUS
  62
7
  10
 222.887
  20
 833.217
  30
0.0
  11
 222.996
  21
 833.416
  31
0.0
   0
LINE
   8
LEVEL001
   6
CONTINUOUS
  62
7
  10
 222.996
  20
 833.416
  30
0.0
  11
 223.089
  21
 833.621
  31
0.0
   0
LINE
   8
LEVEL001
   6
CONTINUOUS
  62
7
  10
 223.089
  20
 833.621
  30
0.0
  11
 223.166
  21
 833.832
  31
0.0
   0
LINE
   8
LEVEL001
   6
CONTINUOUS
  62
7
  10
 223.166
  20
 833.832
  30
0.0
  11
 223.225
  21
 834.048
  31
0.0
   0
LINE
   8
LEVEL001
   6
CONTINUOUS
  62
7
  10
 223.225
  20
 834.048
  30
0.0
  11
 223.268
  21
 834.267
  31
0.0
   0
LINE
   8
LEVEL001
   6
CONTINUOUS
  62
7
  10
 223.268
  20
 834.267
  30
0.0
  11
 223.293
  21
 834.489
  31
0.0
   0
LINE
   8
LEVEL001
   6
CONTINUOUS
  62
7
  10
 223.293
  20
 834.489
  30
0.0
  11
 223.300
  21
 834.711
  31
0.0
   0
LINE
   8
LEVEL001
   6
CONTINUOUS
  62
7
  10
 223.300
  20
 834.711
  30
0.0
  11
 223.290
  21
 834.934
  31
0.0
   0
LINE
   8
LEVEL001
   6
CONTINUOUS
  62
7
  10
 223.290
  20
 834.934
  30
0.0
  11
 223.262
  21
 835.155
  31
0.0
   0
LINE
   8
LEVEL001
   6
CONTINUOUS
  62
7
  10
 223.262
  20
 835.155
  30
0.0
  11
 223.217
  21
 835.374
  31
0.0
   0
LINE
   8
LEVEL001
   6
CONTINUOUS
  62
7
  10
 223.217
  20
 835.374
  30
0.0
  11
 223.154
  21
 835.589
  31
0.0
   0
LINE
   8
LEVEL001
   6
CONTINUOUS
  62
7
  10
 223.154
  20
 835.589
  30
0.0
  11
 223.075
  21
 835.799
  31
0.0
   0
LINE
   8
LEVEL001
   6
CONTINUOUS
  62
7
  10
 223.075
  20
 835.799
  30
0.0
  11
 222.980
  21
 836.003
  31
0.0
   0
LINE
   8
LEVEL001
   6
CONTINUOUS
  62
7
  10
 222.980
  20
 836.003
  30
0.0
  11
 222.868
  21
 836.201
  31
0.0
   0
LINE
   8
LEVEL001
   6
CONTINUOUS
  62
7
  10
 222.868
  20
 836.201
  30
0.0
  11
 222.742
  21
 836.390
  31
0.0
   0
LINE
   8
LEVEL001
   6
CONTINUOUS
  62
7
  10
 222.742
  20
 836.390
  30
0.0
  11
 222.600
  21
 836.571
  31
0.0
   0
LINE
   8
LEVEL001
   6
CONTINUOUS
  62
7
  10
 222.600
  20
 836.571
  30
0.0
  11
 222.445
  21
 836.741
  31
0.0
   0
LINE
   8
LEVEL001
   6
CONTINUOUS
  62
7
  10
 222.445
  20
 836.741
  30
0.0
  11
 222.277
  21
 836.900
  31
0.0
   0
LINE
   8
LEVEL001
   6
CONTINUOUS
  62
7
  10
 222.277
  20
 836.900
  30
0.0
  11
 222.096
  21
 837.048
  31
0.0
   0
LINE
   8
LEVEL001
   6
CONTINUOUS
  62
7
  10
 222.096
  20
 837.048
  30
0.0
  11
 221.905
  21
 837.183
  31
0.0
   0
LINE
   8
LEVEL001
   6
CONTINUOUS
  62
7
  10
 221.905
  20
 837.183
  30
0.0
  11
 221.703
  21
 837.305
  31
0.0
   0
LINE
   8
LEVEL001
   6
CONTINUOUS
  62
7
  10
 221.703
  20
 837.305
  30
0.0
  11
 221.492
  21
 837.413
  31
0.0
   0
LINE
   8
LEVEL001
   6
CONTINUOUS
  62
7
  10
 221.492
  20
 837.413
  30
0.0
  11
 221.273
  21
 837.506
  31
0.0
   0
LINE
   8
LEVEL001
   6
CONTINUOUS
  62
7
  10
 221.273
  20
 837.506
  30
0.0
  11
 221.047
  21
 837.584
  31
0.0
   0
LINE
   8
LEVEL001
   6
CONTINUOUS
  62
7
  10
 221.047
  20
 837.584
  30
0.0
  11
 220.816
  21
 837.647
  31
0.0
   0
LINE
   8
LEVEL001
   6
CONTINUOUS
  62
7
  10
 220.816
  20
 837.647
  30
0.0
  11
 220.581
  21
 837.694
  31
0.0
   0
LINE
   8
LEVEL001
   6
CONTINUOUS
  62
7
  10
 220.581
  20
 837.694
  30
0.0
  11
 220.342
  21
 837.726
  31
0.0
   0
LINE
   8
LEVEL001
   6
CONTINUOUS
  62
7
  10
 220.342
  20
 837.726
  30
0.0
  11
 220.102
  21
 837.741
  31
0.0
   0
LINE
   8
LEVEL001
   6
CONTINUOUS
  62
7
  10
 220.102
  20
 837.741
  30
0.0
  11
 219.861
  21
 837.739
  31
0.0
   0
LINE
   8
LEVEL001
   6
CONTINUOUS
  62
7
  10
 219.861
  20
 837.739
  30
0.0
  11
 219.620
  21
 837.722
  31
0.0
   0
LINE
   8
LEVEL001
   6
CONTINUOUS
  62
7
  10
 219.620
  20
 837.722
  30
0.0
  11
 219.382
  21
 837.688
  31
0.0
   0
LINE
   8
LEVEL001
   6
CONTINUOUS
  62
7
  10
 219.382
  20
 837.688
  30
0.0
  11
 219.147
  21
 837.638
  31
0.0
   0
LINE
   8
LEVEL001
   6
CONTINUOUS
  62
7
  10
 219.147
  20
 837.638
  30
0.0
  11
 218.917
  21
 837.573
  31
0.0
   0
LINE
   8
LEVEL001
   6
CONTINUOUS
  62
7
  10
 218.917
  20
 837.573
  30
0.0
  11
 218.692
  21
 837.492
  31
0.0
   0
LINE
   8
LEVEL001
   6
CONTINUOUS
  62
7
  10
 218.692
  20
 837.492
  30
0.0
  11
 218.474
  21
 837.397
  31
0.0
   0
LINE
   8
LEVEL001
   6
CONTINUOUS
  62
7
  10
 218.474
  20
 837.397
  30
0.0
  11
 218.265
  21
 837.287
  31
0.0
   0
LINE
   8
LEVEL001
   6
CONTINUOUS
  62
7
  10
 218.265
  20
 837.287
  30
0.0
  11
 218.065
  21
 837.163
  31
0.0
   0
LINE
   8
LEVEL001
   6
CONTINUOUS
  62
7
  10
 218.065
  20
 837.163
  30
0.0
  11
 217.875
  21
 837.026
  31
0.0
   0
LINE
   8
LEVEL001
   6
CONTINUOUS
  62
7
  10
 217.875
  20
 837.026
  30
0.0
  11
 217.696
  21
 836.876
  31
0.0
   0
LINE
   8
LEVEL001
   6
CONTINUOUS
  62
7
  10
 217.696
  20
 836.876
  30
0.0
  11
 217.530
  21
 836.715
  31
0.0
   0
LINE
   8
LEVEL001
   6
CONTINUOUS
  62
7
  10
 217.530
  20
 836.715
  30
0.0
  11
 217.377
  21
 836.543
  31
0.0
   0
LINE
   8
LEVEL001
   6
CONTINUOUS
  62
7
  10
 217.377
  20
 836.543
  30
0.0
  11
 217.238
  21
 836.361
  31
0.0
   0
LINE
   8
LEVEL001
   6
CONTINUOUS
  62
7
  10
 217.238
  20
 836.361
  30
0.0
  11
 217.113
  21
 836.170
  31
0.0
   0
LINE
   8
LEVEL001
   6
CONTINUOUS
  62
7
  10
 217.113
  20
 836.170
  30
0.0
  11
 217.004
  21
 835.972
  31
0.0
   0
LINE
   8
LEVEL001
   6
CONTINUOUS
  62
7
  10
 217.004
  20
 835.972
  30
0.0
  11
 216.911
  21
 835.766
  31
0.0
   0
LINE
   8
LEVEL001
   6
CONTINUOUS
  62
7
  10
 216.911
  20
 835.766
  30
0.0
  11
 216.835
  21
 835.555
  31
0.0
   0
LINE
   8
LEVEL001
   6
CONTINUOUS
  62
7
  10
 216.835
  20
 835.555
  30
0.0
  11
 216.775
  21
 835.339
  31
0.0
   0
LINE
   8
LEVEL001
   6
CONTINUOUS
  62
7
  10
 216.775
  20
 835.339
  30
0.0
  11
 216.733
  21
 835.120
  31
0.0
   0
LINE
   8
LEVEL001
   6
CONTINUOUS
  62
7
  10
 216.733
  20
 835.120
  30
0.0
  11
 216.708
  21
 834.899
  31
0.0
   0
LINE
   8
LEVEL001
   6
CONTINUOUS
  62
7
  10
 216.708
  20
 834.899
  30
0.0
  11
 216.700
  21
 834.676
  31
0.0
   0
LINE
   8
LEVEL001
   6
CONTINUOUS
  62
7
  10
 216.700
  20
 834.676
  30
0.0
  11
 216.710
  21
 834.454
  31
0.0
   0
LINE
   8
LEVEL001
   6
CONTINUOUS
  62
7
  10
 216.710
  20
 834.454
  30
0.0
  11
 216.738
  21
 834.233
  31
0.0
   0
LINE
   8
LEVEL001
   6
CONTINUOUS
  62
7
  10
 216.738
  20
 834.233
  30
0.0
  11
 216.783
  21
 834.014
  31
0.0
   0
LINE
   8
LEVEL001
   6
CONTINUOUS
  62
7
  10
 216.783
  20
 834.014
  30
0.0
  11
 216.845
  21
 833.799
  31
0.0
   0
LINE
   8
LEVEL001
   6
CONTINUOUS
  62
7
  10
 216.845
  20
 833.799
  30
0.0
  11
 216.924
  21
 833.588
  31
0.0
   0
LINE
   8
LEVEL001
   6
CONTINUOUS
  62
7
  10
 216.924
  20
 833.588
  30
0.0
  11
 217.020
  21
 833.384
  31
0.0
   0
LINE
   8
LEVEL001
   6
CONTINUOUS
  62
7
  10
 217.020
  20
 833.384
  30
0.0
  11
 217.131
  21
 833.186
  31
0.0
   0
LINE
   8
LEVEL001
   6
CONTINUOUS
  62
7
  10
 217.131
  20
 833.186
  30
0.0
  11
 217.258
  21
 832.997
  31
0.0
   0
LINE
   8
LEVEL001
   6
CONTINUOUS
  62
7
  10
 217.258
  20
 832.997
  30
0.0
  11
 217.399
  21
 832.817
  31
0.0
   0
LINE
   8
LEVEL001
   6
CONTINUOUS
  62
7
  10
 217.399
  20
 832.817
  30
0.0
  11
 217.554
  21
 832.646
  31
0.0
   0
LINE
   8
LEVEL001
   6
CONTINUOUS
  62
7
  10
 217.554
  20
 832.646
  30
0.0
  11
 217.723
  21
 832.487
  31
0.0
   0
LINE
   8
LEVEL001
   6
CONTINUOUS
  62
7
  10
 217.723
  20
 832.487
  30
0.0
  11
 217.903
  21
 832.339
  31
0.0
   0
LINE
   8
LEVEL001
   6
CONTINUOUS
  62
7
  10
 217.903
  20
 832.339
  30
0.0
  11
 218.095
  21
 832.204
  31
0.0
   0
LINE
   8
LEVEL001
   6
CONTINUOUS
  62
7
  10
 218.095
  20
 832.204
  30
0.0
  11
 218.296
  21
 832.082
  31
0.0
   0
LINE
   8
LEVEL001
   6
CONTINUOUS
  62
7
  10
 222.400
  20
 833.660
  30
0.0
  11
 222.391
  21
 833.853
  31
0.0
   0
LINE
   8
LEVEL001
   6
CONTINUOUS
  62
7
  10
 222.391
  20
 833.853
  30
0.0
  11
 222.364
  21
 834.045
  31
0.0
   0
LINE
   8
LEVEL001
   6
CONTINUOUS
  62
7
  10
 222.364
  20
 834.045
  30
0.0
  11
 222.318
  21
 834.234
  31
0.0
   0
LINE
   8
LEVEL001
   6
CONTINUOUS
  62
7
  10
 222.318
  20
 834.234
  30
0.0
  11
 222.255
  21
 834.419
  31
0.0
   0
LINE
   8
LEVEL001
   6
CONTINUOUS
  62
7
  10
 222.255
  20
 834.419
  30
0.0
  11
 222.175
  21
 834.597
  31
0.0
   0
LINE
   8
LEVEL001
   6
CONTINUOUS
  62
7
  10
 222.175
  20
 834.597
  30
0.0
  11
 222.078
  21
 834.769
  31
0.0
   0
LINE
   8
LEVEL001
   6
CONTINUOUS
  62
7
  10
 222.078
  20
 834.769
  30
0.0
  11
 221.966
  21
 834.932
  31
0.0
   0
LINE
   8
LEVEL001
   6
CONTINUOUS
  62
7
  10
 221.966
  20
 834.932
  30
0.0
  11
 221.839
  21
 835.085
  31
0.0
   0
LINE
   8
LEVEL001
   6
CONTINUOUS
  62
7
  10
 221.839
  20
 835.085
  30
0.0
  11
 221.697
  21
 835.228
  31
0.0
   0
LINE
   8
LEVEL001
   6
CONTINUOUS
  62
7
  10
 221.697
  20
 835.228
  30
0.0
  11
 221.543
  21
 835.359
  31
0.0
   0
LINE
   8
LEVEL001
   6
CONTINUOUS
  62
7
  10
 221.543
  20
 835.359
  30
0.0
  11
 221.377
  21
 835.477
  31
0.0
   0
LINE
   8
LEVEL001
   6
CONTINUOUS
  62
7
  10
 221.377
  20
 835.477
  30
0.0
  11
 221.200
  21
 835.580
  31
0.0
   0
LINE
   8
LEVEL001
   6
CONTINUOUS
  62
7
  10
 221.200
  20
 835.580
  30
0.0
  11
 221.014
  21
 835.670
  31
0.0
   0
LINE
   8
LEVEL001
   6
CONTINUOUS
  62
7
  10
 221.014
  20
 835.670
  30
0.0
  11
 220.821
  21
 835.744
  31
0.0
   0
LINE
   8
LEVEL001
   6
CONTINUOUS
  62
7
  10
 220.821
  20
 835.744
  30
0.0
  11
 220.621
  21
 835.802
  31
0.0
   0
LINE
   8
LEVEL001
   6
CONTINUOUS
  62
7
  10
 220.621
  20
 835.802
  30
0.0
  11
 220.417
  21
 835.844
  31
0.0
   0
LINE
   8
LEVEL001
   6
CONTINUOUS
  62
7
  10
 220.417
  20
 835.844
  30
0.0
  11
 220.209
  21
 835.869
  31
0.0
   0
LINE
   8
LEVEL001
   6
CONTINUOUS
  62
7
  10
 220.209
  20
 835.869
  30
0.0
  11
 220.000
  21
 835.877
  31
0.0
   0
LINE
   8
LEVEL001
   6
CONTINUOUS
  62
7
  10
 220.000
  20
 835.877
  30
0.0
  11
 219.791
  21
 835.869
  31
0.0
   0
LINE
   8
LEVEL001
   6
CONTINUOUS
  62
7
  10
 219.791
  20
 835.869
  30
0.0
  11
 219.583
  21
 835.844
  31
0.0
   0
LINE
   8
LEVEL001
   6
CONTINUOUS
  62
7
  10
 219.583
  20
 835.844
  30
0.0
  11
 219.379
  21
 835.802
  31
0.0
   0
LINE
   8
LEVEL001
   6
CONTINUOUS
  62
7
  10
 219.379
  20
 835.802
  30
0.0
  11
 219.179
  21
 835.744
  31
0.0
   0
LINE
   8
LEVEL001
   6
CONTINUOUS
  62
7
  10
 219.179
  20
 835.744
  30
0.0
  11
 218.986
  21
 835.670
  31
0.0
   0
LINE
   8
LEVEL001
   6
CONTINUOUS
  62
7
  10
 218.986
  20
 835.670
  30
0.0
  11
 218.800
  21
 835.580
  31
0.0
   0
LINE
   8
LEVEL001
   6
CONTINUOUS
  62
7
  10
 218.800
  20
 835.580
  30
0.0
  11
 218.623
  21
 835.477
  31
0.0
   0
LINE
   8
LEVEL001
   6
CONTINUOUS
  62
7
  10
 218.623
  20
 835.477
  30
0.0
  11
 218.457
  21
 835.359
  31
0.0
   0
LINE
   8
LEVEL001
   6
CONTINUOUS
  62
7
  10
 218.457
  20
 835.359
  30
0.0
  11
 218.303
  21
 835.228
  31
0.0
   0
LINE
   8
LEVEL001
   6
CONTINUOUS
  62
7
  10
 218.303
  20
 835.228
  30
0.0
  11
 218.161
  21
 835.085
  31
0.0
   0
LINE
   8
LEVEL001
   6
CONTINUOUS
  62
7
  10
 218.161
  20
 835.085
  30
0.0
  11
 218.034
  21
 834.932
  31
0.0
   0
LINE
   8
LEVEL001
   6
CONTINUOUS
  62
7
  10
 218.034
  20
 834.932
  30
0.0
  11
 217.922
  21
 834.769
  31
0.0
   0
LINE
   8
LEVEL001
   6
CONTINUOUS
  62
7
  10
 217.922
  20
 834.769
  30
0.0
  11
 217.825
  21
 834.597
  31
0.0
   0
LINE
   8
LEVEL001
   6
CONTINUOUS
  62
7
  10
 217.825
  20
 834.597
  30
0.0
  11
 217.745
  21
 834.419
  31
0.0
   0
LINE
   8
LEVEL001
   6
CONTINUOUS
  62
7
  10
 217.745
  20
 834.419
  30
0.0
  11
 217.682
  21
 834.234
  31
0.0
   0
LINE
   8
LEVEL001
   6
CONTINUOUS
  62
7
  10
 217.682
  20
 834.234
  30
0.0
  11
 217.636
  21
 834.045
  31
0.0
   0
LINE
   8
LEVEL001
   6
CONTINUOUS
  62
7
  10
 217.636
  20
 834.045
  30
0.0
  11
 217.609
  21
 833.853
  31
0.0
   0
LINE
   8
LEVEL001
   6
CONTINUOUS
  62
7
  10
 217.609
  20
 833.853
  30
0.0
  11
 217.600
  21
 833.660
  31
0.0
   0
LINE
   8
LEVEL001
   6
CONTINUOUS
  62
7
  10
 217.600
  20
 833.660
  30
0.0
  11
 217.609
  21
 833.467
  31
0.0
   0
LINE
   8
LEVEL001
   6
CONTINUOUS
  62
7
  10
 217.609
  20
 833.467
  30
0.0
  11
 217.636
  21
 833.275
  31
0.0
   0
LINE
   8
LEVEL001
   6
CONTINUOUS
  62
7
  10
 217.636
  20
 833.275
  30
0.0
  11
 217.682
  21
 833.086
  31
0.0
   0
LINE
   8
LEVEL001
   6
CONTINUOUS
  62
7
  10
 217.682
  20
 833.086
  30
0.0
  11
 217.745
  21
 832.902
  31
0.0
   0
LINE
   8
LEVEL001
   6
CONTINUOUS
  62
7
  10
 217.745
  20
 832.902
  30
0.0
  11
 217.825
  21
 832.723
  31
0.0
   0
LINE
   8
LEVEL001
   6
CONTINUOUS
  62
7
  10
 217.825
  20
 832.723
  30
0.0
  11
 217.922
  21
 832.552
  31
0.0
   0
LINE
   8
LEVEL001
   6
CONTINUOUS
  62
7
  10
 217.922
  20
 832.552
  30
0.0
  11
 218.034
  21
 832.388
  31
0.0
   0
LINE
   8
LEVEL001
   6
CONTINUOUS
  62
7
  10
 218.034
  20
 832.388
  30
0.0
  11
 218.161
  21
 832.235
  31
0.0
   0
LINE
   8
LEVEL001
   6
CONTINUOUS
  62
7
  10
 218.161
  20
 832.235
  30
0.0
  11
 218.303
  21
 832.092
  31
0.0
   0
LINE
   8
LEVEL001
   6
CONTINUOUS
  62
7
  10
 218.303
  20
 832.092
  30
0.0
  11
 218.457
  21
 831.962
  31
0.0
   0
LINE
   8
LEVEL001
   6
CONTINUOUS
  62
7
  10
 218.457
  20
 831.962
  30
0.0
  11
 218.623
  21
 831.844
  31
0.0
   0
LINE
   8
LEVEL001
   6
CONTINUOUS
  62
7
  10
 218.623
  20
 831.844
  30
0.0
  11
 218.800
  21
 831.740
  31
0.0
   0
LINE
   8
LEVEL001
   6
CONTINUOUS
  62
7
  10
 218.800
  20
 831.740
  30
0.0
  11
 218.986
  21
 831.651
  31
0.0
   0
LINE
   8
LEVEL001
   6
CONTINUOUS
  62
7
  10
 218.986
  20
 831.651
  30
0.0
  11
 219.179
  21
 831.577
  31
0.0
   0
LINE
   8
LEVEL001
   6
CONTINUOUS
  62
7
  10
 219.179
  20
 831.577
  30
0.0
  11
 219.379
  21
 831.518
  31
0.0
   0
LINE
   8
LEVEL001
   6
CONTINUOUS
  62
7
  10
 219.379
  20
 831.518
  30
0.0
  11
 219.583
  21
 831.477
  31
0.0
   0
LINE
   8
LEVEL001
   6
CONTINUOUS
  62
7
  10
 219.583
  20
 831.477
  30
0.0
  11
 219.791
  21
 831.451
  31
0.0
   0
LINE
   8
LEVEL001
   6
CONTINUOUS
  62
7
  10
 219.791
  20
 831.451
  30
0.0
  11
 220.000
  21
 831.443
  31
0.0
   0
LINE
   8
LEVEL001
   6
CONTINUOUS
  62
7
  10
 220.000
  20
 831.443
  30
0.0
  11
 220.209
  21
 831.451
  31
0.0
   0
LINE
   8
LEVEL001
   6
CONTINUOUS
  62
7
  10
 220.209
  20
 831.451
  30
0.0
  11
 220.417
  21
 831.477
  31
0.0
   0
LINE
   8
LEVEL001
   6
CONTINUOUS
  62
7
  10
 220.417
  20
 831.477
  30
0.0
  11
 220.621
  21
 831.518
  31
0.0
   0
LINE
   8
LEVEL001
   6
CONTINUOUS
  62
7
  10
 220.621
  20
 831.518
  30
0.0
  11
 220.821
  21
 831.577
  31
0.0
   0
LINE
   8
LEVEL001
   6
CONTINUOUS
  62
7
  10
 220.821
  20
 831.577
  30
0.0
  11
 221.014
  21
 831.651
  31
0.0
   0
LINE
   8
LEVEL001
   6
CONTINUOUS
  62
7
  10
 221.014
  20
 831.651
  30
0.0
  11
 221.200
  21
 831.740
  31
0.0
   0
LINE
   8
LEVEL001
   6
CONTINUOUS
  62
7
  10
 221.200
  20
 831.740
  30
0.0
  11
 221.377
  21
 831.844
  31
0.0
   0
LINE
   8
LEVEL001
   6
CONTINUOUS
  62
7
  10
 221.377
  20
 831.844
  30
0.0
  11
 221.543
  21
 831.962
  31
0.0
   0
LINE
   8
LEVEL001
   6
CONTINUOUS
  62
7
  10
 221.543
  20
 831.962
  30
0.0
  11
 221.697
  21
 832.092
  31
0.0
   0
LINE
   8
LEVEL001
   6
CONTINUOUS
  62
7
  10
 221.697
  20
 832.092
  30
0.0
  11
 221.839
  21
 832.235
  31
0.0
   0
LINE
   8
LEVEL001
   6
CONTINUOUS
  62
7
  10
 221.839
  20
 832.235
  30
0.0
  11
 221.966
  21
 832.388
  31
0.0
   0
LINE
   8
LEVEL001
   6
CONTINUOUS
  62
7
  10
 221.966
  20
 832.388
  30
0.0
  11
 222.078
  21
 832.552
  31
0.0
   0
LINE
   8
LEVEL001
   6
CONTINUOUS
  62
7
  10
 222.078
  20
 832.552
  30
0.0
  11
 222.175
  21
 832.723
  31
0.0
   0
LINE
   8
LEVEL001
   6
CONTINUOUS
  62
7
  10
 222.175
  20
 832.723
  30
0.0
  11
 222.255
  21
 832.902
  31
0.0
   0
LINE
   8
LEVEL001
   6
CONTINUOUS
  62
7
  10
 222.255
  20
 832.902
  30
0.0
  11
 222.318
  21
 833.086
  31
0.0
   0
LINE
   8
LEVEL001
   6
CONTINUOUS
  62
7
  10
 222.318
  20
 833.086
  30
0.0
  11
 222.364
  21
 833.275
  31
0.0
   0
LINE
   8
LEVEL001
   6
CONTINUOUS
  62
7
  10
 222.364
  20
 833.275
  30
0.0
  11
 222.391
  21
 833.467
  31
0.0
   0
LINE
   8
LEVEL001
   6
CONTINUOUS
  62
7
  10
 222.391
  20
 833.467
  30
0.0
  11
 222.400
  21
 833.660
  31
0.0
   0
LINE
   8
LEVEL001
   6
CONTINUOUS
  62
7
  10
 210.889
  20
 847.701
  30
0.0
  11
 281.250
  21
 849.000
  31
0.0
   0
CIRCLE
   8
LEVEL001
   6
CONTINUOUS
  62
7
  10
 200.000
  20
 960.000
  30
0.0
  40
 42.5000
   0
CIRCLE
   8
LEVEL001
   6
CONTINUOUS
  62
7
  10
 200.000
  20
 960.000
  30
0.0
  40
 92.0000
   0
LINE
   8
LEVEL001
   6
CONTINUOUS
  62
7
  10
 200.000
  20
 1080.00
  30
0.0
  11
 245.530
  21
 1078.99
  31
0.0
   0
LINE
   8
LEVEL001
   6
CONTINUOUS
  62
7
  10
 200.000
  20
 1080.00
  30
0.0
  11
 154.470
  21
 1078.99
  31
0.0
   0
LINE
   8
LEVEL001
   6
CONTINUOUS
  62
7
  10
 205.000
  20
 1073.76
  30
0.0
  11
 205.000
  21
 1051.86
  31
0.0
   0
LINE
   8
LEVEL001
   6
CONTINUOUS
  62
7
  10
 195.000
  20
 1073.76
  30
0.0
  11
 195.000
  21
 1051.86
  31
0.0
   0
ARC
   8
LEVEL001
   6
CONTINUOUS
  62
7
  10
 211.000
  20
 1073.76
  30
0.0
  40
 6.00000
  50
 88.7344
  51
 180.000
   0
ARC
   8
LEVEL001
   6
CONTINUOUS
  62
7
  10
 189.000
  20
 1073.76
  30
0.0
  40
 6.00000
  50
 0.108563E-10
  51
 91.2656
   0
ARC
   8
LEVEL001
   6
CONTINUOUS
  62
7
  10
 245.000
  20
 1055.00
  30
0.0
  40
 21.5000
  50
 292.248
  51
 197.059
   0
ARC
   8
LEVEL001
   6
CONTINUOUS
  62
7
  10
 155.000
  20
 1055.00
  30
0.0
  40
 21.5000
  50
 342.941
  51
 247.752
   0
ARC
   8
LEVEL001
   6
CONTINUOUS
  62
7
  10
 155.000
  20
 830.000
  30
0.0
  40
 21.5000
  50
 120.463
  51
 57.4214
   0
LINE
   8
LEVEL001
   6
CONTINUOUS
  62
7
  10
 195.000
  20
 842.748
  30
0.0
  11
 195.000
  21
 811.244
  31
0.0
   0
ARC
   8
LEVEL001
   6
CONTINUOUS
  62
7
  10
 189.000
  20
 842.748
  30
0.0
  40
 6.00000
  50
0.0
  51
 90.0000
   0
LINE
   8
LEVEL001
   6
CONTINUOUS
  62
7
  10
 205.000
  20
 842.748
  30
0.0
  11
 205.000
  21
 811.244
  31
0.0
   0
ARC
   8
LEVEL001
   6
CONTINUOUS
  62
7
  10
 211.000
  20
 842.748
  30
0.0
  40
 6.00000
  50
 90.0000
  51
 180.000
   0
LINE
   8
LEVEL001
   6
CONTINUOUS
  62
7
  10
 200.000
  20
 805.000
  30
0.0
  11
 245.530
  21
 806.006
  31
0.0
   0
LINE
   8
LEVEL001
   6
CONTINUOUS
  62
7
  10
 200.000
  20
 805.000
  30
0.0
  11
 154.470
  21
 806.006
  31
0.0
   0
ARC
   8
LEVEL001
   6
CONTINUOUS
  62
7
  10
 211.000
  20
 811.244
  30
0.0
  40
 6.00000
  50
 180.000
  51
 271.266
   0
ARC
   8
LEVEL001
   6
CONTINUOUS
  62
7
  10
 189.000
  20
 811.244
  30
0.0
  40
 6.00000
  50
 268.734
  51
0.0
   0
ARC
   8
LEVEL001
   6
CONTINUOUS
  62
7
  10
 189.000
  20
 841.702
  30
0.0
  40
 6.00000
  50
0.0
  51
 88.9424
   0
LINE
   8
LEVEL001
   6
CONTINUOUS
  62
7
  10
 189.111
  20
 847.701
  30
0.0
  11
 118.750
  21
 849.000
  31
0.0
   0
ARC
   8
LEVEL001
   6
CONTINUOUS
  62
7
  10
 211.000
  20
 841.702
  30
0.0
  40
 6.00000
  50
 91.0576
  51
 180.000
   0
LINE
   8
LEVEL001
   6
CONTINUOUS
  62
7
  10
 129.620
  20
 848.799
  30
0.0
  11
 131.059
  21
 828.318
  31
0.0
   0
LINE
   8
LEVEL001
   6
CONTINUOUS
  62
7
  10
 298.000
  20
 900.958
  30
0.0
  11
 298.000
  21
 873.042
  31
0.0
   0
ARC
   8
LEVEL001
   6
CONTINUOUS
  62
7
  10
 297.853
  20
 900.000
  30
0.0
  40
 1.00000
  50
 73.3008
  51
 90.0000
   0
LINE
   8
LEVEL001
   6
CONTINUOUS
  62
7
  10
 298.141
  20
 900.958
  30
0.0
  11
 302.859
  21
 899.542
  31
0.0
   0
ARC
   8
LEVEL001
   6
CONTINUOUS
  62
7
  10
 303.147
  20
 900.500
  30
0.0
  40
 1.00000
  50
 253.301
  51
 270.000
   0
LINE
   8
LEVEL001
   6
CONTINUOUS
  62
7
  10
 303.147
  20
 899.500
  30
0.0
  11
 344.000
  21
 899.500
  31
0.0
   0
LINE
   8
LEVEL001
   6
CONTINUOUS
  62
7
  10
 303.147
  20
 874.500
  30
0.0
  11
 344.000
  21
 874.500
  31
0.0
   0
ARC
   8
LEVEL001
   6
CONTINUOUS
  62
7
  10
 303.147
  20
 873.500
  30
0.0
  40
 1.00000
  50
 90.0000
  51
 106.699
   0
LINE
   8
LEVEL001
   6
CONTINUOUS
  62
7
  10
 302.859
  20
 874.458
  30
0.0
  11
 298.141
  21
 873.042
  31
0.0
   0
ARC
   8
LEVEL001
   6
CONTINUOUS
  62
7
  10
 297.853
  20
 874.000
  30
0.0
  40
 1.00000
  50
 270.000
  51
 286.699
   0
LINE
   8
LEVEL001
   6
CONTINUOUS
  62
7
  10
 344.000
  20
 883.000
  30
0.0
  11
 344.000
  21
 874.500
  31
0.0
   0
LINE
   8
LEVEL001
   6
CONTINUOUS
  62
7
  10
 344.000
  20
 899.500
  30
0.0
  11
 344.000
  21
 891.000
  31
0.0
   0
LINE
   8
LEVEL001
   6
CONTINUOUS
  62
7
  10
 309.000
  20
 891.000
  30
0.0
  11
 309.000
  21
 883.000
  31
0.0
   0
LINE
   8
LEVEL001
   6
CONTINUOUS
  62
7
  10
 303.000
  20
 883.000
  30
0.0
  11
 303.000
  21
 874.500
  31
0.0
   0
LINE
   8
LEVEL001
   6
CONTINUOUS
  62
7
  10
 303.000
  20
 899.500
  30
0.0
  11
 303.000
  21
 891.000
  31
0.0
   0
LINE
   8
LEVEL001
   6
CONTINUOUS
  62
7
  10
 298.813
  20
 891.000
  30
0.0
  11
 298.813
  21
 883.000
  31
0.0
   0
LINE
   8
LEVEL001
   6
CONTINUOUS
  62
7
  10
 298.813
  20
 883.000
  30
0.0
  11
 345.000
  21
 883.000
  31
0.0
   0
LINE
   8
LEVEL001
   6
CONTINUOUS
  62
7
  10
 298.813
  20
 891.000
  30
0.0
  11
 345.000
  21
 891.000
  31
0.0
   0
LINE
   8
LEVEL001
   6
CONTINUOUS
  62
7
  10
 345.000
  20
 875.500
  30
0.0
  11
 344.000
  21
 874.500
  31
0.0
   0
LINE
   8
LEVEL001
   6
CONTINUOUS
  62
7
  10
 345.000
  20
 898.500
  30
0.0
  11
 345.000
  21
 875.500
  31
0.0
   0
LINE
   8
LEVEL001
   6
CONTINUOUS
  62
7
  10
 344.000
  20
 899.500
  30
0.0
  11
 345.000
  21
 898.500
  31
0.0
   0
ARC
   8
LEVEL001
   6
CONTINUOUS
  62
7
  10
 291.500
  20
 850.000
  30
0.0
  40
 2.00000
  50
 270.000
  51
0.0
   0
LINE
   8
LEVEL001
   6
CONTINUOUS
  62
7
  10
 281.500
  20
 848.000
  30
0.0
  11
 291.500
  21
 848.000
  31
0.0
   0
ARC
   8
LEVEL001
   6
CONTINUOUS
  62
7
  10
 291.500
  20
 924.000
  30
0.0
  40
 2.00000
  50
0.0
  51
 90.0000
   0
LINE
   8
LEVEL001
   6
CONTINUOUS
  62
7
  10
 268.941
  20
 828.318
  30
0.0
  11
 270.380
  21
 848.799
  31
0.0
   0
LINE
   8
LEVEL001
   6
CONTINUOUS
  62
7
  10
 268.887
  20
 1057.33
  30
0.0
  11
 272.902
  21
 1016.12
  31
0.0
   0
LINE
   8
LEVEL001
   6
CONTINUOUS
  62
7
  10
 131.113
  20
 1057.33
  30
0.0
  11
 127.098
  21
 1016.12
  31
0.0
   0
ARC
   8
LEVEL001
   6
CONTINUOUS
  62
7
  10
 245.000
  20
 1055.00
  30
0.0
  40
 24.0000
  50
 5.56467
  51
 88.7344
   0
ARC
   8
LEVEL001
   6
CONTINUOUS
  62
7
  10
 155.000
  20
 1055.00
  30
0.0
  40
 24.0000
  50
 91.2656
  51
 174.435
   0
ARC
   8
LEVEL001
   6
CONTINUOUS
  62
7
  10
 155.000
  20
 830.000
  30
0.0
  40
 24.0000
  50
 184.019
  51
 268.734
   0
ARC
   8
LEVEL001
   6
CONTINUOUS
  62
7
  10
 245.000
  20
 830.000
  30
0.0
  40
 24.0000
  50
 271.266
  51
 355.981
   0
CIRCLE
   8
LEVEL001
   6
CONTINUOUS
  62
7
  10
 155.000
  20
 830.000
  30
0.0
  40
 11.0000
   0
CIRCLE
   8
LEVEL001
   6
CONTINUOUS
  62
7
  10
 245.000
  20
 830.000
  30
0.0
  40
 11.0000
   0
CIRCLE
   8
LEVEL001
   6
CONTINUOUS
  62
7
  10
 245.000
  20
 1055.00
  30
0.0
  40
 11.0000
   0
CIRCLE
   8
LEVEL001
   6
CONTINUOUS
  62
7
  10
 155.000
  20
 1055.00
  30
0.0
  40
 11.0000
   0
LINE
   8
LEVEL001
   6
CONTINUOUS
  62
7
  10
 264.210
  20
 991.571
  30
0.0
  11
 276.220
  21
 986.596
  31
0.0
   0
LINE
   8
LEVEL001
   6
CONTINUOUS
  62
7
  10
 272.702
  20
 995.089
  30
0.0
  11
 267.727
  21
 983.079
  31
0.0
   0
CIRCLE
   8
LEVEL001
   6
CONTINUOUS
  62
7
  10
 270.215
  20
 989.084
  30
0.0
  40
 6.50000
   0
LINE
   8
LEVEL001
   6
CONTINUOUS
  62
7
  10
 123.780
  20
 933.404
  30
0.0
  11
 135.790
  21
 928.429
  31
0.0
   0
LINE
   8
LEVEL001
   6
CONTINUOUS
  62
7
  10
 132.273
  20
 936.921
  30
0.0
  11
 127.298
  21
 924.911
  31
0.0
   0
CIRCLE
   8
LEVEL001
   6
CONTINUOUS
  62
7
  10
 129.785
  20
 930.916
  30
0.0
  40
 6.50000
   0
CIRCLE
   8
LEVEL001
   6
CONTINUOUS
  62
7
  10
 129.785
  20
 989.084
  30
0.0
  40
 7.00000
   0
CIRCLE
   8
LEVEL001
   6
CONTINUOUS
  62
7
  10
 129.785
  20
 989.084
  30
0.0
  40
 6.00000
   0
CIRCLE
   8
LEVEL001
   6
CONTINUOUS
  62
7
  10
 146.260
  20
 906.260
  30
0.0
  40
 9.28756
   0
CIRCLE
   8
LEVEL001
   6
CONTINUOUS
  62
7
  10
 146.260
  20
 906.260
  30
0.0
  40
 10.5000
   0
CIRCLE
   8
LEVEL001
   6
CONTINUOUS
  62
7
  10
 146.260
  20
 1013.74
  30
0.0
  40
 9.28756
   0
CIRCLE
   8
LEVEL001
   6
CONTINUOUS
  62
7
  10
 146.260
  20
 1013.74
  30
0.0
  40
 10.5000
   0
CIRCLE
   8
LEVEL001
   6
CONTINUOUS
  62
7
  10
 253.740
  20
 1013.74
  30
0.0
  40
 9.28756
   0
CIRCLE
   8
LEVEL001
   6
CONTINUOUS
  62
7
  10
 253.740
  20
 1013.74
  30
0.0
  40
 10.5000
   0
TEXT
   8
LEVEL001
  62
7
  10
 218.375
  20
 1020.04
  30
0.0
  40
 20.0000
   1
０
  50
 337.500
  41
 0.500000
   7
STANDARD
   0
TEXT
   8
LEVEL001
  62
7
  10
 202.209
  20
 1022.75
  30
0.0
  40
 20.0000
   1
１
  50
 352.500
  41
 0.500000
   7
STANDARD
   0
TEXT
   8
LEVEL001
  62
7
  10
 185.893
  20
 1021.18
  30
0.0
  40
 20.0000
   1
Ｊ
  50
 7.50000
  41
 0.500000
   7
STANDARD
   0
TEXT
   8
LEVEL001
  62
7
  10
 170.539
  20
 1015.45
  30
0.0
  40
 20.0000
   1
Ｗ
  50
 22.5000
  41
 0.500000
   7
STANDARD
   0
LINE
   8
LEVEL001
   6
CONTINUOUS
  62
7
  10
 178.530
  20
 882.500
  30
0.0
  11
 180.551
  21
 886.000
  31
0.0
   0
LINE
   8
LEVEL001
   6
CONTINUOUS
  62
7
  10
 207.500
  20
 901.500
  30
0.0
  11
 221.500
  21
 901.500
  31
0.0
   0
LINE
   8
LEVEL001
   6
CONTINUOUS
  62
7
  10
 180.551
  20
 886.000
  30
0.0
  11
 198.551
  21
 886.000
  31
0.0
   0
LINE
   8
LEVEL001
   6
CONTINUOUS
  62
7
  10
 198.551
  20
 886.000
  30
0.0
  11
 207.500
  21
 901.500
  31
0.0
   0
CIRCLE
   8
LEVEL001
   6
CONTINUOUS
  62
7
  10
 193.000
  20
 895.000
  30
0.0
  40
 6.00000
   0
LINE
   8
LEVEL001
   6
CONTINUOUS
  62
7
  10
 232.500
  20
 967.000
  30
0.0
  11
 232.500
  21
 953.000
  31
0.0
   0
LINE
   8
LEVEL001
   6
CONTINUOUS
  62
7
  10
 223.964
  20
 967.000
  30
0.0
  11
 232.500
  21
 967.000
  31
0.0
   0
LINE
   8
LEVEL001
   6
CONTINUOUS
  62
7
  10
 224.000
  20
 953.000
  30
0.0
  11
 232.500
  21
 953.000
  31
0.0
   0
CIRCLE
   8
LEVEL001
   6
CONTINUOUS
  62
7
  10
 200.000
  20
 960.000
  30
0.0
  40
 5.12500
   0
CIRCLE
   8
LEVEL001
   6
CONTINUOUS
  62
7
  10
 200.000
  20
 960.000
  30
0.0
  40
 6.00000
   0
CIRCLE
   8
LEVEL001
   6
CONTINUOUS
  62
7
  10
 200.000
  20
 960.000
  30
0.0
  40
 7.50000
   0
CIRCLE
   8
LEVEL001
   6
CONTINUOUS
  62
7
  10
 200.000
  20
 960.000
  30
0.0
  40
 24.0000
   0
CIRCLE
   8
LEVEL001
   6
CONTINUOUS
  62
7
  10
 200.000
  20
 960.000
  30
0.0
  40
 25.0000
   0
ARC
   8
LEVEL001
   6
CONTINUOUS
  62
7
  10
 200.000
  20
 960.000
  30
0.0
  40
 27.5000
  50
 14.7467
  51
 345.253
   0
CIRCLE
   8
LEVEL001
   6
CONTINUOUS
  62
7
  10
 270.215
  20
 930.916
  30
0.0
  40
 7.00000
   0
CIRCLE
   8
LEVEL001
   6
CONTINUOUS
  62
7
  10
 270.215
  20
 930.916
  30
0.0
  40
 6.00000
   0
CIRCLE
   8
LEVEL001
   6
CONTINUOUS
  62
7
  10
 253.740
  20
 906.260
  30
0.0
  40
 9.28756
   0
CIRCLE
   8
LEVEL001
   6
CONTINUOUS
  62
7
  10
 253.740
  20
 906.260
  30
0.0
  40
 10.5000
   0
LINE
   8
LEVEL001
   6
CONTINUOUS
  62
7
  10
 246.500
  20
 965.807
  30
0.0
  11
 246.100
  21
 966.500
  31
0.0
   0
LINE
   8
LEVEL001
   6
CONTINUOUS
  62
7
  10
 246.500
  20
 954.193
  30
0.0
  11
 246.500
  21
 965.807
  31
0.0
   0
LINE
   8
LEVEL001
   6
CONTINUOUS
  62
7
  10
 246.100
  20
 953.500
  30
0.0
  11
 246.500
  21
 954.193
  31
0.0
   0
LINE
   8
LEVEL001
   6
CONTINUOUS
  62
7
  10
 246.100
  20
 966.500
  30
0.0
  11
 246.100
  21
 953.500
  31
0.0
   0
LINE
   8
LEVEL001
   6
CONTINUOUS
  62
7
  10
 246.100
  20
 966.500
  30
0.0
  11
 243.095
  21
 966.500
  31
0.0
   0
LINE
   8
LEVEL001
   6
CONTINUOUS
  62
7
  10
 243.095
  20
 953.500
  30
0.0
  11
 246.100
  21
 953.500
  31
0.0
   0
LINE
   8
LEVEL001
   6
CONTINUOUS
  62
7
  10
 243.420
  20
 966.527
  30
0.0
  11
 243.397
  21
 966.654
  31
0.0
   0
LINE
   8
LEVEL001
   6
CONTINUOUS
  62
7
  10
 243.397
  20
 966.654
  30
0.0
  11
 243.374
  21
 966.762
  31
0.0
   0
LINE
   8
LEVEL001
   6
CONTINUOUS
  62
7
  10
 243.374
  20
 966.762
  30
0.0
  11
 243.351
  21
 966.850
  31
0.0
   0
LINE
   8
LEVEL001
   6
CONTINUOUS
  62
7
  10
 243.351
  20
 966.850
  30
0.0
  11
 243.327
  21
 966.918
  31
0.0
   0
LINE
   8
LEVEL001
   6
CONTINUOUS
  62
7
  10
 243.327
  20
 966.918
  30
0.0
  11
 243.303
  21
 966.965
  31
0.0
   0
LINE
   8
LEVEL001
   6
CONTINUOUS
  62
7
  10
 243.303
  20
 966.965
  30
0.0
  11
 243.280
  21
 966.993
  31
0.0
   0
LINE
   8
LEVEL001
   6
CONTINUOUS
  62
7
  10
 243.280
  20
 966.993
  30
0.0
  11
 243.256
  21
 967.000
  31
0.0
   0
LINE
   8
LEVEL001
   6
CONTINUOUS
  62
7
  10
 243.256
  20
 967.000
  30
0.0
  11
 243.232
  21
 966.986
  31
0.0
   0
LINE
   8
LEVEL001
   6
CONTINUOUS
  62
7
  10
 243.232
  20
 966.986
  30
0.0
  11
 243.208
  21
 966.952
  31
0.0
   0
LINE
   8
LEVEL001
   6
CONTINUOUS
  62
7
  10
 243.208
  20
 966.952
  30
0.0
  11
 243.184
  21
 966.898
  31
0.0
   0
LINE
   8
LEVEL001
   6
CONTINUOUS
  62
7
  10
 243.184
  20
 966.898
  30
0.0
  11
 243.161
  21
 966.824
  31
0.0
   0
LINE
   8
LEVEL001
   6
CONTINUOUS
  62
7
  10
 243.161
  20
 966.824
  30
0.0
  11
 243.138
  21
 966.729
  31
0.0
   0
LINE
   8
LEVEL001
   6
CONTINUOUS
  62
7
  10
 243.138
  20
 966.729
  30
0.0
  11
 243.115
  21
 966.615
  31
0.0
   0
LINE
   8
LEVEL001
   6
CONTINUOUS
  62
7
  10
 243.115
  20
 966.615
  30
0.0
  11
 243.092
  21
 966.482
  31
0.0
   0
LINE
   8
LEVEL001
   6
CONTINUOUS
  62
7
  10
 243.092
  20
 966.482
  30
0.0
  11
 243.070
  21
 966.330
  31
0.0
   0
LINE
   8
LEVEL001
   6
CONTINUOUS
  62
7
  10
 243.070
  20
 966.330
  30
0.0
  11
 243.049
  21
 966.159
  31
0.0
   0
LINE
   8
LEVEL001
   6
CONTINUOUS
  62
7
  10
 243.049
  20
 966.159
  30
0.0
  11
 243.028
  21
 965.971
  31
0.0
   0
LINE
   8
LEVEL001
   6
CONTINUOUS
  62
7
  10
 243.028
  20
 965.971
  30
0.0
  11
 243.008
  21
 965.764
  31
0.0
   0
LINE
   8
LEVEL001
   6
CONTINUOUS
  62
7
  10
 243.008
  20
 965.764
  30
0.0
  11
 242.989
  21
 965.541
  31
0.0
   0
LINE
   8
LEVEL001
   6
CONTINUOUS
  62
7
  10
 242.989
  20
 965.541
  30
0.0
  11
 242.970
  21
 965.302
  31
0.0
   0
LINE
   8
LEVEL001
   6
CONTINUOUS
  62
7
  10
 242.970
  20
 965.302
  30
0.0
  11
 242.953
  21
 965.048
  31
0.0
   0
LINE
   8
LEVEL001
   6
CONTINUOUS
  62
7
  10
 242.953
  20
 965.048
  30
0.0
  11
 242.936
  21
 964.778
  31
0.0
   0
LINE
   8
LEVEL001
   6
CONTINUOUS
  62
7
  10
 242.936
  20
 964.778
  30
0.0
  11
 242.920
  21
 964.495
  31
0.0
   0
LINE
   8
LEVEL001
   6
CONTINUOUS
  62
7
  10
 242.920
  20
 964.495
  30
0.0
  11
 242.905
  21
 964.199
  31
0.0
   0
LINE
   8
LEVEL001
   6
CONTINUOUS
  62
7
  10
 242.905
  20
 964.199
  30
0.0
  11
 242.891
  21
 963.890
  31
0.0
   0
LINE
   8
LEVEL001
   6
CONTINUOUS
  62
7
  10
 242.891
  20
 963.890
  30
0.0
  11
 242.878
  21
 963.570
  31
0.0
   0
LINE
   8
LEVEL001
   6
CONTINUOUS
  62
7
  10
 242.878
  20
 963.570
  30
0.0
  11
 242.867
  21
 963.239
  31
0.0
   0
LINE
   8
LEVEL001
   6
CONTINUOUS
  62
7
  10
 242.867
  20
 963.239
  30
0.0
  11
 242.856
  21
 962.900
  31
0.0
   0
LINE
   8
LEVEL001
   6
CONTINUOUS
  62
7
  10
 242.856
  20
 962.900
  30
0.0
  11
 242.847
  21
 962.551
  31
0.0
   0
LINE
   8
LEVEL001
   6
CONTINUOUS
  62
7
  10
 242.847
  20
 962.551
  30
0.0
  11
 242.839
  21
 962.195
  31
0.0
   0
LINE
   8
LEVEL001
   6
CONTINUOUS
  62
7
  10
 242.839
  20
 962.195
  30
0.0
  11
 242.832
  21
 961.833
  31
0.0
   0
LINE
   8
LEVEL001
   6
CONTINUOUS
  62
7
  10
 242.832
  20
 961.833
  30
0.0
  11
 242.826
  21
 961.465
  31
0.0
   0
LINE
   8
LEVEL001
   6
CONTINUOUS
  62
7
  10
 242.826
  20
 961.465
  30
0.0
  11
 242.822
  21
 961.094
  31
0.0
   0
LINE
   8
LEVEL001
   6
CONTINUOUS
  62
7
  10
 242.822
  20
 961.094
  30
0.0
  11
 242.819
  21
 960.718
  31
0.0
   0
LINE
   8
LEVEL001
   6
CONTINUOUS
  62
7
  10
 242.819
  20
 960.718
  30
0.0
  11
 242.817
  21
 960.341
  31
0.0
   0
LINE
   8
LEVEL001
   6
CONTINUOUS
  62
7
  10
 242.817
  20
 960.341
  30
0.0
  11
 242.817
  21
 959.963
  31
0.0
   0
LINE
   8
LEVEL001
   6
CONTINUOUS
  62
7
  10
 242.817
  20
 959.963
  30
0.0
  11
 242.817
  21
 959.585
  31
0.0
   0
LINE
   8
LEVEL001
   6
CONTINUOUS
  62
7
  10
 242.817
  20
 959.585
  30
0.0
  11
 242.819
  21
 959.208
  31
0.0
   0
LINE
   8
LEVEL001
   6
CONTINUOUS
  62
7
  10
 242.819
  20
 959.208
  30
0.0
  11
 242.823
  21
 958.834
  31
0.0
   0
LINE
   8
LEVEL001
   6
CONTINUOUS
  62
7
  10
 242.823
  20
 958.834
  30
0.0
  11
 242.827
  21
 958.462
  31
0.0
   0
LINE
   8
LEVEL001
   6
CONTINUOUS
  62
7
  10
 242.827
  20
 958.462
  30
0.0
  11
 242.833
  21
 958.096
  31
0.0
   0
LINE
   8
LEVEL001
   6
CONTINUOUS
  62
7
  10
 242.833
  20
 958.096
  30
0.0
  11
 242.840
  21
 957.735
  31
0.0
   0
LINE
   8
LEVEL001
   6
CONTINUOUS
  62
7
  10
 242.840
  20
 957.735
  30
0.0
  11
 242.849
  21
 957.380
  31
0.0
   0
LINE
   8
LEVEL001
   6
CONTINUOUS
  62
7
  10
 242.849
  20
 957.380
  30
0.0
  11
 242.858
  21
 957.033
  31
0.0
   0
LINE
   8
LEVEL001
   6
CONTINUOUS
  62
7
  10
 242.858
  20
 957.033
  30
0.0
  11
 242.869
  21
 956.695
  31
0.0
   0
LINE
   8
LEVEL001
   6
CONTINUOUS
  62
7
  10
 242.869
  20
 956.695
  30
0.0
  11
 242.881
  21
 956.367
  31
0.0
   0
LINE
   8
LEVEL001
   6
CONTINUOUS
  62
7
  10
 242.881
  20
 956.367
  30
0.0
  11
 242.894
  21
 956.049
  31
0.0
   0
LINE
   8
LEVEL001
   6
CONTINUOUS
  62
7
  10
 242.894
  20
 956.049
  30
0.0
  11
 242.908
  21
 955.742
  31
0.0
   0
LINE
   8
LEVEL001
   6
CONTINUOUS
  62
7
  10
 242.908
  20
 955.742
  30
0.0
  11
 242.923
  21
 955.449
  31
0.0
   0
LINE
   8
LEVEL001
   6
CONTINUOUS
  62
7
  10
 242.923
  20
 955.449
  30
0.0
  11
 242.939
  21
 955.168
  31
0.0
   0
LINE
   8
LEVEL001
   6
CONTINUOUS
  62
7
  10
 242.939
  20
 955.168
  30
0.0
  11
 242.956
  21
 954.901
  31
0.0
   0
LINE
   8
LEVEL001
   6
CONTINUOUS
  62
7
  10
 242.956
  20
 954.901
  30
0.0
  11
 242.974
  21
 954.650
  31
0.0
   0
LINE
   8
LEVEL001
   6
CONTINUOUS
  62
7
  10
 242.974
  20
 954.650
  30
0.0
  11
 242.993
  21
 954.414
  31
0.0
   0
LINE
   8
LEVEL001
   6
CONTINUOUS
  62
7
  10
 242.993
  20
 954.414
  30
0.0
  11
 243.012
  21
 954.194
  31
0.0
   0
LINE
   8
LEVEL001
   6
CONTINUOUS
  62
7
  10
 243.012
  20
 954.194
  30
0.0
  11
 243.032
  21
 953.991
  31
0.0
   0
LINE
   8
LEVEL001
   6
CONTINUOUS
  62
7
  10
 243.032
  20
 953.991
  30
0.0
  11
 243.053
  21
 953.806
  31
0.0
   0
LINE
   8
LEVEL001
   6
CONTINUOUS
  62
7
  10
 243.053
  20
 953.806
  30
0.0
  11
 243.075
  21
 953.639
  31
0.0
   0
LINE
   8
LEVEL001
   6
CONTINUOUS
  62
7
  10
 243.075
  20
 953.639
  30
0.0
  11
 243.097
  21
 953.490
  31
0.0
   0
LINE
   8
LEVEL001
   6
CONTINUOUS
  62
7
  10
 243.097
  20
 953.490
  30
0.0
  11
 243.119
  21
 953.361
  31
0.0
   0
LINE
   8
LEVEL001
   6
CONTINUOUS
  62
7
  10
 243.119
  20
 953.361
  30
0.0
  11
 243.142
  21
 953.251
  31
0.0
   0
LINE
   8
LEVEL001
   6
CONTINUOUS
  62
7
  10
 243.142
  20
 953.251
  30
0.0
  11
 243.165
  21
 953.160
  31
0.0
   0
LINE
   8
LEVEL001
   6
CONTINUOUS
  62
7
  10
 243.165
  20
 953.160
  30
0.0
  11
 243.189
  21
 953.090
  31
0.0
   0
LINE
   8
LEVEL001
   6
CONTINUOUS
  62
7
  10
 243.189
  20
 953.090
  30
0.0
  11
 243.213
  21
 953.040
  31
0.0
   0
LINE
   8
LEVEL001
   6
CONTINUOUS
  62
7
  10
 243.213
  20
 953.040
  30
0.0
  11
 243.236
  21
 953.010
  31
0.0
   0
LINE
   8
LEVEL001
   6
CONTINUOUS
  62
7
  10
 243.236
  20
 953.010
  30
0.0
  11
 243.260
  21
 953.000
  31
0.0
   0
LINE
   8
LEVEL001
   6
CONTINUOUS
  62
7
  10
 243.260
  20
 953.000
  30
0.0
  11
 243.284
  21
 953.011
  31
0.0
   0
LINE
   8
LEVEL001
   6
CONTINUOUS
  62
7
  10
 243.284
  20
 953.011
  30
0.0
  11
 243.308
  21
 953.042
  31
0.0
   0
LINE
   8
LEVEL001
   6
CONTINUOUS
  62
7
  10
 243.308
  20
 953.042
  30
0.0
  11
 243.332
  21
 953.094
  31
0.0
   0
LINE
   8
LEVEL001
   6
CONTINUOUS
  62
7
  10
 243.332
  20
 953.094
  30
0.0
  11
 243.355
  21
 953.166
  31
0.0
   0
LINE
   8
LEVEL001
   6
CONTINUOUS
  62
7
  10
 243.355
  20
 953.166
  30
0.0
  11
 243.379
  21
 953.257
  31
0.0
   0
LINE
   8
LEVEL001
   6
CONTINUOUS
  62
7
  10
 243.379
  20
 953.257
  30
0.0
  11
 243.401
  21
 953.369
  31
0.0
   0
LINE
   8
LEVEL001
   6
CONTINUOUS
  62
7
  10
 243.401
  20
 953.369
  30
0.0
  11
 243.424
  21
 953.500
  31
0.0
   0
LINE
   8
LEVEL001
   6
CONTINUOUS
  62
7
  10
 244.399
  20
 967.000
  30
0.0
  11
 244.396
  21
 967.000
  31
0.0
   0
LINE
   8
LEVEL001
   6
CONTINUOUS
  62
7
  10
 244.396
  20
 967.000
  30
0.0
  11
 244.394
  21
 967.000
  31
0.0
   0
LINE
   8
LEVEL001
   6
CONTINUOUS
  62
7
  10
 244.394
  20
 967.000
  30
0.0
  11
 244.392
  21
 966.999
  31
0.0
   0
LINE
   8
LEVEL001
   6
CONTINUOUS
  62
7
  10
 244.392
  20
 966.999
  30
0.0
  11
 244.389
  21
 966.998
  31
0.0
   0
LINE
   8
LEVEL001
   6
CONTINUOUS
  62
7
  10
 244.389
  20
 966.998
  30
0.0
  11
 244.387
  21
 966.998
  31
0.0
   0
LINE
   8
LEVEL001
   6
CONTINUOUS
  62
7
  10
 244.387
  20
 966.998
  30
0.0
  11
 244.385
  21
 966.996
  31
0.0
   0
LINE
   8
LEVEL001
   6
CONTINUOUS
  62
7
  10
 244.385
  20
 966.996
  30
0.0
  11
 244.382
  21
 966.995
  31
0.0
   0
LINE
   8
LEVEL001
   6
CONTINUOUS
  62
7
  10
 244.382
  20
 966.995
  30
0.0
  11
 244.380
  21
 966.994
  31
0.0
   0
LINE
   8
LEVEL001
   6
CONTINUOUS
  62
7
  10
 244.380
  20
 966.994
  30
0.0
  11
 244.378
  21
 966.992
  31
0.0
   0
LINE
   8
LEVEL001
   6
CONTINUOUS
  62
7
  10
 244.378
  20
 966.992
  30
0.0
  11
 244.375
  21
 966.990
  31
0.0
   0
LINE
   8
LEVEL001
   6
CONTINUOUS
  62
7
  10
 244.375
  20
 966.990
  30
0.0
  11
 244.373
  21
 966.988
  31
0.0
   0
LINE
   8
LEVEL001
   6
CONTINUOUS
  62
7
  10
 244.373
  20
 966.988
  30
0.0
  11
 244.371
  21
 966.986
  31
0.0
   0
LINE
   8
LEVEL001
   6
CONTINUOUS
  62
7
  10
 244.371
  20
 966.986
  30
0.0
  11
 244.368
  21
 966.984
  31
0.0
   0
LINE
   8
LEVEL001
   6
CONTINUOUS
  62
7
  10
 244.368
  20
 966.984
  30
0.0
  11
 244.366
  21
 966.981
  31
0.0
   0
LINE
   8
LEVEL001
   6
CONTINUOUS
  62
7
  10
 244.366
  20
 966.981
  30
0.0
  11
 244.364
  21
 966.978
  31
0.0
   0
LINE
   8
LEVEL001
   6
CONTINUOUS
  62
7
  10
 244.364
  20
 966.978
  30
0.0
  11
 244.361
  21
 966.975
  31
0.0
   0
LINE
   8
LEVEL001
   6
CONTINUOUS
  62
7
  10
 244.361
  20
 966.975
  30
0.0
  11
 244.359
  21
 966.972
  31
0.0
   0
LINE
   8
LEVEL001
   6
CONTINUOUS
  62
7
  10
 244.359
  20
 966.972
  30
0.0
  11
 244.357
  21
 966.968
  31
0.0
   0
LINE
   8
LEVEL001
   6
CONTINUOUS
  62
7
  10
 244.357
  20
 966.968
  30
0.0
  11
 244.354
  21
 966.965
  31
0.0
   0
LINE
   8
LEVEL001
   6
CONTINUOUS
  62
7
  10
 244.354
  20
 966.965
  30
0.0
  11
 244.352
  21
 966.961
  31
0.0
   0
LINE
   8
LEVEL001
   6
CONTINUOUS
  62
7
  10
 244.352
  20
 966.961
  30
0.0
  11
 244.350
  21
 966.957
  31
0.0
   0
LINE
   8
LEVEL001
   6
CONTINUOUS
  62
7
  10
 244.350
  20
 966.957
  30
0.0
  11
 244.347
  21
 966.953
  31
0.0
   0
LINE
   8
LEVEL001
   6
CONTINUOUS
  62
7
  10
 244.347
  20
 966.953
  30
0.0
  11
 244.345
  21
 966.949
  31
0.0
   0
LINE
   8
LEVEL001
   6
CONTINUOUS
  62
7
  10
 244.345
  20
 966.949
  30
0.0
  11
 244.343
  21
 966.944
  31
0.0
   0
LINE
   8
LEVEL001
   6
CONTINUOUS
  62
7
  10
 244.343
  20
 966.944
  30
0.0
  11
 244.340
  21
 966.939
  31
0.0
   0
LINE
   8
LEVEL001
   6
CONTINUOUS
  62
7
  10
 244.340
  20
 966.939
  30
0.0
  11
 244.338
  21
 966.934
  31
0.0
   0
LINE
   8
LEVEL001
   6
CONTINUOUS
  62
7
  10
 244.338
  20
 966.934
  30
0.0
  11
 244.336
  21
 966.929
  31
0.0
   0
LINE
   8
LEVEL001
   6
CONTINUOUS
  62
7
  10
 244.336
  20
 966.929
  30
0.0
  11
 244.333
  21
 966.924
  31
0.0
   0
LINE
   8
LEVEL001
   6
CONTINUOUS
  62
7
  10
 244.333
  20
 966.924
  30
0.0
  11
 244.331
  21
 966.918
  31
0.0
   0
LINE
   8
LEVEL001
   6
CONTINUOUS
  62
7
  10
 244.331
  20
 966.918
  30
0.0
  11
 244.329
  21
 966.913
  31
0.0
   0
LINE
   8
LEVEL001
   6
CONTINUOUS
  62
7
  10
 244.329
  20
 966.913
  30
0.0
  11
 244.327
  21
 966.907
  31
0.0
   0
LINE
   8
LEVEL001
   6
CONTINUOUS
  62
7
  10
 244.327
  20
 966.907
  30
0.0
  11
 244.324
  21
 966.901
  31
0.0
   0
LINE
   8
LEVEL001
   6
CONTINUOUS
  62
7
  10
 244.324
  20
 966.901
  30
0.0
  11
 244.322
  21
 966.894
  31
0.0
   0
LINE
   8
LEVEL001
   6
CONTINUOUS
  62
7
  10
 244.322
  20
 966.894
  30
0.0
  11
 244.320
  21
 966.888
  31
0.0
   0
LINE
   8
LEVEL001
   6
CONTINUOUS
  62
7
  10
 244.320
  20
 966.888
  30
0.0
  11
 244.317
  21
 966.881
  31
0.0
   0
LINE
   8
LEVEL001
   6
CONTINUOUS
  62
7
  10
 244.317
  20
 966.881
  30
0.0
  11
 244.315
  21
 966.874
  31
0.0
   0
LINE
   8
LEVEL001
   6
CONTINUOUS
  62
7
  10
 244.315
  20
 966.874
  30
0.0
  11
 244.313
  21
 966.867
  31
0.0
   0
LINE
   8
LEVEL001
   6
CONTINUOUS
  62
7
  10
 244.313
  20
 966.867
  30
0.0
  11
 244.310
  21
 966.860
  31
0.0
   0
LINE
   8
LEVEL001
   6
CONTINUOUS
  62
7
  10
 244.310
  20
 966.860
  30
0.0
  11
 244.308
  21
 966.852
  31
0.0
   0
LINE
   8
LEVEL001
   6
CONTINUOUS
  62
7
  10
 244.308
  20
 966.852
  30
0.0
  11
 244.306
  21
 966.845
  31
0.0
   0
LINE
   8
LEVEL001
   6
CONTINUOUS
  62
7
  10
 244.306
  20
 966.845
  30
0.0
  11
 244.304
  21
 966.837
  31
0.0
   0
LINE
   8
LEVEL001
   6
CONTINUOUS
  62
7
  10
 244.304
  20
 966.837
  30
0.0
  11
 244.301
  21
 966.829
  31
0.0
   0
LINE
   8
LEVEL001
   6
CONTINUOUS
  62
7
  10
 244.301
  20
 966.829
  30
0.0
  11
 244.299
  21
 966.821
  31
0.0
   0
LINE
   8
LEVEL001
   6
CONTINUOUS
  62
7
  10
 244.299
  20
 966.821
  30
0.0
  11
 244.297
  21
 966.812
  31
0.0
   0
LINE
   8
LEVEL001
   6
CONTINUOUS
  62
7
  10
 244.297
  20
 966.812
  30
0.0
  11
 244.294
  21
 966.804
  31
0.0
   0
LINE
   8
LEVEL001
   6
CONTINUOUS
  62
7
  10
 244.294
  20
 966.804
  30
0.0
  11
 244.292
  21
 966.795
  31
0.0
   0
LINE
   8
LEVEL001
   6
CONTINUOUS
  62
7
  10
 244.292
  20
 966.795
  30
0.0
  11
 244.290
  21
 966.786
  31
0.0
   0
LINE
   8
LEVEL001
   6
CONTINUOUS
  62
7
  10
 244.290
  20
 966.786
  30
0.0
  11
 244.288
  21
 966.777
  31
0.0
   0
LINE
   8
LEVEL001
   6
CONTINUOUS
  62
7
  10
 244.288
  20
 966.777
  30
0.0
  11
 244.285
  21
 966.768
  31
0.0
   0
LINE
   8
LEVEL001
   6
CONTINUOUS
  62
7
  10
 244.285
  20
 966.768
  30
0.0
  11
 244.283
  21
 966.758
  31
0.0
   0
LINE
   8
LEVEL001
   6
CONTINUOUS
  62
7
  10
 244.283
  20
 966.758
  30
0.0
  11
 244.281
  21
 966.748
  31
0.0
   0
LINE
   8
LEVEL001
   6
CONTINUOUS
  62
7
  10
 244.281
  20
 966.748
  30
0.0
  11
 244.279
  21
 966.738
  31
0.0
   0
LINE
   8
LEVEL001
   6
CONTINUOUS
  62
7
  10
 244.279
  20
 966.738
  30
0.0
  11
 244.276
  21
 966.728
  31
0.0
   0
LINE
   8
LEVEL001
   6
CONTINUOUS
  62
7
  10
 244.276
  20
 966.728
  30
0.0
  11
 244.274
  21
 966.718
  31
0.0
   0
LINE
   8
LEVEL001
   6
CONTINUOUS
  62
7
  10
 244.274
  20
 966.718
  30
0.0
  11
 244.272
  21
 966.708
  31
0.0
   0
LINE
   8
LEVEL001
   6
CONTINUOUS
  62
7
  10
 244.272
  20
 966.708
  30
0.0
  11
 244.270
  21
 966.697
  31
0.0
   0
LINE
   8
LEVEL001
   6
CONTINUOUS
  62
7
  10
 244.270
  20
 966.697
  30
0.0
  11
 244.267
  21
 966.686
  31
0.0
   0
LINE
   8
LEVEL001
   6
CONTINUOUS
  62
7
  10
 244.267
  20
 966.686
  30
0.0
  11
 244.265
  21
 966.675
  31
0.0
   0
LINE
   8
LEVEL001
   6
CONTINUOUS
  62
7
  10
 244.265
  20
 966.675
  30
0.0
  11
 244.263
  21
 966.664
  31
0.0
   0
LINE
   8
LEVEL001
   6
CONTINUOUS
  62
7
  10
 244.263
  20
 966.664
  30
0.0
  11
 244.261
  21
 966.652
  31
0.0
   0
LINE
   8
LEVEL001
   6
CONTINUOUS
  62
7
  10
 244.261
  20
 966.652
  30
0.0
  11
 244.259
  21
 966.641
  31
0.0
   0
LINE
   8
LEVEL001
   6
CONTINUOUS
  62
7
  10
 244.259
  20
 966.641
  30
0.0
  11
 244.256
  21
 966.629
  31
0.0
   0
LINE
   8
LEVEL001
   6
CONTINUOUS
  62
7
  10
 244.256
  20
 966.629
  30
0.0
  11
 244.254
  21
 966.617
  31
0.0
   0
LINE
   8
LEVEL001
   6
CONTINUOUS
  62
7
  10
 244.254
  20
 966.617
  30
0.0
  11
 244.252
  21
 966.605
  31
0.0
   0
LINE
   8
LEVEL001
   6
CONTINUOUS
  62
7
  10
 244.252
  20
 966.605
  30
0.0
  11
 244.250
  21
 966.593
  31
0.0
   0
LINE
   8
LEVEL001
   6
CONTINUOUS
  62
7
  10
 244.250
  20
 966.593
  30
0.0
  11
 244.248
  21
 966.580
  31
0.0
   0
LINE
   8
LEVEL001
   6
CONTINUOUS
  62
7
  10
 244.248
  20
 966.580
  30
0.0
  11
 244.245
  21
 966.567
  31
0.0
   0
LINE
   8
LEVEL001
   6
CONTINUOUS
  62
7
  10
 244.245
  20
 966.567
  30
0.0
  11
 244.243
  21
 966.555
  31
0.0
   0
LINE
   8
LEVEL001
   6
CONTINUOUS
  62
7
  10
 244.243
  20
 966.555
  30
0.0
  11
 244.241
  21
 966.542
  31
0.0
   0
LINE
   8
LEVEL001
   6
CONTINUOUS
  62
7
  10
 244.241
  20
 966.542
  30
0.0
  11
 244.239
  21
 966.528
  31
0.0
   0
LINE
   8
LEVEL001
   6
CONTINUOUS
  62
7
  10
 244.239
  20
 966.528
  30
0.0
  11
 244.237
  21
 966.515
  31
0.0
   0
LINE
   8
LEVEL001
   6
CONTINUOUS
  62
7
  10
 244.237
  20
 966.515
  30
0.0
  11
 244.234
  21
 966.501
  31
0.0
   0
LINE
   8
LEVEL001
   6
CONTINUOUS
  62
7
  10
 244.234
  20
 953.499
  30
0.0
  11
 244.237
  21
 953.485
  31
0.0
   0
LINE
   8
LEVEL001
   6
CONTINUOUS
  62
7
  10
 244.237
  20
 953.485
  30
0.0
  11
 244.239
  21
 953.472
  31
0.0
   0
LINE
   8
LEVEL001
   6
CONTINUOUS
  62
7
  10
 244.239
  20
 953.472
  30
0.0
  11
 244.241
  21
 953.458
  31
0.0
   0
LINE
   8
LEVEL001
   6
CONTINUOUS
  62
7
  10
 244.241
  20
 953.458
  30
0.0
  11
 244.243
  21
 953.445
  31
0.0
   0
LINE
   8
LEVEL001
   6
CONTINUOUS
  62
7
  10
 244.243
  20
 953.445
  30
0.0
  11
 244.245
  21
 953.433
  31
0.0
   0
LINE
   8
LEVEL001
   6
CONTINUOUS
  62
7
  10
 244.245
  20
 953.433
  30
0.0
  11
 244.248
  21
 953.420
  31
0.0
   0
LINE
   8
LEVEL001
   6
CONTINUOUS
  62
7
  10
 244.248
  20
 953.420
  30
0.0
  11
 244.250
  21
 953.407
  31
0.0
   0
LINE
   8
LEVEL001
   6
CONTINUOUS
  62
7
  10
 244.250
  20
 953.407
  30
0.0
  11
 244.252
  21
 953.395
  31
0.0
   0
LINE
   8
LEVEL001
   6
CONTINUOUS
  62
7
  10
 244.252
  20
 953.395
  30
0.0
  11
 244.254
  21
 953.383
  31
0.0
   0
LINE
   8
LEVEL001
   6
CONTINUOUS
  62
7
  10
 244.254
  20
 953.383
  30
0.0
  11
 244.256
  21
 953.371
  31
0.0
   0
LINE
   8
LEVEL001
   6
CONTINUOUS
  62
7
  10
 244.256
  20
 953.371
  30
0.0
  11
 244.259
  21
 953.359
  31
0.0
   0
LINE
   8
LEVEL001
   6
CONTINUOUS
  62
7
  10
 244.259
  20
 953.359
  30
0.0
  11
 244.261
  21
 953.348
  31
0.0
   0
LINE
   8
LEVEL001
   6
CONTINUOUS
  62
7
  10
 244.261
  20
 953.348
  30
0.0
  11
 244.263
  21
 953.336
  31
0.0
   0
LINE
   8
LEVEL001
   6
CONTINUOUS
  62
7
  10
 244.263
  20
 953.336
  30
0.0
  11
 244.265
  21
 953.325
  31
0.0
   0
LINE
   8
LEVEL001
   6
CONTINUOUS
  62
7
  10
 244.265
  20
 953.325
  30
0.0
  11
 244.267
  21
 953.314
  31
0.0
   0
LINE
   8
LEVEL001
   6
CONTINUOUS
  62
7
  10
 244.267
  20
 953.314
  30
0.0
  11
 244.270
  21
 953.303
  31
0.0
   0
LINE
   8
LEVEL001
   6
CONTINUOUS
  62
7
  10
 244.270
  20
 953.303
  30
0.0
  11
 244.272
  21
 953.292
  31
0.0
   0
LINE
   8
LEVEL001
   6
CONTINUOUS
  62
7
  10
 244.272
  20
 953.292
  30
0.0
  11
 244.274
  21
 953.282
  31
0.0
   0
LINE
   8
LEVEL001
   6
CONTINUOUS
  62
7
  10
 244.274
  20
 953.282
  30
0.0
  11
 244.276
  21
 953.272
  31
0.0
   0
LINE
   8
LEVEL001
   6
CONTINUOUS
  62
7
  10
 244.276
  20
 953.272
  30
0.0
  11
 244.279
  21
 953.262
  31
0.0
   0
LINE
   8
LEVEL001
   6
CONTINUOUS
  62
7
  10
 244.279
  20
 953.262
  30
0.0
  11
 244.281
  21
 953.252
  31
0.0
   0
LINE
   8
LEVEL001
   6
CONTINUOUS
  62
7
  10
 244.281
  20
 953.252
  30
0.0
  11
 244.283
  21
 953.242
  31
0.0
   0
LINE
   8
LEVEL001
   6
CONTINUOUS
  62
7
  10
 244.283
  20
 953.242
  30
0.0
  11
 244.285
  21
 953.232
  31
0.0
   0
LINE
   8
LEVEL001
   6
CONTINUOUS
  62
7
  10
 244.285
  20
 953.232
  30
0.0
  11
 244.288
  21
 953.223
  31
0.0
   0
LINE
   8
LEVEL001
   6
CONTINUOUS
  62
7
  10
 244.288
  20
 953.223
  30
0.0
  11
 244.290
  21
 953.214
  31
0.0
   0
LINE
   8
LEVEL001
   6
CONTINUOUS
  62
7
  10
 244.290
  20
 953.214
  30
0.0
  11
 244.292
  21
 953.205
  31
0.0
   0
LINE
   8
LEVEL001
   6
CONTINUOUS
  62
7
  10
 244.292
  20
 953.205
  30
0.0
  11
 244.294
  21
 953.196
  31
0.0
   0
LINE
   8
LEVEL001
   6
CONTINUOUS
  62
7
  10
 244.294
  20
 953.196
  30
0.0
  11
 244.297
  21
 953.188
  31
0.0
   0
LINE
   8
LEVEL001
   6
CONTINUOUS
  62
7
  10
 244.297
  20
 953.188
  30
0.0
  11
 244.299
  21
 953.179
  31
0.0
   0
LINE
   8
LEVEL001
   6
CONTINUOUS
  62
7
  10
 244.299
  20
 953.179
  30
0.0
  11
 244.301
  21
 953.171
  31
0.0
   0
LINE
   8
LEVEL001
   6
CONTINUOUS
  62
7
  10
 244.301
  20
 953.171
  30
0.0
  11
 244.304
  21
 953.163
  31
0.0
   0
LINE
   8
LEVEL001
   6
CONTINUOUS
  62
7
  10
 244.304
  20
 953.163
  30
0.0
  11
 244.306
  21
 953.155
  31
0.0
   0
LINE
   8
LEVEL001
   6
CONTINUOUS
  62
7
  10
 244.306
  20
 953.155
  30
0.0
  11
 244.308
  21
 953.148
  31
0.0
   0
LINE
   8
LEVEL001
   6
CONTINUOUS
  62
7
  10
 244.308
  20
 953.148
  30
0.0
  11
 244.310
  21
 953.140
  31
0.0
   0
LINE
   8
LEVEL001
   6
CONTINUOUS
  62
7
  10
 244.310
  20
 953.140
  30
0.0
  11
 244.313
  21
 953.133
  31
0.0
   0
LINE
   8
LEVEL001
   6
CONTINUOUS
  62
7
  10
 244.313
  20
 953.133
  30
0.0
  11
 244.315
  21
 953.126
  31
0.0
   0
LINE
   8
LEVEL001
   6
CONTINUOUS
  62
7
  10
 244.315
  20
 953.126
  30
0.0
  11
 244.317
  21
 953.119
  31
0.0
   0
LINE
   8
LEVEL001
   6
CONTINUOUS
  62
7
  10
 244.317
  20
 953.119
  30
0.0
  11
 244.320
  21
 953.112
  31
0.0
   0
LINE
   8
LEVEL001
   6
CONTINUOUS
  62
7
  10
 244.320
  20
 953.112
  30
0.0
  11
 244.322
  21
 953.106
  31
0.0
   0
LINE
   8
LEVEL001
   6
CONTINUOUS
  62
7
  10
 244.322
  20
 953.106
  30
0.0
  11
 244.324
  21
 953.099
  31
0.0
   0
LINE
   8
LEVEL001
   6
CONTINUOUS
  62
7
  10
 244.324
  20
 953.099
  30
0.0
  11
 244.327
  21
 953.093
  31
0.0
   0
LINE
   8
LEVEL001
   6
CONTINUOUS
  62
7
  10
 244.327
  20
 953.093
  30
0.0
  11
 244.329
  21
 953.087
  31
0.0
   0
LINE
   8
LEVEL001
   6
CONTINUOUS
  62
7
  10
 244.329
  20
 953.087
  30
0.0
  11
 244.331
  21
 953.082
  31
0.0
   0
LINE
   8
LEVEL001
   6
CONTINUOUS
  62
7
  10
 244.331
  20
 953.082
  30
0.0
  11
 244.333
  21
 953.076
  31
0.0
   0
LINE
   8
LEVEL001
   6
CONTINUOUS
  62
7
  10
 244.333
  20
 953.076
  30
0.0
  11
 244.336
  21
 953.071
  31
0.0
   0
LINE
   8
LEVEL001
   6
CONTINUOUS
  62
7
  10
 244.336
  20
 953.071
  30
0.0
  11
 244.338
  21
 953.066
  31
0.0
   0
LINE
   8
LEVEL001
   6
CONTINUOUS
  62
7
  10
 244.338
  20
 953.066
  30
0.0
  11
 244.340
  21
 953.061
  31
0.0
   0
LINE
   8
LEVEL001
   6
CONTINUOUS
  62
7
  10
 244.340
  20
 953.061
  30
0.0
  11
 244.343
  21
 953.056
  31
0.0
   0
LINE
   8
LEVEL001
   6
CONTINUOUS
  62
7
  10
 244.343
  20
 953.056
  30
0.0
  11
 244.345
  21
 953.051
  31
0.0
   0
LINE
   8
LEVEL001
   6
CONTINUOUS
  62
7
  10
 244.345
  20
 953.051
  30
0.0
  11
 244.347
  21
 953.047
  31
0.0
   0
LINE
   8
LEVEL001
   6
CONTINUOUS
  62
7
  10
 244.347
  20
 953.047
  30
0.0
  11
 244.350
  21
 953.043
  31
0.0
   0
LINE
   8
LEVEL001
   6
CONTINUOUS
  62
7
  10
 244.350
  20
 953.043
  30
0.0
  11
 244.352
  21
 953.039
  31
0.0
   0
LINE
   8
LEVEL001
   6
CONTINUOUS
  62
7
  10
 244.352
  20
 953.039
  30
0.0
  11
 244.354
  21
 953.035
  31
0.0
   0
LINE
   8
LEVEL001
   6
CONTINUOUS
  62
7
  10
 244.354
  20
 953.035
  30
0.0
  11
 244.357
  21
 953.032
  31
0.0
   0
LINE
   8
LEVEL001
   6
CONTINUOUS
  62
7
  10
 244.357
  20
 953.032
  30
0.0
  11
 244.359
  21
 953.028
  31
0.0
   0
LINE
   8
LEVEL001
   6
CONTINUOUS
  62
7
  10
 244.359
  20
 953.028
  30
0.0
  11
 244.361
  21
 953.025
  31
0.0
   0
LINE
   8
LEVEL001
   6
CONTINUOUS
  62
7
  10
 244.361
  20
 953.025
  30
0.0
  11
 244.364
  21
 953.022
  31
0.0
   0
LINE
   8
LEVEL001
   6
CONTINUOUS
  62
7
  10
 244.364
  20
 953.022
  30
0.0
  11
 244.366
  21
 953.019
  31
0.0
   0
LINE
   8
LEVEL001
   6
CONTINUOUS
  62
7
  10
 244.366
  20
 953.019
  30
0.0
  11
 244.368
  21
 953.016
  31
0.0
   0
LINE
   8
LEVEL001
   6
CONTINUOUS
  62
7
  10
 244.368
  20
 953.016
  30
0.0
  11
 244.371
  21
 953.014
  31
0.0
   0
LINE
   8
LEVEL001
   6
CONTINUOUS
  62
7
  10
 244.371
  20
 953.014
  30
0.0
  11
 244.373
  21
 953.012
  31
0.0
   0
LINE
   8
LEVEL001
   6
CONTINUOUS
  62
7
  10
 244.373
  20
 953.012
  30
0.0
  11
 244.375
  21
 953.010
  31
0.0
   0
LINE
   8
LEVEL001
   6
CONTINUOUS
  62
7
  10
 244.375
  20
 953.010
  30
0.0
  11
 244.378
  21
 953.008
  31
0.0
   0
LINE
   8
LEVEL001
   6
CONTINUOUS
  62
7
  10
 244.378
  20
 953.008
  30
0.0
  11
 244.380
  21
 953.006
  31
0.0
   0
LINE
   8
LEVEL001
   6
CONTINUOUS
  62
7
  10
 244.380
  20
 953.006
  30
0.0
  11
 244.382
  21
 953.005
  31
0.0
   0
LINE
   8
LEVEL001
   6
CONTINUOUS
  62
7
  10
 244.382
  20
 953.005
  30
0.0
  11
 244.385
  21
 953.004
  31
0.0
   0
LINE
   8
LEVEL001
   6
CONTINUOUS
  62
7
  10
 244.385
  20
 953.004
  30
0.0
  11
 244.387
  21
 953.002
  31
0.0
   0
LINE
   8
LEVEL001
   6
CONTINUOUS
  62
7
  10
 244.387
  20
 953.002
  30
0.0
  11
 244.389
  21
 953.002
  31
0.0
   0
LINE
   8
LEVEL001
   6
CONTINUOUS
  62
7
  10
 244.389
  20
 953.002
  30
0.0
  11
 244.392
  21
 953.001
  31
0.0
   0
LINE
   8
LEVEL001
   6
CONTINUOUS
  62
7
  10
 244.392
  20
 953.001
  30
0.0
  11
 244.394
  21
 953.000
  31
0.0
   0
LINE
   8
LEVEL001
   6
CONTINUOUS
  62
7
  10
 244.394
  20
 953.000
  30
0.0
  11
 244.396
  21
 953.000
  31
0.0
   0
LINE
   8
LEVEL001
   6
CONTINUOUS
  62
7
  10
 244.396
  20
 953.000
  30
0.0
  11
 244.399
  21
 953.000
  31
0.0
   0
LINE
   8
LEVEL001
   6
CONTINUOUS
  62
7
  10
 244.399
  20
 953.000
  30
0.0
  11
 244.416
  21
 953.000
  31
0.0
   0
LINE
   8
LEVEL001
   6
CONTINUOUS
  62
7
  10
 244.416
  20
 953.000
  30
0.0
  11
 244.434
  21
 953.000
  31
0.0
   0
LINE
   8
LEVEL001
   6
CONTINUOUS
  62
7
  10
 244.434
  20
 953.000
  30
0.0
  11
 244.452
  21
 953.001
  31
0.0
   0
LINE
   8
LEVEL001
   6
CONTINUOUS
  62
7
  10
 244.452
  20
 953.001
  30
0.0
  11
 244.470
  21
 953.002
  31
0.0
   0
LINE
   8
LEVEL001
   6
CONTINUOUS
  62
7
  10
 244.470
  20
 953.002
  30
0.0
  11
 244.488
  21
 953.002
  31
0.0
   0
LINE
   8
LEVEL001
   6
CONTINUOUS
  62
7
  10
 244.488
  20
 953.002
  30
0.0
  11
 244.505
  21
 953.004
  31
0.0
   0
LINE
   8
LEVEL001
   6
CONTINUOUS
  62
7
  10
 244.505
  20
 953.004
  30
0.0
  11
 244.523
  21
 953.005
  31
0.0
   0
LINE
   8
LEVEL001
   6
CONTINUOUS
  62
7
  10
 244.523
  20
 953.005
  30
0.0
  11
 244.541
  21
 953.006
  31
0.0
   0
LINE
   8
LEVEL001
   6
CONTINUOUS
  62
7
  10
 244.541
  20
 953.006
  30
0.0
  11
 244.559
  21
 953.008
  31
0.0
   0
LINE
   8
LEVEL001
   6
CONTINUOUS
  62
7
  10
 244.559
  20
 953.008
  30
0.0
  11
 244.577
  21
 953.010
  31
0.0
   0
LINE
   8
LEVEL001
   6
CONTINUOUS
  62
7
  10
 244.577
  20
 953.010
  30
0.0
  11
 244.594
  21
 953.012
  31
0.0
   0
LINE
   8
LEVEL001
   6
CONTINUOUS
  62
7
  10
 244.594
  20
 953.012
  30
0.0
  11
 244.612
  21
 953.014
  31
0.0
   0
LINE
   8
LEVEL001
   6
CONTINUOUS
  62
7
  10
 244.612
  20
 953.014
  30
0.0
  11
 244.630
  21
 953.016
  31
0.0
   0
LINE
   8
LEVEL001
   6
CONTINUOUS
  62
7
  10
 244.630
  20
 953.016
  30
0.0
  11
 244.648
  21
 953.019
  31
0.0
   0
LINE
   8
LEVEL001
   6
CONTINUOUS
  62
7
  10
 244.648
  20
 953.019
  30
0.0
  11
 244.665
  21
 953.022
  31
0.0
   0
LINE
   8
LEVEL001
   6
CONTINUOUS
  62
7
  10
 244.665
  20
 953.022
  30
0.0
  11
 244.683
  21
 953.025
  31
0.0
   0
LINE
   8
LEVEL001
   6
CONTINUOUS
  62
7
  10
 244.683
  20
 953.025
  30
0.0
  11
 244.701
  21
 953.028
  31
0.0
   0
LINE
   8
LEVEL001
   6
CONTINUOUS
  62
7
  10
 244.701
  20
 953.028
  30
0.0
  11
 244.718
  21
 953.032
  31
0.0
   0
LINE
   8
LEVEL001
   6
CONTINUOUS
  62
7
  10
 244.718
  20
 953.032
  30
0.0
  11
 244.736
  21
 953.035
  31
0.0
   0
LINE
   8
LEVEL001
   6
CONTINUOUS
  62
7
  10
 244.736
  20
 953.035
  30
0.0
  11
 244.754
  21
 953.039
  31
0.0
   0
LINE
   8
LEVEL001
   6
CONTINUOUS
  62
7
  10
 244.754
  20
 953.039
  30
0.0
  11
 244.772
  21
 953.043
  31
0.0
   0
LINE
   8
LEVEL001
   6
CONTINUOUS
  62
7
  10
 244.772
  20
 953.043
  30
0.0
  11
 244.789
  21
 953.047
  31
0.0
   0
LINE
   8
LEVEL001
   6
CONTINUOUS
  62
7
  10
 244.789
  20
 953.047
  30
0.0
  11
 244.807
  21
 953.051
  31
0.0
   0
LINE
   8
LEVEL001
   6
CONTINUOUS
  62
7
  10
 244.807
  20
 953.051
  30
0.0
  11
 244.825
  21
 953.056
  31
0.0
   0
LINE
   8
LEVEL001
   6
CONTINUOUS
  62
7
  10
 244.825
  20
 953.056
  30
0.0
  11
 244.842
  21
 953.061
  31
0.0
   0
LINE
   8
LEVEL001
   6
CONTINUOUS
  62
7
  10
 244.842
  20
 953.061
  30
0.0
  11
 244.860
  21
 953.066
  31
0.0
   0
LINE
   8
LEVEL001
   6
CONTINUOUS
  62
7
  10
 244.860
  20
 953.066
  30
0.0
  11
 244.878
  21
 953.071
  31
0.0
   0
LINE
   8
LEVEL001
   6
CONTINUOUS
  62
7
  10
 244.878
  20
 953.071
  30
0.0
  11
 244.895
  21
 953.076
  31
0.0
   0
LINE
   8
LEVEL001
   6
CONTINUOUS
  62
7
  10
 244.895
  20
 953.076
  30
0.0
  11
 244.913
  21
 953.082
  31
0.0
   0
LINE
   8
LEVEL001
   6
CONTINUOUS
  62
7
  10
 244.913
  20
 953.082
  30
0.0
  11
 244.930
  21
 953.087
  31
0.0
   0
LINE
   8
LEVEL001
   6
CONTINUOUS
  62
7
  10
 244.930
  20
 953.087
  30
0.0
  11
 244.948
  21
 953.093
  31
0.0
   0
LINE
   8
LEVEL001
   6
CONTINUOUS
  62
7
  10
 244.948
  20
 953.093
  30
0.0
  11
 244.965
  21
 953.099
  31
0.0
   0
LINE
   8
LEVEL001
   6
CONTINUOUS
  62
7
  10
 244.965
  20
 953.099
  30
0.0
  11
 244.983
  21
 953.106
  31
0.0
   0
LINE
   8
LEVEL001
   6
CONTINUOUS
  62
7
  10
 244.983
  20
 953.106
  30
0.0
  11
 245.000
  21
 953.112
  31
0.0
   0
LINE
   8
LEVEL001
   6
CONTINUOUS
  62
7
  10
 245.000
  20
 953.112
  30
0.0
  11
 245.018
  21
 953.119
  31
0.0
   0
LINE
   8
LEVEL001
   6
CONTINUOUS
  62
7
  10
 245.018
  20
 953.119
  30
0.0
  11
 245.035
  21
 953.126
  31
0.0
   0
LINE
   8
LEVEL001
   6
CONTINUOUS
  62
7
  10
 245.035
  20
 953.126
  30
0.0
  11
 245.053
  21
 953.133
  31
0.0
   0
LINE
   8
LEVEL001
   6
CONTINUOUS
  62
7
  10
 245.053
  20
 953.133
  30
0.0
  11
 245.070
  21
 953.140
  31
0.0
   0
LINE
   8
LEVEL001
   6
CONTINUOUS
  62
7
  10
 245.070
  20
 953.140
  30
0.0
  11
 245.088
  21
 953.148
  31
0.0
   0
LINE
   8
LEVEL001
   6
CONTINUOUS
  62
7
  10
 245.088
  20
 953.148
  30
0.0
  11
 245.105
  21
 953.155
  31
0.0
   0
LINE
   8
LEVEL001
   6
CONTINUOUS
  62
7
  10
 245.105
  20
 953.155
  30
0.0
  11
 245.123
  21
 953.163
  31
0.0
   0
LINE
   8
LEVEL001
   6
CONTINUOUS
  62
7
  10
 245.123
  20
 953.163
  30
0.0
  11
 245.140
  21
 953.171
  31
0.0
   0
LINE
   8
LEVEL001
   6
CONTINUOUS
  62
7
  10
 245.140
  20
 953.171
  30
0.0
  11
 245.157
  21
 953.179
  31
0.0
   0
LINE
   8
LEVEL001
   6
CONTINUOUS
  62
7
  10
 245.157
  20
 953.179
  30
0.0
  11
 245.175
  21
 953.188
  31
0.0
   0
LINE
   8
LEVEL001
   6
CONTINUOUS
  62
7
  10
 245.175
  20
 953.188
  30
0.0
  11
 245.192
  21
 953.196
  31
0.0
   0
LINE
   8
LEVEL001
   6
CONTINUOUS
  62
7
  10
 245.192
  20
 953.196
  30
0.0
  11
 245.209
  21
 953.205
  31
0.0
   0
LINE
   8
LEVEL001
   6
CONTINUOUS
  62
7
  10
 245.209
  20
 953.205
  30
0.0
  11
 245.226
  21
 953.214
  31
0.0
   0
LINE
   8
LEVEL001
   6
CONTINUOUS
  62
7
  10
 245.226
  20
 953.214
  30
0.0
  11
 245.244
  21
 953.223
  31
0.0
   0
LINE
   8
LEVEL001
   6
CONTINUOUS
  62
7
  10
 245.244
  20
 953.223
  30
0.0
  11
 245.261
  21
 953.232
  31
0.0
   0
LINE
   8
LEVEL001
   6
CONTINUOUS
  62
7
  10
 245.261
  20
 953.232
  30
0.0
  11
 245.278
  21
 953.242
  31
0.0
   0
LINE
   8
LEVEL001
   6
CONTINUOUS
  62
7
  10
 245.278
  20
 953.242
  30
0.0
  11
 245.295
  21
 953.252
  31
0.0
   0
LINE
   8
LEVEL001
   6
CONTINUOUS
  62
7
  10
 245.295
  20
 953.252
  30
0.0
  11
 245.312
  21
 953.262
  31
0.0
   0
LINE
   8
LEVEL001
   6
CONTINUOUS
  62
7
  10
 245.312
  20
 953.262
  30
0.0
  11
 245.330
  21
 953.272
  31
0.0
   0
LINE
   8
LEVEL001
   6
CONTINUOUS
  62
7
  10
 245.330
  20
 953.272
  30
0.0
  11
 245.347
  21
 953.282
  31
0.0
   0
LINE
   8
LEVEL001
   6
CONTINUOUS
  62
7
  10
 245.347
  20
 953.282
  30
0.0
  11
 245.364
  21
 953.292
  31
0.0
   0
LINE
   8
LEVEL001
   6
CONTINUOUS
  62
7
  10
 245.364
  20
 953.292
  30
0.0
  11
 245.381
  21
 953.303
  31
0.0
   0
LINE
   8
LEVEL001
   6
CONTINUOUS
  62
7
  10
 245.381
  20
 953.303
  30
0.0
  11
 245.398
  21
 953.314
  31
0.0
   0
LINE
   8
LEVEL001
   6
CONTINUOUS
  62
7
  10
 245.398
  20
 953.314
  30
0.0
  11
 245.415
  21
 953.325
  31
0.0
   0
LINE
   8
LEVEL001
   6
CONTINUOUS
  62
7
  10
 245.415
  20
 953.325
  30
0.0
  11
 245.432
  21
 953.336
  31
0.0
   0
LINE
   8
LEVEL001
   6
CONTINUOUS
  62
7
  10
 245.432
  20
 953.336
  30
0.0
  11
 245.449
  21
 953.348
  31
0.0
   0
LINE
   8
LEVEL001
   6
CONTINUOUS
  62
7
  10
 245.449
  20
 953.348
  30
0.0
  11
 245.466
  21
 953.359
  31
0.0
   0
LINE
   8
LEVEL001
   6
CONTINUOUS
  62
7
  10
 245.466
  20
 953.359
  30
0.0
  11
 245.482
  21
 953.371
  31
0.0
   0
LINE
   8
LEVEL001
   6
CONTINUOUS
  62
7
  10
 245.482
  20
 953.371
  30
0.0
  11
 245.499
  21
 953.383
  31
0.0
   0
LINE
   8
LEVEL001
   6
CONTINUOUS
  62
7
  10
 245.499
  20
 953.383
  30
0.0
  11
 245.516
  21
 953.395
  31
0.0
   0
LINE
   8
LEVEL001
   6
CONTINUOUS
  62
7
  10
 245.516
  20
 953.395
  30
0.0
  11
 245.533
  21
 953.407
  31
0.0
   0
LINE
   8
LEVEL001
   6
CONTINUOUS
  62
7
  10
 245.533
  20
 953.407
  30
0.0
  11
 245.550
  21
 953.420
  31
0.0
   0
LINE
   8
LEVEL001
   6
CONTINUOUS
  62
7
  10
 245.550
  20
 953.420
  30
0.0
  11
 245.566
  21
 953.433
  31
0.0
   0
LINE
   8
LEVEL001
   6
CONTINUOUS
  62
7
  10
 245.566
  20
 953.433
  30
0.0
  11
 245.583
  21
 953.445
  31
0.0
   0
LINE
   8
LEVEL001
   6
CONTINUOUS
  62
7
  10
 245.583
  20
 953.445
  30
0.0
  11
 245.600
  21
 953.458
  31
0.0
   0
LINE
   8
LEVEL001
   6
CONTINUOUS
  62
7
  10
 245.600
  20
 953.458
  30
0.0
  11
 245.616
  21
 953.472
  31
0.0
   0
LINE
   8
LEVEL001
   6
CONTINUOUS
  62
7
  10
 245.616
  20
 953.472
  30
0.0
  11
 245.633
  21
 953.485
  31
0.0
   0
LINE
   8
LEVEL001
   6
CONTINUOUS
  62
7
  10
 245.633
  20
 953.485
  30
0.0
  11
 245.649
  21
 953.499
  31
0.0
   0
LINE
   8
LEVEL001
   6
CONTINUOUS
  62
7
  10
 246.500
  20
 954.524
  30
0.0
  11
 246.566
  21
 954.635
  31
0.0
   0
LINE
   8
LEVEL001
   6
CONTINUOUS
  62
7
  10
 246.566
  20
 954.635
  30
0.0
  11
 246.630
  21
 954.749
  31
0.0
   0
LINE
   8
LEVEL001
   6
CONTINUOUS
  62
7
  10
 246.630
  20
 954.749
  30
0.0
  11
 246.692
  21
 954.866
  31
0.0
   0
LINE
   8
LEVEL001
   6
CONTINUOUS
  62
7
  10
 246.692
  20
 954.866
  30
0.0
  11
 246.753
  21
 954.986
  31
0.0
   0
LINE
   8
LEVEL001
   6
CONTINUOUS
  62
7
  10
 246.753
  20
 954.986
  30
0.0
  11
 246.813
  21
 955.109
  31
0.0
   0
LINE
   8
LEVEL001
   6
CONTINUOUS
  62
7
  10
 246.813
  20
 955.109
  30
0.0
  11
 246.871
  21
 955.236
  31
0.0
   0
LINE
   8
LEVEL001
   6
CONTINUOUS
  62
7
  10
 246.871
  20
 955.236
  30
0.0
  11
 246.927
  21
 955.365
  31
0.0
   0
LINE
   8
LEVEL001
   6
CONTINUOUS
  62
7
  10
 246.927
  20
 955.365
  30
0.0
  11
 246.982
  21
 955.498
  31
0.0
   0
LINE
   8
LEVEL001
   6
CONTINUOUS
  62
7
  10
 246.982
  20
 955.498
  30
0.0
  11
 247.035
  21
 955.633
  31
0.0
   0
LINE
   8
LEVEL001
   6
CONTINUOUS
  62
7
  10
 247.035
  20
 955.633
  30
0.0
  11
 247.087
  21
 955.771
  31
0.0
   0
LINE
   8
LEVEL001
   6
CONTINUOUS
  62
7
  10
 247.087
  20
 955.771
  30
0.0
  11
 247.137
  21
 955.911
  31
0.0
   0
LINE
   8
LEVEL001
   6
CONTINUOUS
  62
7
  10
 247.137
  20
 955.911
  30
0.0
  11
 247.186
  21
 956.054
  31
0.0
   0
LINE
   8
LEVEL001
   6
CONTINUOUS
  62
7
  10
 247.186
  20
 956.054
  30
0.0
  11
 247.232
  21
 956.200
  31
0.0
   0
LINE
   8
LEVEL001
   6
CONTINUOUS
  62
7
  10
 247.232
  20
 956.200
  30
0.0
  11
 247.277
  21
 956.348
  31
0.0
   0
LINE
   8
LEVEL001
   6
CONTINUOUS
  62
7
  10
 247.277
  20
 956.348
  30
0.0
  11
 247.320
  21
 956.498
  31
0.0
   0
LINE
   8
LEVEL001
   6
CONTINUOUS
  62
7
  10
 247.320
  20
 956.498
  30
0.0
  11
 247.361
  21
 956.650
  31
0.0
   0
LINE
   8
LEVEL001
   6
CONTINUOUS
  62
7
  10
 247.361
  20
 956.650
  30
0.0
  11
 247.401
  21
 956.804
  31
0.0
   0
LINE
   8
LEVEL001
   6
CONTINUOUS
  62
7
  10
 247.401
  20
 956.804
  30
0.0
  11
 247.438
  21
 956.961
  31
0.0
   0
LINE
   8
LEVEL001
   6
CONTINUOUS
  62
7
  10
 247.438
  20
 956.961
  30
0.0
  11
 247.474
  21
 957.119
  31
0.0
   0
LINE
   8
LEVEL001
   6
CONTINUOUS
  62
7
  10
 247.474
  20
 957.119
  30
0.0
  11
 247.507
  21
 957.279
  31
0.0
   0
LINE
   8
LEVEL001
   6
CONTINUOUS
  62
7
  10
 247.507
  20
 957.279
  30
0.0
  11
 247.539
  21
 957.441
  31
0.0
   0
LINE
   8
LEVEL001
   6
CONTINUOUS
  62
7
  10
 247.539
  20
 957.441
  30
0.0
  11
 247.569
  21
 957.604
  31
0.0
   0
LINE
   8
LEVEL001
   6
CONTINUOUS
  62
7
  10
 247.569
  20
 957.604
  30
0.0
  11
 247.597
  21
 957.769
  31
0.0
   0
LINE
   8
LEVEL001
   6
CONTINUOUS
  62
7
  10
 247.597
  20
 957.769
  30
0.0
  11
 247.623
  21
 957.935
  31
0.0
   0
LINE
   8
LEVEL001
   6
CONTINUOUS
  62
7
  10
 247.623
  20
 957.935
  30
0.0
  11
 247.646
  21
 958.103
  31
0.0
   0
LINE
   8
LEVEL001
   6
CONTINUOUS
  62
7
  10
 247.646
  20
 958.103
  30
0.0
  11
 247.668
  21
 958.272
  31
0.0
   0
LINE
   8
LEVEL001
   6
CONTINUOUS
  62
7
  10
 247.668
  20
 958.272
  30
0.0
  11
 247.688
  21
 958.441
  31
0.0
   0
LINE
   8
LEVEL001
   6
CONTINUOUS
  62
7
  10
 247.688
  20
 958.441
  30
0.0
  11
 247.706
  21
 958.612
  31
0.0
   0
LINE
   8
LEVEL001
   6
CONTINUOUS
  62
7
  10
 247.706
  20
 958.612
  30
0.0
  11
 247.721
  21
 958.784
  31
0.0
   0
LINE
   8
LEVEL001
   6
CONTINUOUS
  62
7
  10
 247.721
  20
 958.784
  30
0.0
  11
 247.735
  21
 958.956
  31
0.0
   0
LINE
   8
LEVEL001
   6
CONTINUOUS
  62
7
  10
 247.735
  20
 958.956
  30
0.0
  11
 247.746
  21
 959.129
  31
0.0
   0
LINE
   8
LEVEL001
   6
CONTINUOUS
  62
7
  10
 247.746
  20
 959.129
  30
0.0
  11
 247.756
  21
 959.303
  31
0.0
   0
LINE
   8
LEVEL001
   6
CONTINUOUS
  62
7
  10
 247.756
  20
 959.303
  30
0.0
  11
 247.763
  21
 959.477
  31
0.0
   0
LINE
   8
LEVEL001
   6
CONTINUOUS
  62
7
  10
 247.763
  20
 959.477
  30
0.0
  11
 247.768
  21
 959.651
  31
0.0
   0
LINE
   8
LEVEL001
   6
CONTINUOUS
  62
7
  10
 247.768
  20
 959.651
  30
0.0
  11
 247.772
  21
 959.826
  31
0.0
   0
LINE
   8
LEVEL001
   6
CONTINUOUS
  62
7
  10
 247.772
  20
 959.826
  30
0.0
  11
 247.773
  21
 960.000
  31
0.0
   0
LINE
   8
LEVEL001
   6
CONTINUOUS
  62
7
  10
 247.773
  20
 960.000
  30
0.0
  11
 247.772
  21
 960.175
  31
0.0
   0
LINE
   8
LEVEL001
   6
CONTINUOUS
  62
7
  10
 247.772
  20
 960.175
  30
0.0
  11
 247.768
  21
 960.349
  31
0.0
   0
LINE
   8
LEVEL001
   6
CONTINUOUS
  62
7
  10
 247.768
  20
 960.349
  30
0.0
  11
 247.763
  21
 960.524
  31
0.0
   0
LINE
   8
LEVEL001
   6
CONTINUOUS
  62
7
  10
 247.763
  20
 960.524
  30
0.0
  11
 247.756
  21
 960.698
  31
0.0
   0
LINE
   8
LEVEL001
   6
CONTINUOUS
  62
7
  10
 247.756
  20
 960.698
  30
0.0
  11
 247.746
  21
 960.871
  31
0.0
   0
LINE
   8
LEVEL001
   6
CONTINUOUS
  62
7
  10
 247.746
  20
 960.871
  30
0.0
  11
 247.735
  21
 961.044
  31
0.0
   0
LINE
   8
LEVEL001
   6
CONTINUOUS
  62
7
  10
 247.735
  20
 961.044
  30
0.0
  11
 247.721
  21
 961.217
  31
0.0
   0
LINE
   8
LEVEL001
   6
CONTINUOUS
  62
7
  10
 247.721
  20
 961.217
  30
0.0
  11
 247.706
  21
 961.388
  31
0.0
   0
LINE
   8
LEVEL001
   6
CONTINUOUS
  62
7
  10
 247.706
  20
 961.388
  30
0.0
  11
 247.688
  21
 961.559
  31
0.0
   0
LINE
   8
LEVEL001
   6
CONTINUOUS
  62
7
  10
 247.688
  20
 961.559
  30
0.0
  11
 247.668
  21
 961.729
  31
0.0
   0
LINE
   8
LEVEL001
   6
CONTINUOUS
  62
7
  10
 247.668
  20
 961.729
  30
0.0
  11
 247.646
  21
 961.898
  31
0.0
   0
LINE
   8
LEVEL001
   6
CONTINUOUS
  62
7
  10
 247.646
  20
 961.898
  30
0.0
  11
 247.622
  21
 962.065
  31
0.0
   0
LINE
   8
LEVEL001
   6
CONTINUOUS
  62
7
  10
 247.622
  20
 962.065
  30
0.0
  11
 247.597
  21
 962.231
  31
0.0
   0
LINE
   8
LEVEL001
   6
CONTINUOUS
  62
7
  10
 247.597
  20
 962.231
  30
0.0
  11
 247.569
  21
 962.396
  31
0.0
   0
LINE
   8
LEVEL001
   6
CONTINUOUS
  62
7
  10
 247.569
  20
 962.396
  30
0.0
  11
 247.539
  21
 962.560
  31
0.0
   0
LINE
   8
LEVEL001
   6
CONTINUOUS
  62
7
  10
 247.539
  20
 962.560
  30
0.0
  11
 247.507
  21
 962.721
  31
0.0
   0
LINE
   8
LEVEL001
   6
CONTINUOUS
  62
7
  10
 247.507
  20
 962.721
  30
0.0
  11
 247.474
  21
 962.881
  31
0.0
   0
LINE
   8
LEVEL001
   6
CONTINUOUS
  62
7
  10
 247.474
  20
 962.881
  30
0.0
  11
 247.438
  21
 963.040
  31
0.0
   0
LINE
   8
LEVEL001
   6
CONTINUOUS
  62
7
  10
 247.438
  20
 963.040
  30
0.0
  11
 247.400
  21
 963.196
  31
0.0
   0
LINE
   8
LEVEL001
   6
CONTINUOUS
  62
7
  10
 247.400
  20
 963.196
  30
0.0
  11
 247.361
  21
 963.350
  31
0.0
   0
LINE
   8
LEVEL001
   6
CONTINUOUS
  62
7
  10
 247.361
  20
 963.350
  30
0.0
  11
 247.320
  21
 963.503
  31
0.0
   0
LINE
   8
LEVEL001
   6
CONTINUOUS
  62
7
  10
 247.320
  20
 963.503
  30
0.0
  11
 247.277
  21
 963.653
  31
0.0
   0
LINE
   8
LEVEL001
   6
CONTINUOUS
  62
7
  10
 247.277
  20
 963.653
  30
0.0
  11
 247.232
  21
 963.801
  31
0.0
   0
LINE
   8
LEVEL001
   6
CONTINUOUS
  62
7
  10
 247.232
  20
 963.801
  30
0.0
  11
 247.185
  21
 963.946
  31
0.0
   0
LINE
   8
LEVEL001
   6
CONTINUOUS
  62
7
  10
 247.185
  20
 963.946
  30
0.0
  11
 247.137
  21
 964.089
  31
0.0
   0
LINE
   8
LEVEL001
   6
CONTINUOUS
  62
7
  10
 247.137
  20
 964.089
  30
0.0
  11
 247.087
  21
 964.230
  31
0.0
   0
LINE
   8
LEVEL001
   6
CONTINUOUS
  62
7
  10
 247.087
  20
 964.230
  30
0.0
  11
 247.035
  21
 964.368
  31
0.0
   0
LINE
   8
LEVEL001
   6
CONTINUOUS
  62
7
  10
 247.035
  20
 964.368
  30
0.0
  11
 246.982
  21
 964.503
  31
0.0
   0
LINE
   8
LEVEL001
   6
CONTINUOUS
  62
7
  10
 246.982
  20
 964.503
  30
0.0
  11
 246.927
  21
 964.635
  31
0.0
   0
LINE
   8
LEVEL001
   6
CONTINUOUS
  62
7
  10
 246.927
  20
 964.635
  30
0.0
  11
 246.870
  21
 964.764
  31
0.0
   0
LINE
   8
LEVEL001
   6
CONTINUOUS
  62
7
  10
 246.870
  20
 964.764
  30
0.0
  11
 246.812
  21
 964.891
  31
0.0
   0
LINE
   8
LEVEL001
   6
CONTINUOUS
  62
7
  10
 246.812
  20
 964.891
  30
0.0
  11
 246.753
  21
 965.014
  31
0.0
   0
LINE
   8
LEVEL001
   6
CONTINUOUS
  62
7
  10
 246.753
  20
 965.014
  30
0.0
  11
 246.692
  21
 965.135
  31
0.0
   0
LINE
   8
LEVEL001
   6
CONTINUOUS
  62
7
  10
 246.692
  20
 965.135
  30
0.0
  11
 246.629
  21
 965.252
  31
0.0
   0
LINE
   8
LEVEL001
   6
CONTINUOUS
  62
7
  10
 246.629
  20
 965.252
  30
0.0
  11
 246.565
  21
 965.366
  31
0.0
   0
LINE
   8
LEVEL001
   6
CONTINUOUS
  62
7
  10
 246.565
  20
 965.366
  30
0.0
  11
 246.500
  21
 965.476
  31
0.0
   0
LINE
   8
LEVEL001
   6
CONTINUOUS
  62
7
  10
 245.650
  20
 966.501
  30
0.0
  11
 245.634
  21
 966.514
  31
0.0
   0
LINE
   8
LEVEL001
   6
CONTINUOUS
  62
7
  10
 245.634
  20
 966.514
  30
0.0
  11
 245.617
  21
 966.528
  31
0.0
   0
LINE
   8
LEVEL001
   6
CONTINUOUS
  62
7
  10
 245.617
  20
 966.528
  30
0.0
  11
 245.600
  21
 966.541
  31
0.0
   0
LINE
   8
LEVEL001
   6
CONTINUOUS
  62
7
  10
 245.600
  20
 966.541
  30
0.0
  11
 245.584
  21
 966.554
  31
0.0
   0
LINE
   8
LEVEL001
   6
CONTINUOUS
  62
7
  10
 245.584
  20
 966.554
  30
0.0
  11
 245.567
  21
 966.567
  31
0.0
   0
LINE
   8
LEVEL001
   6
CONTINUOUS
  62
7
  10
 245.567
  20
 966.567
  30
0.0
  11
 245.550
  21
 966.580
  31
0.0
   0
LINE
   8
LEVEL001
   6
CONTINUOUS
  62
7
  10
 245.550
  20
 966.580
  30
0.0
  11
 245.534
  21
 966.592
  31
0.0
   0
LINE
   8
LEVEL001
   6
CONTINUOUS
  62
7
  10
 245.534
  20
 966.592
  30
0.0
  11
 245.517
  21
 966.604
  31
0.0
   0
LINE
   8
LEVEL001
   6
CONTINUOUS
  62
7
  10
 245.517
  20
 966.604
  30
0.0
  11
 245.500
  21
 966.617
  31
0.0
   0
LINE
   8
LEVEL001
   6
CONTINUOUS
  62
7
  10
 245.500
  20
 966.617
  30
0.0
  11
 245.483
  21
 966.629
  31
0.0
   0
LINE
   8
LEVEL001
   6
CONTINUOUS
  62
7
  10
 245.483
  20
 966.629
  30
0.0
  11
 245.466
  21
 966.640
  31
0.0
   0
LINE
   8
LEVEL001
   6
CONTINUOUS
  62
7
  10
 245.466
  20
 966.640
  30
0.0
  11
 245.449
  21
 966.652
  31
0.0
   0
LINE
   8
LEVEL001
   6
CONTINUOUS
  62
7
  10
 245.449
  20
 966.652
  30
0.0
  11
 245.432
  21
 966.663
  31
0.0
   0
LINE
   8
LEVEL001
   6
CONTINUOUS
  62
7
  10
 245.432
  20
 966.663
  30
0.0
  11
 245.415
  21
 966.675
  31
0.0
   0
LINE
   8
LEVEL001
   6
CONTINUOUS
  62
7
  10
 245.415
  20
 966.675
  30
0.0
  11
 245.398
  21
 966.686
  31
0.0
   0
LINE
   8
LEVEL001
   6
CONTINUOUS
  62
7
  10
 245.398
  20
 966.686
  30
0.0
  11
 245.381
  21
 966.696
  31
0.0
   0
LINE
   8
LEVEL001
   6
CONTINUOUS
  62
7
  10
 245.381
  20
 966.696
  30
0.0
  11
 245.364
  21
 966.707
  31
0.0
   0
LINE
   8
LEVEL001
   6
CONTINUOUS
  62
7
  10
 245.364
  20
 966.707
  30
0.0
  11
 245.347
  21
 966.718
  31
0.0
   0
LINE
   8
LEVEL001
   6
CONTINUOUS
  62
7
  10
 245.347
  20
 966.718
  30
0.0
  11
 245.330
  21
 966.728
  31
0.0
   0
LINE
   8
LEVEL001
   6
CONTINUOUS
  62
7
  10
 245.330
  20
 966.728
  30
0.0
  11
 245.313
  21
 966.738
  31
0.0
   0
LINE
   8
LEVEL001
   6
CONTINUOUS
  62
7
  10
 245.313
  20
 966.738
  30
0.0
  11
 245.296
  21
 966.748
  31
0.0
   0
LINE
   8
LEVEL001
   6
CONTINUOUS
  62
7
  10
 245.296
  20
 966.748
  30
0.0
  11
 245.279
  21
 966.758
  31
0.0
   0
LINE
   8
LEVEL001
   6
CONTINUOUS
  62
7
  10
 245.279
  20
 966.758
  30
0.0
  11
 245.261
  21
 966.767
  31
0.0
   0
LINE
   8
LEVEL001
   6
CONTINUOUS
  62
7
  10
 245.261
  20
 966.767
  30
0.0
  11
 245.244
  21
 966.777
  31
0.0
   0
LINE
   8
LEVEL001
   6
CONTINUOUS
  62
7
  10
 245.244
  20
 966.777
  30
0.0
  11
 245.227
  21
 966.786
  31
0.0
   0
LINE
   8
LEVEL001
   6
CONTINUOUS
  62
7
  10
 245.227
  20
 966.786
  30
0.0
  11
 245.210
  21
 966.795
  31
0.0
   0
LINE
   8
LEVEL001
   6
CONTINUOUS
  62
7
  10
 245.210
  20
 966.795
  30
0.0
  11
 245.192
  21
 966.804
  31
0.0
   0
LINE
   8
LEVEL001
   6
CONTINUOUS
  62
7
  10
 245.192
  20
 966.804
  30
0.0
  11
 245.175
  21
 966.812
  31
0.0
   0
LINE
   8
LEVEL001
   6
CONTINUOUS
  62
7
  10
 245.175
  20
 966.812
  30
0.0
  11
 245.158
  21
 966.821
  31
0.0
   0
LINE
   8
LEVEL001
   6
CONTINUOUS
  62
7
  10
 245.158
  20
 966.821
  30
0.0
  11
 245.140
  21
 966.829
  31
0.0
   0
LINE
   8
LEVEL001
   6
CONTINUOUS
  62
7
  10
 245.140
  20
 966.829
  30
0.0
  11
 245.123
  21
 966.837
  31
0.0
   0
LINE
   8
LEVEL001
   6
CONTINUOUS
  62
7
  10
 245.123
  20
 966.837
  30
0.0
  11
 245.106
  21
 966.845
  31
0.0
   0
LINE
   8
LEVEL001
   6
CONTINUOUS
  62
7
  10
 245.106
  20
 966.845
  30
0.0
  11
 245.088
  21
 966.852
  31
0.0
   0
LINE
   8
LEVEL001
   6
CONTINUOUS
  62
7
  10
 245.088
  20
 966.852
  30
0.0
  11
 245.071
  21
 966.860
  31
0.0
   0
LINE
   8
LEVEL001
   6
CONTINUOUS
  62
7
  10
 245.071
  20
 966.860
  30
0.0
  11
 245.053
  21
 966.867
  31
0.0
   0
LINE
   8
LEVEL001
   6
CONTINUOUS
  62
7
  10
 245.053
  20
 966.867
  30
0.0
  11
 245.036
  21
 966.874
  31
0.0
   0
LINE
   8
LEVEL001
   6
CONTINUOUS
  62
7
  10
 245.036
  20
 966.874
  30
0.0
  11
 245.018
  21
 966.881
  31
0.0
   0
LINE
   8
LEVEL001
   6
CONTINUOUS
  62
7
  10
 245.018
  20
 966.881
  30
0.0
  11
 245.001
  21
 966.888
  31
0.0
   0
LINE
   8
LEVEL001
   6
CONTINUOUS
  62
7
  10
 245.001
  20
 966.888
  30
0.0
  11
 244.983
  21
 966.894
  31
0.0
   0
LINE
   8
LEVEL001
   6
CONTINUOUS
  62
7
  10
 244.983
  20
 966.894
  30
0.0
  11
 244.966
  21
 966.900
  31
0.0
   0
LINE
   8
LEVEL001
   6
CONTINUOUS
  62
7
  10
 244.966
  20
 966.900
  30
0.0
  11
 244.948
  21
 966.907
  31
0.0
   0
LINE
   8
LEVEL001
   6
CONTINUOUS
  62
7
  10
 244.948
  20
 966.907
  30
0.0
  11
 244.931
  21
 966.912
  31
0.0
   0
LINE
   8
LEVEL001
   6
CONTINUOUS
  62
7
  10
 244.931
  20
 966.912
  30
0.0
  11
 244.913
  21
 966.918
  31
0.0
   0
LINE
   8
LEVEL001
   6
CONTINUOUS
  62
7
  10
 244.913
  20
 966.918
  30
0.0
  11
 244.895
  21
 966.924
  31
0.0
   0
LINE
   8
LEVEL001
   6
CONTINUOUS
  62
7
  10
 244.895
  20
 966.924
  30
0.0
  11
 244.878
  21
 966.929
  31
0.0
   0
LINE
   8
LEVEL001
   6
CONTINUOUS
  62
7
  10
 244.878
  20
 966.929
  30
0.0
  11
 244.860
  21
 966.934
  31
0.0
   0
LINE
   8
LEVEL001
   6
CONTINUOUS
  62
7
  10
 244.860
  20
 966.934
  30
0.0
  11
 244.843
  21
 966.939
  31
0.0
   0
LINE
   8
LEVEL001
   6
CONTINUOUS
  62
7
  10
 244.843
  20
 966.939
  30
0.0
  11
 244.825
  21
 966.944
  31
0.0
   0
LINE
   8
LEVEL001
   6
CONTINUOUS
  62
7
  10
 244.825
  20
 966.944
  30
0.0
  11
 244.807
  21
 966.948
  31
0.0
   0
LINE
   8
LEVEL001
   6
CONTINUOUS
  62
7
  10
 244.807
  20
 966.948
  30
0.0
  11
 244.790
  21
 966.953
  31
0.0
   0
LINE
   8
LEVEL001
   6
CONTINUOUS
  62
7
  10
 244.790
  20
 966.953
  30
0.0
  11
 244.772
  21
 966.957
  31
0.0
   0
LINE
   8
LEVEL001
   6
CONTINUOUS
  62
7
  10
 244.772
  20
 966.957
  30
0.0
  11
 244.754
  21
 966.961
  31
0.0
   0
LINE
   8
LEVEL001
   6
CONTINUOUS
  62
7
  10
 244.754
  20
 966.961
  30
0.0
  11
 244.736
  21
 966.965
  31
0.0
   0
LINE
   8
LEVEL001
   6
CONTINUOUS
  62
7
  10
 244.736
  20
 966.965
  30
0.0
  11
 244.719
  21
 966.968
  31
0.0
   0
LINE
   8
LEVEL001
   6
CONTINUOUS
  62
7
  10
 244.719
  20
 966.968
  30
0.0
  11
 244.701
  21
 966.972
  31
0.0
   0
LINE
   8
LEVEL001
   6
CONTINUOUS
  62
7
  10
 244.701
  20
 966.972
  30
0.0
  11
 244.683
  21
 966.975
  31
0.0
   0
LINE
   8
LEVEL001
   6
CONTINUOUS
  62
7
  10
 244.683
  20
 966.975
  30
0.0
  11
 244.665
  21
 966.978
  31
0.0
   0
LINE
   8
LEVEL001
   6
CONTINUOUS
  62
7
  10
 244.665
  20
 966.978
  30
0.0
  11
 244.648
  21
 966.981
  31
0.0
   0
LINE
   8
LEVEL001
   6
CONTINUOUS
  62
7
  10
 244.648
  20
 966.981
  30
0.0
  11
 244.630
  21
 966.984
  31
0.0
   0
LINE
   8
LEVEL001
   6
CONTINUOUS
  62
7
  10
 244.630
  20
 966.984
  30
0.0
  11
 244.612
  21
 966.986
  31
0.0
   0
LINE
   8
LEVEL001
   6
CONTINUOUS
  62
7
  10
 244.612
  20
 966.986
  30
0.0
  11
 244.594
  21
 966.988
  31
0.0
   0
LINE
   8
LEVEL001
   6
CONTINUOUS
  62
7
  10
 244.594
  20
 966.988
  30
0.0
  11
 244.577
  21
 966.990
  31
0.0
   0
LINE
   8
LEVEL001
   6
CONTINUOUS
  62
7
  10
 244.577
  20
 966.990
  30
0.0
  11
 244.559
  21
 966.992
  31
0.0
   0
LINE
   8
LEVEL001
   6
CONTINUOUS
  62
7
  10
 244.559
  20
 966.992
  30
0.0
  11
 244.541
  21
 966.994
  31
0.0
   0
LINE
   8
LEVEL001
   6
CONTINUOUS
  62
7
  10
 244.541
  20
 966.994
  30
0.0
  11
 244.523
  21
 966.995
  31
0.0
   0
LINE
   8
LEVEL001
   6
CONTINUOUS
  62
7
  10
 244.523
  20
 966.995
  30
0.0
  11
 244.505
  21
 966.996
  31
0.0
   0
LINE
   8
LEVEL001
   6
CONTINUOUS
  62
7
  10
 244.505
  20
 966.996
  30
0.0
  11
 244.488
  21
 966.998
  31
0.0
   0
LINE
   8
LEVEL001
   6
CONTINUOUS
  62
7
  10
 244.488
  20
 966.998
  30
0.0
  11
 244.470
  21
 966.998
  31
0.0
   0
LINE
   8
LEVEL001
   6
CONTINUOUS
  62
7
  10
 244.470
  20
 966.998
  30
0.0
  11
 244.452
  21
 966.999
  31
0.0
   0
LINE
   8
LEVEL001
   6
CONTINUOUS
  62
7
  10
 244.452
  20
 966.999
  30
0.0
  11
 244.434
  21
 967.000
  31
0.0
   0
LINE
   8
LEVEL001
   6
CONTINUOUS
  62
7
  10
 244.434
  20
 967.000
  30
0.0
  11
 244.416
  21
 967.000
  31
0.0
   0
LINE
   8
LEVEL001
   6
CONTINUOUS
  62
7
  10
 244.416
  20
 967.000
  30
0.0
  11
 244.399
  21
 967.000
  31
0.0
   0
LINE
   8
LEVEL001
   6
CONTINUOUS
  62
7
  10
 141.361
  20
 901.361
  30
0.0
  11
 139.568
  21
 908.053
  31
0.0
   0
LINE
   8
LEVEL001
   6
CONTINUOUS
  62
7
  10
 139.568
  20
 908.053
  30
0.0
  11
 144.467
  21
 912.952
  31
0.0
   0
LINE
   8
LEVEL001
   6
CONTINUOUS
  62
7
  10
 144.467
  20
 912.952
  30
0.0
  11
 151.159
  21
 911.159
  31
0.0
   0
LINE
   8
LEVEL001
   6
CONTINUOUS
  62
7
  10
 151.159
  20
 911.159
  30
0.0
  11
 152.952
  21
 904.467
  31
0.0
   0
LINE
   8
LEVEL001
   6
CONTINUOUS
  62
7
  10
 152.952
  20
 904.467
  30
0.0
  11
 148.053
  21
 899.568
  31
0.0
   0
LINE
   8
LEVEL001
   6
CONTINUOUS
  62
7
  10
 148.053
  20
 899.568
  30
0.0
  11
 141.361
  21
 901.361
  31
0.0
   0
LINE
   8
LEVEL001
   6
CONTINUOUS
  62
7
  10
 141.361
  20
 1018.64
  30
0.0
  11
 148.053
  21
 1020.43
  31
0.0
   0
LINE
   8
LEVEL001
   6
CONTINUOUS
  62
7
  10
 148.053
  20
 1020.43
  30
0.0
  11
 152.952
  21
 1015.53
  31
0.0
   0
LINE
   8
LEVEL001
   6
CONTINUOUS
  62
7
  10
 152.952
  20
 1015.53
  30
0.0
  11
 151.159
  21
 1008.84
  31
0.0
   0
LINE
   8
LEVEL001
   6
CONTINUOUS
  62
7
  10
 151.159
  20
 1008.84
  30
0.0
  11
 144.467
  21
 1007.05
  31
0.0
   0
LINE
   8
LEVEL001
   6
CONTINUOUS
  62
7
  10
 144.467
  20
 1007.05
  30
0.0
  11
 139.568
  21
 1011.95
  31
0.0
   0
LINE
   8
LEVEL001
   6
CONTINUOUS
  62
7
  10
 139.568
  20
 1011.95
  30
0.0
  11
 141.361
  21
 1018.64
  31
0.0
   0
LINE
   8
LEVEL001
   6
CONTINUOUS
  62
7
  10
 258.639
  20
 1018.64
  30
0.0
  11
 260.432
  21
 1011.95
  31
0.0
   0
LINE
   8
LEVEL001
   6
CONTINUOUS
  62
7
  10
 260.432
  20
 1011.95
  30
0.0
  11
 255.533
  21
 1007.05
  31
0.0
   0
LINE
   8
LEVEL001
   6
CONTINUOUS
  62
7
  10
 255.533
  20
 1007.05
  30
0.0
  11
 248.841
  21
 1008.84
  31
0.0
   0
LINE
   8
LEVEL001
   6
CONTINUOUS
  62
7
  10
 248.841
  20
 1008.84
  30
0.0
  11
 247.048
  21
 1015.53
  31
0.0
   0
LINE
   8
LEVEL001
   6
CONTINUOUS
  62
7
  10
 247.048
  20
 1015.53
  30
0.0
  11
 251.947
  21
 1020.43
  31
0.0
   0
LINE
   8
LEVEL001
   6
CONTINUOUS
  62
7
  10
 251.947
  20
 1020.43
  30
0.0
  11
 258.639
  21
 1018.64
  31
0.0
   0
LINE
   8
LEVEL001
   6
CONTINUOUS
  62
7
  10
 258.639
  20
 901.361
  30
0.0
  11
 251.947
  21
 899.568
  31
0.0
   0
LINE
   8
LEVEL001
   6
CONTINUOUS
  62
7
  10
 251.947
  20
 899.568
  30
0.0
  11
 247.048
  21
 904.467
  31
0.0
   0
LINE
   8
LEVEL001
   6
CONTINUOUS
  62
7
  10
 247.048
  20
 904.467
  30
0.0
  11
 248.841
  21
 911.159
  31
0.0
   0
LINE
   8
LEVEL001
   6
CONTINUOUS
  62
7
  10
 248.841
  20
 911.159
  30
0.0
  11
 255.533
  21
 912.952
  31
0.0
   0
LINE
   8
LEVEL001
   6
CONTINUOUS
  62
7
  10
 255.533
  20
 912.952
  30
0.0
  11
 260.432
  21
 908.053
  31
0.0
   0
LINE
   8
LEVEL001
   6
CONTINUOUS
  62
7
  10
 260.432
  20
 908.053
  30
0.0
  11
 258.639
  21
 901.361
  31
0.0
   0
LINE
   8
LEVEL001
   6
CONTINUOUS
  62
7
  10
 293.500
  20
 850.000
  30
0.0
  11
 293.500
  21
 924.000
  31
0.0
   0
LINE
   8
LEVEL001
   6
CONTINUOUS
  62
7
  10
 285.487
  20
 926.000
  30
0.0
  11
 291.500
  21
 926.000
  31
0.0
   0
LINE
   8
LEVEL001
   6
CONTINUOUS
  62
7
  10
 281.250
  20
 916.825
  30
0.0
  11
 281.250
  21
 849.000
  31
0.0
   0
LINE
   8
LEVEL001
   6
CONTINUOUS
  62
7
  10
 281.500
  20
 848.000
  30
0.0
  11
 281.500
  21
 917.311
  31
0.0
   0
LINE
   8
LEVEL001
   6
CONTINUOUS
  62
7
  10
 293.500
  20
 901.000
  30
0.0
  11
 297.853
  21
 901.000
  31
0.0
   0
LINE
   8
LEVEL001
   6
CONTINUOUS
  62
7
  10
 293.500
  20
 873.000
  30
0.0
  11
 297.853
  21
 873.000
  31
0.0
   0
ARC
   8
LEVEL001
   6
CONTINUOUS
  62
7
  10
 245.000
  20
 830.000
  30
0.0
  40
 21.5000
  50
 122.579
  51
 158.471
   0
ARC
   8
LEVEL001
   6
CONTINUOUS
  62
7
  10
 245.000
  20
 830.000
  30
0.0
  40
 21.5000
  50
 168.025
  51
 59.5367
   0
LINE
   8
LEVEL001
   6
CONTINUOUS
  62
7
  10
 224.883
  20
 846.900
  30
0.0
  11
 224.849
  21
 847.959
  31
0.0
   0
LINE
   8
LEVEL001
   6
CONTINUOUS
  62
7
  10
 215.717
  20
 847.500
  30
0.0
  11
 215.724
  21
 847.790
  31
0.0
   0
LINE
   8
LEVEL001
   6
CONTINUOUS
  62
7
  10
 215.145
  20
 847.780
  30
0.0
  11
 215.117
  21
 846.900
  31
0.0
   0
LINE
   8
LEVEL001
   6
CONTINUOUS
  62
7
  10
 178.530
  20
 882.500
  30
0.0
  11
 210.530
  21
 882.500
  31
0.0
   0
LINE
   8
LEVEL001
   6
CONTINUOUS
  62
7
  10
 221.500
  20
 901.500
  30
0.0
  11
 210.530
  21
 882.500
  31
0.0
   0
ARC
   8
LEVEL001
   6
CONTINUOUS
  62
7
  10
 219.945
  20
 833.660
  30
0.0
  40
 1.00000
  50
 180.020
  51
 0.200313E-1
   0
LINE
   8
LEVEL001
   6
CONTINUOUS
  62
7
  10
 220.945
  20
 833.661
  30
0.0
  11
 220.944
  21
 833.701
  31
0.0
   0
LINE
   8
LEVEL001
   6
CONTINUOUS
  62
7
  10
 220.944
  20
 833.701
  30
0.0
  11
 220.941
  21
 833.741
  31
0.0
   0
LINE
   8
LEVEL001
   6
CONTINUOUS
  62
7
  10
 220.941
  20
 833.741
  30
0.0
  11
 220.936
  21
 833.781
  31
0.0
   0
LINE
   8
LEVEL001
   6
CONTINUOUS
  62
7
  10
 220.936
  20
 833.781
  30
0.0
  11
 220.929
  21
 833.821
  31
0.0
   0
LINE
   8
LEVEL001
   6
CONTINUOUS
  62
7
  10
 220.929
  20
 833.821
  30
0.0
  11
 220.921
  21
 833.861
  31
0.0
   0
LINE
   8
LEVEL001
   6
CONTINUOUS
  62
7
  10
 220.921
  20
 833.861
  30
0.0
  11
 220.911
  21
 833.900
  31
0.0
   0
LINE
   8
LEVEL001
   6
CONTINUOUS
  62
7
  10
 220.911
  20
 833.900
  30
0.0
  11
 220.898
  21
 833.938
  31
0.0
   0
LINE
   8
LEVEL001
   6
CONTINUOUS
  62
7
  10
 220.898
  20
 833.938
  30
0.0
  11
 220.884
  21
 833.977
  31
0.0
   0
LINE
   8
LEVEL001
   6
CONTINUOUS
  62
7
  10
 220.884
  20
 833.977
  30
0.0
  11
 220.868
  21
 834.014
  31
0.0
   0
LINE
   8
LEVEL001
   6
CONTINUOUS
  62
7
  10
 220.868
  20
 834.014
  30
0.0
  11
 220.851
  21
 834.051
  31
0.0
   0
LINE
   8
LEVEL001
   6
CONTINUOUS
  62
7
  10
 220.851
  20
 834.051
  30
0.0
  11
 220.832
  21
 834.087
  31
0.0
   0
LINE
   8
LEVEL001
   6
CONTINUOUS
  62
7
  10
 220.832
  20
 834.087
  30
0.0
  11
 220.811
  21
 834.123
  31
0.0
   0
LINE
   8
LEVEL001
   6
CONTINUOUS
  62
7
  10
 220.811
  20
 834.123
  30
0.0
  11
 220.788
  21
 834.157
  31
0.0
   0
LINE
   8
LEVEL001
   6
CONTINUOUS
  62
7
  10
 220.788
  20
 834.157
  30
0.0
  11
 220.764
  21
 834.191
  31
0.0
   0
LINE
   8
LEVEL001
   6
CONTINUOUS
  62
7
  10
 220.764
  20
 834.191
  30
0.0
  11
 220.738
  21
 834.223
  31
0.0
   0
LINE
   8
LEVEL001
   6
CONTINUOUS
  62
7
  10
 220.738
  20
 834.223
  30
0.0
  11
 220.711
  21
 834.254
  31
0.0
   0
LINE
   8
LEVEL001
   6
CONTINUOUS
  62
7
  10
 220.711
  20
 834.254
  30
0.0
  11
 220.682
  21
 834.285
  31
0.0
   0
LINE
   8
LEVEL001
   6
CONTINUOUS
  62
7
  10
 220.682
  20
 834.285
  30
0.0
  11
 220.652
  21
 834.314
  31
0.0
   0
LINE
   8
LEVEL001
   6
CONTINUOUS
  62
7
  10
 220.652
  20
 834.314
  30
0.0
  11
 220.620
  21
 834.342
  31
0.0
   0
LINE
   8
LEVEL001
   6
CONTINUOUS
  62
7
  10
 220.620
  20
 834.342
  30
0.0
  11
 220.587
  21
 834.368
  31
0.0
   0
LINE
   8
LEVEL001
   6
CONTINUOUS
  62
7
  10
 220.587
  20
 834.368
  30
0.0
  11
 220.553
  21
 834.393
  31
0.0
   0
LINE
   8
LEVEL001
   6
CONTINUOUS
  62
7
  10
 220.553
  20
 834.393
  30
0.0
  11
 220.518
  21
 834.417
  31
0.0
   0
LINE
   8
LEVEL001
   6
CONTINUOUS
  62
7
  10
 220.518
  20
 834.417
  30
0.0
  11
 220.482
  21
 834.440
  31
0.0
   0
LINE
   8
LEVEL001
   6
CONTINUOUS
  62
7
  10
 220.482
  20
 834.440
  30
0.0
  11
 220.444
  21
 834.461
  31
0.0
   0
LINE
   8
LEVEL001
   6
CONTINUOUS
  62
7
  10
 220.444
  20
 834.461
  30
0.0
  11
 220.406
  21
 834.480
  31
0.0
   0
LINE
   8
LEVEL001
   6
CONTINUOUS
  62
7
  10
 220.406
  20
 834.480
  30
0.0
  11
 220.367
  21
 834.498
  31
0.0
   0
LINE
   8
LEVEL001
   6
CONTINUOUS
  62
7
  10
 220.367
  20
 834.498
  30
0.0
  11
 220.327
  21
 834.514
  31
0.0
   0
LINE
   8
LEVEL001
   6
CONTINUOUS
  62
7
  10
 220.327
  20
 834.514
  30
0.0
  11
 220.287
  21
 834.529
  31
0.0
   0
LINE
   8
LEVEL001
   6
CONTINUOUS
  62
7
  10
 220.287
  20
 834.529
  30
0.0
  11
 220.245
  21
 834.542
  31
0.0
   0
LINE
   8
LEVEL001
   6
CONTINUOUS
  62
7
  10
 220.245
  20
 834.542
  30
0.0
  11
 220.203
  21
 834.553
  31
0.0
   0
LINE
   8
LEVEL001
   6
CONTINUOUS
  62
7
  10
 220.203
  20
 834.553
  30
0.0
  11
 220.161
  21
 834.562
  31
0.0
   0
LINE
   8
LEVEL001
   6
CONTINUOUS
  62
7
  10
 220.161
  20
 834.562
  30
0.0
  11
 220.118
  21
 834.570
  31
0.0
   0
LINE
   8
LEVEL001
   6
CONTINUOUS
  62
7
  10
 220.118
  20
 834.570
  30
0.0
  11
 220.075
  21
 834.576
  31
0.0
   0
LINE
   8
LEVEL001
   6
CONTINUOUS
  62
7
  10
 220.075
  20
 834.576
  30
0.0
  11
 220.032
  21
 834.581
  31
0.0
   0
LINE
   8
LEVEL001
   6
CONTINUOUS
  62
7
  10
 220.032
  20
 834.581
  30
0.0
  11
 219.988
  21
 834.583
  31
0.0
   0
LINE
   8
LEVEL001
   6
CONTINUOUS
  62
7
  10
 219.988
  20
 834.583
  30
0.0
  11
 219.945
  21
 834.584
  31
0.0
   0
LINE
   8
LEVEL001
   6
CONTINUOUS
  62
7
  10
 219.945
  20
 834.584
  30
0.0
  11
 219.901
  21
 834.583
  31
0.0
   0
LINE
   8
LEVEL001
   6
CONTINUOUS
  62
7
  10
 219.901
  20
 834.583
  30
0.0
  11
 219.857
  21
 834.581
  31
0.0
   0
LINE
   8
LEVEL001
   6
CONTINUOUS
  62
7
  10
 219.857
  20
 834.581
  30
0.0
  11
 219.814
  21
 834.576
  31
0.0
   0
LINE
   8
LEVEL001
   6
CONTINUOUS
  62
7
  10
 219.814
  20
 834.576
  30
0.0
  11
 219.771
  21
 834.570
  31
0.0
   0
LINE
   8
LEVEL001
   6
CONTINUOUS
  62
7
  10
 219.771
  20
 834.570
  30
0.0
  11
 219.728
  21
 834.562
  31
0.0
   0
LINE
   8
LEVEL001
   6
CONTINUOUS
  62
7
  10
 219.728
  20
 834.562
  30
0.0
  11
 219.686
  21
 834.553
  31
0.0
   0
LINE
   8
LEVEL001
   6
CONTINUOUS
  62
7
  10
 219.686
  20
 834.553
  30
0.0
  11
 219.644
  21
 834.541
  31
0.0
   0
LINE
   8
LEVEL001
   6
CONTINUOUS
  62
7
  10
 219.644
  20
 834.541
  30
0.0
  11
 219.603
  21
 834.528
  31
0.0
   0
LINE
   8
LEVEL001
   6
CONTINUOUS
  62
7
  10
 219.603
  20
 834.528
  30
0.0
  11
 219.562
  21
 834.514
  31
0.0
   0
LINE
   8
LEVEL001
   6
CONTINUOUS
  62
7
  10
 219.562
  20
 834.514
  30
0.0
  11
 219.522
  21
 834.498
  31
0.0
   0
LINE
   8
LEVEL001
   6
CONTINUOUS
  62
7
  10
 219.522
  20
 834.498
  30
0.0
  11
 219.483
  21
 834.480
  31
0.0
   0
LINE
   8
LEVEL001
   6
CONTINUOUS
  62
7
  10
 219.483
  20
 834.480
  30
0.0
  11
 219.445
  21
 834.460
  31
0.0
   0
LINE
   8
LEVEL001
   6
CONTINUOUS
  62
7
  10
 219.445
  20
 834.460
  30
0.0
  11
 219.407
  21
 834.439
  31
0.0
   0
LINE
   8
LEVEL001
   6
CONTINUOUS
  62
7
  10
 219.407
  20
 834.439
  30
0.0
  11
 219.371
  21
 834.417
  31
0.0
   0
LINE
   8
LEVEL001
   6
CONTINUOUS
  62
7
  10
 219.371
  20
 834.417
  30
0.0
  11
 219.336
  21
 834.393
  31
0.0
   0
LINE
   8
LEVEL001
   6
CONTINUOUS
  62
7
  10
 219.336
  20
 834.393
  30
0.0
  11
 219.302
  21
 834.368
  31
0.0
   0
LINE
   8
LEVEL001
   6
CONTINUOUS
  62
7
  10
 219.302
  20
 834.368
  30
0.0
  11
 219.269
  21
 834.341
  31
0.0
   0
LINE
   8
LEVEL001
   6
CONTINUOUS
  62
7
  10
 219.269
  20
 834.341
  30
0.0
  11
 219.238
  21
 834.314
  31
0.0
   0
LINE
   8
LEVEL001
   6
CONTINUOUS
  62
7
  10
 219.238
  20
 834.314
  30
0.0
  11
 219.207
  21
 834.284
  31
0.0
   0
LINE
   8
LEVEL001
   6
CONTINUOUS
  62
7
  10
 219.207
  20
 834.284
  30
0.0
  11
 219.179
  21
 834.254
  31
0.0
   0
LINE
   8
LEVEL001
   6
CONTINUOUS
  62
7
  10
 219.179
  20
 834.254
  30
0.0
  11
 219.151
  21
 834.223
  31
0.0
   0
LINE
   8
LEVEL001
   6
CONTINUOUS
  62
7
  10
 219.151
  20
 834.223
  30
0.0
  11
 219.126
  21
 834.190
  31
0.0
   0
LINE
   8
LEVEL001
   6
CONTINUOUS
  62
7
  10
 219.126
  20
 834.190
  30
0.0
  11
 219.101
  21
 834.157
  31
0.0
   0
LINE
   8
LEVEL001
   6
CONTINUOUS
  62
7
  10
 219.101
  20
 834.157
  30
0.0
  11
 219.079
  21
 834.122
  31
0.0
   0
LINE
   8
LEVEL001
   6
CONTINUOUS
  62
7
  10
 219.079
  20
 834.122
  30
0.0
  11
 219.058
  21
 834.087
  31
0.0
   0
LINE
   8
LEVEL001
   6
CONTINUOUS
  62
7
  10
 219.058
  20
 834.087
  30
0.0
  11
 219.038
  21
 834.051
  31
0.0
   0
LINE
   8
LEVEL001
   6
CONTINUOUS
  62
7
  10
 219.038
  20
 834.051
  30
0.0
  11
 219.021
  21
 834.014
  31
0.0
   0
LINE
   8
LEVEL001
   6
CONTINUOUS
  62
7
  10
 219.021
  20
 834.014
  30
0.0
  11
 219.005
  21
 833.976
  31
0.0
   0
LINE
   8
LEVEL001
   6
CONTINUOUS
  62
7
  10
 219.005
  20
 833.976
  30
0.0
  11
 218.991
  21
 833.938
  31
0.0
   0
LINE
   8
LEVEL001
   6
CONTINUOUS
  62
7
  10
 218.991
  20
 833.938
  30
0.0
  11
 218.979
  21
 833.899
  31
0.0
   0
LINE
   8
LEVEL001
   6
CONTINUOUS
  62
7
  10
 218.979
  20
 833.899
  30
0.0
  11
 218.968
  21
 833.860
  31
0.0
   0
LINE
   8
LEVEL001
   6
CONTINUOUS
  62
7
  10
 218.968
  20
 833.860
  30
0.0
  11
 218.960
  21
 833.821
  31
0.0
   0
LINE
   8
LEVEL001
   6
CONTINUOUS
  62
7
  10
 218.960
  20
 833.821
  30
0.0
  11
 218.953
  21
 833.781
  31
0.0
   0
LINE
   8
LEVEL001
   6
CONTINUOUS
  62
7
  10
 218.953
  20
 833.781
  30
0.0
  11
 218.949
  21
 833.741
  31
0.0
   0
LINE
   8
LEVEL001
   6
CONTINUOUS
  62
7
  10
 218.949
  20
 833.741
  30
0.0
  11
 218.946
  21
 833.701
  31
0.0
   0
LINE
   8
LEVEL001
   6
CONTINUOUS
  62
7
  10
 218.946
  20
 833.701
  30
0.0
  11
 218.945
  21
 833.660
  31
0.0
   0
LINE
   8
LEVEL001
   6
DASHDOT
  62
1
  10
 155.000
  20
 1085.00
  30
0.0
  11
 155.000
  21
 1025.00
  31
0.0
   0
LINE
   8
LEVEL001
   6
DASHDOT
  62
1
  10
 185.000
  20
 1055.00
  30
0.0
  11
 125.000
  21
 1055.00
  31
0.0
   0
LINE
   8
LEVEL001
   6
DASHDOT
  62
1
  10
 245.000
  20
 1085.00
  30
0.0
  11
 245.000
  21
 1025.00
  31
0.0
   0
LINE
   8
LEVEL001
   6
DASHDOT
  62
1
  10
 275.000
  20
 1055.00
  30
0.0
  11
 215.000
  21
 1055.00
  31
0.0
   0
LINE
   8
LEVEL001
   6
DASHDOT
  62
1
  10
 100.000
  20
 960.000
  30
0.0
  11
 300.000
  21
 960.000
  31
0.0
   0
LINE
   8
LEVEL001
   6
DASHDOT
  62
1
  10
 200.000
  20
 1090.00
  30
0.0
  11
 200.000
  21
 800.000
  31
0.0
   0
LINE
   8
LEVEL001
   6
DASHDOT
  62
1
  10
 50.0000
  20
 887.000
  30
0.0
  11
 350.000
  21
 887.000
  31
0.0
   0
LINE
   8
LEVEL001
   6
DASHDOT
  62
1
  10
 155.000
  20
 860.000
  30
0.0
  11
 155.000
  21
 800.000
  31
0.0
   0
LINE
   8
LEVEL001
   6
DASHDOT
  62
1
  10
 185.000
  20
 830.000
  30
0.0
  11
 125.000
  21
 830.000
  31
0.0
   0
LINE
   8
LEVEL001
   6
DASHDOT
  62
1
  10
 245.000
  20
 860.000
  30
0.0
  11
 245.000
  21
 800.000
  31
0.0
   0
LINE
   8
LEVEL001
   6
DASHDOT
  62
1
  10
 275.000
  20
 830.000
  30
0.0
  11
 215.000
  21
 830.000
  31
0.0
   0
LINE
   8
LEVEL001
   6
CONTINUOUS
  62
7
  10
 106.500
  20
 873.000
  30
0.0
  11
 102.147
  21
 873.000
  31
0.0
   0
LINE
   8
LEVEL001
   6
CONTINUOUS
  62
7
  10
 106.500
  20
 901.000
  30
0.0
  11
 102.147
  21
 901.000
  31
0.0
   0
LINE
   8
LEVEL001
   6
CONTINUOUS
  62
7
  10
 114.513
  20
 926.000
  30
0.0
  11
 108.500
  21
 926.000
  31
0.0
   0
LINE
   8
LEVEL001
   6
CONTINUOUS
  62
7
  10
 118.500
  20
 848.000
  30
0.0
  11
 118.500
  21
 917.318
  31
0.0
   0
LINE
   8
LEVEL001
   6
CONTINUOUS
  62
7
  10
 118.750
  20
 916.844
  30
0.0
  11
 118.750
  21
 849.000
  31
0.0
   0
LINE
   8
LEVEL001
   6
CONTINUOUS
  62
7
  10
 106.500
  20
 924.000
  30
0.0
  11
 106.500
  21
 850.000
  31
0.0
   0
ARC
   8
LEVEL001
   6
CONTINUOUS
  62
7
  10
 108.500
  20
 850.000
  30
0.0
  40
 2.00000
  50
 180.000
  51
 270.000
   0
LINE
   8
LEVEL001
   6
CONTINUOUS
  62
7
  10
 118.500
  20
 848.000
  30
0.0
  11
 108.500
  21
 848.000
  31
0.0
   0
ARC
   8
LEVEL001
   6
CONTINUOUS
  62
7
  10
 108.500
  20
 924.000
  30
0.0
  40
 2.00000
  50
 90.0000
  51
 180.000
   0
LINE
   8
LEVEL001
   6
CONTINUOUS
  62
7
  10
 96.8530
  20
 874.500
  30
0.0
  11
 56.0000
  21
 874.500
  31
0.0
   0
ARC
   8
LEVEL001
   6
CONTINUOUS
  62
7
  10
 96.8530
  20
 873.500
  30
0.0
  40
 1.00000
  50
 73.3008
  51
 90.0000
   0
LINE
   8
LEVEL001
   6
CONTINUOUS
  62
7
  10
 97.1410
  20
 874.458
  30
0.0
  11
 101.859
  21
 873.042
  31
0.0
   0
ARC
   8
LEVEL001
   6
CONTINUOUS
  62
7
  10
 102.147
  20
 874.000
  30
0.0
  40
 1.00000
  50
 253.301
  51
 270.000
   0
LINE
   8
LEVEL001
   6
CONTINUOUS
  62
7
  10
 56.0000
  20
 883.000
  30
0.0
  11
 56.0000
  21
 874.500
  31
0.0
   0
LINE
   8
LEVEL001
   6
CONTINUOUS
  62
7
  10
 97.0000
  20
 883.000
  30
0.0
  11
 97.0000
  21
 874.500
  31
0.0
   0
LINE
   8
LEVEL001
   6
CONTINUOUS
  62
7
  10
 101.187
  20
 883.000
  30
0.0
  11
 55.0000
  21
 883.000
  31
0.0
   0
LINE
   8
LEVEL001
   6
CONTINUOUS
  62
7
  10
 55.0000
  20
 875.500
  30
0.0
  11
 56.0000
  21
 874.500
  31
0.0
   0
LINE
   8
LEVEL001
   6
CONTINUOUS
  62
7
  10
 102.000
  20
 900.958
  30
0.0
  11
 102.000
  21
 873.042
  31
0.0
   0
ARC
   8
LEVEL001
   6
CONTINUOUS
  62
7
  10
 102.147
  20
 900.000
  30
0.0
  40
 1.00000
  50
 90.0000
  51
 106.699
   0
LINE
   8
LEVEL001
   6
CONTINUOUS
  62
7
  10
 101.859
  20
 900.958
  30
0.0
  11
 97.1410
  21
 899.542
  31
0.0
   0
ARC
   8
LEVEL001
   6
CONTINUOUS
  62
7
  10
 96.8530
  20
 900.500
  30
0.0
  40
 1.00000
  50
 270.000
  51
 286.699
   0
LINE
   8
LEVEL001
   6
CONTINUOUS
  62
7
  10
 96.8530
  20
 899.500
  30
0.0
  11
 56.0000
  21
 899.500
  31
0.0
   0
LINE
   8
LEVEL001
   6
CONTINUOUS
  62
7
  10
 56.0000
  20
 899.500
  30
0.0
  11
 56.0000
  21
 891.000
  31
0.0
   0
LINE
   8
LEVEL001
   6
CONTINUOUS
  62
7
  10
 91.0000
  20
 891.000
  30
0.0
  11
 91.0000
  21
 883.000
  31
0.0
   0
LINE
   8
LEVEL001
   6
CONTINUOUS
  62
7
  10
 97.0000
  20
 899.500
  30
0.0
  11
 97.0000
  21
 891.000
  31
0.0
   0
LINE
   8
LEVEL001
   6
CONTINUOUS
  62
7
  10
 101.187
  20
 891.000
  30
0.0
  11
 101.187
  21
 883.000
  31
0.0
   0
LINE
   8
LEVEL001
   6
CONTINUOUS
  62
7
  10
 101.187
  20
 891.000
  30
0.0
  11
 55.0000
  21
 891.000
  31
0.0
   0
LINE
   8
LEVEL001
   6
CONTINUOUS
  62
7
  10
 55.0000
  20
 898.500
  30
0.0
  11
 55.0000
  21
 875.500
  31
0.0
   0
LINE
   8
LEVEL001
   6
CONTINUOUS
  62
7
  10
 56.0000
  20
 899.500
  30
0.0
  11
 55.0000
  21
 898.500
  31
0.0
   0
ARC
   8
LEVEL001
   6
CONTINUOUS
  62
7
  10
 597.000
  20
 696.500
  30
0.0
  40
 0.500000
  50
0.0
  51
 90.0000
   0
LINE
   8
LEVEL003
   6
CONTINUOUS
  62
3
  10
 276.000
  20
 830.000
  30
0.0
  11
 392.000
  21
 830.000
  31
0.0
   0
LINE
   8
LEVEL003
   6
CONTINUOUS
  62
3
  10
 351.000
  20
 887.000
  30
0.0
  11
 392.000
  21
 887.000
  31
0.0
   0
LINE
   8
LEVEL003
   6
CONTINUOUS
  62
3
  10
 390.000
  20
 830.000
  30
0.0
  11
 390.000
  21
 887.000
  31
0.0
   0
LINE
   8
LEVEL003
   6
CONTINUOUS
  62
3
  10
 390.000
  20
 830.000
  30
0.0
  11
 390.529
  21
 833.000
  31
0.0
   0
LINE
   8
LEVEL003
   6
CONTINUOUS
  62
3
  10
 390.000
  20
 830.000
  30
0.0
  11
 389.471
  21
 833.000
  31
0.0
   0
LINE
   8
LEVEL003
   6
CONTINUOUS
  62
3
  10
 390.000
  20
 887.000
  30
0.0
  11
 389.471
  21
 884.000
  31
0.0
   0
LINE
   8
LEVEL003
   6
CONTINUOUS
  62
3
  10
 390.000
  20
 887.000
  30
0.0
  11
 390.529
  21
 884.000
  31
0.0
   0
TEXT
   8
LEVEL003
  62
3
  10
 389.200
  20
 856.500
  30
0.0
  40
 4.00000
   1
57
  50
 90.0000
  41
 0.500000
   7
STANDARD
  72
1
  11
 389.200
  21
 858.500
  31
0.0
   0
LINE
   8
LEVEL003
   6
CONTINUOUS
  62
3
  10
 351.000
  20
 887.000
  30
0.0
  11
 392.000
  21
 887.000
  31
0.0
   0
LINE
   8
LEVEL003
   6
CONTINUOUS
  62
3
  10
 276.000
  20
 1055.00
  30
0.0
  11
 392.000
  21
 1055.00
  31
0.0
   0
LINE
   8
LEVEL003
   6
CONTINUOUS
  62
3
  10
 390.000
  20
 887.000
  30
0.0
  11
 390.000
  21
 1055.00
  31
0.0
   0
LINE
   8
LEVEL003
   6
CONTINUOUS
  62
3
  10
 390.000
  20
 887.000
  30
0.0
  11
 390.529
  21
 890.000
  31
0.0
   0
LINE
   8
LEVEL003
   6
CONTINUOUS
  62
3
  10
 390.000
  20
 887.000
  30
0.0
  11
 389.471
  21
 890.000
  31
0.0
   0
LINE
   8
LEVEL003
   6
CONTINUOUS
  62
3
  10
 390.000
  20
 1055.00
  30
0.0
  11
 389.471
  21
 1052.00
  31
0.0
   0
LINE
   8
LEVEL003
   6
CONTINUOUS
  62
3
  10
 390.000
  20
 1055.00
  30
0.0
  11
 390.529
  21
 1052.00
  31
0.0
   0
TEXT
   8
LEVEL003
  62
3
  10
 389.200
  20
 968.000
  30
0.0
  40
 4.00000
   1
168
  50
 90.0000
  41
 0.500000
   7
STANDARD
  72
1
  11
 389.200
  21
 971.000
  31
0.0
   0
LINE
   8
LEVEL003
   6
CONTINUOUS
  62
3
  10
 55.0000
  20
 874.500
  30
0.0
  11
 55.0000
  21
 778.000
  31
0.0
   0
LINE
   8
LEVEL003
   6
CONTINUOUS
  62
3
  10
 55.0000
  20
 780.000
  30
0.0
  11
 345.000
  21
 780.000
  31
0.0
   0
LINE
   8
LEVEL003
   6
CONTINUOUS
  62
3
  10
 55.0000
  20
 780.000
  30
0.0
  11
 58.0000
  21
 779.196
  31
0.0
   0
LINE
   8
LEVEL003
   6
CONTINUOUS
  62
3
  10
 55.0000
  20
 780.000
  30
0.0
  11
 58.0000
  21
 780.804
  31
0.0
   0
LINE
   8
LEVEL003
   6
CONTINUOUS
  62
3
  10
 345.000
  20
 874.500
  30
0.0
  11
 345.000
  21
 778.000
  31
0.0
   0
LINE
   8
LEVEL003
   6
CONTINUOUS
  62
3
  10
 345.000
  20
 780.000
  30
0.0
  11
 342.000
  21
 780.804
  31
0.0
   0
LINE
   8
LEVEL003
   6
CONTINUOUS
  62
3
  10
 345.000
  20
 780.000
  30
0.0
  11
 342.000
  21
 779.196
  31
0.0
   0
TEXT
   8
LEVEL003
  62
3
  10
 197.000
  20
 781.714
  30
0.0
  40
 4.00000
   1
290
  41
 0.500000
   7
STANDARD
  72
1
  11
 200.000
  21
 781.714
  31
0.0
   0
LINE
   8
LEVEL003
   6
CONTINUOUS
  62
3
  10
 155.000
  20
 1086.00
  30
0.0
  11
 155.000
  21
 1102.00
  31
0.0
   0
LINE
   8
LEVEL003
   6
CONTINUOUS
  62
3
  10
 245.000
  20
 1086.00
  30
0.0
  11
 245.000
  21
 1102.00
  31
0.0
   0
LINE
   8
LEVEL003
   6
CONTINUOUS
  62
3
  10
 155.000
  20
 1100.00
  30
0.0
  11
 245.000
  21
 1100.00
  31
0.0
   0
LINE
   8
LEVEL003
   6
CONTINUOUS
  62
3
  10
 155.000
  20
 1100.00
  30
0.0
  11
 158.000
  21
 1099.20
  31
0.0
   0
LINE
   8
LEVEL003
   6
CONTINUOUS
  62
3
  10
 155.000
  20
 1100.00
  30
0.0
  11
 158.000
  21
 1100.80
  31
0.0
   0
LINE
   8
LEVEL003
   6
CONTINUOUS
  62
3
  10
 245.000
  20
 1100.00
  30
0.0
  11
 242.000
  21
 1100.80
  31
0.0
   0
LINE
   8
LEVEL003
   6
CONTINUOUS
  62
3
  10
 245.000
  20
 1100.00
  30
0.0
  11
 242.000
  21
 1099.20
  31
0.0
   0
TEXT
   8
LEVEL003
  62
3
  10
 198.000
  20
 1101.71
  30
0.0
  40
 4.00000
   1
90
  41
 0.500000
   7
STANDARD
  72
1
  11
 200.000
  21
 1101.71
  31
0.0
   0
LINE
   8
LEVEL003
   6
CONTINUOUS
  62
3
  10
 309.000
  20
 566.500
  30
0.0
  11
 309.000
  21
 602.000
  31
0.0
   0
LINE
   8
LEVEL003
   6
CONTINUOUS
  62
3
  10
 345.000
  20
 566.500
  30
0.0
  11
 345.000
  21
 602.000
  31
0.0
   0
LINE
   8
LEVEL003
   6
CONTINUOUS
  62
3
  10
 309.000
  20
 600.000
  30
0.0
  11
 345.000
  21
 600.000
  31
0.0
   0
LINE
   8
LEVEL003
   6
CONTINUOUS
  62
3
  10
 309.000
  20
 600.000
  30
0.0
  11
 312.000
  21
 599.196
  31
0.0
   0
LINE
   8
LEVEL003
   6
CONTINUOUS
  62
3
  10
 309.000
  20
 600.000
  30
0.0
  11
 312.000
  21
 600.804
  31
0.0
   0
LINE
   8
LEVEL003
   6
CONTINUOUS
  62
3
  10
 345.000
  20
 600.000
  30
0.0
  11
 342.000
  21
 600.804
  31
0.0
   0
LINE
   8
LEVEL003
   6
CONTINUOUS
  62
3
  10
 345.000
  20
 600.000
  30
0.0
  11
 342.000
  21
 599.196
  31
0.0
   0
TEXT
   8
LEVEL003
  62
3
  10
 325.000
  20
 601.714
  30
0.0
  40
 4.00000
   1
36
  41
 0.500000
   7
STANDARD
  72
1
  11
 327.000
  21
 601.714
  31
0.0
   0
LINE
   8
LEVEL003
   6
CONTINUOUS
  62
3
  10
 303.000
  20
 562.843
  30
0.0
  11
 303.000
  21
 632.000
  31
0.0
   0
LINE
   8
LEVEL003
   6
CONTINUOUS
  62
3
  10
 345.000
  20
 566.500
  30
0.0
  11
 345.000
  21
 632.000
  31
0.0
   0
LINE
   8
LEVEL003
   6
CONTINUOUS
  62
3
  10
 303.000
  20
 630.000
  30
0.0
  11
 345.000
  21
 630.000
  31
0.0
   0
LINE
   8
LEVEL003
   6
CONTINUOUS
  62
3
  10
 303.000
  20
 630.000
  30
0.0
  11
 306.000
  21
 629.196
  31
0.0
   0
LINE
   8
LEVEL003
   6
CONTINUOUS
  62
3
  10
 303.000
  20
 630.000
  30
0.0
  11
 306.000
  21
 630.804
  31
0.0
   0
LINE
   8
LEVEL003
   6
CONTINUOUS
  62
3
  10
 345.000
  20
 630.000
  30
0.0
  11
 342.000
  21
 630.804
  31
0.0
   0
LINE
   8
LEVEL003
   6
CONTINUOUS
  62
3
  10
 345.000
  20
 630.000
  30
0.0
  11
 342.000
  21
 629.196
  31
0.0
   0
TEXT
   8
LEVEL003
  62
3
  10
 322.000
  20
 631.714
  30
0.0
  40
 4.00000
   1
42
  41
 0.500000
   7
STANDARD
  72
1
  11
 324.000
  21
 631.714
  31
0.0
   0
LINE
   8
LEVEL003
   6
CONTINUOUS
  62
3
  10
 279.000
  20
 487.000
  30
0.0
  11
 352.000
  21
 487.000
  31
0.0
   0
LINE
   8
LEVEL003
   6
CONTINUOUS
  62
3
  10
 350.000
  20
 487.000
  30
0.0
  11
 350.000
  21
 92.0000
  31
0.0
   0
LINE
   8
LEVEL003
   6
CONTINUOUS
  62
3
  10
 350.000
  20
 487.000
  30
0.0
  11
 349.471
  21
 484.000
  31
0.0
   0
LINE
   8
LEVEL003
   6
CONTINUOUS
  62
3
  10
 350.000
  20
 487.000
  30
0.0
  11
 350.529
  21
 484.000
  31
0.0
   0
LINE
   8
LEVEL003
   6
CONTINUOUS
  62
3
  10
 237.000
  20
 92.0000
  30
0.0
  11
 352.000
  21
 92.0000
  31
0.0
   0
LINE
   8
LEVEL003
   6
CONTINUOUS
  62
3
  10
 350.000
  20
 92.0000
  30
0.0
  11
 350.529
  21
 95.0000
  31
0.0
   0
LINE
   8
LEVEL003
   6
CONTINUOUS
  62
3
  10
 350.000
  20
 92.0000
  30
0.0
  11
 349.471
  21
 95.0000
  31
0.0
   0
TEXT
   8
LEVEL003
  62
3
  10
 349.200
  20
 275.500
  30
0.0
  40
 4.00000
   1
45＋ストローク
  50
 90.0000
   7
STANDARD
  72
1
  11
 349.200
  21
 289.500
  31
0.0
   0
LINE
   8
LEVEL003
   6
CONTINUOUS
  62
3
  10
 545.000
  20
 747.000
  30
0.0
  11
 545.000
  21
 787.213
  31
0.0
   0
LINE
   8
LEVEL003
   6
CONTINUOUS
  62
3
  10
 595.000
  20
 747.000
  30
0.0
  11
 595.000
  21
 787.213
  31
0.0
   0
LINE
   8
LEVEL003
   6
CONTINUOUS
  62
3
  10
 545.000
  20
 785.213
  30
0.0
  11
 595.000
  21
 785.213
  31
0.0
   0
LINE
   8
LEVEL003
   6
CONTINUOUS
  62
3
  10
 545.000
  20
 785.213
  30
0.0
  11
 548.000
  21
 784.409
  31
0.0
   0
LINE
   8
LEVEL003
   6
CONTINUOUS
  62
3
  10
 545.000
  20
 785.213
  30
0.0
  11
 548.000
  21
 786.017
  31
0.0
   0
LINE
   8
LEVEL003
   6
CONTINUOUS
  62
3
  10
 595.000
  20
 785.213
  30
0.0
  11
 592.000
  21
 786.017
  31
0.0
   0
LINE
   8
LEVEL003
   6
CONTINUOUS
  62
3
  10
 595.000
  20
 785.213
  30
0.0
  11
 592.000
  21
 784.409
  31
0.0
   0
TEXT
   8
LEVEL003
  62
3
  10
 564.000
  20
 786.927
  30
0.0
  40
 4.00000
   1
M50×2
   7
STANDARD
  72
1
  11
 570.000
  21
 786.927
  31
0.0
   0
LINE
   8
LEVEL003
   6
CONTINUOUS
  62
3
  10
 595.000
  20
 747.000
  30
0.0
  11
 812.000
  21
 747.000
  31
0.0
   0
LINE
   8
LEVEL003
   6
CONTINUOUS
  62
3
  10
 810.000
  20
 747.000
  30
0.0
  11
 810.000
  21
 487.000
  31
0.0
   0
LINE
   8
LEVEL003
   6
CONTINUOUS
  62
3
  10
 810.000
  20
 747.000
  30
0.0
  11
 809.471
  21
 744.000
  31
0.0
   0
LINE
   8
LEVEL003
   6
CONTINUOUS
  62
3
  10
 810.000
  20
 747.000
  30
0.0
  11
 810.529
  21
 744.000
  31
0.0
   0
LINE
   8
LEVEL003
   6
CONTINUOUS
  62
3
  10
 595.000
  20
 747.000
  30
0.0
  11
 650.887
  21
 747.000
  31
0.0
   0
LINE
   8
LEVEL003
   6
CONTINUOUS
  62
3
  10
 598.000
  20
 697.000
  30
0.0
  11
 650.887
  21
 697.000
  31
0.0
   0
LINE
   8
LEVEL003
   6
CONTINUOUS
  62
3
  10
 648.887
  20
 747.000
  30
0.0
  11
 648.887
  21
 697.000
  31
0.0
   0
LINE
   8
LEVEL003
   6
CONTINUOUS
  62
3
  10
 648.887
  20
 747.000
  30
0.0
  11
 648.083
  21
 744.000
  31
0.0
   0
LINE
   8
LEVEL003
   6
CONTINUOUS
  62
3
  10
 648.887
  20
 747.000
  30
0.0
  11
 649.691
  21
 744.000
  31
0.0
   0
LINE
   8
LEVEL003
   6
CONTINUOUS
  62
3
  10
 648.887
  20
 697.000
  30
0.0
  11
 649.691
  21
 700.000
  31
0.0
   0
LINE
   8
LEVEL003
   6
CONTINUOUS
  62
3
  10
 648.887
  20
 697.000
  30
0.0
  11
 648.083
  21
 700.000
  31
0.0
   0
TEXT
   8
LEVEL003
  62
3
  10
 647.173
  20
 720.000
  30
0.0
  40
 4.00000
   1
50
  50
 90.0000
  41
 0.500000
   7
STANDARD
  72
1
  11
 647.173
  21
 722.000
  31
0.0
   0
TEXT
   8
LEVEL003
  62
3
  10
 809.200
  20
 614.000
  30
0.0
  40
 4.00000
   1
260
  50
 90.0000
  41
 0.500000
   7
STANDARD
  72
1
  11
 809.200
  21
 617.000
  31
0.0
   0
LINE
   8
LEVEL003
   6
CONTINUOUS
  62
3
  10
 691.000
  20
 487.000
  30
0.0
  11
 732.000
  21
 487.000
  31
0.0
   0
LINE
   8
LEVEL003
   6
CONTINUOUS
  62
3
  10
 687.500
  20
 501.000
  30
0.0
  11
 732.000
  21
 501.000
  31
0.0
   0
LINE
   8
LEVEL003
   6
CONTINUOUS
  62
3
  10
 730.000
  20
 487.000
  30
0.0
  11
 730.000
  21
 501.000
  31
0.0
   0
LINE
   8
LEVEL003
   6
CONTINUOUS
  62
3
  10
 730.000
  20
 487.000
  30
0.0
  11
 730.529
  21
 490.000
  31
0.0
   0
LINE
   8
LEVEL003
   6
CONTINUOUS
  62
3
  10
 730.000
  20
 487.000
  30
0.0
  11
 729.471
  21
 490.000
  31
0.0
   0
LINE
   8
LEVEL003
   6
CONTINUOUS
  62
3
  10
 730.000
  20
 501.000
  30
0.0
  11
 729.471
  21
 498.000
  31
0.0
   0
LINE
   8
LEVEL003
   6
CONTINUOUS
  62
3
  10
 730.000
  20
 501.000
  30
0.0
  11
 730.529
  21
 498.000
  31
0.0
   0
TEXT
   8
LEVEL003
  62
3
  10
 729.200
  20
 492.000
  30
0.0
  40
 4.00000
   1
14
  50
 90.0000
  41
 0.500000
   7
STANDARD
  72
1
  11
 729.200
  21
 494.000
  31
0.0
   0
LINE
   8
LEVEL003
   6
CONTINUOUS
  62
3
  10
 691.000
  20
 487.000
  30
0.0
  11
 772.000
  21
 487.000
  31
0.0
   0
LINE
   8
LEVEL003
   6
CONTINUOUS
  62
3
  10
 661.000
  20
 550.000
  30
0.0
  11
 772.000
  21
 550.000
  31
0.0
   0
LINE
   8
LEVEL003
   6
CONTINUOUS
  62
3
  10
 770.000
  20
 487.000
  30
0.0
  11
 770.000
  21
 550.000
  31
0.0
   0
LINE
   8
LEVEL003
   6
CONTINUOUS
  62
3
  10
 770.000
  20
 487.000
  30
0.0
  11
 770.529
  21
 490.000
  31
0.0
   0
LINE
   8
LEVEL003
   6
CONTINUOUS
  62
3
  10
 770.000
  20
 487.000
  30
0.0
  11
 769.471
  21
 490.000
  31
0.0
   0
LINE
   8
LEVEL003
   6
CONTINUOUS
  62
3
  10
 770.000
  20
 550.000
  30
0.0
  11
 769.471
  21
 547.000
  31
0.0
   0
LINE
   8
LEVEL003
   6
CONTINUOUS
  62
3
  10
 770.000
  20
 550.000
  30
0.0
  11
 770.529
  21
 547.000
  31
0.0
   0
TEXT
   8
LEVEL003
  62
3
  10
 769.200
  20
 516.500
  30
0.0
  40
 4.00000
   1
63
  50
 90.0000
  41
 0.500000
   7
STANDARD
  72
1
  11
 769.200
  21
 518.500
  31
0.0
   0
LINE
   8
LEVEL003
   6
CONTINUOUS
  62
3
  10
 691.000
  20
 487.000
  30
0.0
  11
 812.000
  21
 487.000
  31
0.0
   0
LINE
   8
LEVEL003
   6
CONTINUOUS
  62
3
  10
 810.000
  20
 487.000
  30
0.0
  11
 810.529
  21
 490.000
  31
0.0
   0
LINE
   8
LEVEL003
   6
CONTINUOUS
  62
3
  10
 810.000
  20
 487.000
  30
0.0
  11
 809.471
  21
 490.000
  31
0.0
   0
TEXT
   8
LEVEL003
  62
7
  10
 731.533
  20
 73.2893
  30
0.0
  40
 40.0000
   1
ＯＳＡＫＡ ＪＡＣＫ
   7
STANDARD
   0
CIRCLE
   8
LEVEL003
   6
CONTINUOUS
  62
7
  10
 683.641
  20
 101.492
  30
0.0
  40
 12.0000
   0
LINE
   8
LEVEL003
   6
CONTINUOUS
  62
7
  10
 707.193
  20
 113.492
  30
0.0
  11
 691.957
  21
 87.0921
  31
0.0
   0
LINE
   8
LEVEL003
   6
CONTINUOUS
  62
7
  10
 691.957
  20
 87.0921
  30
0.0
  11
 661.473
  21
 87.0921
  31
0.0
   0
LINE
   8
LEVEL003
   6
CONTINUOUS
  62
7
  10
 658.005
  20
 81.0921
  30
0.0
  11
 712.489
  21
 81.0921
  31
0.0
   0
LINE
   8
LEVEL003
   6
CONTINUOUS
  62
7
  10
 712.489
  20
 81.0921
  30
0.0
  11
 731.193
  21
 113.492
  31
0.0
   0
LINE
   8
LEVEL003
   6
CONTINUOUS
  62
7
  10
 731.193
  20
 113.492
  30
0.0
  11
 707.193
  21
 113.492
  31
0.0
   0
LINE
   8
LEVEL003
   6
CONTINUOUS
  62
7
  10
 661.473
  20
 87.0921
  30
0.0
  11
 658.005
  21
 81.0921
  31
0.0
   0
TEXT
   8
LEVEL003
  62
7
  10
 743.177
  20
 140.863
  30
0.0
  40
 24.0000
   1
Model : ＷＪ１０Ｕ
   7
STANDARD
   0
LINE
   8
LEVEL004
   6
DOT
  62
3
  10
 643.500
  20
 502.000
  30
0.0
  11
 643.500
  21
 501.000
  31
0.0
   0
LINE
   8
LEVEL004
   6
DOT
  62
3
  10
 686.500
  20
 501.000
  30
0.0
  11
 643.500
  21
 501.000
  31
0.0
   0
LINE
   8
LEVEL004
   6
DOT
  62
3
  10
 686.500
  20
 502.000
  30
0.0
  11
 686.500
  21
 501.000
  31
0.0
   0
ENDSEC
   0
EOF
