   0
SECTION
   2
HEADER
   9
$LIMMIN
  10
0.0
  20
0.0
   9
$LIMMAX
  10
 1188.00
  20
 1156.00
   9
$EXTMIN
  10
0.0
  20
0.0
   9
$EXTMAX
  10
 1188.00
  20
 1156.00
   9
$LTSCALE
  40
 23.7600
   0
ENDSEC
   0
SECTION
   2
TABLES
  0
TABLE
  2
LTYPE
 70
    25
  0
LTYPE
  2
CONTINUOUS
 70
    64
  3
Solid line
 72
    65
 73
     0
 40
0.0
  0
LTYPE
  2
BORDER
 70
    64
  3
__ __ . __ __ . __ __ . __ __ . __ __ . __ __ .
 72
    65
 73
     6
 40
1.75
 49
0.5
 49
-0.25
 49
0.5
 49
-0.25
 49
0.0
 49
-0.25
  0
LTYPE
  2
BORDER2
 70
    64
  3
__.__.__.__.__.__.__.__.__.__.__.__.__.__.__.__
 72
    65
 73
     6
 40
0.875
 49
0.25
 49
-0.125
 49
0.25
 49
-0.125
 49
0.0
 49
-0.125
  0
LTYPE
  2
BORDERX2
 70
    64
  3
____  ____  .  ____  ____  .  ____  ____  .  __
 72
    65
 73
     6
 40
3.5
 49
1.0
 49
-0.5
 49
1.0
 49
-0.5
 49
0.0
 49
-0.5
  0
LTYPE
  2
CENTER
 70
    64
  3
____ _ ____ _ ____ _ ____ _ ____ _ ____ _ ____ 
 72
    65
 73
     4
 40
2.0
 49
1.25
 49
-0.25
 49
0.25
 49
-0.25
  0
LTYPE
  2
CENTER2
 70
    64
  3
___ _ ___ _ ___ _ ___ _ ___ _ ___ _ ___ _ ___ _
 72
    65
 73
     4
 40
1.125
 49
0.75
 49
-0.125
 49
0.125
 49
-0.125
  0
LTYPE
  2
CENTERX2
 70
    64
  3
________  __  ________  __  ________  __  _____
 72
    65
 73
     4
 40
4.0
 49
2.5
 49
-0.5
 49
0.5
 49
-0.5
  0
LTYPE
  2
DASHDOT
 70
    64
  3
__ . __ . __ . __ . __ . __ . __ . __ . __ . __
 72
    65
 73
     4
 40
1.0
 49
0.5
 49
-0.25
 49
0.0
 49
-0.25
  0
LTYPE
  2
DASHDOT2
 70
    64
  3
_._._._._._._._._._._._._._._._._._._._._._._._
 72
    65
 73
     4
 40
0.5
 49
0.25
 49
-0.125
 49
0.0
 49
-0.125
  0
LTYPE
  2
DASHDOTX2
 70
    64
  3
____  .  ____  .  ____  .  ____  .  ____  .  __
 72
    65
 73
     4
 40
2.0
 49
1.0
 49
-0.5
 49
0.0
 49
-0.5
  0
LTYPE
  2
DASHED
 70
    64
  3
__ __ __ __ __ __ __ __ __ __ __ __ __ __ __ __
 72
    65
 73
     2
 40
0.75
 49
0.5
 49
-0.25
  0
LTYPE
  2
DASHED2
 70
    64
  3
_ _ _ _ _ _ _ _ _ _ _ _ _ _ _ _ _ _ _ _ _ _ _ _
 72
    65
 73
     2
 40
0.375
 49
0.25
 49
-0.125
  0
LTYPE
  2
DASHEDX2
 70
    64
  3
____  ____  ____  ____  ____  ____  ____  ____ 
 72
    65
 73
     2
 40
1.5
 49
1.0
 49
-0.5
  0
LTYPE
  2
DIVIDE
 70
    64
  3
____ . . ____ . . ____ . . ____ . . ____ . . __
 72
    65
 73
     6
 40
1.25
 49
0.5
 49
-0.25
 49
0.0
 49
-0.25
 49
0.0
 49
-0.25
  0
LTYPE
  2
DIVIDE2
 70
    64
  3
__..__..__..__..__..__..__..__..__..__..__..__.
 72
    65
 73
     6
 40
0.625
 49
0.25
 49
-0.125
 49
0.0
 49
-0.125
 49
0.0
 49
-0.125
  0
LTYPE
  2
DIVIDEX2
 70
    64
  3
________  .  .  ________  .  .  ________  .  . 
 72
    65
 73
     6
 40
2.5
 49
1.0
 49
-0.5
 49
0.0
 49
-0.5
 49
0.0
 49
-0.5
  0
LTYPE
  2
DOT
 70
    64
  3
. . . . . . . . . . . . . . . . . . . . . . . .
 72
    65
 73
     2
 40
0.25
 49
0.0
 49
-0.25
  0
LTYPE
  2
DOT2
 70
    64
  3
...............................................
 72
    65
 73
     2
 40
0.125
 49
0.0
 49
-0.125
  0
LTYPE
  2
DOTX2
 70
    64
  3
.  .  .  .  .  .  .  .  .  .  .  .  .  .  .  . 
 72
    65
 73
     2
 40
0.5
 49
0.0
 49
-0.5
  0
LTYPE
  2
HIDDEN
 70
    64
  3
__ __ __ __ __ __ __ __ __ __ __ __ __ __ __ __
 72
    65
 73
     2
 40
0.375
 49
0.25
 49
-0.125
  0
LTYPE
  2
HIDDEN2
 70
    64
  3
_ _ _ _ _ _ _ _ _ _ _ _ _ _ _ _ _ _ _ _ _ _ _ _
 72
    65
 73
     2
 40
0.1875
 49
0.125
 49
-0.0625
  0
LTYPE
  2
HIDDENX2
 70
    64
  3
____ ____ ____ ____ ____ ____ ____ ____ ____ __
 72
    65
 73
     2
 40
0.75
 49
0.5
 49
-0.25
  0
LTYPE
  2
PHANTOM
 70
    64
  3
______  __  __  ______  __  __  ______  __  __ 
 72
    65
 73
     6
 40
2.5
 49
1.25
 49
-0.25
 49
0.25
 49
-0.25
 49
0.25
 49
-0.25
  0
LTYPE
  2
PHANTOM2
 70
    64
  3
___ _ _ ___ _ _ ___ _ _ ___ _ _ ___ _ _ ___ _ _
 72
    65
 73
     6
 40
1.25
 49
0.625
 49
-0.125
 49
0.125
 49
-0.125
 49
0.125
 49
-0.125
  0
LTYPE
  2
PHANTOMX2
 70
    64
  3
____________    ____    ____    ____________   
 72
    65
 73
     6
 40
5.0
 49
2.5
 49
-0.5
 49
0.5
 49
-0.5
 49
0.5
 49
-0.5
  0
ENDTAB
  0
TABLE
  2
STYLE
 70
     2
  0
STYLE
  2
STANDARD
 70
0
 40
0.0
 41
1.0
 50
0.0
 71
0
 42
0.2
  3
TXT
  4
BIGFONT
  0
STYLE
  2
STANDARD1
 70
     4
 40
0.0
 41
1.0
 50
0.0
 71
     0
 42
0.2
  3
TXT
  4
BIGFONT
  0
ENDTAB
   0
TABLE
   2
LAYER
  70
4
   0
LAYER
   2
0
  70
0
  62
7
   6
CONTINUOUS
   0
LAYER
   2
LEVEL001
  70
0
  62
7
   6
CONTINUOUS
   0
LAYER
   2
LEVEL003
  70
0
  62
7
   6
CONTINUOUS
   0
LAYER
   2
LEVEL004
  70
0
  62
7
   6
CONTINUOUS
   0
ENDTAB
   0
ENDSEC
   0
SECTION
   2
ENTITIES
   0
LINE
   8
LEVEL001
   6
CONTINUOUS
  62
7
  10
 156.000
  20
 410.268
  30
0.0
  11
 155.450
  21
 408.215
  31
0.0
   0
LINE
   8
LEVEL001
   6
CONTINUOUS
  62
7
  10
 157.000
  20
 414.000
  30
0.0
  11
 156.000
  21
 410.268
  31
0.0
   0
LINE
   8
LEVEL001
   6
CONTINUOUS
  62
7
  10
 244.000
  20
 410.268
  30
0.0
  11
 244.550
  21
 408.215
  31
0.0
   0
LINE
   8
LEVEL001
   6
CONTINUOUS
  62
7
  10
 243.000
  20
 414.000
  30
0.0
  11
 244.000
  21
 410.268
  31
0.0
   0
LINE
   8
LEVEL001
   6
CONTINUOUS
  62
7
  10
 230.000
  20
 685.000
  30
0.0
  11
 170.000
  21
 685.000
  31
0.0
   0
LINE
   8
LEVEL001
   6
CONTINUOUS
  62
7
  10
 229.000
  20
 740.000
  30
0.0
  11
 171.000
  21
 740.000
  31
0.0
   0
ARC
   8
LEVEL001
   6
CONTINUOUS
  62
7
  10
 168.000
  20
 679.500
  30
0.0
  40
 0.500000
  50
 90.0000
  51
 180.000
   0
LINE
   8
LEVEL001
   6
CONTINUOUS
  62
7
  10
 171.000
  20
 740.000
  30
0.0
  11
 171.000
  21
 684.000
  31
0.0
   0
LINE
   8
LEVEL001
   6
CONTINUOUS
  62
7
  10
 171.000
  20
 684.000
  30
0.0
  11
 171.000
  21
 681.000
  31
0.0
   0
ARC
   8
LEVEL001
   6
CONTINUOUS
  62
7
  10
 170.000
  20
 681.000
  30
0.0
  40
 1.00000
  50
 270.000
  51
0.0
   0
ARC
   8
LEVEL001
   6
CONTINUOUS
  62
7
  10
 170.000
  20
 684.000
  30
0.0
  40
 1.00000
  50
0.0
  51
 90.0000
   0
ARC
   8
LEVEL001
   6
CONTINUOUS
  62
7
  10
 232.000
  20
 679.500
  30
0.0
  40
 0.500000
  50
0.0
  51
 90.0000
   0
LINE
   8
LEVEL001
   6
CONTINUOUS
  62
7
  10
 229.000
  20
 740.000
  30
0.0
  11
 229.000
  21
 684.000
  31
0.0
   0
LINE
   8
LEVEL001
   6
CONTINUOUS
  62
7
  10
 229.000
  20
 684.000
  30
0.0
  11
 229.000
  21
 681.000
  31
0.0
   0
ARC
   8
LEVEL001
   6
CONTINUOUS
  62
7
  10
 230.000
  20
 681.000
  30
0.0
  40
 1.00000
  50
 180.000
  51
 270.000
   0
ARC
   8
LEVEL001
   6
CONTINUOUS
  62
7
  10
 230.000
  20
 684.000
  30
0.0
  40
 1.00000
  50
 90.0000
  51
 180.000
   0
ARC
   8
LEVEL001
   6
CONTINUOUS
  62
7
  10
 248.612
  20
 642.000
  30
0.0
  40
 3.00000
  50
 2.17470
  51
 90.0000
   0
ARC
   8
LEVEL001
   6
CONTINUOUS
  62
7
  10
 151.388
  20
 642.000
  30
0.0
  40
 3.00000
  50
 90.0000
  51
 177.825
   0
LINE
   8
LEVEL001
   6
CONTINUOUS
  62
7
  10
 306.000
  20
 603.500
  30
0.0
  11
 306.000
  21
 590.500
  31
0.0
   0
ARC
   8
LEVEL001
   6
CONTINUOUS
  62
7
  10
 304.000
  20
 603.500
  30
0.0
  40
 2.00000
  50
0.0
  51
 90.0000
   0
LINE
   8
LEVEL001
   6
CONTINUOUS
  62
7
  10
 147.500
  20
 417.000
  30
0.0
  11
 149.500
  21
 415.000
  31
0.0
   0
LINE
   8
LEVEL001
   6
CONTINUOUS
  62
7
  10
 147.500
  20
 437.000
  30
0.0
  11
 147.500
  21
 417.000
  31
0.0
   0
ARC
   8
LEVEL001
   6
CONTINUOUS
  62
7
  10
 144.500
  20
 437.000
  30
0.0
  40
 3.00000
  50
0.0
  51
 90.0000
   0
LINE
   8
LEVEL001
   6
CONTINUOUS
  62
7
  10
 252.500
  20
 417.000
  30
0.0
  11
 250.500
  21
 415.000
  31
0.0
   0
LINE
   8
LEVEL001
   6
CONTINUOUS
  62
7
  10
 252.500
  20
 437.000
  30
0.0
  11
 252.500
  21
 417.000
  31
0.0
   0
ARC
   8
LEVEL001
   6
CONTINUOUS
  62
7
  10
 255.500
  20
 437.000
  30
0.0
  40
 3.00000
  50
 90.0000
  51
 180.000
   0
LINE
   8
LEVEL001
   6
CONTINUOUS
  62
7
  10
 94.0000
  20
 603.500
  30
0.0
  11
 94.0000
  21
 590.500
  31
0.0
   0
ARC
   8
LEVEL001
   6
CONTINUOUS
  62
7
  10
 96.0000
  20
 603.500
  30
0.0
  40
 2.00000
  50
 90.0000
  51
 180.000
   0
LINE
   8
LEVEL001
   6
CONTINUOUS
  62
7
  10
 155.450
  20
 34.5000
  30
0.0
  11
 157.500
  21
 30.0000
  31
0.0
   0
LINE
   8
LEVEL001
   6
CONTINUOUS
  62
7
  10
 155.450
  20
 408.215
  30
0.0
  11
 155.450
  21
 34.5000
  31
0.0
   0
LINE
   8
LEVEL001
   6
CONTINUOUS
  62
7
  10
 244.550
  20
 34.5000
  30
0.0
  11
 155.450
  21
 34.5000
  31
0.0
   0
LINE
   8
LEVEL001
   6
CONTINUOUS
  62
7
  10
 244.550
  20
 408.215
  30
0.0
  11
 244.550
  21
 34.5000
  31
0.0
   0
LINE
   8
LEVEL001
   6
CONTINUOUS
  62
7
  10
 190.656
  20
 29.1000
  30
0.0
  11
 209.344
  21
 29.1000
  31
0.0
   0
LINE
   8
LEVEL001
   6
CONTINUOUS
  62
7
  10
 244.550
  20
 34.5000
  30
0.0
  11
 242.500
  21
 30.0000
  31
0.0
   0
LINE
   8
LEVEL001
   6
CONTINUOUS
  62
7
  10
 242.500
  20
 30.0000
  30
0.0
  11
 157.500
  21
 30.0000
  31
0.0
   0
LINE
   8
LEVEL001
   6
CONTINUOUS
  62
7
  10
 209.316
  20
 30.0000
  30
0.0
  11
 209.344
  21
 29.1000
  31
0.0
   0
LINE
   8
LEVEL001
   6
CONTINUOUS
  62
7
  10
 190.684
  20
 30.0000
  30
0.0
  11
 190.656
  21
 29.1000
  31
0.0
   0
LINE
   8
LEVEL001
   6
CONTINUOUS
  62
7
  10
 209.344
  20
 29.1000
  30
0.0
  11
 210.241
  21
 30.0000
  31
0.0
   0
LINE
   8
LEVEL001
   6
CONTINUOUS
  62
7
  10
 189.759
  20
 30.0000
  30
0.0
  11
 190.656
  21
 29.1000
  31
0.0
   0
LINE
   8
LEVEL001
   6
CONTINUOUS
  62
7
  10
 230.000
  20
 739.000
  30
0.0
  11
 170.000
  21
 739.000
  31
0.0
   0
LINE
   8
LEVEL001
   6
CONTINUOUS
  62
7
  10
 250.500
  20
 415.000
  30
0.0
  11
 149.500
  21
 415.000
  31
0.0
   0
LINE
   8
LEVEL001
   6
CONTINUOUS
  62
7
  10
 244.000
  20
 415.000
  30
0.0
  11
 244.000
  21
 410.268
  31
0.0
   0
LINE
   8
LEVEL001
   6
CONTINUOUS
  62
7
  10
 243.000
  20
 415.000
  30
0.0
  11
 243.000
  21
 414.000
  31
0.0
   0
LINE
   8
LEVEL001
   6
CONTINUOUS
  62
7
  10
 156.000
  20
 415.000
  30
0.0
  11
 156.000
  21
 410.268
  31
0.0
   0
LINE
   8
LEVEL001
   6
CONTINUOUS
  62
7
  10
 157.000
  20
 415.000
  30
0.0
  11
 157.000
  21
 414.000
  31
0.0
   0
LINE
   8
LEVEL001
   6
CONTINUOUS
  62
7
  10
 244.550
  20
 408.215
  30
0.0
  11
 155.450
  21
 408.215
  31
0.0
   0
LINE
   8
LEVEL001
   6
CONTINUOUS
  62
7
  10
 156.000
  20
 410.268
  30
0.0
  11
 244.000
  21
 410.268
  31
0.0
   0
LINE
   8
LEVEL001
   6
CONTINUOUS
  62
7
  10
 244.000
  20
 414.000
  30
0.0
  11
 156.000
  21
 414.000
  31
0.0
   0
LINE
   8
LEVEL001
   6
CONTINUOUS
  62
7
  10
 252.500
  20
 417.000
  30
0.0
  11
 147.500
  21
 417.000
  31
0.0
   0
LINE
   8
LEVEL001
   6
CONTINUOUS
  62
7
  10
 171.000
  20
 740.000
  30
0.0
  11
 170.000
  21
 739.000
  31
0.0
   0
LINE
   8
LEVEL001
   6
CONTINUOUS
  62
7
  10
 170.000
  20
 739.000
  30
0.0
  11
 170.000
  21
 685.000
  31
0.0
   0
LINE
   8
LEVEL001
   6
CONTINUOUS
  62
7
  10
 229.000
  20
 740.000
  30
0.0
  11
 230.000
  21
 739.000
  31
0.0
   0
LINE
   8
LEVEL001
   6
CONTINUOUS
  62
7
  10
 230.000
  20
 739.000
  30
0.0
  11
 230.000
  21
 685.000
  31
0.0
   0
LINE
   8
LEVEL001
   6
CONTINUOUS
  62
7
  10
 248.612
  20
 645.000
  30
0.0
  11
 151.388
  21
 645.000
  31
0.0
   0
LINE
   8
LEVEL001
   6
CONTINUOUS
  62
7
  10
 232.500
  20
 679.500
  30
0.0
  11
 232.500
  21
 645.000
  31
0.0
   0
LINE
   8
LEVEL001
   6
CONTINUOUS
  62
7
  10
 167.500
  20
 679.500
  30
0.0
  11
 167.500
  21
 645.000
  31
0.0
   0
LINE
   8
LEVEL001
   6
CONTINUOUS
  62
7
  10
 306.000
  20
 590.500
  30
0.0
  11
 94.0000
  21
 590.500
  31
0.0
   0
LINE
   8
LEVEL001
   6
CONTINUOUS
  62
7
  10
 305.000
  20
 590.000
  30
0.0
  11
 95.0000
  21
 590.000
  31
0.0
   0
LINE
   8
LEVEL001
   6
CONTINUOUS
  62
7
  10
 304.000
  20
 605.500
  30
0.0
  11
 96.0000
  21
 605.500
  31
0.0
   0
LINE
   8
LEVEL001
   6
CONTINUOUS
  62
7
  10
 112.500
  20
 440.000
  30
0.0
  11
 287.500
  21
 440.000
  31
0.0
   0
ARC
   8
LEVEL001
   6
CONTINUOUS
  62
7
  10
 96.7500
  20
 566.000
  30
0.0
  40
 2.00000
  50
 90.0000
  51
 180.000
   0
ARC
   8
LEVEL001
   6
CONTINUOUS
  62
7
  10
 96.7500
  20
 474.000
  30
0.0
  40
 2.00000
  50
 180.000
  51
 270.000
   0
LINE
   8
LEVEL001
   6
CONTINUOUS
  62
7
  10
 305.250
  20
 535.000
  30
0.0
  11
 308.390
  21
 535.000
  31
0.0
   0
LINE
   8
LEVEL001
   6
CONTINUOUS
  62
7
  10
 305.250
  20
 505.000
  30
0.0
  11
 308.390
  21
 505.000
  31
0.0
   0
LINE
   8
LEVEL001
   6
CONTINUOUS
  62
7
  10
 305.250
  20
 474.000
  30
0.0
  11
 305.250
  21
 566.000
  31
0.0
   0
LINE
   8
LEVEL001
   6
CONTINUOUS
  62
7
  10
 292.250
  20
 568.000
  30
0.0
  11
 303.250
  21
 568.000
  31
0.0
   0
ARC
   8
LEVEL001
   6
CONTINUOUS
  62
7
  10
 303.250
  20
 566.000
  30
0.0
  40
 2.00000
  50
0.0
  51
 90.0000
   0
ARC
   8
LEVEL001
   6
CONTINUOUS
  62
7
  10
 308.390
  20
 534.000
  30
0.0
  40
 1.00000
  50
 77.4710
  51
 90.0000
   0
LINE
   8
LEVEL001
   6
CONTINUOUS
  62
7
  10
 355.000
  20
 507.000
  30
0.0
  11
 355.000
  21
 533.000
  31
0.0
   0
LINE
   8
LEVEL001
   6
CONTINUOUS
  62
7
  10
 308.500
  20
 505.024
  30
0.0
  11
 308.500
  21
 534.866
  31
0.0
   0
LINE
   8
LEVEL001
   6
CONTINUOUS
  62
7
  10
 354.000
  20
 506.000
  30
0.0
  11
 355.000
  21
 507.000
  31
0.0
   0
LINE
   8
LEVEL001
   6
CONTINUOUS
  62
7
  10
 313.110
  20
 506.000
  30
0.0
  11
 354.000
  21
 506.000
  31
0.0
   0
ARC
   8
LEVEL001
   6
CONTINUOUS
  62
7
  10
 313.110
  20
 505.000
  30
0.0
  40
 1.00000
  50
 90.0000
  51
 102.529
   0
LINE
   8
LEVEL001
   6
CONTINUOUS
  62
7
  10
 308.607
  20
 505.024
  30
0.0
  11
 312.893
  21
 505.976
  31
0.0
   0
ARC
   8
LEVEL001
   6
CONTINUOUS
  62
7
  10
 308.390
  20
 506.000
  30
0.0
  40
 1.00000
  50
 270.000
  51
 282.529
   0
ARC
   8
LEVEL001
   6
CONTINUOUS
  62
7
  10
 303.250
  20
 474.000
  30
0.0
  40
 2.00000
  50
 270.000
  51
0.0
   0
LINE
   8
LEVEL001
   6
CONTINUOUS
  62
7
  10
 107.750
  20
 568.000
  30
0.0
  11
 96.7500
  21
 568.000
  31
0.0
   0
LINE
   8
LEVEL001
   6
CONTINUOUS
  62
7
  10
 94.7500
  20
 566.000
  30
0.0
  11
 94.7500
  21
 474.000
  31
0.0
   0
LINE
   8
LEVEL001
   6
CONTINUOUS
  62
7
  10
 107.750
  20
 472.000
  30
0.0
  11
 96.7500
  21
 472.000
  31
0.0
   0
LINE
   8
LEVEL001
   6
CONTINUOUS
  62
7
  10
 107.750
  20
 568.000
  30
0.0
  11
 107.750
  21
 472.000
  31
0.0
   0
LINE
   8
LEVEL001
   6
CONTINUOUS
  62
7
  10
 108.000
  20
 473.000
  30
0.0
  11
 108.000
  21
 567.000
  31
0.0
   0
LINE
   8
LEVEL001
   6
CONTINUOUS
  62
7
  10
 95.0000
  20
 590.000
  30
0.0
  11
 95.0000
  21
 566.968
  31
0.0
   0
LINE
   8
LEVEL001
   6
CONTINUOUS
  62
7
  10
 305.000
  20
 590.000
  30
0.0
  11
 305.000
  21
 566.968
  31
0.0
   0
LINE
   8
LEVEL001
   6
CONTINUOUS
  62
7
  10
 292.250
  20
 568.000
  30
0.0
  11
 292.250
  21
 472.000
  31
0.0
   0
LINE
   8
LEVEL001
   6
CONTINUOUS
  62
7
  10
 292.250
  20
 472.000
  30
0.0
  11
 303.250
  21
 472.000
  31
0.0
   0
LINE
   8
LEVEL001
   6
CONTINUOUS
  62
7
  10
 292.000
  20
 473.000
  30
0.0
  11
 292.000
  21
 567.000
  31
0.0
   0
LINE
   8
LEVEL001
   6
CONTINUOUS
  62
7
  10
 319.000
  20
 533.416
  30
0.0
  11
 319.000
  21
 537.000
  31
0.0
   0
LINE
   8
LEVEL001
   6
CONTINUOUS
  62
7
  10
 319.000
  20
 537.000
  30
0.0
  11
 355.000
  21
 537.000
  31
0.0
   0
LINE
   8
LEVEL001
   6
CONTINUOUS
  62
7
  10
 355.000
  20
 537.000
  30
0.0
  11
 355.000
  21
 532.369
  31
0.0
   0
LINE
   8
LEVEL001
   6
CONTINUOUS
  62
7
  10
 308.607
  20
 534.976
  30
0.0
  11
 313.000
  21
 533.416
  31
0.0
   0
LINE
   8
LEVEL001
   6
CONTINUOUS
  62
7
  10
 354.000
  20
 533.416
  30
0.0
  11
 355.000
  21
 532.369
  31
0.0
   0
LINE
   8
LEVEL001
   6
CONTINUOUS
  62
7
  10
 313.000
  20
 533.416
  30
0.0
  11
 354.000
  21
 533.416
  31
0.0
   0
LINE
   8
LEVEL001
   6
CONTINUOUS
  62
7
  10
 354.000
  20
 506.000
  30
0.0
  11
 354.000
  21
 533.416
  31
0.0
   0
LINE
   8
LEVEL001
   6
CONTINUOUS
  62
7
  10
 313.000
  20
 506.000
  30
0.0
  11
 313.000
  21
 533.416
  31
0.0
   0
LINE
   8
LEVEL001
   6
CONTINUOUS
  62
7
  10
 94.7500
  20
 535.000
  30
0.0
  11
 91.6100
  21
 535.000
  31
0.0
   0
LINE
   8
LEVEL001
   6
CONTINUOUS
  62
7
  10
 94.7500
  20
 505.000
  30
0.0
  11
 91.6100
  21
 505.000
  31
0.0
   0
ARC
   8
LEVEL001
   6
CONTINUOUS
  62
7
  10
 91.6100
  20
 534.000
  30
0.0
  40
 1.00000
  50
 90.0000
  51
 102.529
   0
LINE
   8
LEVEL001
   6
CONTINUOUS
  62
7
  10
 45.0000
  20
 507.000
  30
0.0
  11
 45.0000
  21
 533.000
  31
0.0
   0
LINE
   8
LEVEL001
   6
CONTINUOUS
  62
7
  10
 91.5000
  20
 505.024
  30
0.0
  11
 91.5000
  21
 534.866
  31
0.0
   0
LINE
   8
LEVEL001
   6
CONTINUOUS
  62
7
  10
 46.0000
  20
 506.000
  30
0.0
  11
 45.0000
  21
 507.000
  31
0.0
   0
LINE
   8
LEVEL001
   6
CONTINUOUS
  62
7
  10
 86.8900
  20
 506.000
  30
0.0
  11
 46.0000
  21
 506.000
  31
0.0
   0
ARC
   8
LEVEL001
   6
CONTINUOUS
  62
7
  10
 86.8900
  20
 505.000
  30
0.0
  40
 1.00000
  50
 77.4710
  51
 90.0000
   0
LINE
   8
LEVEL001
   6
CONTINUOUS
  62
7
  10
 91.3930
  20
 505.024
  30
0.0
  11
 87.1070
  21
 505.976
  31
0.0
   0
ARC
   8
LEVEL001
   6
CONTINUOUS
  62
7
  10
 91.6100
  20
 506.000
  30
0.0
  40
 1.00000
  50
 257.471
  51
 270.000
   0
LINE
   8
LEVEL001
   6
CONTINUOUS
  62
7
  10
 81.0000
  20
 533.416
  30
0.0
  11
 81.0000
  21
 537.000
  31
0.0
   0
LINE
   8
LEVEL001
   6
CONTINUOUS
  62
7
  10
 81.0000
  20
 537.000
  30
0.0
  11
 45.0000
  21
 537.000
  31
0.0
   0
LINE
   8
LEVEL001
   6
CONTINUOUS
  62
7
  10
 45.0000
  20
 537.000
  30
0.0
  11
 45.0000
  21
 532.369
  31
0.0
   0
LINE
   8
LEVEL001
   6
CONTINUOUS
  62
7
  10
 91.3930
  20
 534.976
  30
0.0
  11
 87.0000
  21
 533.416
  31
0.0
   0
LINE
   8
LEVEL001
   6
CONTINUOUS
  62
7
  10
 46.0000
  20
 533.416
  30
0.0
  11
 45.0000
  21
 532.369
  31
0.0
   0
LINE
   8
LEVEL001
   6
CONTINUOUS
  62
7
  10
 87.0000
  20
 533.416
  30
0.0
  11
 46.0000
  21
 533.416
  31
0.0
   0
LINE
   8
LEVEL001
   6
CONTINUOUS
  62
7
  10
 46.0000
  20
 506.000
  30
0.0
  11
 46.0000
  21
 533.416
  31
0.0
   0
LINE
   8
LEVEL001
   6
CONTINUOUS
  62
7
  10
 87.0000
  20
 506.000
  30
0.0
  11
 87.0000
  21
 533.416
  31
0.0
   0
ARC
   8
LEVEL001
   6
CONTINUOUS
  62
7
  10
 215.500
  20
 465.000
  30
0.0
  40
 8.00000
  50
 180.000
  51
 270.000
   0
ARC
   8
LEVEL001
   6
CONTINUOUS
  62
7
  10
 184.500
  20
 465.000
  30
0.0
  40
 8.00000
  50
 270.000
  51
0.0
   0
LINE
   8
LEVEL001
   6
CONTINUOUS
  62
7
  10
 184.782
  20
 457.000
  30
0.0
  11
 112.500
  21
 457.000
  31
0.0
   0
LINE
   8
LEVEL001
   6
CONTINUOUS
  62
7
  10
 287.500
  20
 457.000
  30
0.0
  11
 215.307
  21
 457.000
  31
0.0
   0
LINE
   8
LEVEL001
   6
CONTINUOUS
  62
7
  10
 287.500
  20
 440.000
  30
0.0
  11
 287.500
  21
 468.991
  31
0.0
   0
ARC
   8
LEVEL001
   6
CONTINUOUS
  62
7
  10
 291.500
  20
 468.991
  30
0.0
  40
 4.00000
  50
 90.9338
  51
 180.000
   0
LINE
   8
LEVEL001
   6
CONTINUOUS
  62
7
  10
 112.500
  20
 468.991
  30
0.0
  11
 112.500
  21
 440.000
  31
0.0
   0
ARC
   8
LEVEL001
   6
CONTINUOUS
  62
7
  10
 108.500
  20
 468.991
  30
0.0
  40
 4.00000
  50
0.0
  51
 89.0662
   0
LINE
   8
LEVEL001
   6
CONTINUOUS
  62
7
  10
 291.435
  20
 472.991
  30
0.0
  11
 292.000
  21
 473.000
  31
0.0
   0
LINE
   8
LEVEL001
   6
CONTINUOUS
  62
7
  10
 108.716
  20
 472.988
  30
0.0
  11
 108.000
  21
 473.000
  31
0.0
   0
LINE
   8
LEVEL001
   6
CONTINUOUS
  62
7
  10
 232.000
  20
 680.000
  30
0.0
  11
 168.000
  21
 680.000
  31
0.0
   0
LINE
   8
LEVEL001
   6
CONTINUOUS
  62
7
  10
 232.500
  20
 648.000
  30
0.0
  11
 167.500
  21
 648.000
  31
0.0
   0
LINE
   8
LEVEL001
   6
CONTINUOUS
  62
7
  10
 119.000
  20
 616.800
  30
0.0
  11
 119.000
  21
 605.500
  31
0.0
   0
LINE
   8
LEVEL001
   6
CONTINUOUS
  62
7
  10
 98.0000
  20
 605.500
  30
0.0
  11
 98.0000
  21
 616.800
  31
0.0
   0
LINE
   8
LEVEL001
   6
CONTINUOUS
  62
7
  10
 117.788
  20
 617.500
  30
0.0
  11
 119.000
  21
 616.800
  31
0.0
   0
LINE
   8
LEVEL001
   6
CONTINUOUS
  62
7
  10
 99.2120
  20
 617.500
  30
0.0
  11
 117.788
  21
 617.500
  31
0.0
   0
LINE
   8
LEVEL001
   6
CONTINUOUS
  62
7
  10
 98.0000
  20
 616.800
  30
0.0
  11
 99.2120
  21
 617.500
  31
0.0
   0
LINE
   8
LEVEL001
   6
CONTINUOUS
  62
7
  10
 119.000
  20
 616.800
  30
0.0
  11
 98.0000
  21
 616.800
  31
0.0
   0
LINE
   8
LEVEL001
   6
CONTINUOUS
  62
7
  10
 164.750
  20
 616.800
  30
0.0
  11
 164.750
  21
 605.500
  31
0.0
   0
LINE
   8
LEVEL001
   6
CONTINUOUS
  62
7
  10
 143.750
  20
 605.500
  30
0.0
  11
 143.750
  21
 616.800
  31
0.0
   0
LINE
   8
LEVEL001
   6
CONTINUOUS
  62
7
  10
 163.538
  20
 617.500
  30
0.0
  11
 164.750
  21
 616.800
  31
0.0
   0
LINE
   8
LEVEL001
   6
CONTINUOUS
  62
7
  10
 144.962
  20
 617.500
  30
0.0
  11
 163.538
  21
 617.500
  31
0.0
   0
LINE
   8
LEVEL001
   6
CONTINUOUS
  62
7
  10
 143.750
  20
 616.800
  30
0.0
  11
 144.962
  21
 617.500
  31
0.0
   0
LINE
   8
LEVEL001
   6
CONTINUOUS
  62
7
  10
 164.750
  20
 616.800
  30
0.0
  11
 143.750
  21
 616.800
  31
0.0
   0
LINE
   8
LEVEL001
   6
CONTINUOUS
  62
7
  10
 256.250
  20
 616.800
  30
0.0
  11
 256.250
  21
 605.500
  31
0.0
   0
LINE
   8
LEVEL001
   6
CONTINUOUS
  62
7
  10
 235.250
  20
 605.500
  30
0.0
  11
 235.250
  21
 616.800
  31
0.0
   0
LINE
   8
LEVEL001
   6
CONTINUOUS
  62
7
  10
 255.038
  20
 617.500
  30
0.0
  11
 256.250
  21
 616.800
  31
0.0
   0
LINE
   8
LEVEL001
   6
CONTINUOUS
  62
7
  10
 236.462
  20
 617.500
  30
0.0
  11
 255.038
  21
 617.500
  31
0.0
   0
LINE
   8
LEVEL001
   6
CONTINUOUS
  62
7
  10
 235.250
  20
 616.800
  30
0.0
  11
 236.462
  21
 617.500
  31
0.0
   0
LINE
   8
LEVEL001
   6
CONTINUOUS
  62
7
  10
 256.250
  20
 616.800
  30
0.0
  11
 235.250
  21
 616.800
  31
0.0
   0
LINE
   8
LEVEL001
   6
CONTINUOUS
  62
7
  10
 302.000
  20
 616.800
  30
0.0
  11
 302.000
  21
 605.500
  31
0.0
   0
LINE
   8
LEVEL001
   6
CONTINUOUS
  62
7
  10
 281.000
  20
 605.500
  30
0.0
  11
 281.000
  21
 616.800
  31
0.0
   0
LINE
   8
LEVEL001
   6
CONTINUOUS
  62
7
  10
 300.788
  20
 617.500
  30
0.0
  11
 302.000
  21
 616.800
  31
0.0
   0
LINE
   8
LEVEL001
   6
CONTINUOUS
  62
7
  10
 282.212
  20
 617.500
  30
0.0
  11
 300.788
  21
 617.500
  31
0.0
   0
LINE
   8
LEVEL001
   6
CONTINUOUS
  62
7
  10
 281.000
  20
 616.800
  30
0.0
  11
 282.212
  21
 617.500
  31
0.0
   0
LINE
   8
LEVEL001
   6
CONTINUOUS
  62
7
  10
 302.000
  20
 616.800
  30
0.0
  11
 281.000
  21
 616.800
  31
0.0
   0
LINE
   8
LEVEL001
   6
CONTINUOUS
  62
7
  10
 148.390
  20
 642.114
  30
0.0
  11
 147.455
  21
 617.500
  31
0.0
   0
ARC
   8
LEVEL001
   6
CONTINUOUS
  62
7
  10
 137.373
  20
 615.500
  30
0.0
  40
 10.0000
  50
 270.000
  51
 309.621
   0
LINE
   8
LEVEL001
   6
CONTINUOUS
  62
7
  10
 251.610
  20
 642.114
  30
0.0
  11
 252.545
  21
 617.500
  31
0.0
   0
ARC
   8
LEVEL001
   6
CONTINUOUS
  62
7
  10
 262.627
  20
 615.500
  30
0.0
  40
 10.0000
  50
 230.379
  51
 270.000
   0
LINE
   8
LEVEL001
   6
CONTINUOUS
  62
7
  10
 722.260
  20
 471.871
  30
0.0
  11
 736.951
  21
 456.376
  31
0.0
   0
ARC
   8
LEVEL001
   6
CONTINUOUS
  62
7
  10
 744.030
  20
 492.512
  30
0.0
  40
 30.0000
  50
 187.210
  51
 223.476
   0
ARC
   8
LEVEL001
   6
CONTINUOUS
  62
7
  10
 735.500
  20
 455.000
  30
0.0
  40
 2.00000
  50
0.0
  51
 90.0000
   0
LINE
   8
LEVEL001
   6
CONTINUOUS
  62
7
  10
 556.000
  20
 410.268
  30
0.0
  11
 555.450
  21
 408.215
  31
0.0
   0
LINE
   8
LEVEL001
   6
CONTINUOUS
  62
7
  10
 557.000
  20
 414.000
  30
0.0
  11
 556.000
  21
 410.268
  31
0.0
   0
LINE
   8
LEVEL001
   6
CONTINUOUS
  62
7
  10
 644.000
  20
 410.268
  30
0.0
  11
 644.550
  21
 408.215
  31
0.0
   0
LINE
   8
LEVEL001
   6
CONTINUOUS
  62
7
  10
 643.000
  20
 414.000
  30
0.0
  11
 644.000
  21
 410.268
  31
0.0
   0
LINE
   8
LEVEL001
   6
CONTINUOUS
  62
7
  10
 630.000
  20
 685.000
  30
0.0
  11
 570.000
  21
 685.000
  31
0.0
   0
LINE
   8
LEVEL001
   6
CONTINUOUS
  62
7
  10
 592.000
  20
 680.000
  30
0.0
  11
 568.000
  21
 680.000
  31
0.0
   0
LINE
   8
LEVEL001
   6
CONTINUOUS
  62
7
  10
 632.000
  20
 680.000
  30
0.0
  11
 608.000
  21
 680.000
  31
0.0
   0
LINE
   8
LEVEL001
   6
CONTINUOUS
  62
7
  10
 629.000
  20
 740.000
  30
0.0
  11
 571.000
  21
 740.000
  31
0.0
   0
ARC
   8
LEVEL001
   6
CONTINUOUS
  62
7
  10
 568.000
  20
 679.500
  30
0.0
  40
 0.500000
  50
 90.0000
  51
 180.000
   0
LINE
   8
LEVEL001
   6
CONTINUOUS
  62
7
  10
 571.000
  20
 740.000
  30
0.0
  11
 571.000
  21
 684.000
  31
0.0
   0
LINE
   8
LEVEL001
   6
CONTINUOUS
  62
7
  10
 571.000
  20
 684.000
  30
0.0
  11
 571.000
  21
 681.000
  31
0.0
   0
ARC
   8
LEVEL001
   6
CONTINUOUS
  62
7
  10
 570.000
  20
 681.000
  30
0.0
  40
 1.00000
  50
 270.000
  51
0.0
   0
ARC
   8
LEVEL001
   6
CONTINUOUS
  62
7
  10
 570.000
  20
 684.000
  30
0.0
  40
 1.00000
  50
0.0
  51
 90.0000
   0
ARC
   8
LEVEL001
   6
CONTINUOUS
  62
7
  10
 632.000
  20
 679.500
  30
0.0
  40
 0.500000
  50
0.0
  51
 90.0000
   0
LINE
   8
LEVEL001
   6
CONTINUOUS
  62
7
  10
 629.000
  20
 740.000
  30
0.0
  11
 629.000
  21
 684.000
  31
0.0
   0
LINE
   8
LEVEL001
   6
CONTINUOUS
  62
7
  10
 629.000
  20
 684.000
  30
0.0
  11
 629.000
  21
 681.000
  31
0.0
   0
ARC
   8
LEVEL001
   6
CONTINUOUS
  62
7
  10
 630.000
  20
 681.000
  30
0.0
  40
 1.00000
  50
 180.000
  51
 270.000
   0
ARC
   8
LEVEL001
   6
CONTINUOUS
  62
7
  10
 630.000
  20
 684.000
  30
0.0
  40
 1.00000
  50
 90.0000
  51
 180.000
   0
LINE
   8
LEVEL001
   6
CONTINUOUS
  62
7
  10
 651.610
  20
 642.114
  30
0.0
  11
 652.635
  21
 615.121
  31
0.0
   0
ARC
   8
LEVEL001
   6
CONTINUOUS
  62
7
  10
 648.612
  20
 642.000
  30
0.0
  40
 3.00000
  50
 2.17470
  51
 90.0000
   0
LINE
   8
LEVEL001
   6
CONTINUOUS
  62
7
  10
 548.390
  20
 642.114
  30
0.0
  11
 547.365
  21
 615.121
  31
0.0
   0
ARC
   8
LEVEL001
   6
CONTINUOUS
  62
7
  10
 551.388
  20
 642.000
  30
0.0
  40
 3.00000
  50
 90.0000
  51
 177.825
   0
LINE
   8
LEVEL001
   6
CONTINUOUS
  62
7
  10
 608.000
  20
 683.468
  30
0.0
  11
 592.000
  21
 683.468
  31
0.0
   0
LINE
   8
LEVEL001
   6
CONTINUOUS
  62
7
  10
 608.000
  20
 652.000
  30
0.0
  11
 592.000
  21
 652.000
  31
0.0
   0
LINE
   8
LEVEL001
   6
CONTINUOUS
  62
7
  10
 705.079
  20
 561.375
  30
0.0
  11
 714.267
  21
 488.747
  31
0.0
   0
LINE
   8
LEVEL001
   6
CONTINUOUS
  62
7
  10
 706.000
  20
 603.500
  30
0.0
  11
 706.000
  21
 590.500
  31
0.0
   0
ARC
   8
LEVEL001
   6
CONTINUOUS
  62
7
  10
 704.000
  20
 603.500
  30
0.0
  40
 2.00000
  50
0.0
  51
 90.0000
   0
LINE
   8
LEVEL001
   6
CONTINUOUS
  62
7
  10
 705.000
  20
 590.000
  30
0.0
  11
 705.000
  21
 562.630
  31
0.0
   0
ARC
   8
LEVEL001
   6
CONTINUOUS
  62
7
  10
 715.000
  20
 562.630
  30
0.0
  40
 10.0000
  50
 180.000
  51
 187.210
   0
ARC
   8
LEVEL001
   6
CONTINUOUS
  62
7
  10
 697.000
  20
 563.889
  30
0.0
  40
 8.00000
  50
 333.435
  51
 0.341973E-10
   0
ARC
   8
LEVEL001
   6
CONTINUOUS
  62
7
  10
 684.000
  20
 486.145
  30
0.0
  40
 10.0000
  50
 346.931
  51
0.0
   0
LINE
   8
LEVEL001
   6
CONTINUOUS
  62
7
  10
 694.000
  20
 537.639
  30
0.0
  11
 694.000
  21
 486.145
  31
0.0
   0
ARC
   8
LEVEL001
   6
CONTINUOUS
  62
7
  10
 704.000
  20
 537.639
  30
0.0
  40
 10.0000
  50
 153.435
  51
 180.000
   0
LINE
   8
LEVEL001
   6
CONTINUOUS
  62
7
  10
 704.155
  20
 560.311
  30
0.0
  11
 695.056
  21
 542.111
  31
0.0
   0
LINE
   8
LEVEL001
   6
CONTINUOUS
  62
7
  10
 441.514
  20
 473.445
  30
0.0
  11
 413.475
  21
 456.718
  31
0.0
   0
ARC
   8
LEVEL001
   6
CONTINUOUS
  62
7
  10
 426.143
  20
 499.209
  30
0.0
  40
 30.0000
  50
 300.821
  51
 347.011
   0
LINE
   8
LEVEL001
   6
CONTINUOUS
  62
7
  10
 476.971
  20
 457.000
  30
0.0
  11
 414.500
  21
 457.000
  31
0.0
   0
LINE
   8
LEVEL001
   6
CONTINUOUS
  62
7
  10
 471.557
  20
 492.490
  30
0.0
  11
 485.206
  21
 472.672
  31
0.0
   0
ARC
   8
LEVEL001
   6
CONTINUOUS
  62
7
  10
 476.971
  20
 467.000
  30
0.0
  40
 10.0000
  50
 270.000
  51
 34.5570
   0
ARC
   8
LEVEL001
   6
CONTINUOUS
  62
7
  10
 414.500
  20
 455.000
  30
0.0
  40
 2.00000
  50
 90.0000
  51
 180.000
   0
LINE
   8
LEVEL001
   6
CONTINUOUS
  62
7
  10
 412.500
  20
 440.000
  30
0.0
  11
 412.500
  21
 455.000
  31
0.0
   0
LINE
   8
LEVEL001
   6
CONTINUOUS
  62
7
  10
 547.500
  20
 417.000
  30
0.0
  11
 549.500
  21
 415.000
  31
0.0
   0
LINE
   8
LEVEL001
   6
CONTINUOUS
  62
7
  10
 547.500
  20
 437.000
  30
0.0
  11
 547.500
  21
 417.000
  31
0.0
   0
ARC
   8
LEVEL001
   6
CONTINUOUS
  62
7
  10
 544.500
  20
 437.000
  30
0.0
  40
 3.00000
  50
0.0
  51
 90.0000
   0
LINE
   8
LEVEL001
   6
CONTINUOUS
  62
7
  10
 693.741
  20
 483.884
  30
0.0
  11
 690.062
  21
 468.035
  31
0.0
   0
ARC
   8
LEVEL001
   6
CONTINUOUS
  62
7
  10
 698.829
  20
 466.000
  30
0.0
  40
 9.00000
  50
 166.931
  51
 270.000
   0
LINE
   8
LEVEL001
   6
CONTINUOUS
  62
7
  10
 652.500
  20
 417.000
  30
0.0
  11
 650.500
  21
 415.000
  31
0.0
   0
LINE
   8
LEVEL001
   6
CONTINUOUS
  62
7
  10
 652.500
  20
 437.000
  30
0.0
  11
 652.500
  21
 417.000
  31
0.0
   0
ARC
   8
LEVEL001
   6
CONTINUOUS
  62
7
  10
 655.500
  20
 437.000
  30
0.0
  40
 3.00000
  50
 90.0000
  51
 180.000
   0
ARC
   8
LEVEL001
   6
CONTINUOUS
  62
7
  10
 511.500
  20
 520.000
  30
0.0
  40
 48.5000
  50
 122.198
  51
 214.557
   0
ARC
   8
LEVEL001
   6
CONTINUOUS
  62
7
  10
 475.000
  20
 577.966
  30
0.0
  40
 20.0000
  50
 302.198
  51
0.0
   0
LINE
   8
LEVEL001
   6
CONTINUOUS
  62
7
  10
 495.000
  20
 590.000
  30
0.0
  11
 495.000
  21
 577.966
  31
0.0
   0
LINE
   8
LEVEL001
   6
CONTINUOUS
  62
7
  10
 494.000
  20
 603.500
  30
0.0
  11
 494.000
  21
 590.500
  31
0.0
   0
ARC
   8
LEVEL001
   6
CONTINUOUS
  62
7
  10
 496.000
  20
 603.500
  30
0.0
  40
 2.00000
  50
 90.0000
  51
 180.000
   0
ARC
   8
LEVEL001
   6
CONTINUOUS
  62
7
  10
 537.373
  20
 615.500
  30
0.0
  40
 10.0000
  50
 270.000
  51
 357.825
   0
ARC
   8
LEVEL001
   6
CONTINUOUS
  62
7
  10
 662.627
  20
 615.500
  30
0.0
  40
 10.0000
  50
 182.175
  51
 270.000
   0
LINE
   8
LEVEL001
   6
CONTINUOUS
  62
7
  10
 555.450
  20
 34.5000
  30
0.0
  11
 557.500
  21
 30.0000
  31
0.0
   0
LINE
   8
LEVEL001
   6
CONTINUOUS
  62
7
  10
 555.450
  20
 408.215
  30
0.0
  11
 555.450
  21
 34.5000
  31
0.0
   0
LINE
   8
LEVEL001
   6
CONTINUOUS
  62
7
  10
 644.550
  20
 34.5000
  30
0.0
  11
 555.450
  21
 34.5000
  31
0.0
   0
LINE
   8
LEVEL001
   6
CONTINUOUS
  62
7
  10
 644.550
  20
 408.215
  30
0.0
  11
 644.550
  21
 34.5000
  31
0.0
   0
LINE
   8
LEVEL001
   6
CONTINUOUS
  62
7
  10
 590.656
  20
 29.1000
  30
0.0
  11
 609.344
  21
 29.1000
  31
0.0
   0
LINE
   8
LEVEL001
   6
CONTINUOUS
  62
7
  10
 644.550
  20
 34.5000
  30
0.0
  11
 642.500
  21
 30.0000
  31
0.0
   0
LINE
   8
LEVEL001
   6
CONTINUOUS
  62
7
  10
 642.500
  20
 30.0000
  30
0.0
  11
 557.500
  21
 30.0000
  31
0.0
   0
LINE
   8
LEVEL001
   6
CONTINUOUS
  62
7
  10
 609.316
  20
 30.0000
  30
0.0
  11
 609.344
  21
 29.1000
  31
0.0
   0
LINE
   8
LEVEL001
   6
CONTINUOUS
  62
7
  10
 590.684
  20
 30.0000
  30
0.0
  11
 590.656
  21
 29.1000
  31
0.0
   0
LINE
   8
LEVEL001
   6
CONTINUOUS
  62
7
  10
 609.344
  20
 29.1000
  30
0.0
  11
 610.241
  21
 30.0000
  31
0.0
   0
LINE
   8
LEVEL001
   6
CONTINUOUS
  62
7
  10
 589.759
  20
 30.0000
  30
0.0
  11
 590.656
  21
 29.1000
  31
0.0
   0
LINE
   8
LEVEL001
   6
CONTINUOUS
  62
7
  10
 630.000
  20
 739.000
  30
0.0
  11
 570.000
  21
 739.000
  31
0.0
   0
LINE
   8
LEVEL001
   6
CONTINUOUS
  62
7
  10
 650.500
  20
 415.000
  30
0.0
  11
 549.500
  21
 415.000
  31
0.0
   0
LINE
   8
LEVEL001
   6
CONTINUOUS
  62
7
  10
 644.000
  20
 415.000
  30
0.0
  11
 644.000
  21
 410.268
  31
0.0
   0
LINE
   8
LEVEL001
   6
CONTINUOUS
  62
7
  10
 643.000
  20
 415.000
  30
0.0
  11
 643.000
  21
 414.000
  31
0.0
   0
LINE
   8
LEVEL001
   6
CONTINUOUS
  62
7
  10
 556.000
  20
 415.000
  30
0.0
  11
 556.000
  21
 410.268
  31
0.0
   0
LINE
   8
LEVEL001
   6
CONTINUOUS
  62
7
  10
 557.000
  20
 415.000
  30
0.0
  11
 557.000
  21
 414.000
  31
0.0
   0
LINE
   8
LEVEL001
   6
CONTINUOUS
  62
7
  10
 644.550
  20
 408.215
  30
0.0
  11
 555.450
  21
 408.215
  31
0.0
   0
LINE
   8
LEVEL001
   6
CONTINUOUS
  62
7
  10
 556.000
  20
 410.268
  30
0.0
  11
 644.000
  21
 410.268
  31
0.0
   0
LINE
   8
LEVEL001
   6
CONTINUOUS
  62
7
  10
 644.000
  20
 414.000
  30
0.0
  11
 556.000
  21
 414.000
  31
0.0
   0
LINE
   8
LEVEL001
   6
CONTINUOUS
  62
7
  10
 652.500
  20
 417.000
  30
0.0
  11
 547.500
  21
 417.000
  31
0.0
   0
LINE
   8
LEVEL001
   6
CONTINUOUS
  62
7
  10
 737.500
  20
 440.000
  30
0.0
  11
 737.500
  21
 455.000
  31
0.0
   0
LINE
   8
LEVEL001
   6
CONTINUOUS
  62
7
  10
 412.500
  20
 440.000
  30
0.0
  11
 737.500
  21
 440.000
  31
0.0
   0
LINE
   8
LEVEL001
   6
CONTINUOUS
  62
7
  10
 571.000
  20
 740.000
  30
0.0
  11
 570.000
  21
 739.000
  31
0.0
   0
LINE
   8
LEVEL001
   6
CONTINUOUS
  62
7
  10
 570.000
  20
 739.000
  30
0.0
  11
 570.000
  21
 685.000
  31
0.0
   0
LINE
   8
LEVEL001
   6
CONTINUOUS
  62
7
  10
 629.000
  20
 740.000
  30
0.0
  11
 630.000
  21
 739.000
  31
0.0
   0
LINE
   8
LEVEL001
   6
CONTINUOUS
  62
7
  10
 630.000
  20
 739.000
  30
0.0
  11
 630.000
  21
 685.000
  31
0.0
   0
LINE
   8
LEVEL001
   6
CONTINUOUS
  62
7
  10
 592.000
  20
 683.468
  30
0.0
  11
 592.000
  21
 645.000
  31
0.0
   0
LINE
   8
LEVEL001
   6
CONTINUOUS
  62
7
  10
 608.000
  20
 683.468
  30
0.0
  11
 608.000
  21
 645.000
  31
0.0
   0
LINE
   8
LEVEL001
   6
CONTINUOUS
  62
7
  10
 648.612
  20
 645.000
  30
0.0
  11
 551.388
  21
 645.000
  31
0.0
   0
LINE
   8
LEVEL001
   6
CONTINUOUS
  62
7
  10
 632.500
  20
 648.000
  30
0.0
  11
 608.000
  21
 648.000
  31
0.0
   0
LINE
   8
LEVEL001
   6
CONTINUOUS
  62
7
  10
 592.000
  20
 648.000
  30
0.0
  11
 567.500
  21
 648.000
  31
0.0
   0
LINE
   8
LEVEL001
   6
CONTINUOUS
  62
7
  10
 632.500
  20
 679.500
  30
0.0
  11
 632.500
  21
 645.000
  31
0.0
   0
LINE
   8
LEVEL001
   6
CONTINUOUS
  62
7
  10
 567.500
  20
 679.500
  30
0.0
  11
 567.500
  21
 645.000
  31
0.0
   0
LINE
   8
LEVEL001
   6
CONTINUOUS
  62
7
  10
 507.500
  20
 530.000
  30
0.0
  11
 515.500
  21
 530.000
  31
0.0
   0
LINE
   8
LEVEL001
   6
CONTINUOUS
  62
7
  10
 515.500
  20
 530.000
  30
0.0
  11
 515.500
  21
 537.000
  31
0.0
   0
LINE
   8
LEVEL001
   6
CONTINUOUS
  62
7
  10
 507.500
  20
 530.000
  30
0.0
  11
 507.500
  21
 537.000
  31
0.0
   0
ARC
   8
LEVEL001
   6
CONTINUOUS
  62
7
  10
 511.500
  20
 520.000
  30
0.0
  40
 14.0000
  50
 106.602
  51
 73.3980
   0
LINE
   8
LEVEL001
   6
CONTINUOUS
  62
7
  10
 507.500
  20
 537.000
  30
0.0
  11
 515.500
  21
 537.000
  31
0.0
   0
LINE
   8
LEVEL001
   6
CONTINUOUS
  62
7
  10
 706.000
  20
 590.500
  30
0.0
  11
 494.000
  21
 590.500
  31
0.0
   0
LINE
   8
LEVEL001
   6
CONTINUOUS
  62
7
  10
 705.000
  20
 590.000
  30
0.0
  11
 495.000
  21
 590.000
  31
0.0
   0
LINE
   8
LEVEL001
   6
CONTINUOUS
  62
7
  10
 704.000
  20
 605.500
  30
0.0
  11
 496.000
  21
 605.500
  31
0.0
   0
CIRCLE
   8
LEVEL001
   6
CONTINUOUS
  62
7
  10
 511.500
  20
 520.000
  30
0.0
  40
 48.0000
   0
ARC
   8
LEVEL001
   6
CONTINUOUS
  62
7
  10
 511.500
  20
 520.000
  30
0.0
  40
 15.0000
  50
 105.563
  51
 74.6126
   0
CIRCLE
   8
LEVEL001
   6
CONTINUOUS
  62
7
  10
 511.500
  20
 520.000
  30
0.0
  40
 22.5000
   0
ARC
   8
LEVEL001
   6
CONTINUOUS
  62
7
  10
 511.500
  20
 520.000
  30
0.0
  40
 13.0000
  50
 107.927
  51
 71.9705
   0
LINE
   8
LEVEL001
   6
CONTINUOUS
  62
7
  10
 530.047
  20
 617.500
  30
0.0
  11
 531.259
  21
 616.800
  31
0.0
   0
LINE
   8
LEVEL001
   6
CONTINUOUS
  62
7
  10
 511.471
  20
 617.500
  30
0.0
  11
 530.047
  21
 617.500
  31
0.0
   0
LINE
   8
LEVEL001
   6
CONTINUOUS
  62
7
  10
 510.259
  20
 616.800
  30
0.0
  11
 511.471
  21
 617.500
  31
0.0
   0
LINE
   8
LEVEL001
   6
CONTINUOUS
  62
7
  10
 531.259
  20
 616.800
  30
0.0
  11
 510.259
  21
 616.800
  31
0.0
   0
LINE
   8
LEVEL001
   6
CONTINUOUS
  62
7
  10
 510.259
  20
 605.500
  30
0.0
  11
 510.259
  21
 616.800
  31
0.0
   0
LINE
   8
LEVEL001
   6
CONTINUOUS
  62
7
  10
 531.259
  20
 616.800
  30
0.0
  11
 531.259
  21
 605.500
  31
0.0
   0
LINE
   8
LEVEL001
   6
CONTINUOUS
  62
7
  10
 609.288
  20
 617.500
  30
0.0
  11
 610.500
  21
 616.800
  31
0.0
   0
LINE
   8
LEVEL001
   6
CONTINUOUS
  62
7
  10
 590.712
  20
 617.500
  30
0.0
  11
 609.288
  21
 617.500
  31
0.0
   0
LINE
   8
LEVEL001
   6
CONTINUOUS
  62
7
  10
 589.500
  20
 616.800
  30
0.0
  11
 590.712
  21
 617.500
  31
0.0
   0
LINE
   8
LEVEL001
   6
CONTINUOUS
  62
7
  10
 610.500
  20
 616.800
  30
0.0
  11
 589.500
  21
 616.800
  31
0.0
   0
LINE
   8
LEVEL001
   6
CONTINUOUS
  62
7
  10
 589.500
  20
 605.500
  30
0.0
  11
 589.500
  21
 616.800
  31
0.0
   0
LINE
   8
LEVEL001
   6
CONTINUOUS
  62
7
  10
 610.500
  20
 616.800
  30
0.0
  11
 610.500
  21
 605.500
  31
0.0
   0
LINE
   8
LEVEL001
   6
CONTINUOUS
  62
7
  10
 688.529
  20
 617.500
  30
0.0
  11
 689.741
  21
 616.800
  31
0.0
   0
LINE
   8
LEVEL001
   6
CONTINUOUS
  62
7
  10
 669.953
  20
 617.500
  30
0.0
  11
 688.529
  21
 617.500
  31
0.0
   0
LINE
   8
LEVEL001
   6
CONTINUOUS
  62
7
  10
 668.741
  20
 616.800
  30
0.0
  11
 669.953
  21
 617.500
  31
0.0
   0
LINE
   8
LEVEL001
   6
CONTINUOUS
  62
7
  10
 689.741
  20
 616.800
  30
0.0
  11
 668.741
  21
 616.800
  31
0.0
   0
LINE
   8
LEVEL001
   6
CONTINUOUS
  62
7
  10
 668.741
  20
 605.500
  30
0.0
  11
 668.741
  21
 616.800
  31
0.0
   0
LINE
   8
LEVEL001
   6
CONTINUOUS
  62
7
  10
 689.741
  20
 616.800
  30
0.0
  11
 689.741
  21
 605.500
  31
0.0
   0
CIRCLE
   8
LEVEL001
   6
CONTINUOUS
  62
7
  10
 600.000
  20
 635.000
  30
0.0
  40
 7.00000
   0
CIRCLE
   8
LEVEL001
   6
CONTINUOUS
  62
7
  10
 600.000
  20
 635.000
  30
0.0
  40
 6.50000
   0
LINE
   8
LEVEL001
   6
CONTINUOUS
  62
7
  10
 600.000
  20
 638.464
  30
0.0
  11
 597.000
  21
 636.732
  31
0.0
   0
LINE
   8
LEVEL001
   6
CONTINUOUS
  62
7
  10
 597.000
  20
 636.732
  30
0.0
  11
 597.000
  21
 633.268
  31
0.0
   0
LINE
   8
LEVEL001
   6
CONTINUOUS
  62
7
  10
 597.000
  20
 633.268
  30
0.0
  11
 600.000
  21
 631.536
  31
0.0
   0
LINE
   8
LEVEL001
   6
CONTINUOUS
  62
7
  10
 600.000
  20
 631.536
  30
0.0
  11
 603.000
  21
 633.268
  31
0.0
   0
LINE
   8
LEVEL001
   6
CONTINUOUS
  62
7
  10
 603.000
  20
 633.268
  30
0.0
  11
 603.000
  21
 636.732
  31
0.0
   0
LINE
   8
LEVEL001
   6
CONTINUOUS
  62
7
  10
 603.000
  20
 636.732
  30
0.0
  11
 600.000
  21
 638.464
  31
0.0
   0
LINE
   8
LEVEL001
   6
CONTINUOUS
  62
7
  10
 600.000
  20
 620.464
  30
0.0
  11
 597.000
  21
 618.732
  31
0.0
   0
LINE
   8
LEVEL001
   6
CONTINUOUS
  62
7
  10
 603.000
  20
 618.732
  30
0.0
  11
 600.000
  21
 620.464
  31
0.0
   0
ARC
   8
LEVEL001
   6
CONTINUOUS
  62
7
  10
 600.000
  20
 617.000
  30
0.0
  40
 6.50000
  50
 4.41173
  51
 175.588
   0
ARC
   8
LEVEL001
   6
CONTINUOUS
  62
7
  10
 600.000
  20
 617.000
  30
0.0
  40
 7.00000
  50
 4.09604
  51
 175.904
   0
LINE
   8
LEVEL001
   6
CONTINUOUS
  62
7
  10
 597.000
  20
 618.732
  30
0.0
  11
 597.000
  21
 617.500
  31
0.0
   0
LINE
   8
LEVEL001
   6
CONTINUOUS
  62
7
  10
 603.000
  20
 617.500
  30
0.0
  11
 603.000
  21
 618.732
  31
0.0
   0
CIRCLE
   8
LEVEL001
   6
CONTINUOUS
  62
7
  10
 539.077
  20
 547.577
  30
0.0
  40
 7.00000
   0
CIRCLE
   8
LEVEL001
   6
CONTINUOUS
  62
7
  10
 539.077
  20
 547.577
  30
0.0
  40
 6.50000
   0
LINE
   8
LEVEL001
   6
CONTINUOUS
  62
7
  10
 538.181
  20
 550.923
  30
0.0
  11
 535.731
  21
 548.474
  31
0.0
   0
LINE
   8
LEVEL001
   6
CONTINUOUS
  62
7
  10
 535.731
  20
 548.474
  30
0.0
  11
 536.628
  21
 545.128
  31
0.0
   0
LINE
   8
LEVEL001
   6
CONTINUOUS
  62
7
  10
 536.628
  20
 545.128
  30
0.0
  11
 539.974
  21
 544.231
  31
0.0
   0
LINE
   8
LEVEL001
   6
CONTINUOUS
  62
7
  10
 539.974
  20
 544.231
  30
0.0
  11
 542.423
  21
 546.681
  31
0.0
   0
LINE
   8
LEVEL001
   6
CONTINUOUS
  62
7
  10
 542.423
  20
 546.681
  30
0.0
  11
 541.527
  21
 550.027
  31
0.0
   0
LINE
   8
LEVEL001
   6
CONTINUOUS
  62
7
  10
 541.527
  20
 550.027
  30
0.0
  11
 538.181
  21
 550.923
  31
0.0
   0
CIRCLE
   8
LEVEL001
   6
CONTINUOUS
  62
7
  10
 483.923
  20
 492.423
  30
0.0
  40
 7.00000
   0
CIRCLE
   8
LEVEL001
   6
CONTINUOUS
  62
7
  10
 483.923
  20
 492.423
  30
0.0
  40
 6.50000
   0
LINE
   8
LEVEL001
   6
CONTINUOUS
  62
7
  10
 483.026
  20
 495.769
  30
0.0
  11
 480.577
  21
 493.319
  31
0.0
   0
LINE
   8
LEVEL001
   6
CONTINUOUS
  62
7
  10
 480.577
  20
 493.319
  30
0.0
  11
 481.473
  21
 489.973
  31
0.0
   0
LINE
   8
LEVEL001
   6
CONTINUOUS
  62
7
  10
 481.473
  20
 489.973
  30
0.0
  11
 484.819
  21
 489.077
  31
0.0
   0
LINE
   8
LEVEL001
   6
CONTINUOUS
  62
7
  10
 484.819
  20
 489.077
  30
0.0
  11
 487.269
  21
 491.526
  31
0.0
   0
LINE
   8
LEVEL001
   6
CONTINUOUS
  62
7
  10
 487.269
  20
 491.526
  30
0.0
  11
 486.372
  21
 494.872
  31
0.0
   0
LINE
   8
LEVEL001
   6
CONTINUOUS
  62
7
  10
 486.372
  20
 494.872
  30
0.0
  11
 483.026
  21
 495.769
  31
0.0
   0
CIRCLE
   8
LEVEL001
   6
CONTINUOUS
  62
7
  10
 483.923
  20
 547.577
  30
0.0
  40
 7.00000
   0
CIRCLE
   8
LEVEL001
   6
CONTINUOUS
  62
7
  10
 483.923
  20
 547.577
  30
0.0
  40
 6.50000
   0
LINE
   8
LEVEL001
   6
CONTINUOUS
  62
7
  10
 484.819
  20
 550.923
  30
0.0
  11
 481.473
  21
 550.027
  31
0.0
   0
LINE
   8
LEVEL001
   6
CONTINUOUS
  62
7
  10
 481.473
  20
 550.027
  30
0.0
  11
 480.577
  21
 546.681
  31
0.0
   0
LINE
   8
LEVEL001
   6
CONTINUOUS
  62
7
  10
 480.577
  20
 546.681
  30
0.0
  11
 483.026
  21
 544.231
  31
0.0
   0
LINE
   8
LEVEL001
   6
CONTINUOUS
  62
7
  10
 483.026
  20
 544.231
  30
0.0
  11
 486.372
  21
 545.128
  31
0.0
   0
LINE
   8
LEVEL001
   6
CONTINUOUS
  62
7
  10
 486.372
  20
 545.128
  30
0.0
  11
 487.269
  21
 548.474
  31
0.0
   0
LINE
   8
LEVEL001
   6
CONTINUOUS
  62
7
  10
 487.269
  20
 548.474
  30
0.0
  11
 484.819
  21
 550.923
  31
0.0
   0
CIRCLE
   8
LEVEL001
   6
CONTINUOUS
  62
7
  10
 539.077
  20
 492.423
  30
0.0
  40
 7.00000
   0
CIRCLE
   8
LEVEL001
   6
CONTINUOUS
  62
7
  10
 539.077
  20
 492.423
  30
0.0
  40
 6.50000
   0
LINE
   8
LEVEL001
   6
CONTINUOUS
  62
7
  10
 539.974
  20
 495.769
  30
0.0
  11
 536.628
  21
 494.872
  31
0.0
   0
LINE
   8
LEVEL001
   6
CONTINUOUS
  62
7
  10
 536.628
  20
 494.872
  30
0.0
  11
 535.731
  21
 491.526
  31
0.0
   0
LINE
   8
LEVEL001
   6
CONTINUOUS
  62
7
  10
 535.731
  20
 491.526
  30
0.0
  11
 538.181
  21
 489.077
  31
0.0
   0
LINE
   8
LEVEL001
   6
CONTINUOUS
  62
7
  10
 538.181
  20
 489.077
  30
0.0
  11
 541.527
  21
 489.973
  31
0.0
   0
LINE
   8
LEVEL001
   6
CONTINUOUS
  62
7
  10
 541.527
  20
 489.973
  30
0.0
  11
 542.423
  21
 493.319
  31
0.0
   0
LINE
   8
LEVEL001
   6
CONTINUOUS
  62
7
  10
 542.423
  20
 493.319
  30
0.0
  11
 539.974
  21
 495.769
  31
0.0
   0
LINE
   8
LEVEL001
   6
CONTINUOUS
  62
7
  10
 578.127
  20
 540.009
  30
0.0
  11
 689.306
  21
 540.009
  31
0.0
   0
LINE
   8
LEVEL001
   6
CONTINUOUS
  62
7
  10
 552.941
  20
 562.630
  30
0.0
  11
 701.070
  21
 562.630
  31
0.0
   0
LINE
   8
LEVEL001
   6
CONTINUOUS
  62
7
  10
 164.431
  20
 567.920
  30
0.0
  11
 108.000
  21
 567.000
  31
0.0
   0
LINE
   8
LEVEL001
   6
CONTINUOUS
  62
7
  10
 233.646
  20
 567.951
  30
0.0
  11
 292.000
  21
 567.000
  31
0.0
   0
CIRCLE
   8
LEVEL001
   6
CONTINUOUS
  62
7
  10
 550.500
  20
 520.000
  30
0.0
  40
 3.00000
   0
CIRCLE
   8
LEVEL001
   6
CONTINUOUS
  62
7
  10
 550.500
  20
 520.000
  30
0.0
  40
 2.50000
   0
CIRCLE
   8
LEVEL001
   6
CONTINUOUS
  62
7
  10
 472.500
  20
 520.000
  30
0.0
  40
 3.00000
   0
CIRCLE
   8
LEVEL001
   6
CONTINUOUS
  62
7
  10
 472.500
  20
 520.000
  30
0.0
  40
 2.50000
   0
LINE
   8
LEVEL001
   6
CONTINUOUS
  62
7
  10
 121.836
  20
 467.000
  30
0.0
  11
 179.430
  21
 467.000
  31
0.0
   0
LINE
   8
LEVEL001
   6
CONTINUOUS
  62
7
  10
 278.164
  20
 467.000
  30
0.0
  11
 220.570
  21
 467.000
  31
0.0
   0
LINE
   8
LEVEL001
   6
CONTINUOUS
  62
7
  10
 192.500
  20
 520.081
  30
0.0
  11
 192.500
  21
 465.000
  31
0.0
   0
ARC
   8
LEVEL001
   6
CONTINUOUS
  62
7
  10
 187.500
  20
 520.081
  30
0.0
  40
 5.00000
  50
0.0
  51
 90.0000
   0
LINE
   8
LEVEL001
   6
CONTINUOUS
  62
7
  10
 207.500
  20
 520.081
  30
0.0
  11
 207.500
  21
 465.000
  31
0.0
   0
ARC
   8
LEVEL001
   6
CONTINUOUS
  62
7
  10
 212.500
  20
 520.081
  30
0.0
  40
 5.00000
  50
 90.0000
  51
 180.000
   0
LINE
   8
LEVEL001
   6
CONTINUOUS
  62
7
  10
 206.882
  20
 561.042
  30
0.0
  11
 229.000
  21
 567.000
  31
0.0
   0
LINE
   8
LEVEL001
   6
CONTINUOUS
  62
7
  10
 193.118
  20
 561.042
  30
0.0
  11
 171.000
  21
 567.000
  31
0.0
   0
LINE
   8
LEVEL001
   6
CONTINUOUS
  62
7
  10
 463.000
  20
 525.723
  30
0.0
  11
 463.303
  21
 525.713
  31
0.0
   0
LINE
   8
LEVEL001
   6
CONTINUOUS
  62
7
  10
 462.116
  20
 526.606
  30
0.0
  11
 463.000
  21
 525.723
  31
0.0
   0
LINE
   8
LEVEL001
   6
CONTINUOUS
  62
7
  10
 463.000
  20
 514.277
  30
0.0
  11
 463.303
  21
 514.287
  31
0.0
   0
LINE
   8
LEVEL001
   6
CONTINUOUS
  62
7
  10
 462.116
  20
 513.394
  30
0.0
  11
 463.000
  21
 514.277
  31
0.0
   0
LINE
   8
LEVEL001
   6
CONTINUOUS
  62
7
  10
 444.364
  20
 531.561
  30
0.0
  11
 446.581
  21
 532.479
  31
0.0
   0
LINE
   8
LEVEL001
   6
CONTINUOUS
  62
7
  10
 444.565
  20
 528.722
  30
0.0
  11
 444.364
  21
 531.561
  31
0.0
   0
LINE
   8
LEVEL001
   6
CONTINUOUS
  62
7
  10
 447.614
  20
 529.985
  30
0.0
  11
 444.565
  21
 528.722
  31
0.0
   0
LINE
   8
LEVEL001
   6
CONTINUOUS
  62
7
  10
 450.663
  20
 531.248
  30
0.0
  11
 447.614
  21
 529.985
  31
0.0
   0
LINE
   8
LEVEL001
   6
CONTINUOUS
  62
7
  10
 448.798
  20
 533.398
  30
0.0
  11
 450.663
  21
 531.248
  31
0.0
   0
LINE
   8
LEVEL001
   6
CONTINUOUS
  62
7
  10
 446.581
  20
 532.479
  30
0.0
  11
 448.798
  21
 533.398
  31
0.0
   0
LINE
   8
LEVEL001
   6
CONTINUOUS
  62
7
  10
 452.616
  20
 528.471
  30
0.0
  11
 453.295
  21
 526.831
  31
0.0
   0
LINE
   8
LEVEL001
   6
CONTINUOUS
  62
7
  10
 451.996
  20
 528.553
  30
0.0
  11
 452.616
  21
 528.471
  31
0.0
   0
LINE
   8
LEVEL001
   6
CONTINUOUS
  62
7
  10
 445.529
  20
 525.874
  30
0.0
  11
 451.996
  21
 528.553
  31
0.0
   0
LINE
   8
LEVEL001
   6
CONTINUOUS
  62
7
  10
 445.148
  20
 525.378
  30
0.0
  11
 445.529
  21
 525.874
  31
0.0
   0
LINE
   8
LEVEL001
   6
CONTINUOUS
  62
7
  10
 445.827
  20
 523.738
  30
0.0
  11
 445.148
  21
 525.378
  31
0.0
   0
LINE
   8
LEVEL001
   6
CONTINUOUS
  62
7
  10
 446.447
  20
 523.656
  30
0.0
  11
 445.827
  21
 523.738
  31
0.0
   0
LINE
   8
LEVEL001
   6
CONTINUOUS
  62
7
  10
 452.914
  20
 526.335
  30
0.0
  11
 446.447
  21
 523.656
  31
0.0
   0
LINE
   8
LEVEL001
   6
CONTINUOUS
  62
7
  10
 453.295
  20
 526.831
  30
0.0
  11
 452.914
  21
 526.335
  31
0.0
   0
LINE
   8
LEVEL001
   6
CONTINUOUS
  62
7
  10
 462.116
  20
 527.000
  30
0.0
  11
 457.750
  21
 527.000
  31
0.0
   0
LINE
   8
LEVEL001
   6
CONTINUOUS
  62
7
  10
 462.116
  20
 513.000
  30
0.0
  11
 462.116
  21
 527.000
  31
0.0
   0
LINE
   8
LEVEL001
   6
CONTINUOUS
  62
7
  10
 457.750
  20
 513.000
  30
0.0
  11
 462.116
  21
 513.000
  31
0.0
   0
LINE
   8
LEVEL001
   6
CONTINUOUS
  62
7
  10
 463.401
  20
 526.566
  30
0.0
  11
 462.116
  21
 526.606
  31
0.0
   0
LINE
   8
LEVEL001
   6
CONTINUOUS
  62
7
  10
 462.116
  20
 513.394
  30
0.0
  11
 463.401
  21
 513.434
  31
0.0
   0
ARC
   8
LEVEL001
   6
CONTINUOUS
  62
7
  10
 452.007
  20
 516.500
  30
0.0
  40
 10.1093
  50
 339.744
  51
 20.2560
   0
ARC
   8
LEVEL001
   6
CONTINUOUS
  62
7
  10
 452.007
  20
 523.500
  30
0.0
  40
 10.1093
  50
 339.744
  51
 20.2560
   0
ARC
   8
LEVEL001
   6
CONTINUOUS
  62
7
  10
 447.614
  20
 529.985
  30
0.0
  40
 3.30000
  50
 202.500
  51
 228.418
   0
ARC
   8
LEVEL001
   6
CONTINUOUS
  62
7
  10
 444.893
  20
 526.918
  30
0.0
  40
 0.800000
  50
 357.576
  51
 48.4260
   0
LINE
   8
LEVEL001
   6
CONTINUOUS
  62
7
  10
 452.914
  20
 526.335
  30
0.0
  11
 457.366
  21
 526.335
  31
0.0
   0
LINE
   8
LEVEL001
   6
CONTINUOUS
  62
7
  10
 450.965
  20
 529.440
  30
0.0
  11
 445.641
  21
 527.235
  31
0.0
   0
ARC
   8
LEVEL001
   6
CONTINUOUS
  62
7
  10
 455.225
  20
 533.570
  30
0.0
  40
 6.00000
  50
 227.431
  51
 237.017
   0
ARC
   8
LEVEL001
   6
CONTINUOUS
  62
7
  10
 447.614
  20
 529.985
  30
0.0
  40
 3.30000
  50
 356.582
  51
 22.5000
   0
ARC
   8
LEVEL001
   6
CONTINUOUS
  62
7
  10
 451.321
  20
 521.035
  30
0.0
  40
 6.68738
  50
 94.9120
  51
 130.088
   0
ARC
   8
LEVEL001
   6
CONTINUOUS
  62
7
  10
 453.131
  20
 525.560
  30
0.0
  40
 3.20000
  50
 110.768
  51
 138.098
   0
ARC
   8
LEVEL001
   6
CONTINUOUS
  62
7
  10
 446.677
  20
 532.248
  30
0.0
  40
 1.00000
  50
 36.9770
  51
 188.021
   0
ARC
   8
LEVEL001
   6
CONTINUOUS
  62
7
  10
 451.707
  20
 529.740
  30
0.0
  40
 0.800000
  50
 176.573
  51
 227.428
   0
ARC
   8
LEVEL001
   6
CONTINUOUS
  62
7
  10
 439.698
  20
 527.139
  30
0.0
  40
 6.00000
  50
 347.981
  51
 357.567
   0
LINE
   8
LEVEL001
   6
CONTINUOUS
  62
7
  10
 449.604
  20
 513.665
  30
0.0
  11
 457.366
  21
 513.665
  31
0.0
   0
LINE
   8
LEVEL001
   6
CONTINUOUS
  62
7
  10
 447.694
  20
 524.511
  30
0.0
  11
 447.015
  21
 526.151
  31
0.0
   0
LINE
   8
LEVEL001
   6
CONTINUOUS
  62
7
  10
 451.428
  20
 526.058
  30
0.0
  11
 450.749
  21
 527.698
  31
0.0
   0
ARC
   8
LEVEL001
   6
CONTINUOUS
  62
7
  10
 455.688
  20
 520.000
  30
0.0
  40
 9.93811
  50
 158.413
  51
 208.731
   0
ARC
   8
LEVEL001
   6
CONTINUOUS
  62
7
  10
 449.604
  20
 516.665
  30
0.0
  40
 3.00000
  50
 208.731
  51
 270.000
   0
ARC
   8
LEVEL001
   6
CONTINUOUS
  62
7
  10
 447.614
  20
 529.985
  30
0.0
  40
 6.43506
  50
 259.551
  51
 325.449
   0
ARC
   8
LEVEL001
   6
CONTINUOUS
  62
7
  10
 447.122
  20
 531.174
  30
0.0
  40
 6.68738
  50
 274.912
  51
 310.088
   0
ARC
   8
LEVEL001
   6
CONTINUOUS
  62
7
  10
 446.842
  20
 522.956
  30
0.0
  40
 3.20000
  50
 86.9030
  51
 114.232
   0
ARC
   8
LEVEL001
   6
CONTINUOUS
  62
7
  10
 445.312
  20
 526.648
  30
0.0
  40
 3.20000
  50
 290.768
  51
 318.098
   0
ARC
   8
LEVEL001
   6
CONTINUOUS
  62
7
  10
 451.601
  20
 529.253
  30
0.0
  40
 3.20000
  50
 266.903
  51
 294.232
   0
LINE
   8
LEVEL001
   6
CONTINUOUS
  62
7
  10
 463.000
  20
 514.277
  30
0.0
  11
 463.000
  21
 525.723
  31
0.0
   0
LINE
   8
LEVEL001
   6
CONTINUOUS
  62
7
  10
 457.750
  20
 527.000
  30
0.0
  11
 457.366
  21
 526.335
  31
0.0
   0
LINE
   8
LEVEL001
   6
CONTINUOUS
  62
7
  10
 461.491
  20
 520.000
  30
0.0
  11
 458.342
  21
 520.000
  31
0.0
   0
LINE
   8
LEVEL001
   6
CONTINUOUS
  62
7
  10
 457.366
  20
 513.665
  30
0.0
  11
 457.366
  21
 526.335
  31
0.0
   0
LINE
   8
LEVEL001
   6
CONTINUOUS
  62
7
  10
 457.750
  20
 527.000
  30
0.0
  11
 457.750
  21
 513.000
  31
0.0
   0
LINE
   8
LEVEL001
   6
CONTINUOUS
  62
7
  10
 457.750
  20
 513.000
  30
0.0
  11
 457.366
  21
 513.665
  31
0.0
   0
ARC
   8
LEVEL001
   6
CONTINUOUS
  62
7
  10
 467.826
  20
 523.500
  30
0.0
  40
 10.1093
  50
 159.744
  51
 200.256
   0
ARC
   8
LEVEL001
   6
CONTINUOUS
  62
7
  10
 467.826
  20
 516.500
  30
0.0
  40
 10.1093
  50
 159.744
  51
 200.256
   0
LINE
   8
LEVEL001
   6
CONTINUOUS
  62
7
  10
 463.242
  20
 526.571
  30
0.0
  11
 463.971
  21
 529.732
  31
0.0
   0
LINE
   8
LEVEL001
   6
CONTINUOUS
  62
7
  10
 455.375
  20
 492.466
  30
0.0
  11
 460.112
  21
 513.000
  31
0.0
   0
LINE
   8
LEVEL001
   6
CONTINUOUS
  62
7
  10
 232.400
  20
 532.477
  30
0.0
  11
 232.391
  21
 532.557
  31
0.0
   0
LINE
   8
LEVEL001
   6
CONTINUOUS
  62
7
  10
 232.391
  20
 532.557
  30
0.0
  11
 232.364
  21
 532.637
  31
0.0
   0
LINE
   8
LEVEL001
   6
CONTINUOUS
  62
7
  10
 232.364
  20
 532.637
  30
0.0
  11
 232.318
  21
 532.715
  31
0.0
   0
LINE
   8
LEVEL001
   6
CONTINUOUS
  62
7
  10
 232.318
  20
 532.715
  30
0.0
  11
 232.255
  21
 532.792
  31
0.0
   0
LINE
   8
LEVEL001
   6
CONTINUOUS
  62
7
  10
 232.255
  20
 532.792
  30
0.0
  11
 232.175
  21
 532.866
  31
0.0
   0
LINE
   8
LEVEL001
   6
CONTINUOUS
  62
7
  10
 232.175
  20
 532.866
  30
0.0
  11
 232.078
  21
 532.937
  31
0.0
   0
LINE
   8
LEVEL001
   6
CONTINUOUS
  62
7
  10
 232.078
  20
 532.937
  30
0.0
  11
 231.966
  21
 533.004
  31
0.0
   0
LINE
   8
LEVEL001
   6
CONTINUOUS
  62
7
  10
 231.966
  20
 533.004
  30
0.0
  11
 231.839
  21
 533.068
  31
0.0
   0
LINE
   8
LEVEL001
   6
CONTINUOUS
  62
7
  10
 231.839
  20
 533.068
  30
0.0
  11
 231.697
  21
 533.127
  31
0.0
   0
LINE
   8
LEVEL001
   6
CONTINUOUS
  62
7
  10
 231.697
  20
 533.127
  30
0.0
  11
 231.543
  21
 533.181
  31
0.0
   0
LINE
   8
LEVEL001
   6
CONTINUOUS
  62
7
  10
 231.543
  20
 533.181
  30
0.0
  11
 231.377
  21
 533.230
  31
0.0
   0
LINE
   8
LEVEL001
   6
CONTINUOUS
  62
7
  10
 231.377
  20
 533.230
  30
0.0
  11
 231.200
  21
 533.273
  31
0.0
   0
LINE
   8
LEVEL001
   6
CONTINUOUS
  62
7
  10
 231.200
  20
 533.273
  30
0.0
  11
 231.014
  21
 533.310
  31
0.0
   0
LINE
   8
LEVEL001
   6
CONTINUOUS
  62
7
  10
 231.014
  20
 533.310
  30
0.0
  11
 230.821
  21
 533.340
  31
0.0
   0
LINE
   8
LEVEL001
   6
CONTINUOUS
  62
7
  10
 230.821
  20
 533.340
  30
0.0
  11
 230.621
  21
 533.365
  31
0.0
   0
LINE
   8
LEVEL001
   6
CONTINUOUS
  62
7
  10
 230.621
  20
 533.365
  30
0.0
  11
 230.417
  21
 533.382
  31
0.0
   0
LINE
   8
LEVEL001
   6
CONTINUOUS
  62
7
  10
 230.417
  20
 533.382
  30
0.0
  11
 230.209
  21
 533.392
  31
0.0
   0
LINE
   8
LEVEL001
   6
CONTINUOUS
  62
7
  10
 230.209
  20
 533.392
  30
0.0
  11
 230.000
  21
 533.396
  31
0.0
   0
LINE
   8
LEVEL001
   6
CONTINUOUS
  62
7
  10
 230.000
  20
 533.396
  30
0.0
  11
 229.791
  21
 533.392
  31
0.0
   0
LINE
   8
LEVEL001
   6
CONTINUOUS
  62
7
  10
 229.791
  20
 533.392
  30
0.0
  11
 229.583
  21
 533.382
  31
0.0
   0
LINE
   8
LEVEL001
   6
CONTINUOUS
  62
7
  10
 229.583
  20
 533.382
  30
0.0
  11
 229.379
  21
 533.365
  31
0.0
   0
LINE
   8
LEVEL001
   6
CONTINUOUS
  62
7
  10
 229.379
  20
 533.365
  30
0.0
  11
 229.179
  21
 533.340
  31
0.0
   0
LINE
   8
LEVEL001
   6
CONTINUOUS
  62
7
  10
 229.179
  20
 533.340
  30
0.0
  11
 228.986
  21
 533.310
  31
0.0
   0
LINE
   8
LEVEL001
   6
CONTINUOUS
  62
7
  10
 228.986
  20
 533.310
  30
0.0
  11
 228.800
  21
 533.273
  31
0.0
   0
LINE
   8
LEVEL001
   6
CONTINUOUS
  62
7
  10
 228.800
  20
 533.273
  30
0.0
  11
 228.623
  21
 533.230
  31
0.0
   0
LINE
   8
LEVEL001
   6
CONTINUOUS
  62
7
  10
 228.623
  20
 533.230
  30
0.0
  11
 228.457
  21
 533.181
  31
0.0
   0
LINE
   8
LEVEL001
   6
CONTINUOUS
  62
7
  10
 228.457
  20
 533.181
  30
0.0
  11
 228.303
  21
 533.127
  31
0.0
   0
LINE
   8
LEVEL001
   6
CONTINUOUS
  62
7
  10
 228.303
  20
 533.127
  30
0.0
  11
 228.161
  21
 533.068
  31
0.0
   0
LINE
   8
LEVEL001
   6
CONTINUOUS
  62
7
  10
 228.161
  20
 533.068
  30
0.0
  11
 228.034
  21
 533.004
  31
0.0
   0
LINE
   8
LEVEL001
   6
CONTINUOUS
  62
7
  10
 228.034
  20
 533.004
  30
0.0
  11
 227.922
  21
 532.937
  31
0.0
   0
LINE
   8
LEVEL001
   6
CONTINUOUS
  62
7
  10
 227.922
  20
 532.937
  30
0.0
  11
 227.825
  21
 532.866
  31
0.0
   0
LINE
   8
LEVEL001
   6
CONTINUOUS
  62
7
  10
 227.825
  20
 532.866
  30
0.0
  11
 227.745
  21
 532.792
  31
0.0
   0
LINE
   8
LEVEL001
   6
CONTINUOUS
  62
7
  10
 227.745
  20
 532.792
  30
0.0
  11
 227.682
  21
 532.715
  31
0.0
   0
LINE
   8
LEVEL001
   6
CONTINUOUS
  62
7
  10
 227.682
  20
 532.715
  30
0.0
  11
 227.636
  21
 532.637
  31
0.0
   0
LINE
   8
LEVEL001
   6
CONTINUOUS
  62
7
  10
 227.636
  20
 532.637
  30
0.0
  11
 227.609
  21
 532.557
  31
0.0
   0
LINE
   8
LEVEL001
   6
CONTINUOUS
  62
7
  10
 227.609
  20
 532.557
  30
0.0
  11
 227.600
  21
 532.477
  31
0.0
   0
LINE
   8
LEVEL001
   6
CONTINUOUS
  62
7
  10
 227.600
  20
 532.477
  30
0.0
  11
 227.609
  21
 532.397
  31
0.0
   0
LINE
   8
LEVEL001
   6
CONTINUOUS
  62
7
  10
 227.609
  20
 532.397
  30
0.0
  11
 227.636
  21
 532.318
  31
0.0
   0
LINE
   8
LEVEL001
   6
CONTINUOUS
  62
7
  10
 227.636
  20
 532.318
  30
0.0
  11
 227.682
  21
 532.240
  31
0.0
   0
LINE
   8
LEVEL001
   6
CONTINUOUS
  62
7
  10
 227.682
  20
 532.240
  30
0.0
  11
 227.745
  21
 532.163
  31
0.0
   0
LINE
   8
LEVEL001
   6
CONTINUOUS
  62
7
  10
 227.745
  20
 532.163
  30
0.0
  11
 227.825
  21
 532.089
  31
0.0
   0
LINE
   8
LEVEL001
   6
CONTINUOUS
  62
7
  10
 227.825
  20
 532.089
  30
0.0
  11
 227.922
  21
 532.018
  31
0.0
   0
LINE
   8
LEVEL001
   6
CONTINUOUS
  62
7
  10
 227.922
  20
 532.018
  30
0.0
  11
 228.034
  21
 531.951
  31
0.0
   0
LINE
   8
LEVEL001
   6
CONTINUOUS
  62
7
  10
 228.034
  20
 531.951
  30
0.0
  11
 228.161
  21
 531.887
  31
0.0
   0
LINE
   8
LEVEL001
   6
CONTINUOUS
  62
7
  10
 228.161
  20
 531.887
  30
0.0
  11
 228.303
  21
 531.828
  31
0.0
   0
LINE
   8
LEVEL001
   6
CONTINUOUS
  62
7
  10
 228.303
  20
 531.828
  30
0.0
  11
 228.457
  21
 531.774
  31
0.0
   0
LINE
   8
LEVEL001
   6
CONTINUOUS
  62
7
  10
 228.457
  20
 531.774
  30
0.0
  11
 228.623
  21
 531.725
  31
0.0
   0
LINE
   8
LEVEL001
   6
CONTINUOUS
  62
7
  10
 228.623
  20
 531.725
  30
0.0
  11
 228.800
  21
 531.682
  31
0.0
   0
LINE
   8
LEVEL001
   6
CONTINUOUS
  62
7
  10
 228.800
  20
 531.682
  30
0.0
  11
 228.986
  21
 531.645
  31
0.0
   0
LINE
   8
LEVEL001
   6
CONTINUOUS
  62
7
  10
 228.986
  20
 531.645
  30
0.0
  11
 229.179
  21
 531.614
  31
0.0
   0
LINE
   8
LEVEL001
   6
CONTINUOUS
  62
7
  10
 229.179
  20
 531.614
  30
0.0
  11
 229.379
  21
 531.590
  31
0.0
   0
LINE
   8
LEVEL001
   6
CONTINUOUS
  62
7
  10
 229.379
  20
 531.590
  30
0.0
  11
 229.583
  21
 531.573
  31
0.0
   0
LINE
   8
LEVEL001
   6
CONTINUOUS
  62
7
  10
 229.583
  20
 531.573
  30
0.0
  11
 229.791
  21
 531.562
  31
0.0
   0
LINE
   8
LEVEL001
   6
CONTINUOUS
  62
7
  10
 229.791
  20
 531.562
  30
0.0
  11
 230.000
  21
 531.559
  31
0.0
   0
LINE
   8
LEVEL001
   6
CONTINUOUS
  62
7
  10
 230.000
  20
 531.559
  30
0.0
  11
 230.209
  21
 531.562
  31
0.0
   0
LINE
   8
LEVEL001
   6
CONTINUOUS
  62
7
  10
 230.209
  20
 531.562
  30
0.0
  11
 230.417
  21
 531.573
  31
0.0
   0
LINE
   8
LEVEL001
   6
CONTINUOUS
  62
7
  10
 230.417
  20
 531.573
  30
0.0
  11
 230.621
  21
 531.590
  31
0.0
   0
LINE
   8
LEVEL001
   6
CONTINUOUS
  62
7
  10
 230.621
  20
 531.590
  30
0.0
  11
 230.821
  21
 531.614
  31
0.0
   0
LINE
   8
LEVEL001
   6
CONTINUOUS
  62
7
  10
 230.821
  20
 531.614
  30
0.0
  11
 231.014
  21
 531.645
  31
0.0
   0
LINE
   8
LEVEL001
   6
CONTINUOUS
  62
7
  10
 231.014
  20
 531.645
  30
0.0
  11
 231.200
  21
 531.682
  31
0.0
   0
LINE
   8
LEVEL001
   6
CONTINUOUS
  62
7
  10
 231.200
  20
 531.682
  30
0.0
  11
 231.377
  21
 531.725
  31
0.0
   0
LINE
   8
LEVEL001
   6
CONTINUOUS
  62
7
  10
 231.377
  20
 531.725
  30
0.0
  11
 231.543
  21
 531.774
  31
0.0
   0
LINE
   8
LEVEL001
   6
CONTINUOUS
  62
7
  10
 231.543
  20
 531.774
  30
0.0
  11
 231.697
  21
 531.828
  31
0.0
   0
LINE
   8
LEVEL001
   6
CONTINUOUS
  62
7
  10
 231.697
  20
 531.828
  30
0.0
  11
 231.839
  21
 531.887
  31
0.0
   0
LINE
   8
LEVEL001
   6
CONTINUOUS
  62
7
  10
 231.839
  20
 531.887
  30
0.0
  11
 231.966
  21
 531.951
  31
0.0
   0
LINE
   8
LEVEL001
   6
CONTINUOUS
  62
7
  10
 231.966
  20
 531.951
  30
0.0
  11
 232.078
  21
 532.018
  31
0.0
   0
LINE
   8
LEVEL001
   6
CONTINUOUS
  62
7
  10
 232.078
  20
 532.018
  30
0.0
  11
 232.175
  21
 532.089
  31
0.0
   0
LINE
   8
LEVEL001
   6
CONTINUOUS
  62
7
  10
 232.175
  20
 532.089
  30
0.0
  11
 232.255
  21
 532.163
  31
0.0
   0
LINE
   8
LEVEL001
   6
CONTINUOUS
  62
7
  10
 232.255
  20
 532.163
  30
0.0
  11
 232.318
  21
 532.240
  31
0.0
   0
LINE
   8
LEVEL001
   6
CONTINUOUS
  62
7
  10
 232.318
  20
 532.240
  30
0.0
  11
 232.364
  21
 532.318
  31
0.0
   0
LINE
   8
LEVEL001
   6
CONTINUOUS
  62
7
  10
 232.364
  20
 532.318
  30
0.0
  11
 232.391
  21
 532.397
  31
0.0
   0
LINE
   8
LEVEL001
   6
CONTINUOUS
  62
7
  10
 232.391
  20
 532.397
  30
0.0
  11
 232.400
  21
 532.477
  31
0.0
   0
LINE
   8
LEVEL001
   6
CONTINUOUS
  62
7
  10
 229.000
  20
 532.477
  30
0.0
  11
 229.001
  21
 532.461
  31
0.0
   0
LINE
   8
LEVEL001
   6
CONTINUOUS
  62
7
  10
 229.001
  20
 532.461
  30
0.0
  11
 229.004
  21
 532.444
  31
0.0
   0
LINE
   8
LEVEL001
   6
CONTINUOUS
  62
7
  10
 229.004
  20
 532.444
  30
0.0
  11
 229.009
  21
 532.427
  31
0.0
   0
LINE
   8
LEVEL001
   6
CONTINUOUS
  62
7
  10
 229.009
  20
 532.427
  30
0.0
  11
 229.015
  21
 532.411
  31
0.0
   0
LINE
   8
LEVEL001
   6
CONTINUOUS
  62
7
  10
 229.015
  20
 532.411
  30
0.0
  11
 229.024
  21
 532.395
  31
0.0
   0
LINE
   8
LEVEL001
   6
CONTINUOUS
  62
7
  10
 229.024
  20
 532.395
  30
0.0
  11
 229.034
  21
 532.378
  31
0.0
   0
LINE
   8
LEVEL001
   6
CONTINUOUS
  62
7
  10
 229.034
  20
 532.378
  30
0.0
  11
 229.046
  21
 532.362
  31
0.0
   0
LINE
   8
LEVEL001
   6
CONTINUOUS
  62
7
  10
 229.046
  20
 532.362
  30
0.0
  11
 229.060
  21
 532.347
  31
0.0
   0
LINE
   8
LEVEL001
   6
CONTINUOUS
  62
7
  10
 229.060
  20
 532.347
  30
0.0
  11
 229.076
  21
 532.331
  31
0.0
   0
LINE
   8
LEVEL001
   6
CONTINUOUS
  62
7
  10
 229.076
  20
 532.331
  30
0.0
  11
 229.094
  21
 532.316
  31
0.0
   0
LINE
   8
LEVEL001
   6
CONTINUOUS
  62
7
  10
 229.094
  20
 532.316
  30
0.0
  11
 229.113
  21
 532.301
  31
0.0
   0
LINE
   8
LEVEL001
   6
CONTINUOUS
  62
7
  10
 229.113
  20
 532.301
  30
0.0
  11
 229.134
  21
 532.286
  31
0.0
   0
LINE
   8
LEVEL001
   6
CONTINUOUS
  62
7
  10
 229.134
  20
 532.286
  30
0.0
  11
 229.157
  21
 532.272
  31
0.0
   0
LINE
   8
LEVEL001
   6
CONTINUOUS
  62
7
  10
 229.157
  20
 532.272
  30
0.0
  11
 229.181
  21
 532.258
  31
0.0
   0
LINE
   8
LEVEL001
   6
CONTINUOUS
  62
7
  10
 229.181
  20
 532.258
  30
0.0
  11
 229.207
  21
 532.244
  31
0.0
   0
LINE
   8
LEVEL001
   6
CONTINUOUS
  62
7
  10
 229.207
  20
 532.244
  30
0.0
  11
 229.234
  21
 532.231
  31
0.0
   0
LINE
   8
LEVEL001
   6
CONTINUOUS
  62
7
  10
 229.234
  20
 532.231
  30
0.0
  11
 229.263
  21
 532.219
  31
0.0
   0
LINE
   8
LEVEL001
   6
CONTINUOUS
  62
7
  10
 229.263
  20
 532.219
  30
0.0
  11
 229.293
  21
 532.207
  31
0.0
   0
LINE
   8
LEVEL001
   6
CONTINUOUS
  62
7
  10
 229.293
  20
 532.207
  30
0.0
  11
 229.324
  21
 532.195
  31
0.0
   0
LINE
   8
LEVEL001
   6
CONTINUOUS
  62
7
  10
 229.324
  20
 532.195
  30
0.0
  11
 229.357
  21
 532.184
  31
0.0
   0
LINE
   8
LEVEL001
   6
CONTINUOUS
  62
7
  10
 229.357
  20
 532.184
  30
0.0
  11
 229.391
  21
 532.174
  31
0.0
   0
LINE
   8
LEVEL001
   6
CONTINUOUS
  62
7
  10
 229.391
  20
 532.174
  30
0.0
  11
 229.426
  21
 532.164
  31
0.0
   0
LINE
   8
LEVEL001
   6
CONTINUOUS
  62
7
  10
 229.426
  20
 532.164
  30
0.0
  11
 229.463
  21
 532.155
  31
0.0
   0
LINE
   8
LEVEL001
   6
CONTINUOUS
  62
7
  10
 229.463
  20
 532.155
  30
0.0
  11
 229.500
  21
 532.146
  31
0.0
   0
LINE
   8
LEVEL001
   6
CONTINUOUS
  62
7
  10
 229.500
  20
 532.146
  30
0.0
  11
 229.538
  21
 532.138
  31
0.0
   0
LINE
   8
LEVEL001
   6
CONTINUOUS
  62
7
  10
 229.538
  20
 532.138
  30
0.0
  11
 229.577
  21
 532.131
  31
0.0
   0
LINE
   8
LEVEL001
   6
CONTINUOUS
  62
7
  10
 229.577
  20
 532.131
  30
0.0
  11
 229.617
  21
 532.124
  31
0.0
   0
LINE
   8
LEVEL001
   6
CONTINUOUS
  62
7
  10
 229.617
  20
 532.124
  30
0.0
  11
 229.658
  21
 532.118
  31
0.0
   0
LINE
   8
LEVEL001
   6
CONTINUOUS
  62
7
  10
 229.658
  20
 532.118
  30
0.0
  11
 229.699
  21
 532.112
  31
0.0
   0
LINE
   8
LEVEL001
   6
CONTINUOUS
  62
7
  10
 229.699
  20
 532.112
  30
0.0
  11
 229.741
  21
 532.108
  31
0.0
   0
LINE
   8
LEVEL001
   6
CONTINUOUS
  62
7
  10
 229.741
  20
 532.108
  30
0.0
  11
 229.784
  21
 532.104
  31
0.0
   0
LINE
   8
LEVEL001
   6
CONTINUOUS
  62
7
  10
 229.784
  20
 532.104
  30
0.0
  11
 229.826
  21
 532.101
  31
0.0
   0
LINE
   8
LEVEL001
   6
CONTINUOUS
  62
7
  10
 229.826
  20
 532.101
  30
0.0
  11
 229.869
  21
 532.098
  31
0.0
   0
LINE
   8
LEVEL001
   6
CONTINUOUS
  62
7
  10
 229.869
  20
 532.098
  30
0.0
  11
 229.913
  21
 532.096
  31
0.0
   0
LINE
   8
LEVEL001
   6
CONTINUOUS
  62
7
  10
 229.913
  20
 532.096
  30
0.0
  11
 229.956
  21
 532.095
  31
0.0
   0
LINE
   8
LEVEL001
   6
CONTINUOUS
  62
7
  10
 229.956
  20
 532.095
  30
0.0
  11
 230.000
  21
 532.095
  31
0.0
   0
LINE
   8
LEVEL001
   6
CONTINUOUS
  62
7
  10
 230.000
  20
 532.095
  30
0.0
  11
 230.044
  21
 532.095
  31
0.0
   0
LINE
   8
LEVEL001
   6
CONTINUOUS
  62
7
  10
 230.044
  20
 532.095
  30
0.0
  11
 230.087
  21
 532.096
  31
0.0
   0
LINE
   8
LEVEL001
   6
CONTINUOUS
  62
7
  10
 230.087
  20
 532.096
  30
0.0
  11
 230.131
  21
 532.098
  31
0.0
   0
LINE
   8
LEVEL001
   6
CONTINUOUS
  62
7
  10
 230.131
  20
 532.098
  30
0.0
  11
 230.174
  21
 532.101
  31
0.0
   0
LINE
   8
LEVEL001
   6
CONTINUOUS
  62
7
  10
 230.174
  20
 532.101
  30
0.0
  11
 230.216
  21
 532.104
  31
0.0
   0
LINE
   8
LEVEL001
   6
CONTINUOUS
  62
7
  10
 230.216
  20
 532.104
  30
0.0
  11
 230.259
  21
 532.108
  31
0.0
   0
LINE
   8
LEVEL001
   6
CONTINUOUS
  62
7
  10
 230.259
  20
 532.108
  30
0.0
  11
 230.301
  21
 532.112
  31
0.0
   0
LINE
   8
LEVEL001
   6
CONTINUOUS
  62
7
  10
 230.301
  20
 532.112
  30
0.0
  11
 230.342
  21
 532.118
  31
0.0
   0
LINE
   8
LEVEL001
   6
CONTINUOUS
  62
7
  10
 230.342
  20
 532.118
  30
0.0
  11
 230.383
  21
 532.124
  31
0.0
   0
LINE
   8
LEVEL001
   6
CONTINUOUS
  62
7
  10
 230.383
  20
 532.124
  30
0.0
  11
 230.423
  21
 532.131
  31
0.0
   0
LINE
   8
LEVEL001
   6
CONTINUOUS
  62
7
  10
 230.423
  20
 532.131
  30
0.0
  11
 230.462
  21
 532.138
  31
0.0
   0
LINE
   8
LEVEL001
   6
CONTINUOUS
  62
7
  10
 230.462
  20
 532.138
  30
0.0
  11
 230.500
  21
 532.146
  31
0.0
   0
LINE
   8
LEVEL001
   6
CONTINUOUS
  62
7
  10
 230.500
  20
 532.146
  30
0.0
  11
 230.537
  21
 532.155
  31
0.0
   0
LINE
   8
LEVEL001
   6
CONTINUOUS
  62
7
  10
 230.537
  20
 532.155
  30
0.0
  11
 230.574
  21
 532.164
  31
0.0
   0
LINE
   8
LEVEL001
   6
CONTINUOUS
  62
7
  10
 230.574
  20
 532.164
  30
0.0
  11
 230.609
  21
 532.174
  31
0.0
   0
LINE
   8
LEVEL001
   6
CONTINUOUS
  62
7
  10
 230.609
  20
 532.174
  30
0.0
  11
 230.643
  21
 532.184
  31
0.0
   0
LINE
   8
LEVEL001
   6
CONTINUOUS
  62
7
  10
 230.643
  20
 532.184
  30
0.0
  11
 230.676
  21
 532.195
  31
0.0
   0
LINE
   8
LEVEL001
   6
CONTINUOUS
  62
7
  10
 230.676
  20
 532.195
  30
0.0
  11
 230.707
  21
 532.207
  31
0.0
   0
LINE
   8
LEVEL001
   6
CONTINUOUS
  62
7
  10
 230.707
  20
 532.207
  30
0.0
  11
 230.737
  21
 532.219
  31
0.0
   0
LINE
   8
LEVEL001
   6
CONTINUOUS
  62
7
  10
 230.737
  20
 532.219
  30
0.0
  11
 230.766
  21
 532.231
  31
0.0
   0
LINE
   8
LEVEL001
   6
CONTINUOUS
  62
7
  10
 230.766
  20
 532.231
  30
0.0
  11
 230.793
  21
 532.244
  31
0.0
   0
LINE
   8
LEVEL001
   6
CONTINUOUS
  62
7
  10
 230.793
  20
 532.244
  30
0.0
  11
 230.819
  21
 532.258
  31
0.0
   0
LINE
   8
LEVEL001
   6
CONTINUOUS
  62
7
  10
 230.819
  20
 532.258
  30
0.0
  11
 230.843
  21
 532.272
  31
0.0
   0
LINE
   8
LEVEL001
   6
CONTINUOUS
  62
7
  10
 230.843
  20
 532.272
  30
0.0
  11
 230.866
  21
 532.286
  31
0.0
   0
LINE
   8
LEVEL001
   6
CONTINUOUS
  62
7
  10
 230.866
  20
 532.286
  30
0.0
  11
 230.887
  21
 532.301
  31
0.0
   0
LINE
   8
LEVEL001
   6
CONTINUOUS
  62
7
  10
 230.887
  20
 532.301
  30
0.0
  11
 230.906
  21
 532.316
  31
0.0
   0
LINE
   8
LEVEL001
   6
CONTINUOUS
  62
7
  10
 230.906
  20
 532.316
  30
0.0
  11
 230.924
  21
 532.331
  31
0.0
   0
LINE
   8
LEVEL001
   6
CONTINUOUS
  62
7
  10
 230.924
  20
 532.331
  30
0.0
  11
 230.940
  21
 532.347
  31
0.0
   0
LINE
   8
LEVEL001
   6
CONTINUOUS
  62
7
  10
 230.940
  20
 532.347
  30
0.0
  11
 230.954
  21
 532.362
  31
0.0
   0
LINE
   8
LEVEL001
   6
CONTINUOUS
  62
7
  10
 230.954
  20
 532.362
  30
0.0
  11
 230.966
  21
 532.378
  31
0.0
   0
LINE
   8
LEVEL001
   6
CONTINUOUS
  62
7
  10
 230.966
  20
 532.378
  30
0.0
  11
 230.976
  21
 532.395
  31
0.0
   0
LINE
   8
LEVEL001
   6
CONTINUOUS
  62
7
  10
 230.976
  20
 532.395
  30
0.0
  11
 230.985
  21
 532.411
  31
0.0
   0
LINE
   8
LEVEL001
   6
CONTINUOUS
  62
7
  10
 230.985
  20
 532.411
  30
0.0
  11
 230.991
  21
 532.427
  31
0.0
   0
LINE
   8
LEVEL001
   6
CONTINUOUS
  62
7
  10
 230.991
  20
 532.427
  30
0.0
  11
 230.996
  21
 532.444
  31
0.0
   0
LINE
   8
LEVEL001
   6
CONTINUOUS
  62
7
  10
 230.996
  20
 532.444
  30
0.0
  11
 230.999
  21
 532.461
  31
0.0
   0
LINE
   8
LEVEL001
   6
CONTINUOUS
  62
7
  10
 230.999
  20
 532.461
  30
0.0
  11
 231.000
  21
 532.477
  31
0.0
   0
ARC
   8
LEVEL001
   6
CONTINUOUS
  62
7
  10
 230.000
  20
 532.249
  30
0.0
  40
 1.00000
  50
 11.9426
  51
 167.156
   0
LINE
   8
LEVEL001
   6
CONTINUOUS
  62
7
  10
 226.700
  20
 529.983
  30
0.0
  11
 226.703
  21
 529.928
  31
0.0
   0
LINE
   8
LEVEL001
   6
CONTINUOUS
  62
7
  10
 226.703
  20
 529.928
  30
0.0
  11
 226.713
  21
 529.873
  31
0.0
   0
LINE
   8
LEVEL001
   6
CONTINUOUS
  62
7
  10
 226.713
  20
 529.873
  30
0.0
  11
 226.728
  21
 529.819
  31
0.0
   0
LINE
   8
LEVEL001
   6
CONTINUOUS
  62
7
  10
 226.728
  20
 529.819
  30
0.0
  11
 226.750
  21
 529.764
  31
0.0
   0
LINE
   8
LEVEL001
   6
CONTINUOUS
  62
7
  10
 226.750
  20
 529.764
  30
0.0
  11
 226.778
  21
 529.710
  31
0.0
   0
LINE
   8
LEVEL001
   6
CONTINUOUS
  62
7
  10
 226.778
  20
 529.710
  30
0.0
  11
 226.812
  21
 529.657
  31
0.0
   0
LINE
   8
LEVEL001
   6
CONTINUOUS
  62
7
  10
 226.812
  20
 529.657
  30
0.0
  11
 226.853
  21
 529.604
  31
0.0
   0
LINE
   8
LEVEL001
   6
CONTINUOUS
  62
7
  10
 226.853
  20
 529.604
  30
0.0
  11
 226.899
  21
 529.552
  31
0.0
   0
LINE
   8
LEVEL001
   6
CONTINUOUS
  62
7
  10
 226.899
  20
 529.552
  30
0.0
  11
 226.951
  21
 529.500
  31
0.0
   0
LINE
   8
LEVEL001
   6
CONTINUOUS
  62
7
  10
 226.951
  20
 529.500
  30
0.0
  11
 227.009
  21
 529.450
  31
0.0
   0
LINE
   8
LEVEL001
   6
CONTINUOUS
  62
7
  10
 227.009
  20
 529.450
  30
0.0
  11
 227.073
  21
 529.400
  31
0.0
   0
LINE
   8
LEVEL001
   6
CONTINUOUS
  62
7
  10
 227.073
  20
 529.400
  30
0.0
  11
 227.142
  21
 529.352
  31
0.0
   0
LINE
   8
LEVEL001
   6
CONTINUOUS
  62
7
  10
 227.142
  20
 529.352
  30
0.0
  11
 227.217
  21
 529.305
  31
0.0
   0
LINE
   8
LEVEL001
   6
CONTINUOUS
  62
7
  10
 227.217
  20
 529.305
  30
0.0
  11
 227.297
  21
 529.259
  31
0.0
   0
LINE
   8
LEVEL001
   6
CONTINUOUS
  62
7
  10
 227.297
  20
 529.259
  30
0.0
  11
 227.382
  21
 529.215
  31
0.0
   0
LINE
   8
LEVEL001
   6
CONTINUOUS
  62
7
  10
 227.382
  20
 529.215
  30
0.0
  11
 227.472
  21
 529.172
  31
0.0
   0
LINE
   8
LEVEL001
   6
CONTINUOUS
  62
7
  10
 227.472
  20
 529.172
  30
0.0
  11
 227.567
  21
 529.130
  31
0.0
   0
LINE
   8
LEVEL001
   6
CONTINUOUS
  62
7
  10
 227.567
  20
 529.130
  30
0.0
  11
 227.667
  21
 529.091
  31
0.0
   0
LINE
   8
LEVEL001
   6
CONTINUOUS
  62
7
  10
 227.667
  20
 529.091
  30
0.0
  11
 227.771
  21
 529.052
  31
0.0
   0
LINE
   8
LEVEL001
   6
CONTINUOUS
  62
7
  10
 227.771
  20
 529.052
  30
0.0
  11
 227.879
  21
 529.016
  31
0.0
   0
LINE
   8
LEVEL001
   6
CONTINUOUS
  62
7
  10
 227.879
  20
 529.016
  30
0.0
  11
 227.991
  21
 528.982
  31
0.0
   0
LINE
   8
LEVEL001
   6
CONTINUOUS
  62
7
  10
 227.991
  20
 528.982
  30
0.0
  11
 228.107
  21
 528.949
  31
0.0
   0
LINE
   8
LEVEL001
   6
CONTINUOUS
  62
7
  10
 228.107
  20
 528.949
  30
0.0
  11
 228.227
  21
 528.918
  31
0.0
   0
LINE
   8
LEVEL001
   6
CONTINUOUS
  62
7
  10
 228.227
  20
 528.918
  30
0.0
  11
 228.350
  21
 528.890
  31
0.0
   0
LINE
   8
LEVEL001
   6
CONTINUOUS
  62
7
  10
 228.350
  20
 528.890
  30
0.0
  11
 228.476
  21
 528.863
  31
0.0
   0
LINE
   8
LEVEL001
   6
CONTINUOUS
  62
7
  10
 228.476
  20
 528.863
  30
0.0
  11
 228.605
  21
 528.839
  31
0.0
   0
LINE
   8
LEVEL001
   6
CONTINUOUS
  62
7
  10
 228.605
  20
 528.839
  30
0.0
  11
 228.737
  21
 528.817
  31
0.0
   0
LINE
   8
LEVEL001
   6
CONTINUOUS
  62
7
  10
 228.737
  20
 528.817
  30
0.0
  11
 228.871
  21
 528.797
  31
0.0
   0
LINE
   8
LEVEL001
   6
CONTINUOUS
  62
7
  10
 228.871
  20
 528.797
  30
0.0
  11
 229.008
  21
 528.779
  31
0.0
   0
LINE
   8
LEVEL001
   6
CONTINUOUS
  62
7
  10
 229.008
  20
 528.779
  30
0.0
  11
 229.146
  21
 528.764
  31
0.0
   0
LINE
   8
LEVEL001
   6
CONTINUOUS
  62
7
  10
 229.146
  20
 528.764
  30
0.0
  11
 229.286
  21
 528.751
  31
0.0
   0
LINE
   8
LEVEL001
   6
CONTINUOUS
  62
7
  10
 229.286
  20
 528.751
  30
0.0
  11
 229.427
  21
 528.740
  31
0.0
   0
LINE
   8
LEVEL001
   6
CONTINUOUS
  62
7
  10
 229.427
  20
 528.740
  30
0.0
  11
 229.569
  21
 528.731
  31
0.0
   0
LINE
   8
LEVEL001
   6
CONTINUOUS
  62
7
  10
 229.569
  20
 528.731
  30
0.0
  11
 229.712
  21
 528.725
  31
0.0
   0
LINE
   8
LEVEL001
   6
CONTINUOUS
  62
7
  10
 229.712
  20
 528.725
  30
0.0
  11
 229.856
  21
 528.722
  31
0.0
   0
LINE
   8
LEVEL001
   6
CONTINUOUS
  62
7
  10
 229.856
  20
 528.722
  30
0.0
  11
 230.000
  21
 528.721
  31
0.0
   0
LINE
   8
LEVEL001
   6
CONTINUOUS
  62
7
  10
 230.000
  20
 528.721
  30
0.0
  11
 230.144
  21
 528.722
  31
0.0
   0
LINE
   8
LEVEL001
   6
CONTINUOUS
  62
7
  10
 230.144
  20
 528.722
  30
0.0
  11
 230.288
  21
 528.725
  31
0.0
   0
LINE
   8
LEVEL001
   6
CONTINUOUS
  62
7
  10
 230.288
  20
 528.725
  30
0.0
  11
 230.431
  21
 528.731
  31
0.0
   0
LINE
   8
LEVEL001
   6
CONTINUOUS
  62
7
  10
 230.431
  20
 528.731
  30
0.0
  11
 230.573
  21
 528.740
  31
0.0
   0
LINE
   8
LEVEL001
   6
CONTINUOUS
  62
7
  10
 230.573
  20
 528.740
  30
0.0
  11
 230.714
  21
 528.751
  31
0.0
   0
LINE
   8
LEVEL001
   6
CONTINUOUS
  62
7
  10
 230.714
  20
 528.751
  30
0.0
  11
 230.854
  21
 528.764
  31
0.0
   0
LINE
   8
LEVEL001
   6
CONTINUOUS
  62
7
  10
 230.854
  20
 528.764
  30
0.0
  11
 230.992
  21
 528.779
  31
0.0
   0
LINE
   8
LEVEL001
   6
CONTINUOUS
  62
7
  10
 230.992
  20
 528.779
  30
0.0
  11
 231.129
  21
 528.797
  31
0.0
   0
LINE
   8
LEVEL001
   6
CONTINUOUS
  62
7
  10
 231.129
  20
 528.797
  30
0.0
  11
 231.263
  21
 528.817
  31
0.0
   0
LINE
   8
LEVEL001
   6
CONTINUOUS
  62
7
  10
 231.263
  20
 528.817
  30
0.0
  11
 231.395
  21
 528.839
  31
0.0
   0
LINE
   8
LEVEL001
   6
CONTINUOUS
  62
7
  10
 231.395
  20
 528.839
  30
0.0
  11
 231.524
  21
 528.863
  31
0.0
   0
LINE
   8
LEVEL001
   6
CONTINUOUS
  62
7
  10
 231.524
  20
 528.863
  30
0.0
  11
 231.650
  21
 528.890
  31
0.0
   0
LINE
   8
LEVEL001
   6
CONTINUOUS
  62
7
  10
 231.650
  20
 528.890
  30
0.0
  11
 231.773
  21
 528.918
  31
0.0
   0
LINE
   8
LEVEL001
   6
CONTINUOUS
  62
7
  10
 231.773
  20
 528.918
  30
0.0
  11
 231.893
  21
 528.949
  31
0.0
   0
LINE
   8
LEVEL001
   6
CONTINUOUS
  62
7
  10
 231.893
  20
 528.949
  30
0.0
  11
 232.009
  21
 528.982
  31
0.0
   0
LINE
   8
LEVEL001
   6
CONTINUOUS
  62
7
  10
 232.009
  20
 528.982
  30
0.0
  11
 232.121
  21
 529.016
  31
0.0
   0
LINE
   8
LEVEL001
   6
CONTINUOUS
  62
7
  10
 232.121
  20
 529.016
  30
0.0
  11
 232.229
  21
 529.052
  31
0.0
   0
LINE
   8
LEVEL001
   6
CONTINUOUS
  62
7
  10
 232.229
  20
 529.052
  30
0.0
  11
 232.333
  21
 529.091
  31
0.0
   0
LINE
   8
LEVEL001
   6
CONTINUOUS
  62
7
  10
 232.333
  20
 529.091
  30
0.0
  11
 232.433
  21
 529.130
  31
0.0
   0
LINE
   8
LEVEL001
   6
CONTINUOUS
  62
7
  10
 232.433
  20
 529.130
  30
0.0
  11
 232.528
  21
 529.172
  31
0.0
   0
LINE
   8
LEVEL001
   6
CONTINUOUS
  62
7
  10
 232.528
  20
 529.172
  30
0.0
  11
 232.618
  21
 529.215
  31
0.0
   0
LINE
   8
LEVEL001
   6
CONTINUOUS
  62
7
  10
 232.618
  20
 529.215
  30
0.0
  11
 232.703
  21
 529.259
  31
0.0
   0
LINE
   8
LEVEL001
   6
CONTINUOUS
  62
7
  10
 232.703
  20
 529.259
  30
0.0
  11
 232.783
  21
 529.305
  31
0.0
   0
LINE
   8
LEVEL001
   6
CONTINUOUS
  62
7
  10
 232.783
  20
 529.305
  30
0.0
  11
 232.858
  21
 529.352
  31
0.0
   0
LINE
   8
LEVEL001
   6
CONTINUOUS
  62
7
  10
 232.858
  20
 529.352
  30
0.0
  11
 232.927
  21
 529.400
  31
0.0
   0
LINE
   8
LEVEL001
   6
CONTINUOUS
  62
7
  10
 232.927
  20
 529.400
  30
0.0
  11
 232.991
  21
 529.450
  31
0.0
   0
LINE
   8
LEVEL001
   6
CONTINUOUS
  62
7
  10
 232.991
  20
 529.450
  30
0.0
  11
 233.049
  21
 529.500
  31
0.0
   0
LINE
   8
LEVEL001
   6
CONTINUOUS
  62
7
  10
 233.049
  20
 529.500
  30
0.0
  11
 233.101
  21
 529.552
  31
0.0
   0
LINE
   8
LEVEL001
   6
CONTINUOUS
  62
7
  10
 233.101
  20
 529.552
  30
0.0
  11
 233.147
  21
 529.604
  31
0.0
   0
LINE
   8
LEVEL001
   6
CONTINUOUS
  62
7
  10
 233.147
  20
 529.604
  30
0.0
  11
 233.188
  21
 529.657
  31
0.0
   0
LINE
   8
LEVEL001
   6
CONTINUOUS
  62
7
  10
 233.188
  20
 529.657
  30
0.0
  11
 233.222
  21
 529.710
  31
0.0
   0
LINE
   8
LEVEL001
   6
CONTINUOUS
  62
7
  10
 233.222
  20
 529.710
  30
0.0
  11
 233.250
  21
 529.764
  31
0.0
   0
LINE
   8
LEVEL001
   6
CONTINUOUS
  62
7
  10
 233.250
  20
 529.764
  30
0.0
  11
 233.272
  21
 529.819
  31
0.0
   0
LINE
   8
LEVEL001
   6
CONTINUOUS
  62
7
  10
 233.272
  20
 529.819
  30
0.0
  11
 233.287
  21
 529.873
  31
0.0
   0
LINE
   8
LEVEL001
   6
CONTINUOUS
  62
7
  10
 233.287
  20
 529.873
  30
0.0
  11
 233.297
  21
 529.928
  31
0.0
   0
LINE
   8
LEVEL001
   6
CONTINUOUS
  62
7
  10
 233.297
  20
 529.928
  30
0.0
  11
 233.300
  21
 529.983
  31
0.0
   0
LINE
   8
LEVEL001
   6
CONTINUOUS
  62
7
  10
 226.700
  20
 529.983
  30
0.0
  11
 227.602
  21
 532.517
  31
0.0
   0
LINE
   8
LEVEL001
   6
CONTINUOUS
  62
7
  10
 233.297
  20
 529.928
  30
0.0
  11
 232.391
  21
 532.557
  31
0.0
   0
LINE
   8
LEVEL001
   6
CONTINUOUS
  62
7
  10
 227.120
  20
 528.334
  30
0.0
  11
 227.123
  21
 528.286
  31
0.0
   0
LINE
   8
LEVEL001
   6
CONTINUOUS
  62
7
  10
 227.123
  20
 528.286
  30
0.0
  11
 227.131
  21
 528.238
  31
0.0
   0
LINE
   8
LEVEL001
   6
CONTINUOUS
  62
7
  10
 227.131
  20
 528.238
  30
0.0
  11
 227.145
  21
 528.190
  31
0.0
   0
LINE
   8
LEVEL001
   6
CONTINUOUS
  62
7
  10
 227.145
  20
 528.190
  30
0.0
  11
 227.164
  21
 528.142
  31
0.0
   0
LINE
   8
LEVEL001
   6
CONTINUOUS
  62
7
  10
 227.164
  20
 528.142
  30
0.0
  11
 227.188
  21
 528.095
  31
0.0
   0
LINE
   8
LEVEL001
   6
CONTINUOUS
  62
7
  10
 227.188
  20
 528.095
  30
0.0
  11
 227.218
  21
 528.048
  31
0.0
   0
LINE
   8
LEVEL001
   6
CONTINUOUS
  62
7
  10
 227.218
  20
 528.048
  30
0.0
  11
 227.253
  21
 528.002
  31
0.0
   0
LINE
   8
LEVEL001
   6
CONTINUOUS
  62
7
  10
 227.253
  20
 528.002
  30
0.0
  11
 227.294
  21
 527.957
  31
0.0
   0
LINE
   8
LEVEL001
   6
CONTINUOUS
  62
7
  10
 227.294
  20
 527.957
  30
0.0
  11
 227.339
  21
 527.912
  31
0.0
   0
LINE
   8
LEVEL001
   6
CONTINUOUS
  62
7
  10
 227.339
  20
 527.912
  30
0.0
  11
 227.390
  21
 527.868
  31
0.0
   0
LINE
   8
LEVEL001
   6
CONTINUOUS
  62
7
  10
 227.390
  20
 527.868
  30
0.0
  11
 227.445
  21
 527.825
  31
0.0
   0
LINE
   8
LEVEL001
   6
CONTINUOUS
  62
7
  10
 227.445
  20
 527.825
  30
0.0
  11
 227.506
  21
 527.783
  31
0.0
   0
LINE
   8
LEVEL001
   6
CONTINUOUS
  62
7
  10
 227.506
  20
 527.783
  30
0.0
  11
 227.571
  21
 527.741
  31
0.0
   0
LINE
   8
LEVEL001
   6
CONTINUOUS
  62
7
  10
 227.571
  20
 527.741
  30
0.0
  11
 227.641
  21
 527.701
  31
0.0
   0
LINE
   8
LEVEL001
   6
CONTINUOUS
  62
7
  10
 227.641
  20
 527.701
  30
0.0
  11
 227.715
  21
 527.663
  31
0.0
   0
LINE
   8
LEVEL001
   6
CONTINUOUS
  62
7
  10
 227.715
  20
 527.663
  30
0.0
  11
 227.794
  21
 527.625
  31
0.0
   0
LINE
   8
LEVEL001
   6
CONTINUOUS
  62
7
  10
 227.794
  20
 527.625
  30
0.0
  11
 227.877
  21
 527.589
  31
0.0
   0
LINE
   8
LEVEL001
   6
CONTINUOUS
  62
7
  10
 227.877
  20
 527.589
  30
0.0
  11
 227.964
  21
 527.554
  31
0.0
   0
LINE
   8
LEVEL001
   6
CONTINUOUS
  62
7
  10
 227.964
  20
 527.554
  30
0.0
  11
 228.054
  21
 527.521
  31
0.0
   0
LINE
   8
LEVEL001
   6
CONTINUOUS
  62
7
  10
 228.054
  20
 527.521
  30
0.0
  11
 228.149
  21
 527.489
  31
0.0
   0
LINE
   8
LEVEL001
   6
CONTINUOUS
  62
7
  10
 228.149
  20
 527.489
  30
0.0
  11
 228.247
  21
 527.459
  31
0.0
   0
LINE
   8
LEVEL001
   6
CONTINUOUS
  62
7
  10
 228.247
  20
 527.459
  30
0.0
  11
 228.348
  21
 527.431
  31
0.0
   0
LINE
   8
LEVEL001
   6
CONTINUOUS
  62
7
  10
 228.348
  20
 527.431
  30
0.0
  11
 228.453
  21
 527.404
  31
0.0
   0
LINE
   8
LEVEL001
   6
CONTINUOUS
  62
7
  10
 228.453
  20
 527.404
  30
0.0
  11
 228.560
  21
 527.379
  31
0.0
   0
LINE
   8
LEVEL001
   6
CONTINUOUS
  62
7
  10
 228.560
  20
 527.379
  30
0.0
  11
 228.670
  21
 527.356
  31
0.0
   0
LINE
   8
LEVEL001
   6
CONTINUOUS
  62
7
  10
 228.670
  20
 527.356
  30
0.0
  11
 228.783
  21
 527.335
  31
0.0
   0
LINE
   8
LEVEL001
   6
CONTINUOUS
  62
7
  10
 228.783
  20
 527.335
  30
0.0
  11
 228.898
  21
 527.315
  31
0.0
   0
LINE
   8
LEVEL001
   6
CONTINUOUS
  62
7
  10
 228.898
  20
 527.315
  30
0.0
  11
 229.015
  21
 527.298
  31
0.0
   0
LINE
   8
LEVEL001
   6
CONTINUOUS
  62
7
  10
 229.015
  20
 527.298
  30
0.0
  11
 229.134
  21
 527.283
  31
0.0
   0
LINE
   8
LEVEL001
   6
CONTINUOUS
  62
7
  10
 229.134
  20
 527.283
  30
0.0
  11
 229.255
  21
 527.269
  31
0.0
   0
LINE
   8
LEVEL001
   6
CONTINUOUS
  62
7
  10
 229.255
  20
 527.269
  30
0.0
  11
 229.377
  21
 527.258
  31
0.0
   0
LINE
   8
LEVEL001
   6
CONTINUOUS
  62
7
  10
 229.377
  20
 527.258
  30
0.0
  11
 229.500
  21
 527.248
  31
0.0
   0
LINE
   8
LEVEL001
   6
CONTINUOUS
  62
7
  10
 229.500
  20
 527.248
  30
0.0
  11
 229.624
  21
 527.241
  31
0.0
   0
LINE
   8
LEVEL001
   6
CONTINUOUS
  62
7
  10
 229.624
  20
 527.241
  30
0.0
  11
 229.749
  21
 527.236
  31
0.0
   0
LINE
   8
LEVEL001
   6
CONTINUOUS
  62
7
  10
 229.749
  20
 527.236
  30
0.0
  11
 229.874
  21
 527.233
  31
0.0
   0
LINE
   8
LEVEL001
   6
CONTINUOUS
  62
7
  10
 229.874
  20
 527.233
  30
0.0
  11
 230.000
  21
 527.232
  31
0.0
   0
LINE
   8
LEVEL001
   6
CONTINUOUS
  62
7
  10
 230.000
  20
 527.232
  30
0.0
  11
 230.126
  21
 527.233
  31
0.0
   0
LINE
   8
LEVEL001
   6
CONTINUOUS
  62
7
  10
 230.126
  20
 527.233
  30
0.0
  11
 230.251
  21
 527.236
  31
0.0
   0
LINE
   8
LEVEL001
   6
CONTINUOUS
  62
7
  10
 230.251
  20
 527.236
  30
0.0
  11
 230.376
  21
 527.241
  31
0.0
   0
LINE
   8
LEVEL001
   6
CONTINUOUS
  62
7
  10
 230.376
  20
 527.241
  30
0.0
  11
 230.500
  21
 527.248
  31
0.0
   0
LINE
   8
LEVEL001
   6
CONTINUOUS
  62
7
  10
 230.500
  20
 527.248
  30
0.0
  11
 230.623
  21
 527.258
  31
0.0
   0
LINE
   8
LEVEL001
   6
CONTINUOUS
  62
7
  10
 230.623
  20
 527.258
  30
0.0
  11
 230.745
  21
 527.269
  31
0.0
   0
LINE
   8
LEVEL001
   6
CONTINUOUS
  62
7
  10
 230.745
  20
 527.269
  30
0.0
  11
 230.866
  21
 527.283
  31
0.0
   0
LINE
   8
LEVEL001
   6
CONTINUOUS
  62
7
  10
 230.866
  20
 527.283
  30
0.0
  11
 230.985
  21
 527.298
  31
0.0
   0
LINE
   8
LEVEL001
   6
CONTINUOUS
  62
7
  10
 230.985
  20
 527.298
  30
0.0
  11
 231.102
  21
 527.315
  31
0.0
   0
LINE
   8
LEVEL001
   6
CONTINUOUS
  62
7
  10
 231.102
  20
 527.315
  30
0.0
  11
 231.217
  21
 527.335
  31
0.0
   0
LINE
   8
LEVEL001
   6
CONTINUOUS
  62
7
  10
 231.217
  20
 527.335
  30
0.0
  11
 231.330
  21
 527.356
  31
0.0
   0
LINE
   8
LEVEL001
   6
CONTINUOUS
  62
7
  10
 231.330
  20
 527.356
  30
0.0
  11
 231.440
  21
 527.379
  31
0.0
   0
LINE
   8
LEVEL001
   6
CONTINUOUS
  62
7
  10
 231.440
  20
 527.379
  30
0.0
  11
 231.547
  21
 527.404
  31
0.0
   0
LINE
   8
LEVEL001
   6
CONTINUOUS
  62
7
  10
 231.547
  20
 527.404
  30
0.0
  11
 231.652
  21
 527.431
  31
0.0
   0
LINE
   8
LEVEL001
   6
CONTINUOUS
  62
7
  10
 231.652
  20
 527.431
  30
0.0
  11
 231.753
  21
 527.459
  31
0.0
   0
LINE
   8
LEVEL001
   6
CONTINUOUS
  62
7
  10
 231.753
  20
 527.459
  30
0.0
  11
 231.851
  21
 527.489
  31
0.0
   0
LINE
   8
LEVEL001
   6
CONTINUOUS
  62
7
  10
 231.851
  20
 527.489
  30
0.0
  11
 231.946
  21
 527.521
  31
0.0
   0
LINE
   8
LEVEL001
   6
CONTINUOUS
  62
7
  10
 231.946
  20
 527.521
  30
0.0
  11
 232.036
  21
 527.554
  31
0.0
   0
LINE
   8
LEVEL001
   6
CONTINUOUS
  62
7
  10
 232.036
  20
 527.554
  30
0.0
  11
 232.123
  21
 527.589
  31
0.0
   0
LINE
   8
LEVEL001
   6
CONTINUOUS
  62
7
  10
 232.123
  20
 527.589
  30
0.0
  11
 232.206
  21
 527.625
  31
0.0
   0
LINE
   8
LEVEL001
   6
CONTINUOUS
  62
7
  10
 232.206
  20
 527.625
  30
0.0
  11
 232.285
  21
 527.663
  31
0.0
   0
LINE
   8
LEVEL001
   6
CONTINUOUS
  62
7
  10
 232.285
  20
 527.663
  30
0.0
  11
 232.359
  21
 527.701
  31
0.0
   0
LINE
   8
LEVEL001
   6
CONTINUOUS
  62
7
  10
 232.359
  20
 527.701
  30
0.0
  11
 232.429
  21
 527.741
  31
0.0
   0
LINE
   8
LEVEL001
   6
CONTINUOUS
  62
7
  10
 232.429
  20
 527.741
  30
0.0
  11
 232.494
  21
 527.783
  31
0.0
   0
LINE
   8
LEVEL001
   6
CONTINUOUS
  62
7
  10
 232.494
  20
 527.783
  30
0.0
  11
 232.555
  21
 527.825
  31
0.0
   0
LINE
   8
LEVEL001
   6
CONTINUOUS
  62
7
  10
 232.555
  20
 527.825
  30
0.0
  11
 232.610
  21
 527.868
  31
0.0
   0
LINE
   8
LEVEL001
   6
CONTINUOUS
  62
7
  10
 232.610
  20
 527.868
  30
0.0
  11
 232.661
  21
 527.912
  31
0.0
   0
LINE
   8
LEVEL001
   6
CONTINUOUS
  62
7
  10
 232.661
  20
 527.912
  30
0.0
  11
 232.706
  21
 527.957
  31
0.0
   0
LINE
   8
LEVEL001
   6
CONTINUOUS
  62
7
  10
 232.706
  20
 527.957
  30
0.0
  11
 232.747
  21
 528.002
  31
0.0
   0
LINE
   8
LEVEL001
   6
CONTINUOUS
  62
7
  10
 232.747
  20
 528.002
  30
0.0
  11
 232.782
  21
 528.048
  31
0.0
   0
LINE
   8
LEVEL001
   6
CONTINUOUS
  62
7
  10
 232.782
  20
 528.048
  30
0.0
  11
 232.812
  21
 528.095
  31
0.0
   0
LINE
   8
LEVEL001
   6
CONTINUOUS
  62
7
  10
 232.812
  20
 528.095
  30
0.0
  11
 232.836
  21
 528.142
  31
0.0
   0
LINE
   8
LEVEL001
   6
CONTINUOUS
  62
7
  10
 232.836
  20
 528.142
  30
0.0
  11
 232.855
  21
 528.190
  31
0.0
   0
LINE
   8
LEVEL001
   6
CONTINUOUS
  62
7
  10
 232.855
  20
 528.190
  30
0.0
  11
 232.869
  21
 528.238
  31
0.0
   0
LINE
   8
LEVEL001
   6
CONTINUOUS
  62
7
  10
 232.869
  20
 528.238
  30
0.0
  11
 232.877
  21
 528.286
  31
0.0
   0
LINE
   8
LEVEL001
   6
CONTINUOUS
  62
7
  10
 232.877
  20
 528.286
  30
0.0
  11
 232.880
  21
 528.334
  31
0.0
   0
LINE
   8
LEVEL001
   6
CONTINUOUS
  62
7
  10
 226.540
  20
 527.212
  30
0.0
  11
 226.543
  21
 527.154
  31
0.0
   0
LINE
   8
LEVEL001
   6
CONTINUOUS
  62
7
  10
 226.543
  20
 527.154
  30
0.0
  11
 226.553
  21
 527.096
  31
0.0
   0
LINE
   8
LEVEL001
   6
CONTINUOUS
  62
7
  10
 226.553
  20
 527.096
  30
0.0
  11
 226.570
  21
 527.039
  31
0.0
   0
LINE
   8
LEVEL001
   6
CONTINUOUS
  62
7
  10
 226.570
  20
 527.039
  30
0.0
  11
 226.593
  21
 526.982
  31
0.0
   0
LINE
   8
LEVEL001
   6
CONTINUOUS
  62
7
  10
 226.593
  20
 526.982
  30
0.0
  11
 226.622
  21
 526.925
  31
0.0
   0
LINE
   8
LEVEL001
   6
CONTINUOUS
  62
7
  10
 226.622
  20
 526.925
  30
0.0
  11
 226.658
  21
 526.869
  31
0.0
   0
LINE
   8
LEVEL001
   6
CONTINUOUS
  62
7
  10
 226.658
  20
 526.869
  30
0.0
  11
 226.700
  21
 526.814
  31
0.0
   0
LINE
   8
LEVEL001
   6
CONTINUOUS
  62
7
  10
 226.700
  20
 526.814
  30
0.0
  11
 226.749
  21
 526.759
  31
0.0
   0
LINE
   8
LEVEL001
   6
CONTINUOUS
  62
7
  10
 226.749
  20
 526.759
  30
0.0
  11
 226.803
  21
 526.705
  31
0.0
   0
LINE
   8
LEVEL001
   6
CONTINUOUS
  62
7
  10
 226.803
  20
 526.705
  30
0.0
  11
 226.864
  21
 526.652
  31
0.0
   0
LINE
   8
LEVEL001
   6
CONTINUOUS
  62
7
  10
 226.864
  20
 526.652
  30
0.0
  11
 226.931
  21
 526.600
  31
0.0
   0
LINE
   8
LEVEL001
   6
CONTINUOUS
  62
7
  10
 226.931
  20
 526.600
  30
0.0
  11
 227.004
  21
 526.550
  31
0.0
   0
LINE
   8
LEVEL001
   6
CONTINUOUS
  62
7
  10
 227.004
  20
 526.550
  30
0.0
  11
 227.082
  21
 526.500
  31
0.0
   0
LINE
   8
LEVEL001
   6
CONTINUOUS
  62
7
  10
 227.082
  20
 526.500
  30
0.0
  11
 227.166
  21
 526.452
  31
0.0
   0
LINE
   8
LEVEL001
   6
CONTINUOUS
  62
7
  10
 227.166
  20
 526.452
  30
0.0
  11
 227.255
  21
 526.406
  31
0.0
   0
LINE
   8
LEVEL001
   6
CONTINUOUS
  62
7
  10
 227.255
  20
 526.406
  30
0.0
  11
 227.349
  21
 526.361
  31
0.0
   0
LINE
   8
LEVEL001
   6
CONTINUOUS
  62
7
  10
 227.349
  20
 526.361
  30
0.0
  11
 227.449
  21
 526.317
  31
0.0
   0
LINE
   8
LEVEL001
   6
CONTINUOUS
  62
7
  10
 227.449
  20
 526.317
  30
0.0
  11
 227.553
  21
 526.276
  31
0.0
   0
LINE
   8
LEVEL001
   6
CONTINUOUS
  62
7
  10
 227.553
  20
 526.276
  30
0.0
  11
 227.662
  21
 526.236
  31
0.0
   0
LINE
   8
LEVEL001
   6
CONTINUOUS
  62
7
  10
 227.662
  20
 526.236
  30
0.0
  11
 227.776
  21
 526.198
  31
0.0
   0
LINE
   8
LEVEL001
   6
CONTINUOUS
  62
7
  10
 227.776
  20
 526.198
  30
0.0
  11
 227.894
  21
 526.161
  31
0.0
   0
LINE
   8
LEVEL001
   6
CONTINUOUS
  62
7
  10
 227.894
  20
 526.161
  30
0.0
  11
 228.015
  21
 526.127
  31
0.0
   0
LINE
   8
LEVEL001
   6
CONTINUOUS
  62
7
  10
 228.015
  20
 526.127
  30
0.0
  11
 228.141
  21
 526.095
  31
0.0
   0
LINE
   8
LEVEL001
   6
CONTINUOUS
  62
7
  10
 228.141
  20
 526.095
  30
0.0
  11
 228.270
  21
 526.065
  31
0.0
   0
LINE
   8
LEVEL001
   6
CONTINUOUS
  62
7
  10
 228.270
  20
 526.065
  30
0.0
  11
 228.402
  21
 526.037
  31
0.0
   0
LINE
   8
LEVEL001
   6
CONTINUOUS
  62
7
  10
 228.402
  20
 526.037
  30
0.0
  11
 228.538
  21
 526.012
  31
0.0
   0
LINE
   8
LEVEL001
   6
CONTINUOUS
  62
7
  10
 228.538
  20
 526.012
  30
0.0
  11
 228.676
  21
 525.989
  31
0.0
   0
LINE
   8
LEVEL001
   6
CONTINUOUS
  62
7
  10
 228.676
  20
 525.989
  30
0.0
  11
 228.817
  21
 525.968
  31
0.0
   0
LINE
   8
LEVEL001
   6
CONTINUOUS
  62
7
  10
 228.817
  20
 525.968
  30
0.0
  11
 228.960
  21
 525.949
  31
0.0
   0
LINE
   8
LEVEL001
   6
CONTINUOUS
  62
7
  10
 228.960
  20
 525.949
  30
0.0
  11
 229.104
  21
 525.933
  31
0.0
   0
LINE
   8
LEVEL001
   6
CONTINUOUS
  62
7
  10
 229.104
  20
 525.933
  30
0.0
  11
 229.251
  21
 525.919
  31
0.0
   0
LINE
   8
LEVEL001
   6
CONTINUOUS
  62
7
  10
 229.251
  20
 525.919
  30
0.0
  11
 229.399
  21
 525.908
  31
0.0
   0
LINE
   8
LEVEL001
   6
CONTINUOUS
  62
7
  10
 229.399
  20
 525.908
  30
0.0
  11
 229.548
  21
 525.899
  31
0.0
   0
LINE
   8
LEVEL001
   6
CONTINUOUS
  62
7
  10
 229.548
  20
 525.899
  30
0.0
  11
 229.698
  21
 525.893
  31
0.0
   0
LINE
   8
LEVEL001
   6
CONTINUOUS
  62
7
  10
 229.698
  20
 525.893
  30
0.0
  11
 229.849
  21
 525.889
  31
0.0
   0
LINE
   8
LEVEL001
   6
CONTINUOUS
  62
7
  10
 229.849
  20
 525.889
  30
0.0
  11
 230.000
  21
 525.888
  31
0.0
   0
LINE
   8
LEVEL001
   6
CONTINUOUS
  62
7
  10
 230.000
  20
 525.888
  30
0.0
  11
 230.151
  21
 525.889
  31
0.0
   0
LINE
   8
LEVEL001
   6
CONTINUOUS
  62
7
  10
 230.151
  20
 525.889
  30
0.0
  11
 230.302
  21
 525.893
  31
0.0
   0
LINE
   8
LEVEL001
   6
CONTINUOUS
  62
7
  10
 230.302
  20
 525.893
  30
0.0
  11
 230.452
  21
 525.899
  31
0.0
   0
LINE
   8
LEVEL001
   6
CONTINUOUS
  62
7
  10
 230.452
  20
 525.899
  30
0.0
  11
 230.601
  21
 525.908
  31
0.0
   0
LINE
   8
LEVEL001
   6
CONTINUOUS
  62
7
  10
 230.601
  20
 525.908
  30
0.0
  11
 230.749
  21
 525.919
  31
0.0
   0
LINE
   8
LEVEL001
   6
CONTINUOUS
  62
7
  10
 230.749
  20
 525.919
  30
0.0
  11
 230.896
  21
 525.933
  31
0.0
   0
LINE
   8
LEVEL001
   6
CONTINUOUS
  62
7
  10
 230.896
  20
 525.933
  30
0.0
  11
 231.040
  21
 525.949
  31
0.0
   0
LINE
   8
LEVEL001
   6
CONTINUOUS
  62
7
  10
 231.040
  20
 525.949
  30
0.0
  11
 231.183
  21
 525.968
  31
0.0
   0
LINE
   8
LEVEL001
   6
CONTINUOUS
  62
7
  10
 231.183
  20
 525.968
  30
0.0
  11
 231.324
  21
 525.989
  31
0.0
   0
LINE
   8
LEVEL001
   6
CONTINUOUS
  62
7
  10
 231.324
  20
 525.989
  30
0.0
  11
 231.462
  21
 526.012
  31
0.0
   0
LINE
   8
LEVEL001
   6
CONTINUOUS
  62
7
  10
 231.462
  20
 526.012
  30
0.0
  11
 231.598
  21
 526.037
  31
0.0
   0
LINE
   8
LEVEL001
   6
CONTINUOUS
  62
7
  10
 231.598
  20
 526.037
  30
0.0
  11
 231.730
  21
 526.065
  31
0.0
   0
LINE
   8
LEVEL001
   6
CONTINUOUS
  62
7
  10
 231.730
  20
 526.065
  30
0.0
  11
 231.859
  21
 526.095
  31
0.0
   0
LINE
   8
LEVEL001
   6
CONTINUOUS
  62
7
  10
 231.859
  20
 526.095
  30
0.0
  11
 231.985
  21
 526.127
  31
0.0
   0
LINE
   8
LEVEL001
   6
CONTINUOUS
  62
7
  10
 231.985
  20
 526.127
  30
0.0
  11
 232.106
  21
 526.161
  31
0.0
   0
LINE
   8
LEVEL001
   6
CONTINUOUS
  62
7
  10
 232.106
  20
 526.161
  30
0.0
  11
 232.224
  21
 526.198
  31
0.0
   0
LINE
   8
LEVEL001
   6
CONTINUOUS
  62
7
  10
 232.224
  20
 526.198
  30
0.0
  11
 232.338
  21
 526.236
  31
0.0
   0
LINE
   8
LEVEL001
   6
CONTINUOUS
  62
7
  10
 232.338
  20
 526.236
  30
0.0
  11
 232.447
  21
 526.276
  31
0.0
   0
LINE
   8
LEVEL001
   6
CONTINUOUS
  62
7
  10
 232.447
  20
 526.276
  30
0.0
  11
 232.551
  21
 526.317
  31
0.0
   0
LINE
   8
LEVEL001
   6
CONTINUOUS
  62
7
  10
 232.551
  20
 526.317
  30
0.0
  11
 232.651
  21
 526.361
  31
0.0
   0
LINE
   8
LEVEL001
   6
CONTINUOUS
  62
7
  10
 232.651
  20
 526.361
  30
0.0
  11
 232.745
  21
 526.406
  31
0.0
   0
LINE
   8
LEVEL001
   6
CONTINUOUS
  62
7
  10
 232.745
  20
 526.406
  30
0.0
  11
 232.834
  21
 526.452
  31
0.0
   0
LINE
   8
LEVEL001
   6
CONTINUOUS
  62
7
  10
 232.834
  20
 526.452
  30
0.0
  11
 232.918
  21
 526.500
  31
0.0
   0
LINE
   8
LEVEL001
   6
CONTINUOUS
  62
7
  10
 232.918
  20
 526.500
  30
0.0
  11
 232.996
  21
 526.550
  31
0.0
   0
LINE
   8
LEVEL001
   6
CONTINUOUS
  62
7
  10
 232.996
  20
 526.550
  30
0.0
  11
 233.069
  21
 526.600
  31
0.0
   0
LINE
   8
LEVEL001
   6
CONTINUOUS
  62
7
  10
 233.069
  20
 526.600
  30
0.0
  11
 233.136
  21
 526.652
  31
0.0
   0
LINE
   8
LEVEL001
   6
CONTINUOUS
  62
7
  10
 233.136
  20
 526.652
  30
0.0
  11
 233.197
  21
 526.705
  31
0.0
   0
LINE
   8
LEVEL001
   6
CONTINUOUS
  62
7
  10
 233.197
  20
 526.705
  30
0.0
  11
 233.251
  21
 526.759
  31
0.0
   0
LINE
   8
LEVEL001
   6
CONTINUOUS
  62
7
  10
 233.251
  20
 526.759
  30
0.0
  11
 233.300
  21
 526.814
  31
0.0
   0
LINE
   8
LEVEL001
   6
CONTINUOUS
  62
7
  10
 233.300
  20
 526.814
  30
0.0
  11
 233.342
  21
 526.869
  31
0.0
   0
LINE
   8
LEVEL001
   6
CONTINUOUS
  62
7
  10
 233.342
  20
 526.869
  30
0.0
  11
 233.378
  21
 526.925
  31
0.0
   0
LINE
   8
LEVEL001
   6
CONTINUOUS
  62
7
  10
 233.378
  20
 526.925
  30
0.0
  11
 233.407
  21
 526.982
  31
0.0
   0
LINE
   8
LEVEL001
   6
CONTINUOUS
  62
7
  10
 233.407
  20
 526.982
  30
0.0
  11
 233.430
  21
 527.039
  31
0.0
   0
LINE
   8
LEVEL001
   6
CONTINUOUS
  62
7
  10
 233.430
  20
 527.039
  30
0.0
  11
 233.447
  21
 527.096
  31
0.0
   0
LINE
   8
LEVEL001
   6
CONTINUOUS
  62
7
  10
 233.447
  20
 527.096
  30
0.0
  11
 233.457
  21
 527.154
  31
0.0
   0
LINE
   8
LEVEL001
   6
CONTINUOUS
  62
7
  10
 233.457
  20
 527.154
  30
0.0
  11
 233.460
  21
 527.212
  31
0.0
   0
ARC
   8
LEVEL001
   6
CONTINUOUS
  62
7
  10
 227.061
  20
 530.697
  30
0.0
  40
 6.28019
  50
 337.893
  51
 352.464
   0
ARC
   8
LEVEL001
   6
CONTINUOUS
  62
7
  10
 234.013
  20
 528.209
  30
0.0
  40
 1.13965
  50
 173.696
  51
 240.986
   0
ARC
   8
LEVEL001
   6
CONTINUOUS
  62
7
  10
 232.939
  20
 530.697
  30
0.0
  40
 6.28019
  50
 187.536
  51
 202.107
   0
ARC
   8
LEVEL001
   6
CONTINUOUS
  62
7
  10
 225.987
  20
 528.209
  30
0.0
  40
 1.13965
  50
 299.014
  51
 6.30441
   0
LINE
   8
LEVEL001
   6
CONTINUOUS
  62
7
  10
 233.464
  20
 526.438
  30
0.0
  11
 230.000
  21
 525.665
  31
0.0
   0
LINE
   8
LEVEL001
   6
CONTINUOUS
  62
7
  10
 230.000
  20
 525.665
  30
0.0
  11
 226.536
  21
 526.438
  31
0.0
   0
LINE
   8
LEVEL001
   6
CONTINUOUS
  62
7
  10
 226.536
  20
 527.985
  30
0.0
  11
 227.123
  21
 528.116
  31
0.0
   0
LINE
   8
LEVEL001
   6
CONTINUOUS
  62
7
  10
 232.877
  20
 528.116
  30
0.0
  11
 233.464
  21
 527.985
  31
0.0
   0
LINE
   8
LEVEL001
   6
CONTINUOUS
  62
7
  10
 226.536
  20
 527.985
  30
0.0
  11
 226.536
  21
 524.221
  31
0.0
   0
LINE
   8
LEVEL001
   6
CONTINUOUS
  62
7
  10
 233.464
  20
 524.221
  30
0.0
  11
 233.464
  21
 527.985
  31
0.0
   0
LINE
   8
LEVEL001
   6
CONTINUOUS
  62
7
  10
 226.536
  20
 524.221
  30
0.0
  11
 230.000
  21
 523.448
  31
0.0
   0
LINE
   8
LEVEL001
   6
CONTINUOUS
  62
7
  10
 230.000
  20
 523.448
  30
0.0
  11
 233.464
  21
 524.221
  31
0.0
   0
ARC
   8
LEVEL001
   6
CONTINUOUS
  62
7
  10
 230.000
  20
 520.000
  30
0.0
  40
 6.33000
  50
 123.179
  51
 56.8213
   0
LINE
   8
LEVEL001
   6
CONTINUOUS
  62
7
  10
 238.083
  20
 520.000
  30
0.0
  11
 234.041
  21
 527.000
  31
0.0
   0
LINE
   8
LEVEL001
   6
CONTINUOUS
  62
7
  10
 225.959
  20
 527.000
  30
0.0
  11
 221.917
  21
 520.000
  31
0.0
   0
LINE
   8
LEVEL001
   6
CONTINUOUS
  62
7
  10
 221.917
  20
 520.000
  30
0.0
  11
 225.959
  21
 513.000
  31
0.0
   0
LINE
   8
LEVEL001
   6
CONTINUOUS
  62
7
  10
 225.959
  20
 513.000
  30
0.0
  11
 234.041
  21
 513.000
  31
0.0
   0
LINE
   8
LEVEL001
   6
CONTINUOUS
  62
7
  10
 234.041
  20
 513.000
  30
0.0
  11
 238.083
  21
 520.000
  31
0.0
   0
LINE
   8
LEVEL001
   6
CONTINUOUS
  62
7
  10
 234.041
  20
 527.000
  30
0.0
  11
 233.464
  21
 527.000
  31
0.0
   0
LINE
   8
LEVEL001
   6
CONTINUOUS
  62
7
  10
 226.536
  20
 527.000
  30
0.0
  11
 225.959
  21
 527.000
  31
0.0
   0
ARC
   8
LEVEL001
   6
CONTINUOUS
  62
7
  10
 546.029
  20
 467.000
  30
0.0
  40
 10.0000
  50
 145.443
  51
 270.000
   0
LINE
   8
LEVEL001
   6
CONTINUOUS
  62
7
  10
 735.500
  20
 457.000
  30
0.0
  11
 617.900
  21
 457.000
  31
0.0
   0
LINE
   8
LEVEL001
   6
CONTINUOUS
  62
7
  10
 579.316
  20
 457.000
  30
0.0
  11
 545.000
  21
 457.000
  31
0.0
   0
LINE
   8
LEVEL001
   6
CONTINUOUS
  62
7
  10
 564.000
  20
 483.884
  30
0.0
  11
 687.814
  21
 483.884
  31
0.0
   0
TEXT
   8
LEVEL003
  62
7
  10
 846.625
  20
 36.7718
  30
0.0
  40
 20.0000
   1
ＯＳＡＫＡ ＪＡＣＫ
   7
STANDARD
   0
TEXT
   8
LEVEL003
  62
7
  10
 852.447
  20
 70.5586
  30
0.0
  40
 12.0000
   1
Model : ＷＪ１５Ｕ
   7
STANDARD
   0
CIRCLE
   8
LEVEL003
   6
CONTINUOUS
  62
7
  10
 822.679
  20
 50.8732
  30
0.0
  40
 6.00000
   0
LINE
   8
LEVEL003
   6
CONTINUOUS
  62
7
  10
 834.455
  20
 56.8732
  30
0.0
  11
 826.837
  21
 43.6732
  31
0.0
   0
LINE
   8
LEVEL003
   6
CONTINUOUS
  62
7
  10
 826.837
  20
 43.6732
  30
0.0
  11
 811.595
  21
 43.6732
  31
0.0
   0
LINE
   8
LEVEL003
   6
CONTINUOUS
  62
7
  10
 809.861
  20
 40.6732
  30
0.0
  11
 837.103
  21
 40.6732
  31
0.0
   0
LINE
   8
LEVEL003
   6
CONTINUOUS
  62
7
  10
 837.103
  20
 40.6732
  30
0.0
  11
 846.455
  21
 56.8732
  31
0.0
   0
LINE
   8
LEVEL003
   6
CONTINUOUS
  62
7
  10
 846.455
  20
 56.8732
  30
0.0
  11
 834.455
  21
 56.8732
  31
0.0
   0
LINE
   8
LEVEL003
   6
CONTINUOUS
  62
7
  10
 811.595
  20
 43.6732
  30
0.0
  11
 809.861
  21
 40.6732
  31
0.0
   0
LINE
   8
LEVEL001
   6
DASHDOT
  62
1
  10
 511.500
  20
 478.000
  30
0.0
  11
 511.500
  21
 562.000
  31
0.0
   0
LINE
   8
LEVEL001
   6
DASHDOT
  62
1
  10
 580.538
  20
 520.000
  30
0.0
  11
 454.020
  21
 520.000
  31
0.0
   0
LINE
   8
LEVEL001
   6
DASHDOT
  62
1
  10
 708.000
  20
 469.198
  30
0.0
  11
 708.000
  21
 425.891
  31
0.0
   0
LINE
   8
LEVEL001
   6
DASHDOT
  62
1
  10
 442.000
  20
 469.198
  30
0.0
  11
 442.000
  21
 425.891
  31
0.0
   0
LINE
   8
LEVEL001
   6
DASHDOT
  62
1
  10
 291.500
  20
 620.500
  30
0.0
  11
 291.500
  21
 580.071
  31
0.0
   0
LINE
   8
LEVEL001
   6
DASHDOT
  62
1
  10
 108.500
  20
 620.500
  30
0.0
  11
 108.500
  21
 581.004
  31
0.0
   0
LINE
   8
LEVEL001
   6
DASHDOT
  62
1
  10
 360.000
  20
 520.000
  30
0.0
  11
 40.0000
  21
 520.000
  31
0.0
   0
LINE
   8
LEVEL001
   6
DASHDOT
  62
1
  10
 145.000
  20
 469.198
  30
0.0
  11
 145.000
  21
 425.891
  31
0.0
   0
LINE
   8
LEVEL001
   6
DASHDOT
  62
1
  10
 255.000
  20
 469.198
  30
0.0
  11
 255.000
  21
 425.891
  31
0.0
   0
LINE
   8
LEVEL001
   6
CONTINUOUS
  62
7
  10
 355.000
  20
 904.500
  30
0.0
  11
 355.000
  21
 878.500
  31
0.0
   0
LINE
   8
LEVEL001
   6
CONTINUOUS
  62
7
  10
 354.000
  20
 877.500
  30
0.0
  11
 355.000
  21
 878.500
  31
0.0
   0
LINE
   8
LEVEL001
   6
CONTINUOUS
  62
7
  10
 354.000
  20
 905.500
  30
0.0
  11
 355.000
  21
 904.500
  31
0.0
   0
LINE
   8
LEVEL001
   6
CONTINUOUS
  62
7
  10
 319.000
  20
 895.500
  30
0.0
  11
 319.000
  21
 887.500
  31
0.0
   0
ARC
   8
LEVEL001
   6
CONTINUOUS
  62
7
  10
 303.250
  20
 845.500
  30
0.0
  40
 2.00000
  50
 270.000
  51
0.0
   0
ARC
   8
LEVEL001
   6
CONTINUOUS
  62
7
  10
 303.250
  20
 937.500
  30
0.0
  40
 2.00000
  50
0.0
  51
 90.0000
   0
LINE
   8
LEVEL001
   6
CONTINUOUS
  62
7
  10
 308.500
  20
 906.476
  30
0.0
  11
 308.500
  21
 876.634
  31
0.0
   0
LINE
   8
LEVEL001
   6
CONTINUOUS
  62
7
  10
 309.102
  20
 895.500
  30
0.0
  11
 309.102
  21
 887.500
  31
0.0
   0
LINE
   8
LEVEL001
   6
CONTINUOUS
  62
7
  10
 309.102
  20
 887.500
  30
0.0
  11
 355.000
  21
 887.500
  31
0.0
   0
LINE
   8
LEVEL001
   6
CONTINUOUS
  62
7
  10
 313.110
  20
 877.500
  30
0.0
  11
 354.000
  21
 877.500
  31
0.0
   0
LINE
   8
LEVEL001
   6
CONTINUOUS
  62
7
  10
 313.000
  20
 877.500
  30
0.0
  11
 313.000
  21
 887.500
  31
0.0
   0
ARC
   8
LEVEL001
   6
CONTINUOUS
  62
7
  10
 313.110
  20
 876.500
  30
0.0
  40
 1.00000
  50
 90.0000
  51
 102.529
   0
LINE
   8
LEVEL001
   6
CONTINUOUS
  62
7
  10
 308.607
  20
 876.524
  30
0.0
  11
 312.893
  21
 877.476
  31
0.0
   0
ARC
   8
LEVEL001
   6
CONTINUOUS
  62
7
  10
 308.390
  20
 877.500
  30
0.0
  40
 1.00000
  50
 270.000
  51
 282.529
   0
LINE
   8
LEVEL001
   6
CONTINUOUS
  62
7
  10
 313.110
  20
 905.500
  30
0.0
  11
 354.000
  21
 905.500
  31
0.0
   0
LINE
   8
LEVEL001
   6
CONTINUOUS
  62
7
  10
 313.000
  20
 905.500
  30
0.0
  11
 313.000
  21
 895.500
  31
0.0
   0
LINE
   8
LEVEL001
   6
CONTINUOUS
  62
7
  10
 309.102
  20
 895.500
  30
0.0
  11
 355.000
  21
 895.500
  31
0.0
   0
ARC
   8
LEVEL001
   6
CONTINUOUS
  62
7
  10
 313.110
  20
 906.500
  30
0.0
  40
 1.00000
  50
 257.471
  51
 270.000
   0
LINE
   8
LEVEL001
   6
CONTINUOUS
  62
7
  10
 308.607
  20
 906.476
  30
0.0
  11
 312.893
  21
 905.524
  31
0.0
   0
ARC
   8
LEVEL001
   6
CONTINUOUS
  62
7
  10
 308.390
  20
 905.500
  30
0.0
  40
 1.00000
  50
 77.4712
  51
 90.0000
   0
LINE
   8
LEVEL001
   6
CONTINUOUS
  62
7
  10
 200.000
  20
 1117.50
  30
0.0
  11
 144.484
  21
 1116.49
  31
0.0
   0
LINE
   8
LEVEL001
   6
CONTINUOUS
  62
7
  10
 200.000
  20
 1117.50
  30
0.0
  11
 255.516
  21
 1116.49
  31
0.0
   0
ARC
   8
LEVEL001
   6
CONTINUOUS
  62
7
  10
 184.500
  20
 1091.93
  30
0.0
  40
 8.00000
  50
 305.841
  51
0.0
   0
ARC
   8
LEVEL001
   6
CONTINUOUS
  62
7
  10
 184.500
  20
 1109.22
  30
0.0
  40
 8.00000
  50
 0.162844E-11
  51
 91.0368
   0
LINE
   8
LEVEL001
   6
CONTINUOUS
  62
7
  10
 192.500
  20
 1109.22
  30
0.0
  11
 192.500
  21
 1091.93
  31
0.0
   0
ARC
   8
LEVEL001
   6
CONTINUOUS
  62
7
  10
 145.000
  20
 1088.00
  30
0.0
  40
 28.5000
  50
 91.0368
  51
 177.857
   0
ARC
   8
LEVEL001
   6
CONTINUOUS
  62
7
  10
 215.500
  20
 1091.93
  30
0.0
  40
 8.00000
  50
 180.000
  51
 234.159
   0
ARC
   8
LEVEL001
   6
CONTINUOUS
  62
7
  10
 215.500
  20
 1109.22
  30
0.0
  40
 8.00000
  50
 88.9632
  51
 180.000
   0
LINE
   8
LEVEL001
   6
CONTINUOUS
  62
7
  10
 207.500
  20
 1109.22
  30
0.0
  11
 207.500
  21
 1091.93
  31
0.0
   0
ARC
   8
LEVEL001
   6
CONTINUOUS
  62
7
  10
 255.000
  20
 1088.00
  30
0.0
  40
 28.5000
  50
 2.14297
  51
 88.9632
   0
TEXT
   8
LEVEL001
  62
7
  10
 177.961
  20
 1041.39
  30
0.0
  40
 22.0000
   1
Ｗ
  50
 15.0000
  41
 0.409091
   7
STANDARD
   0
TEXT
   8
LEVEL001
  62
7
  10
 188.956
  20
 1044.28
  30
0.0
  40
 22.0000
   1
Ｊ
  50
 5.00000
  41
 0.409091
   7
STANDARD
   0
TEXT
   8
LEVEL001
  62
7
  10
 200.286
  20
 1045.22
  30
0.0
  40
 22.0000
   1
１
  50
 355.000
  41
 0.409091
   7
STANDARD
   0
TEXT
   8
LEVEL001
  62
7
  10
 211.607
  20
 1044.18
  30
0.0
  40
 22.0000
   1
５
  50
 345.000
  41
 0.409091
   7
STANDARD
   0
LINE
   8
LEVEL001
   6
CONTINUOUS
  62
7
  10
 207.500
  20
 837.351
  30
0.0
  11
 207.500
  21
 800.782
  31
0.0
   0
LINE
   8
LEVEL001
   6
CONTINUOUS
  62
7
  10
 192.500
  20
 837.351
  30
0.0
  11
 192.500
  21
 800.782
  31
0.0
   0
ARC
   8
LEVEL001
   6
CONTINUOUS
  62
7
  10
 215.500
  20
 837.351
  30
0.0
  40
 8.00000
  50
 90.9341
  51
 180.000
   0
ARC
   8
LEVEL001
   6
CONTINUOUS
  62
7
  10
 184.500
  20
 837.351
  30
0.0
  40
 8.00000
  50
0.0
  51
 89.0659
   0
LINE
   8
LEVEL001
   6
CONTINUOUS
  62
7
  10
 200.000
  20
 792.500
  30
0.0
  11
 144.484
  21
 793.505
  31
0.0
   0
LINE
   8
LEVEL001
   6
CONTINUOUS
  62
7
  10
 200.000
  20
 792.500
  30
0.0
  11
 255.516
  21
 793.505
  31
0.0
   0
ARC
   8
LEVEL001
   6
CONTINUOUS
  62
7
  10
 184.500
  20
 835.252
  30
0.0
  40
 8.00000
  50
0.0
  51
 89.0659
   0
LINE
   8
LEVEL001
   6
CONTINUOUS
  62
7
  10
 184.630
  20
 843.251
  30
0.0
  11
 108.000
  21
 844.500
  31
0.0
   0
ARC
   8
LEVEL001
   6
CONTINUOUS
  62
7
  10
 184.500
  20
 800.782
  30
0.0
  40
 8.00000
  50
 268.963
  51
 0.635093E-10
   0
ARC
   8
LEVEL001
   6
CONTINUOUS
  62
7
  10
 215.500
  20
 800.782
  30
0.0
  40
 8.00000
  50
 180.000
  51
 271.037
   0
ARC
   8
LEVEL001
   6
CONTINUOUS
  62
7
  10
 215.500
  20
 835.252
  30
0.0
  40
 8.00000
  50
 90.9341
  51
 180.000
   0
LINE
   8
LEVEL001
   6
CONTINUOUS
  62
7
  10
 215.370
  20
 843.251
  30
0.0
  11
 292.000
  21
 844.500
  31
0.0
   0
LINE
   8
LEVEL001
   6
CONTINUOUS
  62
7
  10
 108.000
  20
 927.350
  30
0.0
  11
 108.000
  21
 844.500
  31
0.0
   0
LINE
   8
LEVEL001
   6
CONTINUOUS
  62
7
  10
 107.750
  20
 843.500
  30
0.0
  11
 107.750
  21
 927.789
  31
0.0
   0
LINE
   8
LEVEL001
   6
CONTINUOUS
  62
7
  10
 94.7500
  20
 876.500
  30
0.0
  11
 91.6100
  21
 876.500
  31
0.0
   0
LINE
   8
LEVEL001
   6
CONTINUOUS
  62
7
  10
 94.7500
  20
 906.500
  30
0.0
  11
 91.6100
  21
 906.500
  31
0.0
   0
LINE
   8
LEVEL001
   6
CONTINUOUS
  62
7
  10
 102.042
  20
 939.500
  30
0.0
  11
 96.7500
  21
 939.500
  31
0.0
   0
LINE
   8
LEVEL001
   6
CONTINUOUS
  62
7
  10
 94.7500
  20
 937.500
  30
0.0
  11
 94.7500
  21
 845.500
  31
0.0
   0
LINE
   8
LEVEL001
   6
CONTINUOUS
  62
7
  10
 115.922
  20
 844.371
  30
0.0
  11
 116.509
  21
 821.275
  31
0.0
   0
ARC
   8
LEVEL001
   6
CONTINUOUS
  62
7
  10
 145.000
  20
 822.000
  30
0.0
  40
 25.0000
  50
 117.932
  51
 60.2002
   0
ARC
   8
LEVEL001
   6
CONTINUOUS
  62
7
  10
 145.000
  20
 822.000
  30
0.0
  40
 28.5000
  50
 181.457
  51
 268.963
   0
CIRCLE
   8
LEVEL001
   6
CONTINUOUS
  62
7
  10
 145.000
  20
 822.000
  30
0.0
  40
 13.0000
   0
LINE
   8
LEVEL001
   6
CONTINUOUS
  62
7
  10
 107.750
  20
 843.500
  30
0.0
  11
 96.7500
  21
 843.500
  31
0.0
   0
ARC
   8
LEVEL001
   6
CONTINUOUS
  62
7
  10
 96.7500
  20
 845.500
  30
0.0
  40
 2.00000
  50
 180.000
  51
 270.000
   0
LINE
   8
LEVEL001
   6
CONTINUOUS
  62
7
  10
 81.0000
  20
 895.500
  30
0.0
  11
 81.0000
  21
 887.500
  31
0.0
   0
LINE
   8
LEVEL001
   6
CONTINUOUS
  62
7
  10
 90.8980
  20
 895.500
  30
0.0
  11
 90.8980
  21
 887.500
  31
0.0
   0
LINE
   8
LEVEL001
   6
CONTINUOUS
  62
7
  10
 90.8980
  20
 887.500
  30
0.0
  11
 45.0000
  21
 887.500
  31
0.0
   0
LINE
   8
LEVEL001
   6
CONTINUOUS
  62
7
  10
 86.8900
  20
 877.500
  30
0.0
  11
 46.0000
  21
 877.500
  31
0.0
   0
LINE
   8
LEVEL001
   6
CONTINUOUS
  62
7
  10
 87.0000
  20
 877.500
  30
0.0
  11
 87.0000
  21
 887.500
  31
0.0
   0
ARC
   8
LEVEL001
   6
CONTINUOUS
  62
7
  10
 86.8900
  20
 876.500
  30
0.0
  40
 1.00000
  50
 77.4712
  51
 90.0000
   0
LINE
   8
LEVEL001
   6
CONTINUOUS
  62
7
  10
 91.3930
  20
 876.524
  30
0.0
  11
 87.1070
  21
 877.476
  31
0.0
   0
ARC
   8
LEVEL001
   6
CONTINUOUS
  62
7
  10
 91.6100
  20
 877.500
  30
0.0
  40
 1.00000
  50
 257.471
  51
 270.000
   0
LINE
   8
LEVEL001
   6
CONTINUOUS
  62
7
  10
 90.8980
  20
 895.500
  30
0.0
  11
 45.0000
  21
 895.500
  31
0.0
   0
LINE
   8
LEVEL001
   6
CONTINUOUS
  62
7
  10
 91.5000
  20
 906.476
  30
0.0
  11
 91.5000
  21
 876.634
  31
0.0
   0
LINE
   8
LEVEL001
   6
CONTINUOUS
  62
7
  10
 86.8900
  20
 905.500
  30
0.0
  11
 46.0000
  21
 905.500
  31
0.0
   0
LINE
   8
LEVEL001
   6
CONTINUOUS
  62
7
  10
 87.0000
  20
 905.500
  30
0.0
  11
 87.0000
  21
 895.500
  31
0.0
   0
ARC
   8
LEVEL001
   6
CONTINUOUS
  62
7
  10
 86.8900
  20
 906.500
  30
0.0
  40
 1.00000
  50
 270.000
  51
 282.529
   0
LINE
   8
LEVEL001
   6
CONTINUOUS
  62
7
  10
 91.3930
  20
 906.476
  30
0.0
  11
 87.1070
  21
 905.524
  31
0.0
   0
ARC
   8
LEVEL001
   6
CONTINUOUS
  62
7
  10
 91.6100
  20
 905.500
  30
0.0
  40
 1.00000
  50
 90.0000
  51
 102.529
   0
ARC
   8
LEVEL001
   6
CONTINUOUS
  62
7
  10
 96.7500
  20
 937.500
  30
0.0
  40
 2.00000
  50
 90.0000
  51
 180.000
   0
LINE
   8
LEVEL001
   6
CONTINUOUS
  62
7
  10
 292.250
  20
 843.500
  30
0.0
  11
 303.250
  21
 843.500
  31
0.0
   0
LINE
   8
LEVEL001
   6
CONTINUOUS
  62
7
  10
 284.078
  20
 844.371
  30
0.0
  11
 283.491
  21
 821.275
  31
0.0
   0
ARC
   8
LEVEL001
   6
CONTINUOUS
  62
7
  10
 255.000
  20
 822.000
  30
0.0
  40
 28.5000
  50
 271.037
  51
 358.543
   0
CIRCLE
   8
LEVEL001
   6
CONTINUOUS
  62
7
  10
 255.000
  20
 822.000
  30
0.0
  40
 13.0000
   0
ARC
   8
LEVEL001
   6
CONTINUOUS
  62
7
  10
 145.000
  20
 1088.00
  30
0.0
  40
 25.0000
  50
 344.693
  51
 249.283
   0
LINE
   8
LEVEL001
   6
CONTINUOUS
  62
7
  10
 114.798
  20
 1043.06
  30
0.0
  11
 116.520
  21
 1089.07
  31
0.0
   0
CIRCLE
   8
LEVEL001
   6
CONTINUOUS
  62
7
  10
 145.000
  20
 1088.00
  30
0.0
  40
 13.0000
   0
ARC
   8
LEVEL001
   6
CONTINUOUS
  62
7
  10
 255.000
  20
 1088.00
  30
0.0
  40
 25.0000
  50
 290.717
  51
 195.307
   0
LINE
   8
LEVEL001
   6
CONTINUOUS
  62
7
  10
 285.202
  20
 1043.06
  30
0.0
  11
 283.480
  21
 1089.07
  31
0.0
   0
CIRCLE
   8
LEVEL001
   6
CONTINUOUS
  62
7
  10
 255.000
  20
 1088.00
  30
0.0
  40
 13.0000
   0
LINE
   8
LEVEL001
   6
CONTINUOUS
  62
7
  10
 175.376
  20
 885.000
  30
0.0
  11
 211.876
  21
 885.000
  31
0.0
   0
LINE
   8
LEVEL001
   6
CONTINUOUS
  62
7
  10
 177.685
  20
 889.000
  30
0.0
  11
 198.185
  21
 889.000
  31
0.0
   0
LINE
   8
LEVEL001
   6
CONTINUOUS
  62
7
  10
 198.185
  20
 889.000
  30
0.0
  11
 208.000
  21
 906.000
  31
0.0
   0
LINE
   8
LEVEL001
   6
CONTINUOUS
  62
7
  10
 175.376
  20
 885.000
  30
0.0
  11
 177.685
  21
 889.000
  31
0.0
   0
CIRCLE
   8
LEVEL001
   6
CONTINUOUS
  62
7
  10
 192.000
  20
 900.000
  30
0.0
  40
 7.00000
   0
CIRCLE
   8
LEVEL001
   6
CONTINUOUS
  62
7
  10
 120.759
  20
 1025.75
  30
0.0
  40
 7.00000
   0
CIRCLE
   8
LEVEL001
   6
CONTINUOUS
  62
7
  10
 120.759
  20
 1025.75
  30
0.0
  40
 6.00000
   0
CIRCLE
   8
LEVEL001
   6
CONTINUOUS
  62
7
  10
 108.500
  20
 980.000
  30
0.0
  40
 9.28756
   0
CIRCLE
   8
LEVEL001
   6
CONTINUOUS
  62
7
  10
 108.500
  20
 980.000
  30
0.0
  40
 10.5000
   0
CIRCLE
   8
LEVEL001
   6
CONTINUOUS
  62
7
  10
 154.250
  20
 1059.24
  30
0.0
  40
 9.28756
   0
CIRCLE
   8
LEVEL001
   6
CONTINUOUS
  62
7
  10
 154.250
  20
 1059.24
  30
0.0
  40
 10.5000
   0
CIRCLE
   8
LEVEL001
   6
CONTINUOUS
  62
7
  10
 154.250
  20
 900.759
  30
0.0
  40
 9.28756
   0
CIRCLE
   8
LEVEL001
   6
CONTINUOUS
  62
7
  10
 154.250
  20
 900.759
  30
0.0
  40
 10.5000
   0
CIRCLE
   8
LEVEL001
   6
CONTINUOUS
  62
7
  10
 245.750
  20
 1059.24
  30
0.0
  40
 9.28756
   0
CIRCLE
   8
LEVEL001
   6
CONTINUOUS
  62
7
  10
 245.750
  20
 1059.24
  30
0.0
  40
 10.5000
   0
LINE
   8
LEVEL001
   6
CONTINUOUS
  62
7
  10
 114.480
  20
 935.932
  30
0.0
  11
 127.037
  21
 932.568
  31
0.0
   0
LINE
   8
LEVEL001
   6
CONTINUOUS
  62
7
  10
 119.076
  20
 927.971
  30
0.0
  11
 122.441
  21
 940.529
  31
0.0
   0
CIRCLE
   8
LEVEL001
   6
CONTINUOUS
  62
7
  10
 120.759
  20
 934.250
  30
0.0
  40
 6.50000
   0
LINE
   8
LEVEL001
   6
CONTINUOUS
  62
7
  10
 272.963
  20
 1027.43
  30
0.0
  11
 285.520
  21
 1024.07
  31
0.0
   0
LINE
   8
LEVEL001
   6
CONTINUOUS
  62
7
  10
 277.559
  20
 1019.47
  30
0.0
  11
 280.924
  21
 1032.03
  31
0.0
   0
CIRCLE
   8
LEVEL001
   6
CONTINUOUS
  62
7
  10
 279.241
  20
 1025.75
  30
0.0
  40
 6.50000
   0
LINE
   8
LEVEL001
   6
CONTINUOUS
  62
7
  10
 308.390
  20
 876.500
  30
0.0
  11
 305.143
  21
 876.500
  31
0.0
   0
LINE
   8
LEVEL001
   6
CONTINUOUS
  62
7
  10
 305.250
  20
 845.500
  30
0.0
  11
 305.250
  21
 937.500
  31
0.0
   0
LINE
   8
LEVEL001
   6
CONTINUOUS
  62
7
  10
 305.250
  20
 906.500
  30
0.0
  11
 308.390
  21
 906.500
  31
0.0
   0
CIRCLE
   8
LEVEL001
   6
CONTINUOUS
  62
7
  10
 200.000
  20
 980.000
  30
0.0
  40
 7.00000
   0
CIRCLE
   8
LEVEL001
   6
CONTINUOUS
  62
7
  10
 200.000
  20
 980.000
  30
0.0
  40
 8.00000
   0
CIRCLE
   8
LEVEL001
   6
CONTINUOUS
  62
7
  10
 200.000
  20
 980.000
  30
0.0
  40
 29.0000
   0
CIRCLE
   8
LEVEL001
   6
CONTINUOUS
  62
7
  10
 200.000
  20
 980.000
  30
0.0
  40
 30.0000
   0
CIRCLE
   8
LEVEL001
   6
CONTINUOUS
  62
7
  10
 200.000
  20
 980.000
  30
0.0
  40
 51.5000
   0
CIRCLE
   8
LEVEL001
   6
CONTINUOUS
  62
7
  10
 200.000
  20
 980.000
  30
0.0
  40
 106.000
   0
LINE
   8
LEVEL001
   6
CONTINUOUS
  62
7
  10
 101.572
  20
 980.000
  30
0.0
  11
 105.036
  21
 974.000
  31
0.0
   0
LINE
   8
LEVEL001
   6
CONTINUOUS
  62
7
  10
 105.036
  20
 974.000
  30
0.0
  11
 111.964
  21
 974.000
  31
0.0
   0
LINE
   8
LEVEL001
   6
CONTINUOUS
  62
7
  10
 111.964
  20
 974.000
  30
0.0
  11
 115.428
  21
 980.000
  31
0.0
   0
LINE
   8
LEVEL001
   6
CONTINUOUS
  62
7
  10
 115.428
  20
 980.000
  30
0.0
  11
 111.964
  21
 986.000
  31
0.0
   0
LINE
   8
LEVEL001
   6
CONTINUOUS
  62
7
  10
 111.964
  20
 986.000
  30
0.0
  11
 105.036
  21
 986.000
  31
0.0
   0
LINE
   8
LEVEL001
   6
CONTINUOUS
  62
7
  10
 105.036
  20
 986.000
  30
0.0
  11
 101.572
  21
 980.000
  31
0.0
   0
LINE
   8
LEVEL001
   6
CONTINUOUS
  62
7
  10
 150.786
  20
 1065.24
  30
0.0
  11
 147.322
  21
 1059.24
  31
0.0
   0
LINE
   8
LEVEL001
   6
CONTINUOUS
  62
7
  10
 147.322
  20
 1059.24
  30
0.0
  11
 150.786
  21
 1053.24
  31
0.0
   0
LINE
   8
LEVEL001
   6
CONTINUOUS
  62
7
  10
 150.786
  20
 1053.24
  30
0.0
  11
 157.714
  21
 1053.24
  31
0.0
   0
LINE
   8
LEVEL001
   6
CONTINUOUS
  62
7
  10
 157.714
  20
 1053.24
  30
0.0
  11
 161.178
  21
 1059.24
  31
0.0
   0
LINE
   8
LEVEL001
   6
CONTINUOUS
  62
7
  10
 161.178
  20
 1059.24
  30
0.0
  11
 157.714
  21
 1065.24
  31
0.0
   0
LINE
   8
LEVEL001
   6
CONTINUOUS
  62
7
  10
 157.714
  20
 1065.24
  30
0.0
  11
 150.786
  21
 1065.24
  31
0.0
   0
LINE
   8
LEVEL001
   6
CONTINUOUS
  62
7
  10
 157.714
  20
 906.759
  30
0.0
  11
 161.178
  21
 900.759
  31
0.0
   0
LINE
   8
LEVEL001
   6
CONTINUOUS
  62
7
  10
 161.178
  20
 900.759
  30
0.0
  11
 157.714
  21
 894.759
  31
0.0
   0
LINE
   8
LEVEL001
   6
CONTINUOUS
  62
7
  10
 157.714
  20
 894.759
  30
0.0
  11
 150.786
  21
 894.759
  31
0.0
   0
LINE
   8
LEVEL001
   6
CONTINUOUS
  62
7
  10
 150.786
  20
 894.759
  30
0.0
  11
 147.322
  21
 900.759
  31
0.0
   0
LINE
   8
LEVEL001
   6
CONTINUOUS
  62
7
  10
 147.322
  20
 900.759
  30
0.0
  11
 150.786
  21
 906.759
  31
0.0
   0
LINE
   8
LEVEL001
   6
CONTINUOUS
  62
7
  10
 150.786
  20
 906.759
  30
0.0
  11
 157.714
  21
 906.759
  31
0.0
   0
LINE
   8
LEVEL001
   6
CONTINUOUS
  62
7
  10
 249.214
  20
 1065.24
  30
0.0
  11
 252.678
  21
 1059.24
  31
0.0
   0
LINE
   8
LEVEL001
   6
CONTINUOUS
  62
7
  10
 252.678
  20
 1059.24
  30
0.0
  11
 249.214
  21
 1053.24
  31
0.0
   0
LINE
   8
LEVEL001
   6
CONTINUOUS
  62
7
  10
 249.214
  20
 1053.24
  30
0.0
  11
 242.286
  21
 1053.24
  31
0.0
   0
LINE
   8
LEVEL001
   6
CONTINUOUS
  62
7
  10
 242.286
  20
 1053.24
  30
0.0
  11
 238.822
  21
 1059.24
  31
0.0
   0
LINE
   8
LEVEL001
   6
CONTINUOUS
  62
7
  10
 238.822
  20
 1059.24
  30
0.0
  11
 242.286
  21
 1065.24
  31
0.0
   0
LINE
   8
LEVEL001
   6
CONTINUOUS
  62
7
  10
 242.286
  20
 1065.24
  30
0.0
  11
 249.214
  21
 1065.24
  31
0.0
   0
CIRCLE
   8
LEVEL001
   6
CONTINUOUS
  62
7
  10
 279.241
  20
 934.250
  30
0.0
  40
 7.00000
   0
CIRCLE
   8
LEVEL001
   6
CONTINUOUS
  62
7
  10
 279.241
  20
 934.250
  30
0.0
  40
 6.00000
   0
CIRCLE
   8
LEVEL001
   6
CONTINUOUS
  62
7
  10
 291.500
  20
 980.000
  30
0.0
  40
 9.28756
   0
CIRCLE
   8
LEVEL001
   6
CONTINUOUS
  62
7
  10
 291.500
  20
 980.000
  30
0.0
  40
 10.5000
   0
CIRCLE
   8
LEVEL001
   6
CONTINUOUS
  62
7
  10
 245.750
  20
 900.759
  30
0.0
  40
 9.28756
   0
CIRCLE
   8
LEVEL001
   6
CONTINUOUS
  62
7
  10
 245.750
  20
 900.759
  30
0.0
  40
 10.5000
   0
LINE
   8
LEVEL001
   6
CONTINUOUS
  62
7
  10
 298.428
  20
 980.000
  30
0.0
  11
 294.964
  21
 986.000
  31
0.0
   0
LINE
   8
LEVEL001
   6
CONTINUOUS
  62
7
  10
 294.964
  20
 986.000
  30
0.0
  11
 288.036
  21
 986.000
  31
0.0
   0
LINE
   8
LEVEL001
   6
CONTINUOUS
  62
7
  10
 288.036
  20
 986.000
  30
0.0
  11
 284.572
  21
 980.000
  31
0.0
   0
LINE
   8
LEVEL001
   6
CONTINUOUS
  62
7
  10
 284.572
  20
 980.000
  30
0.0
  11
 288.036
  21
 974.000
  31
0.0
   0
LINE
   8
LEVEL001
   6
CONTINUOUS
  62
7
  10
 288.036
  20
 974.000
  30
0.0
  11
 294.964
  21
 974.000
  31
0.0
   0
LINE
   8
LEVEL001
   6
CONTINUOUS
  62
7
  10
 294.964
  20
 974.000
  30
0.0
  11
 298.428
  21
 980.000
  31
0.0
   0
LINE
   8
LEVEL001
   6
CONTINUOUS
  62
7
  10
 249.214
  20
 894.759
  30
0.0
  11
 252.678
  21
 900.759
  31
0.0
   0
LINE
   8
LEVEL001
   6
CONTINUOUS
  62
7
  10
 252.678
  20
 900.759
  30
0.0
  11
 249.214
  21
 906.759
  31
0.0
   0
LINE
   8
LEVEL001
   6
CONTINUOUS
  62
7
  10
 249.214
  20
 906.759
  30
0.0
  11
 242.286
  21
 906.759
  31
0.0
   0
LINE
   8
LEVEL001
   6
CONTINUOUS
  62
7
  10
 242.286
  20
 906.759
  30
0.0
  11
 238.822
  21
 900.759
  31
0.0
   0
LINE
   8
LEVEL001
   6
CONTINUOUS
  62
7
  10
 238.822
  20
 900.759
  30
0.0
  11
 242.286
  21
 894.759
  31
0.0
   0
LINE
   8
LEVEL001
   6
CONTINUOUS
  62
7
  10
 242.286
  20
 894.759
  30
0.0
  11
 249.214
  21
 894.759
  31
0.0
   0
LINE
   8
LEVEL001
   6
CONTINUOUS
  62
7
  10
 251.880
  20
 987.000
  30
0.0
  11
 251.857
  21
 986.973
  31
0.0
   0
LINE
   8
LEVEL001
   6
CONTINUOUS
  62
7
  10
 251.857
  20
 986.973
  30
0.0
  11
 251.834
  21
 986.894
  31
0.0
   0
LINE
   8
LEVEL001
   6
CONTINUOUS
  62
7
  10
 251.834
  20
 986.894
  30
0.0
  11
 251.811
  21
 986.761
  31
0.0
   0
LINE
   8
LEVEL001
   6
CONTINUOUS
  62
7
  10
 251.811
  20
 986.761
  30
0.0
  11
 251.789
  21
 986.578
  31
0.0
   0
LINE
   8
LEVEL001
   6
CONTINUOUS
  62
7
  10
 251.789
  20
 986.578
  30
0.0
  11
 251.768
  21
 986.344
  31
0.0
   0
LINE
   8
LEVEL001
   6
CONTINUOUS
  62
7
  10
 251.768
  20
 986.344
  30
0.0
  11
 251.747
  21
 986.062
  31
0.0
   0
LINE
   8
LEVEL001
   6
CONTINUOUS
  62
7
  10
 251.747
  20
 986.062
  30
0.0
  11
 251.728
  21
 985.734
  31
0.0
   0
LINE
   8
LEVEL001
   6
CONTINUOUS
  62
7
  10
 251.728
  20
 985.734
  30
0.0
  11
 251.709
  21
 985.362
  31
0.0
   0
LINE
   8
LEVEL001
   6
CONTINUOUS
  62
7
  10
 251.709
  20
 985.362
  30
0.0
  11
 251.692
  21
 984.950
  31
0.0
   0
LINE
   8
LEVEL001
   6
CONTINUOUS
  62
7
  10
 251.692
  20
 984.950
  30
0.0
  11
 251.677
  21
 984.500
  31
0.0
   0
LINE
   8
LEVEL001
   6
CONTINUOUS
  62
7
  10
 251.677
  20
 984.500
  30
0.0
  11
 251.662
  21
 984.015
  31
0.0
   0
LINE
   8
LEVEL001
   6
CONTINUOUS
  62
7
  10
 251.662
  20
 984.015
  30
0.0
  11
 251.650
  21
 983.500
  31
0.0
   0
LINE
   8
LEVEL001
   6
CONTINUOUS
  62
7
  10
 251.650
  20
 983.500
  30
0.0
  11
 251.639
  21
 982.958
  31
0.0
   0
LINE
   8
LEVEL001
   6
CONTINUOUS
  62
7
  10
 251.639
  20
 982.958
  30
0.0
  11
 251.630
  21
 982.394
  31
0.0
   0
LINE
   8
LEVEL001
   6
CONTINUOUS
  62
7
  10
 251.630
  20
 982.394
  30
0.0
  11
 251.623
  21
 981.812
  31
0.0
   0
LINE
   8
LEVEL001
   6
CONTINUOUS
  62
7
  10
 251.623
  20
 981.812
  30
0.0
  11
 251.618
  21
 981.216
  31
0.0
   0
LINE
   8
LEVEL001
   6
CONTINUOUS
  62
7
  10
 251.618
  20
 981.216
  30
0.0
  11
 251.615
  21
 980.610
  31
0.0
   0
LINE
   8
LEVEL001
   6
CONTINUOUS
  62
7
  10
 251.615
  20
 980.610
  30
0.0
  11
 251.614
  21
 980.000
  31
0.0
   0
LINE
   8
LEVEL001
   6
CONTINUOUS
  62
7
  10
 251.614
  20
 980.000
  30
0.0
  11
 251.615
  21
 979.390
  31
0.0
   0
LINE
   8
LEVEL001
   6
CONTINUOUS
  62
7
  10
 251.615
  20
 979.390
  30
0.0
  11
 251.618
  21
 978.784
  31
0.0
   0
LINE
   8
LEVEL001
   6
CONTINUOUS
  62
7
  10
 251.618
  20
 978.784
  30
0.0
  11
 251.623
  21
 978.188
  31
0.0
   0
LINE
   8
LEVEL001
   6
CONTINUOUS
  62
7
  10
 251.623
  20
 978.188
  30
0.0
  11
 251.630
  21
 977.606
  31
0.0
   0
LINE
   8
LEVEL001
   6
CONTINUOUS
  62
7
  10
 251.630
  20
 977.606
  30
0.0
  11
 251.639
  21
 977.042
  31
0.0
   0
LINE
   8
LEVEL001
   6
CONTINUOUS
  62
7
  10
 251.639
  20
 977.042
  30
0.0
  11
 251.650
  21
 976.500
  31
0.0
   0
LINE
   8
LEVEL001
   6
CONTINUOUS
  62
7
  10
 251.650
  20
 976.500
  30
0.0
  11
 251.662
  21
 975.985
  31
0.0
   0
LINE
   8
LEVEL001
   6
CONTINUOUS
  62
7
  10
 251.662
  20
 975.985
  30
0.0
  11
 251.677
  21
 975.500
  31
0.0
   0
LINE
   8
LEVEL001
   6
CONTINUOUS
  62
7
  10
 251.677
  20
 975.500
  30
0.0
  11
 251.692
  21
 975.050
  31
0.0
   0
LINE
   8
LEVEL001
   6
CONTINUOUS
  62
7
  10
 251.692
  20
 975.050
  30
0.0
  11
 251.709
  21
 974.638
  31
0.0
   0
LINE
   8
LEVEL001
   6
CONTINUOUS
  62
7
  10
 251.709
  20
 974.638
  30
0.0
  11
 251.728
  21
 974.266
  31
0.0
   0
LINE
   8
LEVEL001
   6
CONTINUOUS
  62
7
  10
 251.728
  20
 974.266
  30
0.0
  11
 251.747
  21
 973.938
  31
0.0
   0
LINE
   8
LEVEL001
   6
CONTINUOUS
  62
7
  10
 251.747
  20
 973.938
  30
0.0
  11
 251.768
  21
 973.656
  31
0.0
   0
LINE
   8
LEVEL001
   6
CONTINUOUS
  62
7
  10
 251.768
  20
 973.656
  30
0.0
  11
 251.789
  21
 973.422
  31
0.0
   0
LINE
   8
LEVEL001
   6
CONTINUOUS
  62
7
  10
 251.789
  20
 973.422
  30
0.0
  11
 251.811
  21
 973.239
  31
0.0
   0
LINE
   8
LEVEL001
   6
CONTINUOUS
  62
7
  10
 251.811
  20
 973.239
  30
0.0
  11
 251.834
  21
 973.106
  31
0.0
   0
LINE
   8
LEVEL001
   6
CONTINUOUS
  62
7
  10
 251.834
  20
 973.106
  30
0.0
  11
 251.857
  21
 973.027
  31
0.0
   0
LINE
   8
LEVEL001
   6
CONTINUOUS
  62
7
  10
 251.857
  20
 973.027
  30
0.0
  11
 251.880
  21
 973.000
  31
0.0
   0
LINE
   8
LEVEL001
   6
CONTINUOUS
  62
7
  10
 251.880
  20
 973.000
  30
0.0
  11
 251.903
  21
 973.027
  31
0.0
   0
LINE
   8
LEVEL001
   6
CONTINUOUS
  62
7
  10
 251.903
  20
 973.027
  30
0.0
  11
 251.926
  21
 973.106
  31
0.0
   0
LINE
   8
LEVEL001
   6
CONTINUOUS
  62
7
  10
 251.926
  20
 973.106
  30
0.0
  11
 251.949
  21
 973.239
  31
0.0
   0
LINE
   8
LEVEL001
   6
CONTINUOUS
  62
7
  10
 251.949
  20
 973.239
  30
0.0
  11
 251.971
  21
 973.422
  31
0.0
   0
LINE
   8
LEVEL001
   6
CONTINUOUS
  62
7
  10
 251.971
  20
 973.422
  30
0.0
  11
 251.992
  21
 973.656
  31
0.0
   0
LINE
   8
LEVEL001
   6
CONTINUOUS
  62
7
  10
 251.992
  20
 973.656
  30
0.0
  11
 252.013
  21
 973.938
  31
0.0
   0
LINE
   8
LEVEL001
   6
CONTINUOUS
  62
7
  10
 252.013
  20
 973.938
  30
0.0
  11
 252.033
  21
 974.266
  31
0.0
   0
LINE
   8
LEVEL001
   6
CONTINUOUS
  62
7
  10
 252.033
  20
 974.266
  30
0.0
  11
 252.051
  21
 974.638
  31
0.0
   0
LINE
   8
LEVEL001
   6
CONTINUOUS
  62
7
  10
 252.051
  20
 974.638
  30
0.0
  11
 252.068
  21
 975.050
  31
0.0
   0
LINE
   8
LEVEL001
   6
CONTINUOUS
  62
7
  10
 252.068
  20
 975.050
  30
0.0
  11
 252.084
  21
 975.500
  31
0.0
   0
LINE
   8
LEVEL001
   6
CONTINUOUS
  62
7
  10
 252.084
  20
 975.500
  30
0.0
  11
 252.098
  21
 975.985
  31
0.0
   0
LINE
   8
LEVEL001
   6
CONTINUOUS
  62
7
  10
 252.098
  20
 975.985
  30
0.0
  11
 252.110
  21
 976.500
  31
0.0
   0
LINE
   8
LEVEL001
   6
CONTINUOUS
  62
7
  10
 252.110
  20
 976.500
  30
0.0
  11
 252.121
  21
 977.042
  31
0.0
   0
LINE
   8
LEVEL001
   6
CONTINUOUS
  62
7
  10
 252.121
  20
 977.042
  30
0.0
  11
 252.130
  21
 977.606
  31
0.0
   0
LINE
   8
LEVEL001
   6
CONTINUOUS
  62
7
  10
 252.130
  20
 977.606
  30
0.0
  11
 252.137
  21
 978.188
  31
0.0
   0
LINE
   8
LEVEL001
   6
CONTINUOUS
  62
7
  10
 252.137
  20
 978.188
  30
0.0
  11
 252.142
  21
 978.784
  31
0.0
   0
LINE
   8
LEVEL001
   6
CONTINUOUS
  62
7
  10
 252.142
  20
 978.784
  30
0.0
  11
 252.145
  21
 979.390
  31
0.0
   0
LINE
   8
LEVEL001
   6
CONTINUOUS
  62
7
  10
 252.145
  20
 979.390
  30
0.0
  11
 252.146
  21
 980.000
  31
0.0
   0
LINE
   8
LEVEL001
   6
CONTINUOUS
  62
7
  10
 252.146
  20
 980.000
  30
0.0
  11
 252.145
  21
 980.610
  31
0.0
   0
LINE
   8
LEVEL001
   6
CONTINUOUS
  62
7
  10
 252.145
  20
 980.610
  30
0.0
  11
 252.142
  21
 981.216
  31
0.0
   0
LINE
   8
LEVEL001
   6
CONTINUOUS
  62
7
  10
 252.142
  20
 981.216
  30
0.0
  11
 252.137
  21
 981.812
  31
0.0
   0
LINE
   8
LEVEL001
   6
CONTINUOUS
  62
7
  10
 252.137
  20
 981.812
  30
0.0
  11
 252.130
  21
 982.394
  31
0.0
   0
LINE
   8
LEVEL001
   6
CONTINUOUS
  62
7
  10
 252.130
  20
 982.394
  30
0.0
  11
 252.121
  21
 982.958
  31
0.0
   0
LINE
   8
LEVEL001
   6
CONTINUOUS
  62
7
  10
 252.121
  20
 982.958
  30
0.0
  11
 252.110
  21
 983.500
  31
0.0
   0
LINE
   8
LEVEL001
   6
CONTINUOUS
  62
7
  10
 252.110
  20
 983.500
  30
0.0
  11
 252.098
  21
 984.015
  31
0.0
   0
LINE
   8
LEVEL001
   6
CONTINUOUS
  62
7
  10
 252.098
  20
 984.015
  30
0.0
  11
 252.084
  21
 984.500
  31
0.0
   0
LINE
   8
LEVEL001
   6
CONTINUOUS
  62
7
  10
 252.084
  20
 984.500
  30
0.0
  11
 252.068
  21
 984.950
  31
0.0
   0
LINE
   8
LEVEL001
   6
CONTINUOUS
  62
7
  10
 252.068
  20
 984.950
  30
0.0
  11
 252.051
  21
 985.362
  31
0.0
   0
LINE
   8
LEVEL001
   6
CONTINUOUS
  62
7
  10
 252.051
  20
 985.362
  30
0.0
  11
 252.033
  21
 985.734
  31
0.0
   0
LINE
   8
LEVEL001
   6
CONTINUOUS
  62
7
  10
 252.033
  20
 985.734
  30
0.0
  11
 252.013
  21
 986.062
  31
0.0
   0
LINE
   8
LEVEL001
   6
CONTINUOUS
  62
7
  10
 252.013
  20
 986.062
  30
0.0
  11
 251.992
  21
 986.344
  31
0.0
   0
LINE
   8
LEVEL001
   6
CONTINUOUS
  62
7
  10
 251.992
  20
 986.344
  30
0.0
  11
 251.971
  21
 986.578
  31
0.0
   0
LINE
   8
LEVEL001
   6
CONTINUOUS
  62
7
  10
 251.971
  20
 986.578
  30
0.0
  11
 251.949
  21
 986.761
  31
0.0
   0
LINE
   8
LEVEL001
   6
CONTINUOUS
  62
7
  10
 251.949
  20
 986.761
  30
0.0
  11
 251.926
  21
 986.894
  31
0.0
   0
LINE
   8
LEVEL001
   6
CONTINUOUS
  62
7
  10
 251.926
  20
 986.894
  30
0.0
  11
 251.903
  21
 986.973
  31
0.0
   0
LINE
   8
LEVEL001
   6
CONTINUOUS
  62
7
  10
 251.903
  20
 986.973
  30
0.0
  11
 251.880
  21
 987.000
  31
0.0
   0
LINE
   8
LEVEL001
   6
CONTINUOUS
  62
7
  10
 252.564
  20
 987.000
  30
0.0
  11
 252.552
  21
 986.993
  31
0.0
   0
LINE
   8
LEVEL001
   6
CONTINUOUS
  62
7
  10
 252.552
  20
 986.993
  30
0.0
  11
 252.540
  21
 986.973
  31
0.0
   0
LINE
   8
LEVEL001
   6
CONTINUOUS
  62
7
  10
 252.540
  20
 986.973
  30
0.0
  11
 252.529
  21
 986.940
  31
0.0
   0
LINE
   8
LEVEL001
   6
CONTINUOUS
  62
7
  10
 252.529
  20
 986.940
  30
0.0
  11
 252.517
  21
 986.894
  31
0.0
   0
LINE
   8
LEVEL001
   6
CONTINUOUS
  62
7
  10
 252.517
  20
 986.894
  30
0.0
  11
 252.506
  21
 986.834
  31
0.0
   0
LINE
   8
LEVEL001
   6
CONTINUOUS
  62
7
  10
 252.506
  20
 986.834
  30
0.0
  11
 252.495
  21
 986.761
  31
0.0
   0
LINE
   8
LEVEL001
   6
CONTINUOUS
  62
7
  10
 252.495
  20
 986.761
  30
0.0
  11
 252.483
  21
 986.676
  31
0.0
   0
LINE
   8
LEVEL001
   6
CONTINUOUS
  62
7
  10
 252.483
  20
 986.676
  30
0.0
  11
 252.472
  21
 986.578
  31
0.0
   0
LINE
   8
LEVEL001
   6
CONTINUOUS
  62
7
  10
 252.472
  20
 986.578
  30
0.0
  11
 252.462
  21
 986.467
  31
0.0
   0
LINE
   8
LEVEL001
   6
CONTINUOUS
  62
7
  10
 252.462
  20
 986.467
  30
0.0
  11
 252.451
  21
 986.344
  31
0.0
   0
LINE
   8
LEVEL001
   6
CONTINUOUS
  62
7
  10
 252.451
  20
 986.344
  30
0.0
  11
 252.441
  21
 986.209
  31
0.0
   0
LINE
   8
LEVEL001
   6
CONTINUOUS
  62
7
  10
 252.441
  20
 986.209
  30
0.0
  11
 252.430
  21
 986.062
  31
0.0
   0
LINE
   8
LEVEL001
   6
CONTINUOUS
  62
7
  10
 252.430
  20
 986.062
  30
0.0
  11
 252.420
  21
 985.904
  31
0.0
   0
LINE
   8
LEVEL001
   6
CONTINUOUS
  62
7
  10
 252.420
  20
 985.904
  30
0.0
  11
 252.411
  21
 985.734
  31
0.0
   0
LINE
   8
LEVEL001
   6
CONTINUOUS
  62
7
  10
 252.411
  20
 985.734
  30
0.0
  11
 252.401
  21
 985.553
  31
0.0
   0
LINE
   8
LEVEL001
   6
CONTINUOUS
  62
7
  10
 252.401
  20
 985.553
  30
0.0
  11
 252.392
  21
 985.362
  31
0.0
   0
LINE
   8
LEVEL001
   6
CONTINUOUS
  62
7
  10
 252.392
  20
 985.362
  30
0.0
  11
 252.384
  21
 985.161
  31
0.0
   0
LINE
   8
LEVEL001
   6
CONTINUOUS
  62
7
  10
 252.384
  20
 985.161
  30
0.0
  11
 252.375
  21
 984.950
  31
0.0
   0
LINE
   8
LEVEL001
   6
CONTINUOUS
  62
7
  10
 252.375
  20
 984.950
  30
0.0
  11
 252.367
  21
 984.729
  31
0.0
   0
LINE
   8
LEVEL001
   6
CONTINUOUS
  62
7
  10
 252.367
  20
 984.729
  30
0.0
  11
 252.359
  21
 984.500
  31
0.0
   0
LINE
   8
LEVEL001
   6
CONTINUOUS
  62
7
  10
 252.359
  20
 984.500
  30
0.0
  11
 252.352
  21
 984.261
  31
0.0
   0
LINE
   8
LEVEL001
   6
CONTINUOUS
  62
7
  10
 252.352
  20
 984.261
  30
0.0
  11
 252.345
  21
 984.015
  31
0.0
   0
LINE
   8
LEVEL001
   6
CONTINUOUS
  62
7
  10
 252.345
  20
 984.015
  30
0.0
  11
 252.339
  21
 983.761
  31
0.0
   0
LINE
   8
LEVEL001
   6
CONTINUOUS
  62
7
  10
 252.339
  20
 983.761
  30
0.0
  11
 252.333
  21
 983.500
  31
0.0
   0
LINE
   8
LEVEL001
   6
CONTINUOUS
  62
7
  10
 252.333
  20
 983.500
  30
0.0
  11
 252.327
  21
 983.232
  31
0.0
   0
LINE
   8
LEVEL001
   6
CONTINUOUS
  62
7
  10
 252.327
  20
 983.232
  30
0.0
  11
 252.322
  21
 982.958
  31
0.0
   0
LINE
   8
LEVEL001
   6
CONTINUOUS
  62
7
  10
 252.322
  20
 982.958
  30
0.0
  11
 252.317
  21
 982.679
  31
0.0
   0
LINE
   8
LEVEL001
   6
CONTINUOUS
  62
7
  10
 252.317
  20
 982.679
  30
0.0
  11
 252.313
  21
 982.394
  31
0.0
   0
LINE
   8
LEVEL001
   6
CONTINUOUS
  62
7
  10
 252.313
  20
 982.394
  30
0.0
  11
 252.309
  21
 982.105
  31
0.0
   0
LINE
   8
LEVEL001
   6
CONTINUOUS
  62
7
  10
 252.309
  20
 982.105
  30
0.0
  11
 252.306
  21
 981.812
  31
0.0
   0
LINE
   8
LEVEL001
   6
CONTINUOUS
  62
7
  10
 252.306
  20
 981.812
  30
0.0
  11
 252.303
  21
 981.515
  31
0.0
   0
LINE
   8
LEVEL001
   6
CONTINUOUS
  62
7
  10
 252.303
  20
 981.515
  30
0.0
  11
 252.301
  21
 981.216
  31
0.0
   0
LINE
   8
LEVEL001
   6
CONTINUOUS
  62
7
  10
 252.301
  20
 981.216
  30
0.0
  11
 252.299
  21
 980.914
  31
0.0
   0
LINE
   8
LEVEL001
   6
CONTINUOUS
  62
7
  10
 252.299
  20
 980.914
  30
0.0
  11
 252.298
  21
 980.610
  31
0.0
   0
LINE
   8
LEVEL001
   6
CONTINUOUS
  62
7
  10
 252.298
  20
 980.610
  30
0.0
  11
 252.297
  21
 980.305
  31
0.0
   0
LINE
   8
LEVEL001
   6
CONTINUOUS
  62
7
  10
 252.297
  20
 980.305
  30
0.0
  11
 252.297
  21
 980.000
  31
0.0
   0
LINE
   8
LEVEL001
   6
CONTINUOUS
  62
7
  10
 252.297
  20
 980.000
  30
0.0
  11
 252.297
  21
 979.695
  31
0.0
   0
LINE
   8
LEVEL001
   6
CONTINUOUS
  62
7
  10
 252.297
  20
 979.695
  30
0.0
  11
 252.298
  21
 979.390
  31
0.0
   0
LINE
   8
LEVEL001
   6
CONTINUOUS
  62
7
  10
 252.298
  20
 979.390
  30
0.0
  11
 252.299
  21
 979.086
  31
0.0
   0
LINE
   8
LEVEL001
   6
CONTINUOUS
  62
7
  10
 252.299
  20
 979.086
  30
0.0
  11
 252.301
  21
 978.784
  31
0.0
   0
LINE
   8
LEVEL001
   6
CONTINUOUS
  62
7
  10
 252.301
  20
 978.784
  30
0.0
  11
 252.303
  21
 978.485
  31
0.0
   0
LINE
   8
LEVEL001
   6
CONTINUOUS
  62
7
  10
 252.303
  20
 978.485
  30
0.0
  11
 252.306
  21
 978.188
  31
0.0
   0
LINE
   8
LEVEL001
   6
CONTINUOUS
  62
7
  10
 252.306
  20
 978.188
  30
0.0
  11
 252.309
  21
 977.895
  31
0.0
   0
LINE
   8
LEVEL001
   6
CONTINUOUS
  62
7
  10
 252.309
  20
 977.895
  30
0.0
  11
 252.313
  21
 977.606
  31
0.0
   0
LINE
   8
LEVEL001
   6
CONTINUOUS
  62
7
  10
 252.313
  20
 977.606
  30
0.0
  11
 252.317
  21
 977.321
  31
0.0
   0
LINE
   8
LEVEL001
   6
CONTINUOUS
  62
7
  10
 252.317
  20
 977.321
  30
0.0
  11
 252.322
  21
 977.042
  31
0.0
   0
LINE
   8
LEVEL001
   6
CONTINUOUS
  62
7
  10
 252.322
  20
 977.042
  30
0.0
  11
 252.327
  21
 976.768
  31
0.0
   0
LINE
   8
LEVEL001
   6
CONTINUOUS
  62
7
  10
 252.327
  20
 976.768
  30
0.0
  11
 252.333
  21
 976.500
  31
0.0
   0
LINE
   8
LEVEL001
   6
CONTINUOUS
  62
7
  10
 252.333
  20
 976.500
  30
0.0
  11
 252.339
  21
 976.239
  31
0.0
   0
LINE
   8
LEVEL001
   6
CONTINUOUS
  62
7
  10
 252.339
  20
 976.239
  30
0.0
  11
 252.345
  21
 975.985
  31
0.0
   0
LINE
   8
LEVEL001
   6
CONTINUOUS
  62
7
  10
 252.345
  20
 975.985
  30
0.0
  11
 252.352
  21
 975.739
  31
0.0
   0
LINE
   8
LEVEL001
   6
CONTINUOUS
  62
7
  10
 252.352
  20
 975.739
  30
0.0
  11
 252.359
  21
 975.500
  31
0.0
   0
LINE
   8
LEVEL001
   6
CONTINUOUS
  62
7
  10
 252.359
  20
 975.500
  30
0.0
  11
 252.367
  21
 975.271
  31
0.0
   0
LINE
   8
LEVEL001
   6
CONTINUOUS
  62
7
  10
 252.367
  20
 975.271
  30
0.0
  11
 252.375
  21
 975.050
  31
0.0
   0
LINE
   8
LEVEL001
   6
CONTINUOUS
  62
7
  10
 252.375
  20
 975.050
  30
0.0
  11
 252.384
  21
 974.839
  31
0.0
   0
LINE
   8
LEVEL001
   6
CONTINUOUS
  62
7
  10
 252.384
  20
 974.839
  30
0.0
  11
 252.392
  21
 974.638
  31
0.0
   0
LINE
   8
LEVEL001
   6
CONTINUOUS
  62
7
  10
 252.392
  20
 974.638
  30
0.0
  11
 252.401
  21
 974.447
  31
0.0
   0
LINE
   8
LEVEL001
   6
CONTINUOUS
  62
7
  10
 252.401
  20
 974.447
  30
0.0
  11
 252.411
  21
 974.266
  31
0.0
   0
LINE
   8
LEVEL001
   6
CONTINUOUS
  62
7
  10
 252.411
  20
 974.266
  30
0.0
  11
 252.420
  21
 974.096
  31
0.0
   0
LINE
   8
LEVEL001
   6
CONTINUOUS
  62
7
  10
 252.420
  20
 974.096
  30
0.0
  11
 252.430
  21
 973.938
  31
0.0
   0
LINE
   8
LEVEL001
   6
CONTINUOUS
  62
7
  10
 252.430
  20
 973.938
  30
0.0
  11
 252.441
  21
 973.791
  31
0.0
   0
LINE
   8
LEVEL001
   6
CONTINUOUS
  62
7
  10
 252.441
  20
 973.791
  30
0.0
  11
 252.451
  21
 973.656
  31
0.0
   0
LINE
   8
LEVEL001
   6
CONTINUOUS
  62
7
  10
 252.451
  20
 973.656
  30
0.0
  11
 252.462
  21
 973.533
  31
0.0
   0
LINE
   8
LEVEL001
   6
CONTINUOUS
  62
7
  10
 252.462
  20
 973.533
  30
0.0
  11
 252.472
  21
 973.422
  31
0.0
   0
LINE
   8
LEVEL001
   6
CONTINUOUS
  62
7
  10
 252.472
  20
 973.422
  30
0.0
  11
 252.483
  21
 973.324
  31
0.0
   0
LINE
   8
LEVEL001
   6
CONTINUOUS
  62
7
  10
 252.483
  20
 973.324
  30
0.0
  11
 252.495
  21
 973.239
  31
0.0
   0
LINE
   8
LEVEL001
   6
CONTINUOUS
  62
7
  10
 252.495
  20
 973.239
  30
0.0
  11
 252.506
  21
 973.166
  31
0.0
   0
LINE
   8
LEVEL001
   6
CONTINUOUS
  62
7
  10
 252.506
  20
 973.166
  30
0.0
  11
 252.517
  21
 973.106
  31
0.0
   0
LINE
   8
LEVEL001
   6
CONTINUOUS
  62
7
  10
 252.517
  20
 973.106
  30
0.0
  11
 252.529
  21
 973.060
  31
0.0
   0
LINE
   8
LEVEL001
   6
CONTINUOUS
  62
7
  10
 252.529
  20
 973.060
  30
0.0
  11
 252.540
  21
 973.027
  31
0.0
   0
LINE
   8
LEVEL001
   6
CONTINUOUS
  62
7
  10
 252.540
  20
 973.027
  30
0.0
  11
 252.552
  21
 973.007
  31
0.0
   0
LINE
   8
LEVEL001
   6
CONTINUOUS
  62
7
  10
 252.552
  20
 973.007
  30
0.0
  11
 252.564
  21
 973.000
  31
0.0
   0
LINE
   8
LEVEL001
   6
CONTINUOUS
  62
7
  10
 252.552
  20
 973.000
  30
0.0
  11
 252.627
  21
 973.005
  31
0.0
   0
LINE
   8
LEVEL001
   6
CONTINUOUS
  62
7
  10
 252.627
  20
 973.005
  30
0.0
  11
 252.702
  21
 973.023
  31
0.0
   0
LINE
   8
LEVEL001
   6
CONTINUOUS
  62
7
  10
 252.702
  20
 973.023
  30
0.0
  11
 252.776
  21
 973.054
  31
0.0
   0
LINE
   8
LEVEL001
   6
CONTINUOUS
  62
7
  10
 252.776
  20
 973.054
  30
0.0
  11
 252.850
  21
 973.099
  31
0.0
   0
LINE
   8
LEVEL001
   6
CONTINUOUS
  62
7
  10
 252.850
  20
 973.099
  30
0.0
  11
 252.924
  21
 973.156
  31
0.0
   0
LINE
   8
LEVEL001
   6
CONTINUOUS
  62
7
  10
 252.924
  20
 973.156
  30
0.0
  11
 252.996
  21
 973.227
  31
0.0
   0
LINE
   8
LEVEL001
   6
CONTINUOUS
  62
7
  10
 252.996
  20
 973.227
  30
0.0
  11
 253.068
  21
 973.311
  31
0.0
   0
LINE
   8
LEVEL001
   6
CONTINUOUS
  62
7
  10
 253.068
  20
 973.311
  30
0.0
  11
 253.139
  21
 973.408
  31
0.0
   0
LINE
   8
LEVEL001
   6
CONTINUOUS
  62
7
  10
 253.139
  20
 973.408
  30
0.0
  11
 253.209
  21
 973.517
  31
0.0
   0
LINE
   8
LEVEL001
   6
CONTINUOUS
  62
7
  10
 253.209
  20
 973.517
  30
0.0
  11
 253.278
  21
 973.639
  31
0.0
   0
LINE
   8
LEVEL001
   6
CONTINUOUS
  62
7
  10
 253.278
  20
 973.639
  30
0.0
  11
 253.345
  21
 973.772
  31
0.0
   0
LINE
   8
LEVEL001
   6
CONTINUOUS
  62
7
  10
 253.345
  20
 973.772
  30
0.0
  11
 253.411
  21
 973.918
  31
0.0
   0
LINE
   8
LEVEL001
   6
CONTINUOUS
  62
7
  10
 253.411
  20
 973.918
  30
0.0
  11
 253.475
  21
 974.075
  31
0.0
   0
LINE
   8
LEVEL001
   6
CONTINUOUS
  62
7
  10
 253.475
  20
 974.075
  30
0.0
  11
 253.538
  21
 974.244
  31
0.0
   0
LINE
   8
LEVEL001
   6
CONTINUOUS
  62
7
  10
 253.538
  20
 974.244
  30
0.0
  11
 253.598
  21
 974.424
  31
0.0
   0
LINE
   8
LEVEL001
   6
CONTINUOUS
  62
7
  10
 253.598
  20
 974.424
  30
0.0
  11
 253.657
  21
 974.614
  31
0.0
   0
LINE
   8
LEVEL001
   6
CONTINUOUS
  62
7
  10
 253.657
  20
 974.614
  30
0.0
  11
 253.713
  21
 974.815
  31
0.0
   0
LINE
   8
LEVEL001
   6
CONTINUOUS
  62
7
  10
 253.713
  20
 974.815
  30
0.0
  11
 253.768
  21
 975.025
  31
0.0
   0
LINE
   8
LEVEL001
   6
CONTINUOUS
  62
7
  10
 253.768
  20
 975.025
  30
0.0
  11
 253.820
  21
 975.245
  31
0.0
   0
LINE
   8
LEVEL001
   6
CONTINUOUS
  62
7
  10
 253.820
  20
 975.245
  30
0.0
  11
 253.869
  21
 975.474
  31
0.0
   0
LINE
   8
LEVEL001
   6
CONTINUOUS
  62
7
  10
 253.869
  20
 975.474
  30
0.0
  11
 253.917
  21
 975.712
  31
0.0
   0
LINE
   8
LEVEL001
   6
CONTINUOUS
  62
7
  10
 253.917
  20
 975.712
  30
0.0
  11
 253.961
  21
 975.958
  31
0.0
   0
LINE
   8
LEVEL001
   6
CONTINUOUS
  62
7
  10
 253.961
  20
 975.958
  30
0.0
  11
 254.003
  21
 976.212
  31
0.0
   0
LINE
   8
LEVEL001
   6
CONTINUOUS
  62
7
  10
 254.003
  20
 976.212
  30
0.0
  11
 254.042
  21
 976.473
  31
0.0
   0
LINE
   8
LEVEL001
   6
CONTINUOUS
  62
7
  10
 254.042
  20
 976.473
  30
0.0
  11
 254.078
  21
 976.740
  31
0.0
   0
LINE
   8
LEVEL001
   6
CONTINUOUS
  62
7
  10
 254.078
  20
 976.740
  30
0.0
  11
 254.112
  21
 977.014
  31
0.0
   0
LINE
   8
LEVEL001
   6
CONTINUOUS
  62
7
  10
 254.112
  20
 977.014
  30
0.0
  11
 254.142
  21
 977.294
  31
0.0
   0
LINE
   8
LEVEL001
   6
CONTINUOUS
  62
7
  10
 254.142
  20
 977.294
  30
0.0
  11
 254.170
  21
 977.579
  31
0.0
   0
LINE
   8
LEVEL001
   6
CONTINUOUS
  62
7
  10
 254.170
  20
 977.579
  30
0.0
  11
 254.194
  21
 977.868
  31
0.0
   0
LINE
   8
LEVEL001
   6
CONTINUOUS
  62
7
  10
 254.194
  20
 977.868
  30
0.0
  11
 254.215
  21
 978.161
  31
0.0
   0
LINE
   8
LEVEL001
   6
CONTINUOUS
  62
7
  10
 254.215
  20
 978.161
  30
0.0
  11
 254.233
  21
 978.458
  31
0.0
   0
LINE
   8
LEVEL001
   6
CONTINUOUS
  62
7
  10
 254.233
  20
 978.458
  30
0.0
  11
 254.248
  21
 978.758
  31
0.0
   0
LINE
   8
LEVEL001
   6
CONTINUOUS
  62
7
  10
 254.248
  20
 978.758
  30
0.0
  11
 254.260
  21
 979.061
  31
0.0
   0
LINE
   8
LEVEL001
   6
CONTINUOUS
  62
7
  10
 254.260
  20
 979.061
  30
0.0
  11
 254.268
  21
 979.365
  31
0.0
   0
LINE
   8
LEVEL001
   6
CONTINUOUS
  62
7
  10
 254.268
  20
 979.365
  30
0.0
  11
 254.273
  21
 979.670
  31
0.0
   0
LINE
   8
LEVEL001
   6
CONTINUOUS
  62
7
  10
 254.273
  20
 979.670
  30
0.0
  11
 254.275
  21
 979.976
  31
0.0
   0
LINE
   8
LEVEL001
   6
CONTINUOUS
  62
7
  10
 254.275
  20
 979.976
  30
0.0
  11
 254.274
  21
 980.282
  31
0.0
   0
LINE
   8
LEVEL001
   6
CONTINUOUS
  62
7
  10
 254.274
  20
 980.282
  30
0.0
  11
 254.269
  21
 980.588
  31
0.0
   0
LINE
   8
LEVEL001
   6
CONTINUOUS
  62
7
  10
 254.269
  20
 980.588
  30
0.0
  11
 254.261
  21
 980.892
  31
0.0
   0
LINE
   8
LEVEL001
   6
CONTINUOUS
  62
7
  10
 254.261
  20
 980.892
  30
0.0
  11
 254.250
  21
 981.195
  31
0.0
   0
LINE
   8
LEVEL001
   6
CONTINUOUS
  62
7
  10
 254.250
  20
 981.195
  30
0.0
  11
 254.236
  21
 981.495
  31
0.0
   0
LINE
   8
LEVEL001
   6
CONTINUOUS
  62
7
  10
 254.236
  20
 981.495
  30
0.0
  11
 254.218
  21
 981.793
  31
0.0
   0
LINE
   8
LEVEL001
   6
CONTINUOUS
  62
7
  10
 254.218
  20
 981.793
  30
0.0
  11
 254.198
  21
 982.087
  31
0.0
   0
LINE
   8
LEVEL001
   6
CONTINUOUS
  62
7
  10
 254.198
  20
 982.087
  30
0.0
  11
 254.174
  21
 982.377
  31
0.0
   0
LINE
   8
LEVEL001
   6
CONTINUOUS
  62
7
  10
 254.174
  20
 982.377
  30
0.0
  11
 254.147
  21
 982.662
  31
0.0
   0
LINE
   8
LEVEL001
   6
CONTINUOUS
  62
7
  10
 254.147
  20
 982.662
  30
0.0
  11
 254.117
  21
 982.943
  31
0.0
   0
LINE
   8
LEVEL001
   6
CONTINUOUS
  62
7
  10
 254.117
  20
 982.943
  30
0.0
  11
 254.084
  21
 983.218
  31
0.0
   0
LINE
   8
LEVEL001
   6
CONTINUOUS
  62
7
  10
 254.084
  20
 983.218
  30
0.0
  11
 254.048
  21
 983.486
  31
0.0
   0
LINE
   8
LEVEL001
   6
CONTINUOUS
  62
7
  10
 254.048
  20
 983.486
  30
0.0
  11
 254.009
  21
 983.748
  31
0.0
   0
LINE
   8
LEVEL001
   6
CONTINUOUS
  62
7
  10
 254.009
  20
 983.748
  30
0.0
  11
 253.968
  21
 984.003
  31
0.0
   0
LINE
   8
LEVEL001
   6
CONTINUOUS
  62
7
  10
 253.968
  20
 984.003
  30
0.0
  11
 253.924
  21
 984.250
  31
0.0
   0
LINE
   8
LEVEL001
   6
CONTINUOUS
  62
7
  10
 253.924
  20
 984.250
  30
0.0
  11
 253.877
  21
 984.489
  31
0.0
   0
LINE
   8
LEVEL001
   6
CONTINUOUS
  62
7
  10
 253.877
  20
 984.489
  30
0.0
  11
 253.828
  21
 984.720
  31
0.0
   0
LINE
   8
LEVEL001
   6
CONTINUOUS
  62
7
  10
 253.828
  20
 984.720
  30
0.0
  11
 253.776
  21
 984.941
  31
0.0
   0
LINE
   8
LEVEL001
   6
CONTINUOUS
  62
7
  10
 253.776
  20
 984.941
  30
0.0
  11
 253.722
  21
 985.153
  31
0.0
   0
LINE
   8
LEVEL001
   6
CONTINUOUS
  62
7
  10
 253.722
  20
 985.153
  30
0.0
  11
 253.666
  21
 985.356
  31
0.0
   0
LINE
   8
LEVEL001
   6
CONTINUOUS
  62
7
  10
 253.666
  20
 985.356
  30
0.0
  11
 253.608
  21
 985.547
  31
0.0
   0
LINE
   8
LEVEL001
   6
CONTINUOUS
  62
7
  10
 253.608
  20
 985.547
  30
0.0
  11
 253.547
  21
 985.729
  31
0.0
   0
LINE
   8
LEVEL001
   6
CONTINUOUS
  62
7
  10
 253.547
  20
 985.729
  30
0.0
  11
 253.485
  21
 985.899
  31
0.0
   0
LINE
   8
LEVEL001
   6
CONTINUOUS
  62
7
  10
 253.485
  20
 985.899
  30
0.0
  11
 253.421
  21
 986.058
  31
0.0
   0
LINE
   8
LEVEL001
   6
CONTINUOUS
  62
7
  10
 253.421
  20
 986.058
  30
0.0
  11
 253.356
  21
 986.206
  31
0.0
   0
LINE
   8
LEVEL001
   6
CONTINUOUS
  62
7
  10
 253.356
  20
 986.206
  30
0.0
  11
 253.289
  21
 986.341
  31
0.0
   0
LINE
   8
LEVEL001
   6
CONTINUOUS
  62
7
  10
 253.289
  20
 986.341
  30
0.0
  11
 253.220
  21
 986.465
  31
0.0
   0
LINE
   8
LEVEL001
   6
CONTINUOUS
  62
7
  10
 253.220
  20
 986.465
  30
0.0
  11
 253.150
  21
 986.576
  31
0.0
   0
LINE
   8
LEVEL001
   6
CONTINUOUS
  62
7
  10
 253.150
  20
 986.576
  30
0.0
  11
 253.079
  21
 986.675
  31
0.0
   0
LINE
   8
LEVEL001
   6
CONTINUOUS
  62
7
  10
 253.079
  20
 986.675
  30
0.0
  11
 253.008
  21
 986.760
  31
0.0
   0
LINE
   8
LEVEL001
   6
CONTINUOUS
  62
7
  10
 253.008
  20
 986.760
  30
0.0
  11
 252.935
  21
 986.833
  31
0.0
   0
LINE
   8
LEVEL001
   6
CONTINUOUS
  62
7
  10
 252.935
  20
 986.833
  30
0.0
  11
 252.862
  21
 986.893
  31
0.0
   0
LINE
   8
LEVEL001
   6
CONTINUOUS
  62
7
  10
 252.862
  20
 986.893
  30
0.0
  11
 252.788
  21
 986.940
  31
0.0
   0
LINE
   8
LEVEL001
   6
CONTINUOUS
  62
7
  10
 252.788
  20
 986.940
  30
0.0
  11
 252.713
  21
 986.973
  31
0.0
   0
LINE
   8
LEVEL001
   6
CONTINUOUS
  62
7
  10
 252.713
  20
 986.973
  30
0.0
  11
 252.638
  21
 986.993
  31
0.0
   0
LINE
   8
LEVEL001
   6
CONTINUOUS
  62
7
  10
 252.638
  20
 986.993
  30
0.0
  11
 252.564
  21
 987.000
  31
0.0
   0
LINE
   8
LEVEL001
   6
CONTINUOUS
  62
7
  10
 228.914
  20
 972.000
  30
0.0
  11
 238.500
  21
 972.000
  31
0.0
   0
LINE
   8
LEVEL001
   6
CONTINUOUS
  62
7
  10
 228.914
  20
 988.000
  30
0.0
  11
 238.500
  21
 988.000
  31
0.0
   0
LINE
   8
LEVEL001
   6
CONTINUOUS
  62
7
  10
 238.500
  20
 972.000
  30
0.0
  11
 238.500
  21
 988.000
  31
0.0
   0
ARC
   8
LEVEL001
   6
CONTINUOUS
  62
7
  10
 200.000
  20
 980.000
  30
0.0
  40
 32.5000
  50
 14.2500
  51
 345.750
   0
LINE
   8
LEVEL001
   6
CONTINUOUS
  62
7
  10
 354.000
  20
 877.500
  30
0.0
  11
 354.000
  21
 887.500
  31
0.0
   0
LINE
   8
LEVEL001
   6
CONTINUOUS
  62
7
  10
 354.000
  20
 895.500
  30
0.0
  11
 354.000
  21
 905.500
  31
0.0
   0
LINE
   8
LEVEL001
   6
CONTINUOUS
  62
7
  10
 224.000
  20
 906.000
  30
0.0
  11
 211.876
  21
 885.000
  31
0.0
   0
LINE
   8
LEVEL001
   6
CONTINUOUS
  62
7
  10
 208.000
  20
 906.000
  30
0.0
  11
 224.000
  21
 906.000
  31
0.0
   0
LINE
   8
LEVEL001
   6
CONTINUOUS
  62
7
  10
 235.708
  20
 843.489
  30
0.0
  11
 235.705
  21
 843.575
  31
0.0
   0
LINE
   8
LEVEL001
   6
CONTINUOUS
  62
7
  10
 236.591
  20
 842.605
  30
0.0
  11
 235.708
  21
 843.489
  31
0.0
   0
LINE
   8
LEVEL001
   6
CONTINUOUS
  62
7
  10
 228.036
  20
 825.643
  30
0.0
  11
 228.327
  21
 825.467
  31
0.0
   0
LINE
   8
LEVEL001
   6
CONTINUOUS
  62
7
  10
 227.719
  20
 825.887
  30
0.0
  11
 228.036
  21
 825.643
  31
0.0
   0
LINE
   8
LEVEL001
   6
CONTINUOUS
  62
7
  10
 227.438
  20
 826.165
  30
0.0
  11
 227.719
  21
 825.887
  31
0.0
   0
LINE
   8
LEVEL001
   6
CONTINUOUS
  62
7
  10
 227.196
  20
 826.473
  30
0.0
  11
 227.438
  21
 826.165
  31
0.0
   0
LINE
   8
LEVEL001
   6
CONTINUOUS
  62
7
  10
 226.998
  20
 826.807
  30
0.0
  11
 227.196
  21
 826.473
  31
0.0
   0
LINE
   8
LEVEL001
   6
CONTINUOUS
  62
7
  10
 226.846
  20
 827.162
  30
0.0
  11
 226.998
  21
 826.807
  31
0.0
   0
LINE
   8
LEVEL001
   6
CONTINUOUS
  62
7
  10
 226.744
  20
 827.530
  30
0.0
  11
 226.846
  21
 827.162
  31
0.0
   0
LINE
   8
LEVEL001
   6
CONTINUOUS
  62
7
  10
 226.692
  20
 827.908
  30
0.0
  11
 226.744
  21
 827.530
  31
0.0
   0
LINE
   8
LEVEL001
   6
CONTINUOUS
  62
7
  10
 226.691
  20
 828.289
  30
0.0
  11
 226.692
  21
 827.908
  31
0.0
   0
LINE
   8
LEVEL001
   6
CONTINUOUS
  62
7
  10
 226.742
  20
 828.667
  30
0.0
  11
 226.691
  21
 828.289
  31
0.0
   0
LINE
   8
LEVEL001
   6
CONTINUOUS
  62
7
  10
 226.843
  20
 829.036
  30
0.0
  11
 226.742
  21
 828.667
  31
0.0
   0
LINE
   8
LEVEL001
   6
CONTINUOUS
  62
7
  10
 226.994
  20
 829.391
  30
0.0
  11
 226.843
  21
 829.036
  31
0.0
   0
LINE
   8
LEVEL001
   6
CONTINUOUS
  62
7
  10
 227.191
  20
 829.725
  30
0.0
  11
 226.994
  21
 829.391
  31
0.0
   0
LINE
   8
LEVEL001
   6
CONTINUOUS
  62
7
  10
 227.432
  20
 830.034
  30
0.0
  11
 227.191
  21
 829.725
  31
0.0
   0
LINE
   8
LEVEL001
   6
CONTINUOUS
  62
7
  10
 227.712
  20
 830.314
  30
0.0
  11
 227.432
  21
 830.034
  31
0.0
   0
LINE
   8
LEVEL001
   6
CONTINUOUS
  62
7
  10
 228.028
  20
 830.558
  30
0.0
  11
 227.712
  21
 830.314
  31
0.0
   0
LINE
   8
LEVEL001
   6
CONTINUOUS
  62
7
  10
 228.375
  20
 830.764
  30
0.0
  11
 228.028
  21
 830.558
  31
0.0
   0
LINE
   8
LEVEL001
   6
CONTINUOUS
  62
7
  10
 228.747
  20
 830.929
  30
0.0
  11
 228.375
  21
 830.764
  31
0.0
   0
LINE
   8
LEVEL001
   6
CONTINUOUS
  62
7
  10
 229.138
  20
 831.050
  30
0.0
  11
 228.747
  21
 830.929
  31
0.0
   0
LINE
   8
LEVEL001
   6
CONTINUOUS
  62
7
  10
 229.542
  20
 831.124
  30
0.0
  11
 229.138
  21
 831.050
  31
0.0
   0
LINE
   8
LEVEL001
   6
CONTINUOUS
  62
7
  10
 229.953
  20
 831.152
  30
0.0
  11
 229.542
  21
 831.124
  31
0.0
   0
LINE
   8
LEVEL001
   6
CONTINUOUS
  62
7
  10
 230.365
  20
 831.132
  30
0.0
  11
 229.953
  21
 831.152
  31
0.0
   0
LINE
   8
LEVEL001
   6
CONTINUOUS
  62
7
  10
 230.770
  20
 831.064
  30
0.0
  11
 230.365
  21
 831.132
  31
0.0
   0
LINE
   8
LEVEL001
   6
CONTINUOUS
  62
7
  10
 231.164
  20
 830.951
  30
0.0
  11
 230.770
  21
 831.064
  31
0.0
   0
LINE
   8
LEVEL001
   6
CONTINUOUS
  62
7
  10
 231.539
  20
 830.793
  30
0.0
  11
 231.164
  21
 830.951
  31
0.0
   0
LINE
   8
LEVEL001
   6
CONTINUOUS
  62
7
  10
 231.890
  20
 830.593
  30
0.0
  11
 231.539
  21
 830.793
  31
0.0
   0
LINE
   8
LEVEL001
   6
CONTINUOUS
  62
7
  10
 232.211
  20
 830.354
  30
0.0
  11
 231.890
  21
 830.593
  31
0.0
   0
LINE
   8
LEVEL001
   6
CONTINUOUS
  62
7
  10
 232.497
  20
 830.080
  30
0.0
  11
 232.211
  21
 830.354
  31
0.0
   0
LINE
   8
LEVEL001
   6
CONTINUOUS
  62
7
  10
 232.744
  20
 829.775
  30
0.0
  11
 232.497
  21
 830.080
  31
0.0
   0
LINE
   8
LEVEL001
   6
CONTINUOUS
  62
7
  10
 232.949
  20
 829.444
  30
0.0
  11
 232.744
  21
 829.775
  31
0.0
   0
LINE
   8
LEVEL001
   6
CONTINUOUS
  62
7
  10
 233.106
  20
 829.092
  30
0.0
  11
 232.949
  21
 829.444
  31
0.0
   0
LINE
   8
LEVEL001
   6
CONTINUOUS
  62
7
  10
 233.216
  20
 828.725
  30
0.0
  11
 233.106
  21
 829.092
  31
0.0
   0
LINE
   8
LEVEL001
   6
CONTINUOUS
  62
7
  10
 233.274
  20
 828.348
  30
0.0
  11
 233.216
  21
 828.725
  31
0.0
   0
LINE
   8
LEVEL001
   6
CONTINUOUS
  62
7
  10
 233.282
  20
 827.967
  30
0.0
  11
 233.274
  21
 828.348
  31
0.0
   0
LINE
   8
LEVEL001
   6
CONTINUOUS
  62
7
  10
 233.238
  20
 827.589
  30
0.0
  11
 233.282
  21
 827.967
  31
0.0
   0
LINE
   8
LEVEL001
   6
CONTINUOUS
  62
7
  10
 233.143
  20
 827.218
  30
0.0
  11
 233.238
  21
 827.589
  31
0.0
   0
LINE
   8
LEVEL001
   6
CONTINUOUS
  62
7
  10
 232.999
  20
 826.861
  30
0.0
  11
 233.143
  21
 827.218
  31
0.0
   0
LINE
   8
LEVEL001
   6
CONTINUOUS
  62
7
  10
 232.808
  20
 826.524
  30
0.0
  11
 232.999
  21
 826.861
  31
0.0
   0
LINE
   8
LEVEL001
   6
CONTINUOUS
  62
7
  10
 232.573
  20
 826.211
  30
0.0
  11
 232.808
  21
 826.524
  31
0.0
   0
LINE
   8
LEVEL001
   6
CONTINUOUS
  62
7
  10
 232.297
  20
 825.928
  30
0.0
  11
 232.573
  21
 826.211
  31
0.0
   0
LINE
   8
LEVEL001
   6
CONTINUOUS
  62
7
  10
 231.986
  20
 825.678
  30
0.0
  11
 232.297
  21
 825.928
  31
0.0
   0
LINE
   8
LEVEL001
   6
CONTINUOUS
  62
7
  10
 231.643
  20
 825.467
  30
0.0
  11
 231.986
  21
 825.678
  31
0.0
   0
LINE
   8
LEVEL001
   6
CONTINUOUS
  62
7
  10
 233.485
  20
 827.384
  30
0.0
  11
 233.136
  21
 827.198
  31
0.0
   0
LINE
   8
LEVEL001
   6
CONTINUOUS
  62
7
  10
 233.485
  20
 831.118
  30
0.0
  11
 233.485
  21
 827.384
  31
0.0
   0
LINE
   8
LEVEL001
   6
CONTINUOUS
  62
7
  10
 229.985
  20
 832.985
  30
0.0
  11
 233.485
  21
 831.118
  31
0.0
   0
LINE
   8
LEVEL001
   6
CONTINUOUS
  62
7
  10
 226.485
  20
 831.118
  30
0.0
  11
 229.985
  21
 832.985
  31
0.0
   0
LINE
   8
LEVEL001
   6
CONTINUOUS
  62
7
  10
 226.485
  20
 827.384
  30
0.0
  11
 226.485
  21
 831.118
  31
0.0
   0
LINE
   8
LEVEL001
   6
CONTINUOUS
  62
7
  10
 226.834
  20
 827.198
  30
0.0
  11
 226.485
  21
 827.384
  31
0.0
   0
LINE
   8
LEVEL001
   6
CONTINUOUS
  62
7
  10
 233.485
  20
 832.036
  30
0.0
  11
 233.485
  21
 831.118
  31
0.0
   0
LINE
   8
LEVEL001
   6
CONTINUOUS
  62
7
  10
 229.985
  20
 833.903
  30
0.0
  11
 233.485
  21
 832.036
  31
0.0
   0
LINE
   8
LEVEL001
   6
CONTINUOUS
  62
7
  10
 226.485
  20
 832.036
  30
0.0
  11
 229.985
  21
 833.903
  31
0.0
   0
LINE
   8
LEVEL001
   6
CONTINUOUS
  62
7
  10
 226.485
  20
 831.118
  30
0.0
  11
 226.485
  21
 832.036
  31
0.0
   0
LINE
   8
LEVEL001
   6
CONTINUOUS
  62
7
  10
 238.085
  20
 838.874
  30
0.0
  11
 236.985
  21
 838.239
  31
0.0
   0
LINE
   8
LEVEL001
   6
CONTINUOUS
  62
7
  10
 238.085
  20
 841.505
  30
0.0
  11
 238.085
  21
 838.874
  31
0.0
   0
LINE
   8
LEVEL001
   6
CONTINUOUS
  62
7
  10
 236.985
  20
 842.605
  30
0.0
  11
 238.085
  21
 841.505
  31
0.0
   0
LINE
   8
LEVEL001
   6
CONTINUOUS
  62
7
  10
 221.885
  20
 841.505
  30
0.0
  11
 222.985
  21
 842.605
  31
0.0
   0
LINE
   8
LEVEL001
   6
CONTINUOUS
  62
7
  10
 221.885
  20
 838.874
  30
0.0
  11
 221.885
  21
 841.505
  31
0.0
   0
LINE
   8
LEVEL001
   6
CONTINUOUS
  62
7
  10
 222.985
  20
 838.239
  30
0.0
  11
 221.885
  21
 838.874
  31
0.0
   0
LINE
   8
LEVEL001
   6
CONTINUOUS
  62
7
  10
 223.403
  20
 843.389
  30
0.0
  11
 223.379
  21
 842.605
  31
0.0
   0
LINE
   8
LEVEL001
   6
CONTINUOUS
  62
7
  10
 236.591
  20
 842.605
  30
0.0
  11
 236.560
  21
 843.588
  31
0.0
   0
LINE
   8
LEVEL001
   6
CONTINUOUS
  62
7
  10
 223.379
  20
 842.605
  30
0.0
  11
 224.174
  21
 843.401
  31
0.0
   0
LINE
   8
LEVEL001
   6
CONTINUOUS
  62
7
  10
 235.708
  20
 843.489
  30
0.0
  11
 229.985
  21
 843.489
  31
0.0
   0
ARC
   8
LEVEL001
   6
CONTINUOUS
  62
7
  10
 238.259
  20
 833.966
  30
0.0
  40
 8.73264
  50
 98.3860
  51
 118.924
   0
ARC
   8
LEVEL001
   6
CONTINUOUS
  62
7
  10
 229.985
  20
 833.873
  30
0.0
  40
 8.73264
  50
 62.3688
  51
 117.631
   0
ARC
   8
LEVEL001
   6
CONTINUOUS
  62
7
  10
 221.711
  20
 833.966
  30
0.0
  40
 8.73264
  50
 61.0758
  51
 81.6142
   0
ARC
   8
LEVEL001
   6
CONTINUOUS
  62
7
  10
 229.985
  20
 836.177
  30
0.0
  40
 9.93811
  50
 241.269
  51
 252.935
   0
ARC
   8
LEVEL001
   6
CONTINUOUS
  62
7
  10
 226.650
  20
 830.093
  30
0.0
  40
 3.00000
  50
 180.000
  51
 241.269
   0
LINE
   8
LEVEL001
   6
CONTINUOUS
  62
7
  10
 223.650
  20
 830.093
  30
0.0
  11
 223.650
  21
 837.855
  31
0.0
   0
ARC
   8
LEVEL001
   6
CONTINUOUS
  62
7
  10
 229.985
  20
 836.177
  30
0.0
  40
 9.93811
  50
 287.065
  51
 298.731
   0
ARC
   8
LEVEL001
   6
CONTINUOUS
  62
7
  10
 233.320
  20
 830.093
  30
0.0
  40
 3.00000
  50
 298.731
  51
0.0
   0
LINE
   8
LEVEL001
   6
CONTINUOUS
  62
7
  10
 236.320
  20
 830.093
  30
0.0
  11
 236.320
  21
 837.855
  31
0.0
   0
LINE
   8
LEVEL001
   6
CONTINUOUS
  62
7
  10
 229.985
  20
 832.985
  30
0.0
  11
 229.985
  21
 833.903
  31
0.0
   0
LINE
   8
LEVEL001
   6
CONTINUOUS
  62
7
  10
 222.985
  20
 838.239
  30
0.0
  11
 223.650
  21
 837.855
  31
0.0
   0
LINE
   8
LEVEL001
   6
CONTINUOUS
  62
7
  10
 236.320
  20
 837.855
  30
0.0
  11
 223.650
  21
 837.855
  31
0.0
   0
LINE
   8
LEVEL001
   6
CONTINUOUS
  62
7
  10
 236.985
  20
 838.239
  30
0.0
  11
 236.320
  21
 837.855
  31
0.0
   0
LINE
   8
LEVEL001
   6
CONTINUOUS
  62
7
  10
 222.985
  20
 838.239
  30
0.0
  11
 236.985
  21
 838.239
  31
0.0
   0
ARC
   8
LEVEL001
   6
CONTINUOUS
  62
7
  10
 229.985
  20
 846.971
  30
0.0
  40
 8.73264
  50
 242.369
  51
 297.631
   0
LINE
   8
LEVEL001
   6
CONTINUOUS
  62
7
  10
 236.985
  20
 842.605
  30
0.0
  11
 222.985
  21
 842.605
  31
0.0
   0
ARC
   8
LEVEL001
   6
CONTINUOUS
  62
7
  10
 221.711
  20
 846.878
  30
0.0
  40
 8.73264
  50
 278.386
  51
 298.924
   0
ARC
   8
LEVEL001
   6
CONTINUOUS
  62
7
  10
 238.259
  20
 846.878
  30
0.0
  40
 8.73264
  50
 241.076
  51
 261.614
   0
LINE
   8
LEVEL001
   6
CONTINUOUS
  62
7
  10
 225.935
  20
 839.235
  30
0.0
  11
 225.935
  21
 841.609
  31
0.0
   0
LINE
   8
LEVEL001
   6
CONTINUOUS
  62
7
  10
 234.035
  20
 839.235
  30
0.0
  11
 234.035
  21
 841.609
  31
0.0
   0
ARC
   8
LEVEL001
   6
CONTINUOUS
  62
7
  10
 229.986
  20
 827.070
  30
0.0
  40
 1.00000
  50
 180.000
  51
0.0
   0
LINE
   8
LEVEL001
   6
CONTINUOUS
  62
7
  10
 230.986
  20
 827.070
  30
0.0
  11
 230.985
  21
 827.111
  31
0.0
   0
LINE
   8
LEVEL001
   6
CONTINUOUS
  62
7
  10
 230.985
  20
 827.111
  30
0.0
  11
 230.982
  21
 827.151
  31
0.0
   0
LINE
   8
LEVEL001
   6
CONTINUOUS
  62
7
  10
 230.982
  20
 827.151
  30
0.0
  11
 230.977
  21
 827.191
  31
0.0
   0
LINE
   8
LEVEL001
   6
CONTINUOUS
  62
7
  10
 230.977
  20
 827.191
  30
0.0
  11
 230.971
  21
 827.230
  31
0.0
   0
LINE
   8
LEVEL001
   6
CONTINUOUS
  62
7
  10
 230.971
  20
 827.230
  30
0.0
  11
 230.962
  21
 827.270
  31
0.0
   0
LINE
   8
LEVEL001
   6
CONTINUOUS
  62
7
  10
 230.962
  20
 827.270
  30
0.0
  11
 230.952
  21
 827.309
  31
0.0
   0
LINE
   8
LEVEL001
   6
CONTINUOUS
  62
7
  10
 230.952
  20
 827.309
  30
0.0
  11
 230.940
  21
 827.348
  31
0.0
   0
LINE
   8
LEVEL001
   6
CONTINUOUS
  62
7
  10
 230.940
  20
 827.348
  30
0.0
  11
 230.926
  21
 827.386
  31
0.0
   0
LINE
   8
LEVEL001
   6
CONTINUOUS
  62
7
  10
 230.926
  20
 827.386
  30
0.0
  11
 230.910
  21
 827.423
  31
0.0
   0
LINE
   8
LEVEL001
   6
CONTINUOUS
  62
7
  10
 230.910
  20
 827.423
  30
0.0
  11
 230.892
  21
 827.460
  31
0.0
   0
LINE
   8
LEVEL001
   6
CONTINUOUS
  62
7
  10
 230.892
  20
 827.460
  30
0.0
  11
 230.873
  21
 827.496
  31
0.0
   0
LINE
   8
LEVEL001
   6
CONTINUOUS
  62
7
  10
 230.873
  20
 827.496
  30
0.0
  11
 230.852
  21
 827.531
  31
0.0
   0
LINE
   8
LEVEL001
   6
CONTINUOUS
  62
7
  10
 230.852
  20
 827.531
  30
0.0
  11
 230.829
  21
 827.566
  31
0.0
   0
LINE
   8
LEVEL001
   6
CONTINUOUS
  62
7
  10
 230.829
  20
 827.566
  30
0.0
  11
 230.805
  21
 827.599
  31
0.0
   0
LINE
   8
LEVEL001
   6
CONTINUOUS
  62
7
  10
 230.805
  20
 827.599
  30
0.0
  11
 230.779
  21
 827.631
  31
0.0
   0
LINE
   8
LEVEL001
   6
CONTINUOUS
  62
7
  10
 230.779
  20
 827.631
  30
0.0
  11
 230.752
  21
 827.663
  31
0.0
   0
LINE
   8
LEVEL001
   6
CONTINUOUS
  62
7
  10
 230.752
  20
 827.663
  30
0.0
  11
 230.723
  21
 827.693
  31
0.0
   0
LINE
   8
LEVEL001
   6
CONTINUOUS
  62
7
  10
 230.723
  20
 827.693
  30
0.0
  11
 230.693
  21
 827.722
  31
0.0
   0
LINE
   8
LEVEL001
   6
CONTINUOUS
  62
7
  10
 230.693
  20
 827.722
  30
0.0
  11
 230.661
  21
 827.750
  31
0.0
   0
LINE
   8
LEVEL001
   6
CONTINUOUS
  62
7
  10
 230.661
  20
 827.750
  30
0.0
  11
 230.629
  21
 827.776
  31
0.0
   0
LINE
   8
LEVEL001
   6
CONTINUOUS
  62
7
  10
 230.629
  20
 827.776
  30
0.0
  11
 230.595
  21
 827.802
  31
0.0
   0
LINE
   8
LEVEL001
   6
CONTINUOUS
  62
7
  10
 230.595
  20
 827.802
  30
0.0
  11
 230.559
  21
 827.825
  31
0.0
   0
LINE
   8
LEVEL001
   6
CONTINUOUS
  62
7
  10
 230.559
  20
 827.825
  30
0.0
  11
 230.523
  21
 827.848
  31
0.0
   0
LINE
   8
LEVEL001
   6
CONTINUOUS
  62
7
  10
 230.523
  20
 827.848
  30
0.0
  11
 230.486
  21
 827.869
  31
0.0
   0
LINE
   8
LEVEL001
   6
CONTINUOUS
  62
7
  10
 230.486
  20
 827.869
  30
0.0
  11
 230.448
  21
 827.888
  31
0.0
   0
LINE
   8
LEVEL001
   6
CONTINUOUS
  62
7
  10
 230.448
  20
 827.888
  30
0.0
  11
 230.409
  21
 827.906
  31
0.0
   0
LINE
   8
LEVEL001
   6
CONTINUOUS
  62
7
  10
 230.409
  20
 827.906
  30
0.0
  11
 230.369
  21
 827.922
  31
0.0
   0
LINE
   8
LEVEL001
   6
CONTINUOUS
  62
7
  10
 230.369
  20
 827.922
  30
0.0
  11
 230.328
  21
 827.936
  31
0.0
   0
LINE
   8
LEVEL001
   6
CONTINUOUS
  62
7
  10
 230.328
  20
 827.936
  30
0.0
  11
 230.287
  21
 827.949
  31
0.0
   0
LINE
   8
LEVEL001
   6
CONTINUOUS
  62
7
  10
 230.287
  20
 827.949
  30
0.0
  11
 230.245
  21
 827.961
  31
0.0
   0
LINE
   8
LEVEL001
   6
CONTINUOUS
  62
7
  10
 230.245
  20
 827.961
  30
0.0
  11
 230.202
  21
 827.970
  31
0.0
   0
LINE
   8
LEVEL001
   6
CONTINUOUS
  62
7
  10
 230.202
  20
 827.970
  30
0.0
  11
 230.160
  21
 827.978
  31
0.0
   0
LINE
   8
LEVEL001
   6
CONTINUOUS
  62
7
  10
 230.160
  20
 827.978
  30
0.0
  11
 230.116
  21
 827.984
  31
0.0
   0
LINE
   8
LEVEL001
   6
CONTINUOUS
  62
7
  10
 230.116
  20
 827.984
  30
0.0
  11
 230.073
  21
 827.989
  31
0.0
   0
LINE
   8
LEVEL001
   6
CONTINUOUS
  62
7
  10
 230.073
  20
 827.989
  30
0.0
  11
 230.030
  21
 827.991
  31
0.0
   0
LINE
   8
LEVEL001
   6
CONTINUOUS
  62
7
  10
 230.030
  20
 827.991
  30
0.0
  11
 229.986
  21
 827.992
  31
0.0
   0
LINE
   8
LEVEL001
   6
CONTINUOUS
  62
7
  10
 229.986
  20
 827.992
  30
0.0
  11
 229.942
  21
 827.991
  31
0.0
   0
LINE
   8
LEVEL001
   6
CONTINUOUS
  62
7
  10
 229.942
  20
 827.991
  30
0.0
  11
 229.899
  21
 827.989
  31
0.0
   0
LINE
   8
LEVEL001
   6
CONTINUOUS
  62
7
  10
 229.899
  20
 827.989
  30
0.0
  11
 229.855
  21
 827.984
  31
0.0
   0
LINE
   8
LEVEL001
   6
CONTINUOUS
  62
7
  10
 229.855
  20
 827.984
  30
0.0
  11
 229.812
  21
 827.978
  31
0.0
   0
LINE
   8
LEVEL001
   6
CONTINUOUS
  62
7
  10
 229.812
  20
 827.978
  30
0.0
  11
 229.769
  21
 827.970
  31
0.0
   0
LINE
   8
LEVEL001
   6
CONTINUOUS
  62
7
  10
 229.769
  20
 827.970
  30
0.0
  11
 229.727
  21
 827.961
  31
0.0
   0
LINE
   8
LEVEL001
   6
CONTINUOUS
  62
7
  10
 229.727
  20
 827.961
  30
0.0
  11
 229.685
  21
 827.949
  31
0.0
   0
LINE
   8
LEVEL001
   6
CONTINUOUS
  62
7
  10
 229.685
  20
 827.949
  30
0.0
  11
 229.644
  21
 827.936
  31
0.0
   0
LINE
   8
LEVEL001
   6
CONTINUOUS
  62
7
  10
 229.644
  20
 827.936
  30
0.0
  11
 229.603
  21
 827.922
  31
0.0
   0
LINE
   8
LEVEL001
   6
CONTINUOUS
  62
7
  10
 229.603
  20
 827.922
  30
0.0
  11
 229.563
  21
 827.906
  31
0.0
   0
LINE
   8
LEVEL001
   6
CONTINUOUS
  62
7
  10
 229.563
  20
 827.906
  30
0.0
  11
 229.524
  21
 827.888
  31
0.0
   0
LINE
   8
LEVEL001
   6
CONTINUOUS
  62
7
  10
 229.524
  20
 827.888
  30
0.0
  11
 229.486
  21
 827.869
  31
0.0
   0
LINE
   8
LEVEL001
   6
CONTINUOUS
  62
7
  10
 229.486
  20
 827.869
  30
0.0
  11
 229.449
  21
 827.848
  31
0.0
   0
LINE
   8
LEVEL001
   6
CONTINUOUS
  62
7
  10
 229.449
  20
 827.848
  30
0.0
  11
 229.412
  21
 827.825
  31
0.0
   0
LINE
   8
LEVEL001
   6
CONTINUOUS
  62
7
  10
 229.412
  20
 827.825
  30
0.0
  11
 229.377
  21
 827.802
  31
0.0
   0
LINE
   8
LEVEL001
   6
CONTINUOUS
  62
7
  10
 229.377
  20
 827.802
  30
0.0
  11
 229.343
  21
 827.776
  31
0.0
   0
LINE
   8
LEVEL001
   6
CONTINUOUS
  62
7
  10
 229.343
  20
 827.776
  30
0.0
  11
 229.310
  21
 827.750
  31
0.0
   0
LINE
   8
LEVEL001
   6
CONTINUOUS
  62
7
  10
 229.310
  20
 827.750
  30
0.0
  11
 229.279
  21
 827.722
  31
0.0
   0
LINE
   8
LEVEL001
   6
CONTINUOUS
  62
7
  10
 229.279
  20
 827.722
  30
0.0
  11
 229.249
  21
 827.693
  31
0.0
   0
LINE
   8
LEVEL001
   6
CONTINUOUS
  62
7
  10
 229.249
  20
 827.693
  30
0.0
  11
 229.220
  21
 827.663
  31
0.0
   0
LINE
   8
LEVEL001
   6
CONTINUOUS
  62
7
  10
 229.220
  20
 827.663
  30
0.0
  11
 229.193
  21
 827.631
  31
0.0
   0
LINE
   8
LEVEL001
   6
CONTINUOUS
  62
7
  10
 229.193
  20
 827.631
  30
0.0
  11
 229.167
  21
 827.599
  31
0.0
   0
LINE
   8
LEVEL001
   6
CONTINUOUS
  62
7
  10
 229.167
  20
 827.599
  30
0.0
  11
 229.143
  21
 827.566
  31
0.0
   0
LINE
   8
LEVEL001
   6
CONTINUOUS
  62
7
  10
 229.143
  20
 827.566
  30
0.0
  11
 229.120
  21
 827.531
  31
0.0
   0
LINE
   8
LEVEL001
   6
CONTINUOUS
  62
7
  10
 229.120
  20
 827.531
  30
0.0
  11
 229.099
  21
 827.496
  31
0.0
   0
LINE
   8
LEVEL001
   6
CONTINUOUS
  62
7
  10
 229.099
  20
 827.496
  30
0.0
  11
 229.080
  21
 827.460
  31
0.0
   0
LINE
   8
LEVEL001
   6
CONTINUOUS
  62
7
  10
 229.080
  20
 827.460
  30
0.0
  11
 229.062
  21
 827.423
  31
0.0
   0
LINE
   8
LEVEL001
   6
CONTINUOUS
  62
7
  10
 229.062
  20
 827.423
  30
0.0
  11
 229.046
  21
 827.386
  31
0.0
   0
LINE
   8
LEVEL001
   6
CONTINUOUS
  62
7
  10
 229.046
  20
 827.386
  30
0.0
  11
 229.032
  21
 827.348
  31
0.0
   0
LINE
   8
LEVEL001
   6
CONTINUOUS
  62
7
  10
 229.032
  20
 827.348
  30
0.0
  11
 229.020
  21
 827.309
  31
0.0
   0
LINE
   8
LEVEL001
   6
CONTINUOUS
  62
7
  10
 229.020
  20
 827.309
  30
0.0
  11
 229.010
  21
 827.270
  31
0.0
   0
LINE
   8
LEVEL001
   6
CONTINUOUS
  62
7
  10
 229.010
  20
 827.270
  30
0.0
  11
 229.001
  21
 827.230
  31
0.0
   0
LINE
   8
LEVEL001
   6
CONTINUOUS
  62
7
  10
 229.001
  20
 827.230
  30
0.0
  11
 228.994
  21
 827.191
  31
0.0
   0
LINE
   8
LEVEL001
   6
CONTINUOUS
  62
7
  10
 228.994
  20
 827.191
  30
0.0
  11
 228.990
  21
 827.151
  31
0.0
   0
LINE
   8
LEVEL001
   6
CONTINUOUS
  62
7
  10
 228.990
  20
 827.151
  30
0.0
  11
 228.987
  21
 827.111
  31
0.0
   0
LINE
   8
LEVEL001
   6
CONTINUOUS
  62
7
  10
 228.987
  20
 827.111
  30
0.0
  11
 228.986
  21
 827.070
  31
0.0
   0
LINE
   8
LEVEL001
   6
CONTINUOUS
  62
7
  10
 232.385
  20
 827.070
  30
0.0
  11
 232.376
  21
 827.263
  31
0.0
   0
LINE
   8
LEVEL001
   6
CONTINUOUS
  62
7
  10
 232.376
  20
 827.263
  30
0.0
  11
 232.349
  21
 827.455
  31
0.0
   0
LINE
   8
LEVEL001
   6
CONTINUOUS
  62
7
  10
 232.349
  20
 827.455
  30
0.0
  11
 232.303
  21
 827.643
  31
0.0
   0
LINE
   8
LEVEL001
   6
CONTINUOUS
  62
7
  10
 232.303
  20
 827.643
  30
0.0
  11
 232.240
  21
 827.827
  31
0.0
   0
LINE
   8
LEVEL001
   6
CONTINUOUS
  62
7
  10
 232.240
  20
 827.827
  30
0.0
  11
 232.160
  21
 828.006
  31
0.0
   0
LINE
   8
LEVEL001
   6
CONTINUOUS
  62
7
  10
 232.160
  20
 828.006
  30
0.0
  11
 232.064
  21
 828.177
  31
0.0
   0
LINE
   8
LEVEL001
   6
CONTINUOUS
  62
7
  10
 232.064
  20
 828.177
  30
0.0
  11
 231.951
  21
 828.340
  31
0.0
   0
LINE
   8
LEVEL001
   6
CONTINUOUS
  62
7
  10
 231.951
  20
 828.340
  30
0.0
  11
 231.824
  21
 828.493
  31
0.0
   0
LINE
   8
LEVEL001
   6
CONTINUOUS
  62
7
  10
 231.824
  20
 828.493
  30
0.0
  11
 231.682
  21
 828.635
  31
0.0
   0
LINE
   8
LEVEL001
   6
CONTINUOUS
  62
7
  10
 231.682
  20
 828.635
  30
0.0
  11
 231.528
  21
 828.766
  31
0.0
   0
LINE
   8
LEVEL001
   6
CONTINUOUS
  62
7
  10
 231.528
  20
 828.766
  30
0.0
  11
 231.362
  21
 828.883
  31
0.0
   0
LINE
   8
LEVEL001
   6
CONTINUOUS
  62
7
  10
 231.362
  20
 828.883
  30
0.0
  11
 231.186
  21
 828.987
  31
0.0
   0
LINE
   8
LEVEL001
   6
CONTINUOUS
  62
7
  10
 231.186
  20
 828.987
  30
0.0
  11
 231.000
  21
 829.076
  31
0.0
   0
LINE
   8
LEVEL001
   6
CONTINUOUS
  62
7
  10
 231.000
  20
 829.076
  30
0.0
  11
 230.806
  21
 829.150
  31
0.0
   0
LINE
   8
LEVEL001
   6
CONTINUOUS
  62
7
  10
 230.806
  20
 829.150
  30
0.0
  11
 230.607
  21
 829.208
  31
0.0
   0
LINE
   8
LEVEL001
   6
CONTINUOUS
  62
7
  10
 230.607
  20
 829.208
  30
0.0
  11
 230.403
  21
 829.250
  31
0.0
   0
LINE
   8
LEVEL001
   6
CONTINUOUS
  62
7
  10
 230.403
  20
 829.250
  30
0.0
  11
 230.195
  21
 829.275
  31
0.0
   0
LINE
   8
LEVEL001
   6
CONTINUOUS
  62
7
  10
 230.195
  20
 829.275
  30
0.0
  11
 229.986
  21
 829.284
  31
0.0
   0
LINE
   8
LEVEL001
   6
CONTINUOUS
  62
7
  10
 229.986
  20
 829.284
  30
0.0
  11
 229.777
  21
 829.275
  31
0.0
   0
LINE
   8
LEVEL001
   6
CONTINUOUS
  62
7
  10
 229.777
  20
 829.275
  30
0.0
  11
 229.569
  21
 829.250
  31
0.0
   0
LINE
   8
LEVEL001
   6
CONTINUOUS
  62
7
  10
 229.569
  20
 829.250
  30
0.0
  11
 229.365
  21
 829.208
  31
0.0
   0
LINE
   8
LEVEL001
   6
CONTINUOUS
  62
7
  10
 229.365
  20
 829.208
  30
0.0
  11
 229.165
  21
 829.150
  31
0.0
   0
LINE
   8
LEVEL001
   6
CONTINUOUS
  62
7
  10
 229.165
  20
 829.150
  30
0.0
  11
 228.972
  21
 829.076
  31
0.0
   0
LINE
   8
LEVEL001
   6
CONTINUOUS
  62
7
  10
 228.972
  20
 829.076
  30
0.0
  11
 228.786
  21
 828.987
  31
0.0
   0
LINE
   8
LEVEL001
   6
CONTINUOUS
  62
7
  10
 228.786
  20
 828.987
  30
0.0
  11
 228.610
  21
 828.883
  31
0.0
   0
LINE
   8
LEVEL001
   6
CONTINUOUS
  62
7
  10
 228.610
  20
 828.883
  30
0.0
  11
 228.444
  21
 828.766
  31
0.0
   0
LINE
   8
LEVEL001
   6
CONTINUOUS
  62
7
  10
 228.444
  20
 828.766
  30
0.0
  11
 228.289
  21
 828.635
  31
0.0
   0
LINE
   8
LEVEL001
   6
CONTINUOUS
  62
7
  10
 228.289
  20
 828.635
  30
0.0
  11
 228.148
  21
 828.493
  31
0.0
   0
LINE
   8
LEVEL001
   6
CONTINUOUS
  62
7
  10
 228.148
  20
 828.493
  30
0.0
  11
 228.021
  21
 828.340
  31
0.0
   0
LINE
   8
LEVEL001
   6
CONTINUOUS
  62
7
  10
 228.021
  20
 828.340
  30
0.0
  11
 227.908
  21
 828.177
  31
0.0
   0
LINE
   8
LEVEL001
   6
CONTINUOUS
  62
7
  10
 227.908
  20
 828.177
  30
0.0
  11
 227.811
  21
 828.006
  31
0.0
   0
LINE
   8
LEVEL001
   6
CONTINUOUS
  62
7
  10
 227.811
  20
 828.006
  30
0.0
  11
 227.731
  21
 827.827
  31
0.0
   0
LINE
   8
LEVEL001
   6
CONTINUOUS
  62
7
  10
 227.731
  20
 827.827
  30
0.0
  11
 227.668
  21
 827.643
  31
0.0
   0
LINE
   8
LEVEL001
   6
CONTINUOUS
  62
7
  10
 227.668
  20
 827.643
  30
0.0
  11
 227.623
  21
 827.455
  31
0.0
   0
LINE
   8
LEVEL001
   6
CONTINUOUS
  62
7
  10
 227.623
  20
 827.455
  30
0.0
  11
 227.596
  21
 827.263
  31
0.0
   0
LINE
   8
LEVEL001
   6
CONTINUOUS
  62
7
  10
 227.596
  20
 827.263
  30
0.0
  11
 227.587
  21
 827.070
  31
0.0
   0
LINE
   8
LEVEL001
   6
CONTINUOUS
  62
7
  10
 227.587
  20
 827.070
  30
0.0
  11
 227.596
  21
 826.878
  31
0.0
   0
LINE
   8
LEVEL001
   6
CONTINUOUS
  62
7
  10
 227.596
  20
 826.878
  30
0.0
  11
 227.623
  21
 826.686
  31
0.0
   0
LINE
   8
LEVEL001
   6
CONTINUOUS
  62
7
  10
 227.623
  20
 826.686
  30
0.0
  11
 227.668
  21
 826.498
  31
0.0
   0
LINE
   8
LEVEL001
   6
CONTINUOUS
  62
7
  10
 227.668
  20
 826.498
  30
0.0
  11
 227.731
  21
 826.314
  31
0.0
   0
LINE
   8
LEVEL001
   6
CONTINUOUS
  62
7
  10
 227.731
  20
 826.314
  30
0.0
  11
 227.811
  21
 826.135
  31
0.0
   0
LINE
   8
LEVEL001
   6
CONTINUOUS
  62
7
  10
 227.811
  20
 826.135
  30
0.0
  11
 227.908
  21
 825.964
  31
0.0
   0
LINE
   8
LEVEL001
   6
CONTINUOUS
  62
7
  10
 227.908
  20
 825.964
  30
0.0
  11
 228.021
  21
 825.801
  31
0.0
   0
LINE
   8
LEVEL001
   6
CONTINUOUS
  62
7
  10
 228.021
  20
 825.801
  30
0.0
  11
 228.148
  21
 825.648
  31
0.0
   0
LINE
   8
LEVEL001
   6
CONTINUOUS
  62
7
  10
 228.148
  20
 825.648
  30
0.0
  11
 228.289
  21
 825.506
  31
0.0
   0
LINE
   8
LEVEL001
   6
CONTINUOUS
  62
7
  10
 228.289
  20
 825.506
  30
0.0
  11
 228.444
  21
 825.375
  31
0.0
   0
LINE
   8
LEVEL001
   6
CONTINUOUS
  62
7
  10
 228.444
  20
 825.375
  30
0.0
  11
 228.610
  21
 825.258
  31
0.0
   0
LINE
   8
LEVEL001
   6
CONTINUOUS
  62
7
  10
 228.610
  20
 825.258
  30
0.0
  11
 228.786
  21
 825.154
  31
0.0
   0
LINE
   8
LEVEL001
   6
CONTINUOUS
  62
7
  10
 228.786
  20
 825.154
  30
0.0
  11
 228.972
  21
 825.065
  31
0.0
   0
LINE
   8
LEVEL001
   6
CONTINUOUS
  62
7
  10
 228.972
  20
 825.065
  30
0.0
  11
 229.165
  21
 824.991
  31
0.0
   0
LINE
   8
LEVEL001
   6
CONTINUOUS
  62
7
  10
 229.165
  20
 824.991
  30
0.0
  11
 229.365
  21
 824.933
  31
0.0
   0
LINE
   8
LEVEL001
   6
CONTINUOUS
  62
7
  10
 229.365
  20
 824.933
  30
0.0
  11
 229.569
  21
 824.891
  31
0.0
   0
LINE
   8
LEVEL001
   6
CONTINUOUS
  62
7
  10
 229.569
  20
 824.891
  30
0.0
  11
 229.777
  21
 824.866
  31
0.0
   0
LINE
   8
LEVEL001
   6
CONTINUOUS
  62
7
  10
 229.777
  20
 824.866
  30
0.0
  11
 229.986
  21
 824.857
  31
0.0
   0
LINE
   8
LEVEL001
   6
CONTINUOUS
  62
7
  10
 229.986
  20
 824.857
  30
0.0
  11
 230.195
  21
 824.866
  31
0.0
   0
LINE
   8
LEVEL001
   6
CONTINUOUS
  62
7
  10
 230.195
  20
 824.866
  30
0.0
  11
 230.403
  21
 824.891
  31
0.0
   0
LINE
   8
LEVEL001
   6
CONTINUOUS
  62
7
  10
 230.403
  20
 824.891
  30
0.0
  11
 230.607
  21
 824.933
  31
0.0
   0
LINE
   8
LEVEL001
   6
CONTINUOUS
  62
7
  10
 230.607
  20
 824.933
  30
0.0
  11
 230.806
  21
 824.991
  31
0.0
   0
LINE
   8
LEVEL001
   6
CONTINUOUS
  62
7
  10
 230.806
  20
 824.991
  30
0.0
  11
 231.000
  21
 825.065
  31
0.0
   0
LINE
   8
LEVEL001
   6
CONTINUOUS
  62
7
  10
 231.000
  20
 825.065
  30
0.0
  11
 231.186
  21
 825.154
  31
0.0
   0
LINE
   8
LEVEL001
   6
CONTINUOUS
  62
7
  10
 231.186
  20
 825.154
  30
0.0
  11
 231.362
  21
 825.258
  31
0.0
   0
LINE
   8
LEVEL001
   6
CONTINUOUS
  62
7
  10
 231.362
  20
 825.258
  30
0.0
  11
 231.528
  21
 825.375
  31
0.0
   0
LINE
   8
LEVEL001
   6
CONTINUOUS
  62
7
  10
 231.528
  20
 825.375
  30
0.0
  11
 231.682
  21
 825.506
  31
0.0
   0
LINE
   8
LEVEL001
   6
CONTINUOUS
  62
7
  10
 231.682
  20
 825.506
  30
0.0
  11
 231.824
  21
 825.648
  31
0.0
   0
LINE
   8
LEVEL001
   6
CONTINUOUS
  62
7
  10
 231.824
  20
 825.648
  30
0.0
  11
 231.951
  21
 825.801
  31
0.0
   0
LINE
   8
LEVEL001
   6
CONTINUOUS
  62
7
  10
 231.951
  20
 825.801
  30
0.0
  11
 232.064
  21
 825.964
  31
0.0
   0
LINE
   8
LEVEL001
   6
CONTINUOUS
  62
7
  10
 232.064
  20
 825.964
  30
0.0
  11
 232.160
  21
 826.135
  31
0.0
   0
LINE
   8
LEVEL001
   6
CONTINUOUS
  62
7
  10
 232.160
  20
 826.135
  30
0.0
  11
 232.240
  21
 826.314
  31
0.0
   0
LINE
   8
LEVEL001
   6
CONTINUOUS
  62
7
  10
 232.240
  20
 826.314
  30
0.0
  11
 232.303
  21
 826.498
  31
0.0
   0
LINE
   8
LEVEL001
   6
CONTINUOUS
  62
7
  10
 232.303
  20
 826.498
  30
0.0
  11
 232.349
  21
 826.686
  31
0.0
   0
LINE
   8
LEVEL001
   6
CONTINUOUS
  62
7
  10
 232.349
  20
 826.686
  30
0.0
  11
 232.376
  21
 826.878
  31
0.0
   0
LINE
   8
LEVEL001
   6
CONTINUOUS
  62
7
  10
 232.376
  20
 826.878
  30
0.0
  11
 232.385
  21
 827.070
  31
0.0
   0
ARC
   8
LEVEL001
   6
CONTINUOUS
  62
7
  10
 255.000
  20
 822.000
  30
0.0
  40
 25.0000
  50
 119.800
  51
 132.578
   0
ARC
   8
LEVEL001
   6
CONTINUOUS
  62
7
  10
 255.000
  20
 822.000
  30
0.0
  40
 25.0000
  50
 173.410
  51
 62.0683
   0
LINE
   8
LEVEL001
   6
DASHDOT
  62
1
  10
 107.500
  20
 1088.00
  30
0.0
  11
 182.500
  21
 1088.00
  31
0.0
   0
LINE
   8
LEVEL001
   6
DASHDOT
  62
1
  10
 145.000
  20
 1125.50
  30
0.0
  11
 145.000
  21
 1050.50
  31
0.0
   0
LINE
   8
LEVEL001
   6
DASHDOT
  62
1
  10
 292.500
  20
 1088.00
  30
0.0
  11
 217.500
  21
 1088.00
  31
0.0
   0
LINE
   8
LEVEL001
   6
DASHDOT
  62
1
  10
 255.000
  20
 1125.50
  30
0.0
  11
 255.000
  21
 1050.50
  31
0.0
   0
LINE
   8
LEVEL001
   6
DASHDOT
  62
1
  10
 200.000
  20
 1130.00
  30
0.0
  11
 200.000
  21
 780.000
  31
0.0
   0
LINE
   8
LEVEL001
   6
DASHDOT
  62
1
  10
 80.0000
  20
 980.000
  30
0.0
  11
 320.000
  21
 980.000
  31
0.0
   0
LINE
   8
LEVEL001
   6
DASHDOT
  62
1
  10
 40.0000
  20
 891.500
  30
0.0
  11
 360.000
  21
 891.500
  31
0.0
   0
LINE
   8
LEVEL001
   6
DASHDOT
  62
1
  10
 107.500
  20
 822.000
  30
0.0
  11
 182.500
  21
 822.000
  31
0.0
   0
LINE
   8
LEVEL001
   6
DASHDOT
  62
1
  10
 145.000
  20
 784.500
  30
0.0
  11
 145.000
  21
 859.500
  31
0.0
   0
LINE
   8
LEVEL001
   6
DASHDOT
  62
1
  10
 292.500
  20
 822.000
  30
0.0
  11
 217.500
  21
 822.000
  31
0.0
   0
LINE
   8
LEVEL001
   6
DASHDOT
  62
1
  10
 255.000
  20
 784.500
  30
0.0
  11
 255.000
  21
 859.500
  31
0.0
   0
LINE
   8
LEVEL001
   6
CONTINUOUS
  62
7
  10
 297.958
  20
 939.500
  30
0.0
  11
 303.250
  21
 939.500
  31
0.0
   0
LINE
   8
LEVEL001
   6
CONTINUOUS
  62
7
  10
 292.250
  20
 843.500
  30
0.0
  11
 292.250
  21
 927.789
  31
0.0
   0
LINE
   8
LEVEL001
   6
CONTINUOUS
  62
7
  10
 292.000
  20
 927.350
  30
0.0
  11
 292.000
  21
 844.500
  31
0.0
   0
LINE
   8
LEVEL001
   6
CONTINUOUS
  62
7
  10
 46.0000
  20
 877.500
  30
0.0
  11
 45.0000
  21
 878.500
  31
0.0
   0
LINE
   8
LEVEL001
   6
CONTINUOUS
  62
7
  10
 45.0000
  20
 904.500
  30
0.0
  11
 45.0000
  21
 878.500
  31
0.0
   0
LINE
   8
LEVEL001
   6
CONTINUOUS
  62
7
  10
 46.0000
  20
 905.500
  30
0.0
  11
 45.0000
  21
 904.500
  31
0.0
   0
LINE
   8
LEVEL001
   6
CONTINUOUS
  62
7
  10
 46.0000
  20
 877.500
  30
0.0
  11
 46.0000
  21
 887.500
  31
0.0
   0
LINE
   8
LEVEL001
   6
CONTINUOUS
  62
7
  10
 46.0000
  20
 895.500
  30
0.0
  11
 46.0000
  21
 905.500
  31
0.0
   0
LINE
   8
LEVEL001
   6
DASHDOT
  62
1
  10
 600.000
  20
 20.0000
  30
0.0
  11
 600.000
  21
 745.000
  31
0.0
   0
LINE
   8
LEVEL001
   6
DASHDOT
  62
1
  10
 200.000
  20
 20.0000
  30
0.0
  11
 200.000
  21
 745.000
  31
0.0
   0
LINE
   8
LEVEL003
   6
CONTINUOUS
  62
3
  10
 319.000
  20
 538.000
  30
0.0
  11
 319.000
  21
 562.000
  31
0.0
   0
LINE
   8
LEVEL003
   6
CONTINUOUS
  62
3
  10
 355.000
  20
 538.000
  30
0.0
  11
 355.000
  21
 562.000
  31
0.0
   0
LINE
   8
LEVEL003
   6
CONTINUOUS
  62
3
  10
 319.000
  20
 560.000
  30
0.0
  11
 355.000
  21
 560.000
  31
0.0
   0
LINE
   8
LEVEL003
   6
CONTINUOUS
  62
3
  10
 319.000
  20
 560.000
  30
0.0
  11
 322.000
  21
 559.196
  31
0.0
   0
LINE
   8
LEVEL003
   6
CONTINUOUS
  62
3
  10
 319.000
  20
 560.000
  30
0.0
  11
 322.000
  21
 560.804
  31
0.0
   0
LINE
   8
LEVEL003
   6
CONTINUOUS
  62
3
  10
 355.000
  20
 560.000
  30
0.0
  11
 352.000
  21
 560.804
  31
0.0
   0
LINE
   8
LEVEL003
   6
CONTINUOUS
  62
3
  10
 355.000
  20
 560.000
  30
0.0
  11
 352.000
  21
 559.196
  31
0.0
   0
TEXT
   8
LEVEL003
  62
3
  10
 335.000
  20
 561.714
  30
0.0
  40
 4.00000
   1
36
  41
 0.500000
   7
STANDARD
  72
1
  11
 337.000
  21
 561.714
  31
0.0
   0
LINE
   8
LEVEL003
   6
CONTINUOUS
  62
3
  10
 313.000
  20
 534.416
  30
0.0
  11
 313.000
  21
 592.000
  31
0.0
   0
LINE
   8
LEVEL003
   6
CONTINUOUS
  62
3
  10
 355.000
  20
 538.000
  30
0.0
  11
 355.000
  21
 592.000
  31
0.0
   0
LINE
   8
LEVEL003
   6
CONTINUOUS
  62
3
  10
 313.000
  20
 590.000
  30
0.0
  11
 355.000
  21
 590.000
  31
0.0
   0
LINE
   8
LEVEL003
   6
CONTINUOUS
  62
3
  10
 313.000
  20
 590.000
  30
0.0
  11
 316.000
  21
 589.196
  31
0.0
   0
LINE
   8
LEVEL003
   6
CONTINUOUS
  62
3
  10
 313.000
  20
 590.000
  30
0.0
  11
 316.000
  21
 590.804
  31
0.0
   0
LINE
   8
LEVEL003
   6
CONTINUOUS
  62
3
  10
 355.000
  20
 590.000
  30
0.0
  11
 352.000
  21
 590.804
  31
0.0
   0
LINE
   8
LEVEL003
   6
CONTINUOUS
  62
3
  10
 355.000
  20
 590.000
  30
0.0
  11
 352.000
  21
 589.196
  31
0.0
   0
TEXT
   8
LEVEL003
  62
3
  10
 332.000
  20
 591.714
  30
0.0
  40
 4.00000
   1
42
  41
 0.500000
   7
STANDARD
  72
1
  11
 334.000
  21
 591.714
  31
0.0
   0
LINE
   8
LEVEL003
   6
CONTINUOUS
  62
3
  10
 738.500
  20
 440.000
  30
0.0
  11
 782.000
  21
 440.000
  31
0.0
   0
LINE
   8
LEVEL003
   6
CONTINUOUS
  62
3
  10
 734.000
  20
 456.000
  30
0.0
  11
 782.000
  21
 456.000
  31
0.0
   0
LINE
   8
LEVEL003
   6
CONTINUOUS
  62
3
  10
 780.000
  20
 440.000
  30
0.0
  11
 780.000
  21
 456.000
  31
0.0
   0
LINE
   8
LEVEL003
   6
CONTINUOUS
  62
3
  10
 780.000
  20
 440.000
  30
0.0
  11
 780.804
  21
 443.000
  31
0.0
   0
LINE
   8
LEVEL003
   6
CONTINUOUS
  62
3
  10
 780.000
  20
 440.000
  30
0.0
  11
 779.196
  21
 443.000
  31
0.0
   0
LINE
   8
LEVEL003
   6
CONTINUOUS
  62
3
  10
 780.000
  20
 456.000
  30
0.0
  11
 779.196
  21
 453.000
  31
0.0
   0
LINE
   8
LEVEL003
   6
CONTINUOUS
  62
3
  10
 780.000
  20
 456.000
  30
0.0
  11
 780.804
  21
 453.000
  31
0.0
   0
TEXT
   8
LEVEL003
  62
3
  10
 778.286
  20
 446.000
  30
0.0
  40
 4.00000
   1
16
  50
 90.0000
  41
 0.500000
   7
STANDARD
  72
1
  11
 778.286
  21
 448.000
  31
0.0
   0
LINE
   8
LEVEL003
   6
CONTINUOUS
  62
3
  10
 738.500
  20
 440.000
  30
0.0
  11
 802.000
  21
 440.000
  31
0.0
   0
LINE
   8
LEVEL003
   6
CONTINUOUS
  62
3
  10
 581.538
  20
 520.000
  30
0.0
  11
 802.000
  21
 520.000
  31
0.0
   0
LINE
   8
LEVEL003
   6
CONTINUOUS
  62
3
  10
 800.000
  20
 440.000
  30
0.0
  11
 800.000
  21
 520.000
  31
0.0
   0
LINE
   8
LEVEL003
   6
CONTINUOUS
  62
3
  10
 800.000
  20
 440.000
  30
0.0
  11
 800.804
  21
 443.000
  31
0.0
   0
LINE
   8
LEVEL003
   6
CONTINUOUS
  62
3
  10
 800.000
  20
 440.000
  30
0.0
  11
 799.196
  21
 443.000
  31
0.0
   0
LINE
   8
LEVEL003
   6
CONTINUOUS
  62
3
  10
 800.000
  20
 520.000
  30
0.0
  11
 799.196
  21
 517.000
  31
0.0
   0
LINE
   8
LEVEL003
   6
CONTINUOUS
  62
3
  10
 800.000
  20
 520.000
  30
0.0
  11
 800.804
  21
 517.000
  31
0.0
   0
TEXT
   8
LEVEL003
  62
3
  10
 798.286
  20
 478.000
  30
0.0
  40
 4.00000
   1
80
  50
 90.0000
  41
 0.500000
   7
STANDARD
  72
1
  11
 798.286
  21
 480.000
  31
0.0
   0
LINE
   8
LEVEL003
   6
CONTINUOUS
  62
3
  10
 738.500
  20
 440.000
  30
0.0
  11
 822.000
  21
 440.000
  31
0.0
   0
LINE
   8
LEVEL003
   6
CONTINUOUS
  62
3
  10
 630.000
  20
 740.000
  30
0.0
  11
 822.000
  21
 740.000
  31
0.0
   0
LINE
   8
LEVEL003
   6
CONTINUOUS
  62
3
  10
 820.000
  20
 440.000
  30
0.0
  11
 820.000
  21
 740.000
  31
0.0
   0
LINE
   8
LEVEL003
   6
CONTINUOUS
  62
3
  10
 820.000
  20
 440.000
  30
0.0
  11
 820.804
  21
 443.000
  31
0.0
   0
LINE
   8
LEVEL003
   6
CONTINUOUS
  62
3
  10
 820.000
  20
 440.000
  30
0.0
  11
 819.196
  21
 443.000
  31
0.0
   0
LINE
   8
LEVEL003
   6
CONTINUOUS
  62
3
  10
 820.000
  20
 740.000
  30
0.0
  11
 819.196
  21
 737.000
  31
0.0
   0
LINE
   8
LEVEL003
   6
CONTINUOUS
  62
3
  10
 820.000
  20
 740.000
  30
0.0
  11
 820.804
  21
 737.000
  31
0.0
   0
TEXT
   8
LEVEL003
  62
3
  10
 818.286
  20
 587.000
  30
0.0
  40
 4.00000
   1
300
  50
 90.0000
  41
 0.500000
   7
STANDARD
  72
1
  11
 818.286
  21
 590.000
  31
0.0
   0
LINE
   8
LEVEL003
   6
CONTINUOUS
  62
3
  10
 570.000
  20
 740.000
  30
0.0
  11
 570.000
  21
 772.000
  31
0.0
   0
LINE
   8
LEVEL003
   6
CONTINUOUS
  62
3
  10
 630.000
  20
 740.000
  30
0.0
  11
 630.000
  21
 772.000
  31
0.0
   0
LINE
   8
LEVEL003
   6
CONTINUOUS
  62
3
  10
 570.000
  20
 770.000
  30
0.0
  11
 630.000
  21
 770.000
  31
0.0
   0
LINE
   8
LEVEL003
   6
CONTINUOUS
  62
3
  10
 570.000
  20
 770.000
  30
0.0
  11
 573.000
  21
 769.196
  31
0.0
   0
LINE
   8
LEVEL003
   6
CONTINUOUS
  62
3
  10
 570.000
  20
 770.000
  30
0.0
  11
 573.000
  21
 770.804
  31
0.0
   0
LINE
   8
LEVEL003
   6
CONTINUOUS
  62
3
  10
 630.000
  20
 770.000
  30
0.0
  11
 627.000
  21
 770.804
  31
0.0
   0
LINE
   8
LEVEL003
   6
CONTINUOUS
  62
3
  10
 630.000
  20
 770.000
  30
0.0
  11
 627.000
  21
 769.196
  31
0.0
   0
TEXT
   8
LEVEL003
  62
3
  10
 594.000
  20
 771.714
  30
0.0
  40
 4.00000
   1
M60×2
   7
STANDARD
  72
1
  11
 600.000
  21
 771.714
  31
0.0
   0
LINE
   8
LEVEL003
   6
CONTINUOUS
  62
3
  10
 288.500
  20
 440.000
  30
0.0
  11
 352.000
  21
 440.000
  31
0.0
   0
LINE
   8
LEVEL003
   6
CONTINUOUS
  62
3
  10
 243.500
  20
 30.0000
  30
0.0
  11
 352.000
  21
 30.0000
  31
0.0
   0
LINE
   8
LEVEL003
   6
CONTINUOUS
  62
3
  10
 350.000
  20
 440.000
  30
0.0
  11
 350.000
  21
 30.0000
  31
0.0
   0
LINE
   8
LEVEL003
   6
CONTINUOUS
  62
3
  10
 350.000
  20
 440.000
  30
0.0
  11
 349.196
  21
 437.000
  31
0.0
   0
LINE
   8
LEVEL003
   6
CONTINUOUS
  62
3
  10
 350.000
  20
 440.000
  30
0.0
  11
 350.804
  21
 437.000
  31
0.0
   0
LINE
   8
LEVEL003
   6
CONTINUOUS
  62
3
  10
 350.000
  20
 30.0000
  30
0.0
  11
 350.804
  21
 33.0000
  31
0.0
   0
LINE
   8
LEVEL003
   6
CONTINUOUS
  62
3
  10
 350.000
  20
 30.0000
  30
0.0
  11
 349.196
  21
 33.0000
  31
0.0
   0
TEXT
   8
LEVEL003
  62
3
  10
 348.286
  20
 222.000
  30
0.0
  40
 4.00000
   1
60+ストローク
  50
 90.0000
   7
STANDARD
  72
1
  11
 348.286
  21
 235.000
  31
0.0
   0
LINE
   8
LEVEL003
   6
CONTINUOUS
  62
3
  10
 45.0000
  20
 877.500
  30
0.0
  11
 45.0000
  21
 758.000
  31
0.0
   0
LINE
   8
LEVEL003
   6
CONTINUOUS
  62
3
  10
 355.000
  20
 877.500
  30
0.0
  11
 355.000
  21
 758.000
  31
0.0
   0
LINE
   8
LEVEL003
   6
CONTINUOUS
  62
3
  10
 45.0000
  20
 760.000
  30
0.0
  11
 355.000
  21
 760.000
  31
0.0
   0
LINE
   8
LEVEL003
   6
CONTINUOUS
  62
3
  10
 45.0000
  20
 760.000
  30
0.0
  11
 48.0000
  21
 759.196
  31
0.0
   0
LINE
   8
LEVEL003
   6
CONTINUOUS
  62
3
  10
 45.0000
  20
 760.000
  30
0.0
  11
 48.0000
  21
 760.804
  31
0.0
   0
LINE
   8
LEVEL003
   6
CONTINUOUS
  62
3
  10
 355.000
  20
 760.000
  30
0.0
  11
 352.000
  21
 760.804
  31
0.0
   0
LINE
   8
LEVEL003
   6
CONTINUOUS
  62
3
  10
 355.000
  20
 760.000
  30
0.0
  11
 352.000
  21
 759.196
  31
0.0
   0
TEXT
   8
LEVEL003
  62
3
  10
 197.000
  20
 761.714
  30
0.0
  40
 4.00000
   1
310
  41
 0.500000
   7
STANDARD
  72
1
  11
 200.000
  21
 761.714
  31
0.0
   0
LINE
   8
LEVEL003
   6
CONTINUOUS
  62
3
  10
 293.500
  20
 1088.00
  30
0.0
  11
 402.000
  21
 1088.00
  31
0.0
   0
LINE
   8
LEVEL003
   6
CONTINUOUS
  62
3
  10
 321.000
  20
 980.000
  30
0.0
  11
 402.000
  21
 980.000
  31
0.0
   0
LINE
   8
LEVEL003
   6
CONTINUOUS
  62
3
  10
 400.000
  20
 1088.00
  30
0.0
  11
 400.000
  21
 980.000
  31
0.0
   0
LINE
   8
LEVEL003
   6
CONTINUOUS
  62
3
  10
 400.000
  20
 1088.00
  30
0.0
  11
 399.196
  21
 1085.00
  31
0.0
   0
LINE
   8
LEVEL003
   6
CONTINUOUS
  62
3
  10
 400.000
  20
 1088.00
  30
0.0
  11
 400.804
  21
 1085.00
  31
0.0
   0
LINE
   8
LEVEL003
   6
CONTINUOUS
  62
3
  10
 400.000
  20
 980.000
  30
0.0
  11
 400.804
  21
 983.000
  31
0.0
   0
LINE
   8
LEVEL003
   6
CONTINUOUS
  62
3
  10
 400.000
  20
 980.000
  30
0.0
  11
 399.196
  21
 983.000
  31
0.0
   0
TEXT
   8
LEVEL003
  62
3
  10
 398.286
  20
 1031.00
  30
0.0
  40
 4.00000
   1
108
  50
 90.0000
  41
 0.500000
   7
STANDARD
  72
1
  11
 398.286
  21
 1034.00
  31
0.0
   0
LINE
   8
LEVEL003
   6
CONTINUOUS
  62
3
  10
 321.000
  20
 980.000
  30
0.0
  11
 402.000
  21
 980.000
  31
0.0
   0
LINE
   8
LEVEL003
   6
CONTINUOUS
  62
3
  10
 293.500
  20
 822.000
  30
0.0
  11
 402.000
  21
 822.000
  31
0.0
   0
LINE
   8
LEVEL003
   6
CONTINUOUS
  62
3
  10
 400.000
  20
 980.000
  30
0.0
  11
 400.000
  21
 822.000
  31
0.0
   0
LINE
   8
LEVEL003
   6
CONTINUOUS
  62
3
  10
 400.000
  20
 980.000
  30
0.0
  11
 399.196
  21
 977.000
  31
0.0
   0
LINE
   8
LEVEL003
   6
CONTINUOUS
  62
3
  10
 400.000
  20
 980.000
  30
0.0
  11
 400.804
  21
 977.000
  31
0.0
   0
LINE
   8
LEVEL003
   6
CONTINUOUS
  62
3
  10
 400.000
  20
 822.000
  30
0.0
  11
 400.804
  21
 825.000
  31
0.0
   0
LINE
   8
LEVEL003
   6
CONTINUOUS
  62
3
  10
 400.000
  20
 822.000
  30
0.0
  11
 399.196
  21
 825.000
  31
0.0
   0
TEXT
   8
LEVEL003
  62
3
  10
 398.286
  20
 898.000
  30
0.0
  40
 4.00000
   1
158
  50
 90.0000
  41
 0.500000
   7
STANDARD
  72
1
  11
 398.286
  21
 901.000
  31
0.0
   0
LINE
   8
LEVEL003
   6
CONTINUOUS
  62
3
  10
 145.000
  20
 1126.50
  30
0.0
  11
 145.000
  21
 1152.00
  31
0.0
   0
LINE
   8
LEVEL003
   6
CONTINUOUS
  62
3
  10
 255.000
  20
 1126.50
  30
0.0
  11
 255.000
  21
 1152.00
  31
0.0
   0
LINE
   8
LEVEL003
   6
CONTINUOUS
  62
3
  10
 145.000
  20
 1150.00
  30
0.0
  11
 255.000
  21
 1150.00
  31
0.0
   0
LINE
   8
LEVEL003
   6
CONTINUOUS
  62
3
  10
 145.000
  20
 1150.00
  30
0.0
  11
 148.000
  21
 1149.20
  31
0.0
   0
LINE
   8
LEVEL003
   6
CONTINUOUS
  62
3
  10
 145.000
  20
 1150.00
  30
0.0
  11
 148.000
  21
 1150.80
  31
0.0
   0
LINE
   8
LEVEL003
   6
CONTINUOUS
  62
3
  10
 255.000
  20
 1150.00
  30
0.0
  11
 252.000
  21
 1150.80
  31
0.0
   0
LINE
   8
LEVEL003
   6
CONTINUOUS
  62
3
  10
 255.000
  20
 1150.00
  30
0.0
  11
 252.000
  21
 1149.20
  31
0.0
   0
TEXT
   8
LEVEL003
  62
3
  10
 197.000
  20
 1151.71
  30
0.0
  40
 4.00000
   1
110
  41
 0.500000
   7
STANDARD
  72
1
  11
 200.000
  21
 1151.71
  31
0.0
   0
LINE
   8
LEVEL003
   6
CONTINUOUS
  62
3
  10
 630.000
  20
 740.000
  30
0.0
  11
 702.000
  21
 740.000
  31
0.0
   0
LINE
   8
LEVEL003
   6
CONTINUOUS
  62
3
  10
 633.000
  20
 680.000
  30
0.0
  11
 702.000
  21
 680.000
  31
0.0
   0
LINE
   8
LEVEL003
   6
CONTINUOUS
  62
3
  10
 700.000
  20
 740.000
  30
0.0
  11
 700.000
  21
 680.000
  31
0.0
   0
LINE
   8
LEVEL003
   6
CONTINUOUS
  62
3
  10
 700.000
  20
 740.000
  30
0.0
  11
 699.196
  21
 737.000
  31
0.0
   0
LINE
   8
LEVEL003
   6
CONTINUOUS
  62
3
  10
 700.000
  20
 740.000
  30
0.0
  11
 700.804
  21
 737.000
  31
0.0
   0
LINE
   8
LEVEL003
   6
CONTINUOUS
  62
3
  10
 700.000
  20
 680.000
  30
0.0
  11
 700.804
  21
 683.000
  31
0.0
   0
LINE
   8
LEVEL003
   6
CONTINUOUS
  62
3
  10
 700.000
  20
 680.000
  30
0.0
  11
 699.196
  21
 683.000
  31
0.0
   0
TEXT
   8
LEVEL003
  62
3
  10
 698.286
  20
 708.000
  30
0.0
  40
 4.00000
   1
60
  50
 90.0000
  41
 0.500000
   7
STANDARD
  72
1
  11
 698.286
  21
 710.000
  31
0.0
   0
LINE
   8
LEVEL004
   6
DOT
  62
3
  10
 683.000
  20
 457.000
  30
0.0
  11
 683.000
  21
 456.000
  31
0.0
   0
LINE
   8
LEVEL004
   6
DOT
  62
3
  10
 733.000
  20
 456.000
  30
0.0
  11
 683.000
  21
 456.000
  31
0.0
   0
LINE
   8
LEVEL004
   6
DOT
  62
3
  10
 733.000
  20
 457.000
  30
0.0
  11
 733.000
  21
 456.000
  31
0.0
   0
ENDSEC
   0
EOF
