   0
SECTION
   2
HEADER
   9
$LIMMIN
  10
0.0
  20
0.0
   9
$LIMMAX
  10
 1782.00
  20
 1260.00
   9
$EXTMIN
  10
0.0
  20
0.0
   9
$EXTMAX
  10
 1782.00
  20
 1260.00
   9
$LTSCALE
  40
 35.6400
   0
ENDSEC
   0
SECTION
   2
TABLES
  0
TABLE
  2
LTYPE
 70
    25
  0
LTYPE
  2
CONTINUOUS
 70
    64
  3
Solid line
 72
    65
 73
     0
 40
0.0
  0
LTYPE
  2
BORDER
 70
    64
  3
__ __ . __ __ . __ __ . __ __ . __ __ . __ __ .
 72
    65
 73
     6
 40
1.75
 49
0.5
 49
-0.25
 49
0.5
 49
-0.25
 49
0.0
 49
-0.25
  0
LTYPE
  2
BORDER2
 70
    64
  3
__.__.__.__.__.__.__.__.__.__.__.__.__.__.__.__
 72
    65
 73
     6
 40
0.875
 49
0.25
 49
-0.125
 49
0.25
 49
-0.125
 49
0.0
 49
-0.125
  0
LTYPE
  2
BORDERX2
 70
    64
  3
____  ____  .  ____  ____  .  ____  ____  .  __
 72
    65
 73
     6
 40
3.5
 49
1.0
 49
-0.5
 49
1.0
 49
-0.5
 49
0.0
 49
-0.5
  0
LTYPE
  2
CENTER
 70
    64
  3
____ _ ____ _ ____ _ ____ _ ____ _ ____ _ ____ 
 72
    65
 73
     4
 40
2.0
 49
1.25
 49
-0.25
 49
0.25
 49
-0.25
  0
LTYPE
  2
CENTER2
 70
    64
  3
___ _ ___ _ ___ _ ___ _ ___ _ ___ _ ___ _ ___ _
 72
    65
 73
     4
 40
1.125
 49
0.75
 49
-0.125
 49
0.125
 49
-0.125
  0
LTYPE
  2
CENTERX2
 70
    64
  3
________  __  ________  __  ________  __  _____
 72
    65
 73
     4
 40
4.0
 49
2.5
 49
-0.5
 49
0.5
 49
-0.5
  0
LTYPE
  2
DASHDOT
 70
    64
  3
__ . __ . __ . __ . __ . __ . __ . __ . __ . __
 72
    65
 73
     4
 40
1.0
 49
0.5
 49
-0.25
 49
0.0
 49
-0.25
  0
LTYPE
  2
DASHDOT2
 70
    64
  3
_._._._._._._._._._._._._._._._._._._._._._._._
 72
    65
 73
     4
 40
0.5
 49
0.25
 49
-0.125
 49
0.0
 49
-0.125
  0
LTYPE
  2
DASHDOTX2
 70
    64
  3
____  .  ____  .  ____  .  ____  .  ____  .  __
 72
    65
 73
     4
 40
2.0
 49
1.0
 49
-0.5
 49
0.0
 49
-0.5
  0
LTYPE
  2
DASHED
 70
    64
  3
__ __ __ __ __ __ __ __ __ __ __ __ __ __ __ __
 72
    65
 73
     2
 40
0.75
 49
0.5
 49
-0.25
  0
LTYPE
  2
DASHED2
 70
    64
  3
_ _ _ _ _ _ _ _ _ _ _ _ _ _ _ _ _ _ _ _ _ _ _ _
 72
    65
 73
     2
 40
0.375
 49
0.25
 49
-0.125
  0
LTYPE
  2
DASHEDX2
 70
    64
  3
____  ____  ____  ____  ____  ____  ____  ____ 
 72
    65
 73
     2
 40
1.5
 49
1.0
 49
-0.5
  0
LTYPE
  2
DIVIDE
 70
    64
  3
____ . . ____ . . ____ . . ____ . . ____ . . __
 72
    65
 73
     6
 40
1.25
 49
0.5
 49
-0.25
 49
0.0
 49
-0.25
 49
0.0
 49
-0.25
  0
LTYPE
  2
DIVIDE2
 70
    64
  3
__..__..__..__..__..__..__..__..__..__..__..__.
 72
    65
 73
     6
 40
0.625
 49
0.25
 49
-0.125
 49
0.0
 49
-0.125
 49
0.0
 49
-0.125
  0
LTYPE
  2
DIVIDEX2
 70
    64
  3
________  .  .  ________  .  .  ________  .  . 
 72
    65
 73
     6
 40
2.5
 49
1.0
 49
-0.5
 49
0.0
 49
-0.5
 49
0.0
 49
-0.5
  0
LTYPE
  2
DOT
 70
    64
  3
. . . . . . . . . . . . . . . . . . . . . . . .
 72
    65
 73
     2
 40
0.25
 49
0.0
 49
-0.25
  0
LTYPE
  2
DOT2
 70
    64
  3
...............................................
 72
    65
 73
     2
 40
0.125
 49
0.0
 49
-0.125
  0
LTYPE
  2
DOTX2
 70
    64
  3
.  .  .  .  .  .  .  .  .  .  .  .  .  .  .  . 
 72
    65
 73
     2
 40
0.5
 49
0.0
 49
-0.5
  0
LTYPE
  2
HIDDEN
 70
    64
  3
__ __ __ __ __ __ __ __ __ __ __ __ __ __ __ __
 72
    65
 73
     2
 40
0.375
 49
0.25
 49
-0.125
  0
LTYPE
  2
HIDDEN2
 70
    64
  3
_ _ _ _ _ _ _ _ _ _ _ _ _ _ _ _ _ _ _ _ _ _ _ _
 72
    65
 73
     2
 40
0.1875
 49
0.125
 49
-0.0625
  0
LTYPE
  2
HIDDENX2
 70
    64
  3
____ ____ ____ ____ ____ ____ ____ ____ ____ __
 72
    65
 73
     2
 40
0.75
 49
0.5
 49
-0.25
  0
LTYPE
  2
PHANTOM
 70
    64
  3
______  __  __  ______  __  __  ______  __  __ 
 72
    65
 73
     6
 40
2.5
 49
1.25
 49
-0.25
 49
0.25
 49
-0.25
 49
0.25
 49
-0.25
  0
LTYPE
  2
PHANTOM2
 70
    64
  3
___ _ _ ___ _ _ ___ _ _ ___ _ _ ___ _ _ ___ _ _
 72
    65
 73
     6
 40
1.25
 49
0.625
 49
-0.125
 49
0.125
 49
-0.125
 49
0.125
 49
-0.125
  0
LTYPE
  2
PHANTOMX2
 70
    64
  3
____________    ____    ____    ____________   
 72
    65
 73
     6
 40
5.0
 49
2.5
 49
-0.5
 49
0.5
 49
-0.5
 49
0.5
 49
-0.5
  0
ENDTAB
  0
TABLE
  2
STYLE
 70
     2
  0
STYLE
  2
STANDARD
 70
0
 40
0.0
 41
1.0
 50
0.0
 71
0
 42
0.2
  3
TXT
  4
BIGFONT
  0
STYLE
  2
STANDARD1
 70
     4
 40
0.0
 41
1.0
 50
0.0
 71
     0
 42
0.2
  3
TXT
  4
BIGFONT
  0
ENDTAB
   0
TABLE
   2
LAYER
  70
4
   0
LAYER
   2
0
  70
0
  62
7
   6
CONTINUOUS
   0
LAYER
   2
LEVEL001
  70
0
  62
7
   6
CONTINUOUS
   0
LAYER
   2
LEVEL003
  70
0
  62
7
   6
CONTINUOUS
   0
LAYER
   2
LEVEL004
  70
0
  62
7
   6
CONTINUOUS
   0
ENDTAB
   0
ENDSEC
   0
SECTION
   2
ENTITIES
   0
LINE
   8
LEVEL001
   6
CONTINUOUS
  62
7
  10
 217.500
  20
 774.000
  30
0.0
  11
 217.500
  21
 715.000
  31
0.0
   0
LINE
   8
LEVEL001
   6
CONTINUOUS
  62
7
  10
 218.500
  20
 775.000
  30
0.0
  11
 217.500
  21
 774.000
  31
0.0
   0
LINE
   8
LEVEL001
   6
CONTINUOUS
  62
7
  10
 282.500
  20
 774.000
  30
0.0
  11
 282.500
  21
 715.000
  31
0.0
   0
LINE
   8
LEVEL001
   6
CONTINUOUS
  62
7
  10
 281.500
  20
 775.000
  30
0.0
  11
 282.500
  21
 774.000
  31
0.0
   0
LINE
   8
LEVEL001
   6
CONTINUOUS
  62
7
  10
 753.000
  20
 661.268
  30
0.0
  11
 750.000
  21
 659.536
  31
0.0
   0
LINE
   8
LEVEL001
   6
CONTINUOUS
  62
7
  10
 753.000
  20
 664.732
  30
0.0
  11
 753.000
  21
 661.268
  31
0.0
   0
LINE
   8
LEVEL001
   6
CONTINUOUS
  62
7
  10
 750.000
  20
 666.464
  30
0.0
  11
 753.000
  21
 664.732
  31
0.0
   0
LINE
   8
LEVEL001
   6
CONTINUOUS
  62
7
  10
 747.000
  20
 664.732
  30
0.0
  11
 750.000
  21
 666.464
  31
0.0
   0
LINE
   8
LEVEL001
   6
CONTINUOUS
  62
7
  10
 747.000
  20
 661.268
  30
0.0
  11
 747.000
  21
 664.732
  31
0.0
   0
LINE
   8
LEVEL001
   6
CONTINUOUS
  62
7
  10
 750.000
  20
 659.536
  30
0.0
  11
 747.000
  21
 661.268
  31
0.0
   0
LINE
   8
LEVEL001
   6
CONTINUOUS
  62
7
  10
 686.009
  20
 567.767
  30
0.0
  11
 682.663
  21
 568.663
  31
0.0
   0
LINE
   8
LEVEL001
   6
CONTINUOUS
  62
7
  10
 688.459
  20
 570.216
  30
0.0
  11
 686.009
  21
 567.767
  31
0.0
   0
LINE
   8
LEVEL001
   6
CONTINUOUS
  62
7
  10
 687.562
  20
 573.562
  30
0.0
  11
 688.459
  21
 570.216
  31
0.0
   0
LINE
   8
LEVEL001
   6
CONTINUOUS
  62
7
  10
 684.216
  20
 574.459
  30
0.0
  11
 687.562
  21
 573.562
  31
0.0
   0
LINE
   8
LEVEL001
   6
CONTINUOUS
  62
7
  10
 681.767
  20
 572.009
  30
0.0
  11
 684.216
  21
 574.459
  31
0.0
   0
LINE
   8
LEVEL001
   6
CONTINUOUS
  62
7
  10
 682.663
  20
 568.663
  30
0.0
  11
 681.767
  21
 572.009
  31
0.0
   0
LINE
   8
LEVEL001
   6
CONTINUOUS
  62
7
  10
 686.009
  20
 512.233
  30
0.0
  11
 682.663
  21
 511.337
  31
0.0
   0
LINE
   8
LEVEL001
   6
CONTINUOUS
  62
7
  10
 688.459
  20
 509.784
  30
0.0
  11
 686.009
  21
 512.233
  31
0.0
   0
LINE
   8
LEVEL001
   6
CONTINUOUS
  62
7
  10
 687.562
  20
 506.438
  30
0.0
  11
 688.459
  21
 509.784
  31
0.0
   0
LINE
   8
LEVEL001
   6
CONTINUOUS
  62
7
  10
 684.216
  20
 505.541
  30
0.0
  11
 687.562
  21
 506.438
  31
0.0
   0
LINE
   8
LEVEL001
   6
CONTINUOUS
  62
7
  10
 681.767
  20
 507.991
  30
0.0
  11
 684.216
  21
 505.541
  31
0.0
   0
LINE
   8
LEVEL001
   6
CONTINUOUS
  62
7
  10
 682.663
  20
 511.337
  30
0.0
  11
 681.767
  21
 507.991
  31
0.0
   0
LINE
   8
LEVEL001
   6
CONTINUOUS
  62
7
  10
 626.233
  20
 507.991
  30
0.0
  11
 625.337
  21
 511.337
  31
0.0
   0
LINE
   8
LEVEL001
   6
CONTINUOUS
  62
7
  10
 623.784
  20
 505.541
  30
0.0
  11
 626.233
  21
 507.991
  31
0.0
   0
LINE
   8
LEVEL001
   6
CONTINUOUS
  62
7
  10
 620.438
  20
 506.438
  30
0.0
  11
 623.784
  21
 505.541
  31
0.0
   0
LINE
   8
LEVEL001
   6
CONTINUOUS
  62
7
  10
 619.541
  20
 509.784
  30
0.0
  11
 620.438
  21
 506.438
  31
0.0
   0
LINE
   8
LEVEL001
   6
CONTINUOUS
  62
7
  10
 621.991
  20
 512.233
  30
0.0
  11
 619.541
  21
 509.784
  31
0.0
   0
LINE
   8
LEVEL001
   6
CONTINUOUS
  62
7
  10
 625.337
  20
 511.337
  30
0.0
  11
 621.991
  21
 512.233
  31
0.0
   0
LINE
   8
LEVEL001
   6
CONTINUOUS
  62
7
  10
 621.991
  20
 567.767
  30
0.0
  11
 625.337
  21
 568.663
  31
0.0
   0
LINE
   8
LEVEL001
   6
CONTINUOUS
  62
7
  10
 619.541
  20
 570.216
  30
0.0
  11
 621.991
  21
 567.767
  31
0.0
   0
LINE
   8
LEVEL001
   6
CONTINUOUS
  62
7
  10
 620.438
  20
 573.562
  30
0.0
  11
 619.541
  21
 570.216
  31
0.0
   0
LINE
   8
LEVEL001
   6
CONTINUOUS
  62
7
  10
 623.784
  20
 574.459
  30
0.0
  11
 620.438
  21
 573.562
  31
0.0
   0
LINE
   8
LEVEL001
   6
CONTINUOUS
  62
7
  10
 626.233
  20
 572.009
  30
0.0
  11
 623.784
  21
 574.459
  31
0.0
   0
LINE
   8
LEVEL001
   6
CONTINUOUS
  62
7
  10
 625.337
  20
 568.663
  30
0.0
  11
 626.233
  21
 572.009
  31
0.0
   0
LINE
   8
LEVEL001
   6
CONTINUOUS
  62
7
  10
 600.000
  20
 545.723
  30
0.0
  11
 600.303
  21
 545.713
  31
0.0
   0
LINE
   8
LEVEL001
   6
CONTINUOUS
  62
7
  10
 599.116
  20
 546.606
  30
0.0
  11
 600.000
  21
 545.723
  31
0.0
   0
LINE
   8
LEVEL001
   6
CONTINUOUS
  62
7
  10
 600.000
  20
 534.277
  30
0.0
  11
 600.303
  21
 534.287
  31
0.0
   0
LINE
   8
LEVEL001
   6
CONTINUOUS
  62
7
  10
 599.116
  20
 533.394
  30
0.0
  11
 600.000
  21
 534.277
  31
0.0
   0
LINE
   8
LEVEL001
   6
CONTINUOUS
  62
7
  10
 581.364
  20
 551.561
  30
0.0
  11
 583.581
  21
 552.479
  31
0.0
   0
LINE
   8
LEVEL001
   6
CONTINUOUS
  62
7
  10
 581.565
  20
 548.722
  30
0.0
  11
 581.364
  21
 551.561
  31
0.0
   0
LINE
   8
LEVEL001
   6
CONTINUOUS
  62
7
  10
 584.614
  20
 549.985
  30
0.0
  11
 581.565
  21
 548.722
  31
0.0
   0
LINE
   8
LEVEL001
   6
CONTINUOUS
  62
7
  10
 587.663
  20
 551.248
  30
0.0
  11
 584.614
  21
 549.985
  31
0.0
   0
LINE
   8
LEVEL001
   6
CONTINUOUS
  62
7
  10
 585.798
  20
 553.398
  30
0.0
  11
 587.663
  21
 551.248
  31
0.0
   0
LINE
   8
LEVEL001
   6
CONTINUOUS
  62
7
  10
 583.581
  20
 552.479
  30
0.0
  11
 585.798
  21
 553.398
  31
0.0
   0
LINE
   8
LEVEL001
   6
CONTINUOUS
  62
7
  10
 589.616
  20
 548.471
  30
0.0
  11
 590.295
  21
 546.831
  31
0.0
   0
LINE
   8
LEVEL001
   6
CONTINUOUS
  62
7
  10
 588.996
  20
 548.553
  30
0.0
  11
 589.616
  21
 548.471
  31
0.0
   0
LINE
   8
LEVEL001
   6
CONTINUOUS
  62
7
  10
 582.529
  20
 545.874
  30
0.0
  11
 588.996
  21
 548.553
  31
0.0
   0
LINE
   8
LEVEL001
   6
CONTINUOUS
  62
7
  10
 582.148
  20
 545.378
  30
0.0
  11
 582.529
  21
 545.874
  31
0.0
   0
LINE
   8
LEVEL001
   6
CONTINUOUS
  62
7
  10
 582.827
  20
 543.738
  30
0.0
  11
 582.148
  21
 545.378
  31
0.0
   0
LINE
   8
LEVEL001
   6
CONTINUOUS
  62
7
  10
 583.447
  20
 543.656
  30
0.0
  11
 582.827
  21
 543.738
  31
0.0
   0
LINE
   8
LEVEL001
   6
CONTINUOUS
  62
7
  10
 589.914
  20
 546.335
  30
0.0
  11
 583.447
  21
 543.656
  31
0.0
   0
LINE
   8
LEVEL001
   6
CONTINUOUS
  62
7
  10
 590.295
  20
 546.831
  30
0.0
  11
 589.914
  21
 546.335
  31
0.0
   0
LINE
   8
LEVEL001
   6
CONTINUOUS
  62
7
  10
 599.116
  20
 547.000
  30
0.0
  11
 594.750
  21
 547.000
  31
0.0
   0
LINE
   8
LEVEL001
   6
CONTINUOUS
  62
7
  10
 599.116
  20
 533.000
  30
0.0
  11
 599.116
  21
 547.000
  31
0.0
   0
LINE
   8
LEVEL001
   6
CONTINUOUS
  62
7
  10
 594.750
  20
 533.000
  30
0.0
  11
 599.116
  21
 533.000
  31
0.0
   0
LINE
   8
LEVEL001
   6
CONTINUOUS
  62
7
  10
 717.500
  20
 774.000
  30
0.0
  11
 717.500
  21
 715.000
  31
0.0
   0
LINE
   8
LEVEL001
   6
CONTINUOUS
  62
7
  10
 718.500
  20
 775.000
  30
0.0
  11
 717.500
  21
 774.000
  31
0.0
   0
LINE
   8
LEVEL001
   6
CONTINUOUS
  62
7
  10
 782.500
  20
 774.000
  30
0.0
  11
 782.500
  21
 715.000
  31
0.0
   0
LINE
   8
LEVEL001
   6
CONTINUOUS
  62
7
  10
 781.500
  20
 775.000
  30
0.0
  11
 782.500
  21
 774.000
  31
0.0
   0
LINE
   8
LEVEL001
   6
CONTINUOUS
  62
7
  10
 134.000
  20
 628.500
  30
0.0
  11
 134.000
  21
 615.500
  31
0.0
   0
LINE
   8
LEVEL001
   6
CONTINUOUS
  62
7
  10
 135.000
  20
 615.000
  30
0.0
  11
 365.000
  21
 615.000
  31
0.0
   0
LINE
   8
LEVEL001
   6
CONTINUOUS
  62
7
  10
 134.000
  20
 615.500
  30
0.0
  11
 366.000
  21
 615.500
  31
0.0
   0
LINE
   8
LEVEL001
   6
CONTINUOUS
  62
7
  10
 137.000
  20
 631.500
  30
0.0
  11
 363.157
  21
 631.500
  31
0.0
   0
LINE
   8
LEVEL001
   6
CONTINUOUS
  62
7
  10
 215.000
  20
 709.000
  30
0.0
  11
 215.000
  21
 675.000
  31
0.0
   0
LINE
   8
LEVEL001
   6
CONTINUOUS
  62
7
  10
 285.000
  20
 709.000
  30
0.0
  11
 285.000
  21
 675.000
  31
0.0
   0
LINE
   8
LEVEL001
   6
CONTINUOUS
  62
7
  10
 200.398
  20
 675.000
  30
0.0
  11
 299.602
  21
 675.000
  31
0.0
   0
LINE
   8
LEVEL001
   6
CONTINUOUS
  62
7
  10
 259.344
  20
 39.1000
  30
0.0
  11
 260.241
  21
 40.0000
  31
0.0
   0
LINE
   8
LEVEL001
   6
CONTINUOUS
  62
7
  10
 259.316
  20
 40.0000
  30
0.0
  11
 259.344
  21
 39.1000
  31
0.0
   0
LINE
   8
LEVEL001
   6
CONTINUOUS
  62
7
  10
 207.500
  20
 42.5000
  30
0.0
  11
 292.500
  21
 42.5000
  31
0.0
   0
LINE
   8
LEVEL001
   6
CONTINUOUS
  62
7
  10
 207.500
  20
 42.5000
  30
0.0
  11
 207.500
  21
 41.0000
  31
0.0
   0
LINE
   8
LEVEL001
   6
CONTINUOUS
  62
7
  10
 292.500
  20
 41.0000
  30
0.0
  11
 207.500
  21
 41.0000
  31
0.0
   0
LINE
   8
LEVEL001
   6
CONTINUOUS
  62
7
  10
 291.500
  20
 40.0000
  30
0.0
  11
 208.500
  21
 40.0000
  31
0.0
   0
LINE
   8
LEVEL001
   6
CONTINUOUS
  62
7
  10
 294.550
  20
 425.268
  30
0.0
  11
 294.550
  21
 44.5000
  31
0.0
   0
LINE
   8
LEVEL001
   6
CONTINUOUS
  62
7
  10
 294.550
  20
 44.5000
  30
0.0
  11
 205.450
  21
 44.5000
  31
0.0
   0
LINE
   8
LEVEL001
   6
CONTINUOUS
  62
7
  10
 239.759
  20
 40.0000
  30
0.0
  11
 240.656
  21
 39.1000
  31
0.0
   0
LINE
   8
LEVEL001
   6
CONTINUOUS
  62
7
  10
 240.684
  20
 40.0000
  30
0.0
  11
 240.656
  21
 39.1000
  31
0.0
   0
LINE
   8
LEVEL001
   6
CONTINUOUS
  62
7
  10
 292.500
  20
 42.5000
  30
0.0
  11
 292.500
  21
 41.0000
  31
0.0
   0
LINE
   8
LEVEL001
   6
CONTINUOUS
  62
7
  10
 240.656
  20
 39.1000
  30
0.0
  11
 259.344
  21
 39.1000
  31
0.0
   0
LINE
   8
LEVEL001
   6
CONTINUOUS
  62
7
  10
 205.450
  20
 425.268
  30
0.0
  11
 205.450
  21
 44.5000
  31
0.0
   0
LINE
   8
LEVEL001
   6
CONTINUOUS
  62
7
  10
 207.500
  20
 41.0000
  30
0.0
  11
 208.500
  21
 40.0000
  31
0.0
   0
LINE
   8
LEVEL001
   6
CONTINUOUS
  62
7
  10
 205.500
  20
 44.5000
  30
0.0
  11
 207.500
  21
 42.5000
  31
0.0
   0
LINE
   8
LEVEL001
   6
CONTINUOUS
  62
7
  10
 292.500
  20
 41.0000
  30
0.0
  11
 291.500
  21
 40.0000
  31
0.0
   0
LINE
   8
LEVEL001
   6
CONTINUOUS
  62
7
  10
 294.500
  20
 44.5000
  30
0.0
  11
 292.500
  21
 42.5000
  31
0.0
   0
LINE
   8
LEVEL001
   6
CONTINUOUS
  62
7
  10
 207.000
  20
 430.000
  30
0.0
  11
 207.000
  21
 429.000
  31
0.0
   0
LINE
   8
LEVEL001
   6
CONTINUOUS
  62
7
  10
 206.000
  20
 430.000
  30
0.0
  11
 206.000
  21
 425.268
  31
0.0
   0
LINE
   8
LEVEL001
   6
CONTINUOUS
  62
7
  10
 206.000
  20
 429.000
  30
0.0
  11
 294.000
  21
 429.000
  31
0.0
   0
LINE
   8
LEVEL001
   6
CONTINUOUS
  62
7
  10
 294.550
  20
 425.268
  30
0.0
  11
 205.450
  21
 425.268
  31
0.0
   0
LINE
   8
LEVEL001
   6
CONTINUOUS
  62
7
  10
 293.000
  20
 430.000
  30
0.0
  11
 293.000
  21
 429.000
  31
0.0
   0
LINE
   8
LEVEL001
   6
CONTINUOUS
  62
7
  10
 294.000
  20
 430.000
  30
0.0
  11
 294.000
  21
 425.268
  31
0.0
   0
LINE
   8
LEVEL001
   6
CONTINUOUS
  62
7
  10
 305.000
  20
 432.000
  30
0.0
  11
 195.000
  21
 432.000
  31
0.0
   0
LINE
   8
LEVEL001
   6
CONTINUOUS
  62
7
  10
 303.000
  20
 430.000
  30
0.0
  11
 197.000
  21
 430.000
  31
0.0
   0
ARC
   8
LEVEL001
   6
CONTINUOUS
  62
7
  10
 355.000
  20
 591.588
  30
0.0
  40
 10.0000
  50
 320.527
  51
0.0
   0
LINE
   8
LEVEL001
   6
CONTINUOUS
  62
7
  10
 365.000
  20
 615.000
  30
0.0
  11
 365.000
  21
 591.588
  31
0.0
   0
LINE
   8
LEVEL001
   6
CONTINUOUS
  62
7
  10
 366.000
  20
 628.500
  30
0.0
  11
 366.000
  21
 615.500
  31
0.0
   0
ARC
   8
LEVEL001
   6
CONTINUOUS
  62
7
  10
 363.000
  20
 628.500
  30
0.0
  40
 3.00000
  50
0.0
  51
 90.0000
   0
LINE
   8
LEVEL001
   6
CONTINUOUS
  62
7
  10
 207.000
  20
 429.000
  30
0.0
  11
 206.000
  21
 425.268
  31
0.0
   0
LINE
   8
LEVEL001
   6
CONTINUOUS
  62
7
  10
 293.000
  20
 429.000
  30
0.0
  11
 294.000
  21
 425.268
  31
0.0
   0
LINE
   8
LEVEL001
   6
CONTINUOUS
  62
7
  10
 217.500
  20
 715.000
  30
0.0
  11
 282.500
  21
 715.000
  31
0.0
   0
LINE
   8
LEVEL001
   6
CONTINUOUS
  62
7
  10
 282.500
  20
 774.000
  30
0.0
  11
 217.500
  21
 774.000
  31
0.0
   0
LINE
   8
LEVEL001
   6
CONTINUOUS
  62
7
  10
 281.500
  20
 775.000
  30
0.0
  11
 218.500
  21
 775.000
  31
0.0
   0
ARC
   8
LEVEL001
   6
CONTINUOUS
  62
7
  10
 216.000
  20
 709.000
  30
0.0
  40
 1.00000
  50
 90.0000
  51
 180.000
   0
LINE
   8
LEVEL001
   6
CONTINUOUS
  62
7
  10
 218.500
  20
 775.000
  30
0.0
  11
 218.500
  21
 714.000
  31
0.0
   0
LINE
   8
LEVEL001
   6
CONTINUOUS
  62
7
  10
 218.500
  20
 714.000
  30
0.0
  11
 218.500
  21
 711.000
  31
0.0
   0
ARC
   8
LEVEL001
   6
CONTINUOUS
  62
7
  10
 217.500
  20
 711.000
  30
0.0
  40
 1.00000
  50
 270.000
  51
0.0
   0
ARC
   8
LEVEL001
   6
CONTINUOUS
  62
7
  10
 217.500
  20
 714.000
  30
0.0
  40
 1.00000
  50
0.0
  51
 90.0000
   0
ARC
   8
LEVEL001
   6
CONTINUOUS
  62
7
  10
 284.000
  20
 709.000
  30
0.0
  40
 1.00000
  50
0.0
  51
 90.0000
   0
LINE
   8
LEVEL001
   6
CONTINUOUS
  62
7
  10
 281.500
  20
 775.000
  30
0.0
  11
 281.500
  21
 714.000
  31
0.0
   0
LINE
   8
LEVEL001
   6
CONTINUOUS
  62
7
  10
 281.500
  20
 714.000
  30
0.0
  11
 281.500
  21
 711.000
  31
0.0
   0
ARC
   8
LEVEL001
   6
CONTINUOUS
  62
7
  10
 282.500
  20
 711.000
  30
0.0
  40
 1.00000
  50
 180.000
  51
 270.000
   0
ARC
   8
LEVEL001
   6
CONTINUOUS
  62
7
  10
 282.500
  20
 714.000
  30
0.0
  40
 1.00000
  50
 90.0000
  51
 180.000
   0
ARC
   8
LEVEL001
   6
CONTINUOUS
  62
7
  10
 200.398
  20
 672.000
  30
0.0
  40
 3.00000
  50
 90.0000
  51
 178.025
   0
ARC
   8
LEVEL001
   6
CONTINUOUS
  62
7
  10
 137.000
  20
 628.500
  30
0.0
  40
 3.00000
  50
 90.0000
  51
 180.000
   0
LINE
   8
LEVEL001
   6
CONTINUOUS
  62
7
  10
 195.000
  20
 432.000
  30
0.0
  11
 197.000
  21
 430.000
  31
0.0
   0
LINE
   8
LEVEL001
   6
CONTINUOUS
  62
7
  10
 195.000
  20
 450.000
  30
0.0
  11
 195.000
  21
 432.000
  31
0.0
   0
LINE
   8
LEVEL001
   6
CONTINUOUS
  62
7
  10
 305.000
  20
 432.000
  30
0.0
  11
 303.000
  21
 430.000
  31
0.0
   0
LINE
   8
LEVEL001
   6
CONTINUOUS
  62
7
  10
 305.000
  20
 450.000
  30
0.0
  11
 305.000
  21
 432.000
  31
0.0
   0
ARC
   8
LEVEL001
   6
CONTINUOUS
  62
7
  10
 299.602
  20
 672.000
  30
0.0
  40
 3.00000
  50
 1.97490
  51
 90.0000
   0
LINE
   8
LEVEL001
   6
CONTINUOUS
  62
7
  10
 748.330
  20
 645.500
  30
0.0
  11
 750.000
  21
 646.464
  31
0.0
   0
LINE
   8
LEVEL001
   6
CONTINUOUS
  62
7
  10
 750.000
  20
 646.464
  30
0.0
  11
 751.670
  21
 645.500
  31
0.0
   0
ARC
   8
LEVEL001
   6
CONTINUOUS
  62
7
  10
 750.000
  20
 643.000
  30
0.0
  40
 7.00000
  50
 20.9249
  51
 159.075
   0
ARC
   8
LEVEL001
   6
CONTINUOUS
  62
7
  10
 750.000
  20
 643.000
  30
0.0
  40
 6.50000
  50
 22.6199
  51
 157.380
   0
LINE
   8
LEVEL001
   6
CONTINUOUS
  62
7
  10
 738.000
  20
 631.500
  30
0.0
  11
 738.000
  21
 644.700
  31
0.0
   0
LINE
   8
LEVEL001
   6
CONTINUOUS
  62
7
  10
 762.000
  20
 644.700
  30
0.0
  11
 762.000
  21
 631.500
  31
0.0
   0
LINE
   8
LEVEL001
   6
CONTINUOUS
  62
7
  10
 760.614
  20
 645.500
  30
0.0
  11
 762.000
  21
 644.700
  31
0.0
   0
LINE
   8
LEVEL001
   6
CONTINUOUS
  62
7
  10
 739.386
  20
 645.500
  30
0.0
  11
 760.614
  21
 645.500
  31
0.0
   0
LINE
   8
LEVEL001
   6
CONTINUOUS
  62
7
  10
 738.000
  20
 644.700
  30
0.0
  11
 739.386
  21
 645.500
  31
0.0
   0
LINE
   8
LEVEL001
   6
CONTINUOUS
  62
7
  10
 762.000
  20
 644.700
  30
0.0
  11
 738.000
  21
 644.700
  31
0.0
   0
LINE
   8
LEVEL001
   6
CONTINUOUS
  62
7
  10
 824.603
  20
 631.500
  30
0.0
  11
 824.603
  21
 644.700
  31
0.0
   0
LINE
   8
LEVEL001
   6
CONTINUOUS
  62
7
  10
 848.603
  20
 644.700
  30
0.0
  11
 848.603
  21
 631.500
  31
0.0
   0
LINE
   8
LEVEL001
   6
CONTINUOUS
  62
7
  10
 847.217
  20
 645.500
  30
0.0
  11
 848.603
  21
 644.700
  31
0.0
   0
LINE
   8
LEVEL001
   6
CONTINUOUS
  62
7
  10
 825.989
  20
 645.500
  30
0.0
  11
 847.217
  21
 645.500
  31
0.0
   0
LINE
   8
LEVEL001
   6
CONTINUOUS
  62
7
  10
 824.603
  20
 644.700
  30
0.0
  11
 825.989
  21
 645.500
  31
0.0
   0
LINE
   8
LEVEL001
   6
CONTINUOUS
  62
7
  10
 848.603
  20
 644.700
  30
0.0
  11
 824.603
  21
 644.700
  31
0.0
   0
LINE
   8
LEVEL001
   6
CONTINUOUS
  62
7
  10
 651.397
  20
 631.500
  30
0.0
  11
 651.397
  21
 644.700
  31
0.0
   0
LINE
   8
LEVEL001
   6
CONTINUOUS
  62
7
  10
 675.397
  20
 644.700
  30
0.0
  11
 675.397
  21
 631.500
  31
0.0
   0
LINE
   8
LEVEL001
   6
CONTINUOUS
  62
7
  10
 674.011
  20
 645.500
  30
0.0
  11
 675.397
  21
 644.700
  31
0.0
   0
LINE
   8
LEVEL001
   6
CONTINUOUS
  62
7
  10
 652.783
  20
 645.500
  30
0.0
  11
 674.011
  21
 645.500
  31
0.0
   0
LINE
   8
LEVEL001
   6
CONTINUOUS
  62
7
  10
 651.397
  20
 644.700
  30
0.0
  11
 652.783
  21
 645.500
  31
0.0
   0
LINE
   8
LEVEL001
   6
CONTINUOUS
  62
7
  10
 675.397
  20
 644.700
  30
0.0
  11
 651.397
  21
 644.700
  31
0.0
   0
LINE
   8
LEVEL001
   6
CONTINUOUS
  62
7
  10
 634.000
  20
 628.500
  30
0.0
  11
 634.000
  21
 615.500
  31
0.0
   0
CIRCLE
   8
LEVEL001
   6
CONTINUOUS
  62
7
  10
 750.000
  20
 663.000
  30
0.0
  40
 6.50000
   0
CIRCLE
   8
LEVEL001
   6
CONTINUOUS
  62
7
  10
 750.000
  20
 663.000
  30
0.0
  40
 7.00000
   0
CIRCLE
   8
LEVEL001
   6
CONTINUOUS
  62
7
  10
 610.000
  20
 540.000
  30
0.0
  40
 3.30000
   0
CIRCLE
   8
LEVEL001
   6
CONTINUOUS
  62
7
  10
 610.000
  20
 540.000
  30
0.0
  40
 4.00000
   0
CIRCLE
   8
LEVEL001
   6
CONTINUOUS
  62
7
  10
 698.000
  20
 540.000
  30
0.0
  40
 3.30000
   0
CIRCLE
   8
LEVEL001
   6
CONTINUOUS
  62
7
  10
 698.000
  20
 540.000
  30
0.0
  40
 4.00000
   0
CIRCLE
   8
LEVEL001
   6
CONTINUOUS
  62
7
  10
 685.113
  20
 571.113
  30
0.0
  40
 6.50000
   0
CIRCLE
   8
LEVEL001
   6
CONTINUOUS
  62
7
  10
 685.113
  20
 571.113
  30
0.0
  40
 7.00000
   0
CIRCLE
   8
LEVEL001
   6
CONTINUOUS
  62
7
  10
 685.113
  20
 508.887
  30
0.0
  40
 6.50000
   0
CIRCLE
   8
LEVEL001
   6
CONTINUOUS
  62
7
  10
 685.113
  20
 508.887
  30
0.0
  40
 7.00000
   0
CIRCLE
   8
LEVEL001
   6
CONTINUOUS
  62
7
  10
 622.887
  20
 508.887
  30
0.0
  40
 6.50000
   0
CIRCLE
   8
LEVEL001
   6
CONTINUOUS
  62
7
  10
 622.887
  20
 508.887
  30
0.0
  40
 7.00000
   0
CIRCLE
   8
LEVEL001
   6
CONTINUOUS
  62
7
  10
 622.887
  20
 571.113
  30
0.0
  40
 6.50000
   0
CIRCLE
   8
LEVEL001
   6
CONTINUOUS
  62
7
  10
 622.887
  20
 571.113
  30
0.0
  40
 7.00000
   0
LINE
   8
LEVEL001
   6
CONTINUOUS
  62
7
  10
 635.000
  20
 615.000
  30
0.0
  11
 865.000
  21
 615.000
  31
0.0
   0
LINE
   8
LEVEL001
   6
CONTINUOUS
  62
7
  10
 634.000
  20
 615.500
  30
0.0
  11
 866.000
  21
 615.500
  31
0.0
   0
LINE
   8
LEVEL001
   6
CONTINUOUS
  62
7
  10
 637.000
  20
 631.500
  30
0.0
  11
 863.157
  21
 631.500
  31
0.0
   0
LINE
   8
LEVEL001
   6
CONTINUOUS
  62
7
  10
 715.000
  20
 709.000
  30
0.0
  11
 715.000
  21
 675.000
  31
0.0
   0
LINE
   8
LEVEL001
   6
CONTINUOUS
  62
7
  10
 742.000
  20
 712.848
  30
0.0
  11
 742.000
  21
 675.000
  31
0.0
   0
LINE
   8
LEVEL001
   6
CONTINUOUS
  62
7
  10
 758.000
  20
 712.848
  30
0.0
  11
 758.000
  21
 675.000
  31
0.0
   0
LINE
   8
LEVEL001
   6
CONTINUOUS
  62
7
  10
 785.000
  20
 709.000
  30
0.0
  11
 785.000
  21
 675.000
  31
0.0
   0
LINE
   8
LEVEL001
   6
CONTINUOUS
  62
7
  10
 700.398
  20
 675.000
  30
0.0
  11
 799.602
  21
 675.000
  31
0.0
   0
ARC
   8
LEVEL001
   6
CONTINUOUS
  62
7
  10
 654.000
  20
 540.000
  30
0.0
  40
 17.5000
  50
 106.602
  51
 73.3985
   0
ARC
   8
LEVEL001
   6
CONTINUOUS
  62
7
  10
 654.000
  20
 540.000
  30
0.0
  40
 15.0000
  50
 109.471
  51
 70.5288
   0
ARC
   8
LEVEL001
   6
CONTINUOUS
  62
7
  10
 654.000
  20
 540.000
  30
0.0
  40
 16.0000
  50
 108.210
  51
 71.8107
   0
CIRCLE
   8
LEVEL001
   6
CONTINUOUS
  62
7
  10
 654.000
  20
 540.000
  30
0.0
  40
 25.0000
   0
CIRCLE
   8
LEVEL001
   6
CONTINUOUS
  62
7
  10
 654.000
  20
 540.000
  30
0.0
  40
 53.5000
   0
LINE
   8
LEVEL001
   6
CONTINUOUS
  62
7
  10
 659.000
  20
 551.000
  30
0.0
  11
 659.000
  21
 559.000
  31
0.0
   0
LINE
   8
LEVEL001
   6
CONTINUOUS
  62
7
  10
 649.000
  20
 551.000
  30
0.0
  11
 649.000
  21
 559.000
  31
0.0
   0
LINE
   8
LEVEL001
   6
CONTINUOUS
  62
7
  10
 649.000
  20
 559.000
  30
0.0
  11
 659.000
  21
 559.000
  31
0.0
   0
LINE
   8
LEVEL001
   6
CONTINUOUS
  62
7
  10
 649.000
  20
 551.000
  30
0.0
  11
 659.000
  21
 551.000
  31
0.0
   0
LINE
   8
LEVEL001
   6
CONTINUOUS
  62
7
  10
 759.344
  20
 39.1000
  30
0.0
  11
 760.241
  21
 40.0000
  31
0.0
   0
LINE
   8
LEVEL001
   6
CONTINUOUS
  62
7
  10
 759.316
  20
 40.0000
  30
0.0
  11
 759.344
  21
 39.1000
  31
0.0
   0
LINE
   8
LEVEL001
   6
CONTINUOUS
  62
7
  10
 707.500
  20
 42.5000
  30
0.0
  11
 792.500
  21
 42.5000
  31
0.0
   0
LINE
   8
LEVEL001
   6
CONTINUOUS
  62
7
  10
 707.500
  20
 42.5000
  30
0.0
  11
 707.500
  21
 41.0000
  31
0.0
   0
LINE
   8
LEVEL001
   6
CONTINUOUS
  62
7
  10
 792.500
  20
 41.0000
  30
0.0
  11
 707.500
  21
 41.0000
  31
0.0
   0
LINE
   8
LEVEL001
   6
CONTINUOUS
  62
7
  10
 791.500
  20
 40.0000
  30
0.0
  11
 708.500
  21
 40.0000
  31
0.0
   0
LINE
   8
LEVEL001
   6
CONTINUOUS
  62
7
  10
 794.550
  20
 425.268
  30
0.0
  11
 794.550
  21
 44.5000
  31
0.0
   0
LINE
   8
LEVEL001
   6
CONTINUOUS
  62
7
  10
 794.550
  20
 44.5000
  30
0.0
  11
 705.450
  21
 44.5000
  31
0.0
   0
LINE
   8
LEVEL001
   6
CONTINUOUS
  62
7
  10
 739.759
  20
 40.0000
  30
0.0
  11
 740.656
  21
 39.1000
  31
0.0
   0
LINE
   8
LEVEL001
   6
CONTINUOUS
  62
7
  10
 740.684
  20
 40.0000
  30
0.0
  11
 740.656
  21
 39.1000
  31
0.0
   0
LINE
   8
LEVEL001
   6
CONTINUOUS
  62
7
  10
 792.500
  20
 42.5000
  30
0.0
  11
 792.500
  21
 41.0000
  31
0.0
   0
LINE
   8
LEVEL001
   6
CONTINUOUS
  62
7
  10
 740.656
  20
 39.1000
  30
0.0
  11
 759.344
  21
 39.1000
  31
0.0
   0
LINE
   8
LEVEL001
   6
CONTINUOUS
  62
7
  10
 705.450
  20
 425.268
  30
0.0
  11
 705.450
  21
 44.5000
  31
0.0
   0
LINE
   8
LEVEL001
   6
CONTINUOUS
  62
7
  10
 707.500
  20
 41.0000
  30
0.0
  11
 708.500
  21
 40.0000
  31
0.0
   0
LINE
   8
LEVEL001
   6
CONTINUOUS
  62
7
  10
 705.500
  20
 44.5000
  30
0.0
  11
 707.500
  21
 42.5000
  31
0.0
   0
LINE
   8
LEVEL001
   6
CONTINUOUS
  62
7
  10
 792.500
  20
 41.0000
  30
0.0
  11
 791.500
  21
 40.0000
  31
0.0
   0
LINE
   8
LEVEL001
   6
CONTINUOUS
  62
7
  10
 794.500
  20
 44.5000
  30
0.0
  11
 792.500
  21
 42.5000
  31
0.0
   0
LINE
   8
LEVEL001
   6
CONTINUOUS
  62
7
  10
 550.000
  20
 455.000
  30
0.0
  11
 895.000
  21
 455.000
  31
0.0
   0
LINE
   8
LEVEL001
   6
CONTINUOUS
  62
7
  10
 895.000
  20
 473.000
  30
0.0
  11
 895.000
  21
 455.000
  31
0.0
   0
LINE
   8
LEVEL001
   6
CONTINUOUS
  62
7
  10
 707.000
  20
 430.000
  30
0.0
  11
 707.000
  21
 429.000
  31
0.0
   0
LINE
   8
LEVEL001
   6
CONTINUOUS
  62
7
  10
 706.000
  20
 430.000
  30
0.0
  11
 706.000
  21
 425.268
  31
0.0
   0
LINE
   8
LEVEL001
   6
CONTINUOUS
  62
7
  10
 706.000
  20
 429.000
  30
0.0
  11
 794.000
  21
 429.000
  31
0.0
   0
LINE
   8
LEVEL001
   6
CONTINUOUS
  62
7
  10
 794.550
  20
 425.268
  30
0.0
  11
 705.450
  21
 425.268
  31
0.0
   0
LINE
   8
LEVEL001
   6
CONTINUOUS
  62
7
  10
 793.000
  20
 430.000
  30
0.0
  11
 793.000
  21
 429.000
  31
0.0
   0
LINE
   8
LEVEL001
   6
CONTINUOUS
  62
7
  10
 794.000
  20
 430.000
  30
0.0
  11
 794.000
  21
 425.268
  31
0.0
   0
LINE
   8
LEVEL001
   6
CONTINUOUS
  62
7
  10
 805.000
  20
 432.000
  30
0.0
  11
 695.000
  21
 432.000
  31
0.0
   0
LINE
   8
LEVEL001
   6
CONTINUOUS
  62
7
  10
 803.000
  20
 430.000
  30
0.0
  11
 697.000
  21
 430.000
  31
0.0
   0
LINE
   8
LEVEL001
   6
CONTINUOUS
  62
7
  10
 850.488
  20
 498.781
  30
0.0
  11
 847.827
  21
 487.249
  31
0.0
   0
ARC
   8
LEVEL001
   6
CONTINUOUS
  62
7
  10
 831.000
  20
 503.278
  30
0.0
  40
 20.0000
  50
 347.005
  51
0.0
   0
LINE
   8
LEVEL001
   6
CONTINUOUS
  62
7
  10
 851.000
  20
 503.278
  30
0.0
  11
 851.000
  21
 563.825
  31
0.0
   0
ARC
   8
LEVEL001
   6
CONTINUOUS
  62
7
  10
 871.000
  20
 563.825
  30
0.0
  40
 20.0000
  50
 140.528
  51
 180.000
   0
LINE
   8
LEVEL001
   6
CONTINUOUS
  62
7
  10
 862.719
  20
 585.231
  30
0.0
  11
 855.561
  21
 576.539
  31
0.0
   0
ARC
   8
LEVEL001
   6
CONTINUOUS
  62
7
  10
 857.571
  20
 485.000
  30
0.0
  40
 10.0000
  50
 167.005
  51
 270.000
   0
ARC
   8
LEVEL001
   6
CONTINUOUS
  62
7
  10
 855.000
  20
 591.588
  30
0.0
  40
 10.0000
  50
 320.527
  51
0.0
   0
LINE
   8
LEVEL001
   6
CONTINUOUS
  62
7
  10
 865.000
  20
 615.000
  30
0.0
  11
 865.000
  21
 591.588
  31
0.0
   0
LINE
   8
LEVEL001
   6
CONTINUOUS
  62
7
  10
 865.000
  20
 588.000
  30
0.0
  11
 869.391
  21
 504.573
  31
0.0
   0
ARC
   8
LEVEL001
   6
CONTINUOUS
  62
7
  10
 894.356
  20
 505.887
  30
0.0
  40
 25.0000
  50
 183.013
  51
 232.753
   0
LINE
   8
LEVEL001
   6
CONTINUOUS
  62
7
  10
 879.225
  20
 485.986
  30
0.0
  11
 894.210
  21
 474.592
  31
0.0
   0
ARC
   8
LEVEL001
   6
CONTINUOUS
  62
7
  10
 893.000
  20
 473.000
  30
0.0
  40
 2.00000
  50
0.0
  51
 90.0000
   0
LINE
   8
LEVEL001
   6
CONTINUOUS
  62
7
  10
 866.000
  20
 628.500
  30
0.0
  11
 866.000
  21
 615.500
  31
0.0
   0
ARC
   8
LEVEL001
   6
CONTINUOUS
  62
7
  10
 863.000
  20
 628.500
  30
0.0
  40
 3.00000
  50
0.0
  51
 90.0000
   0
LINE
   8
LEVEL001
   6
CONTINUOUS
  62
7
  10
 707.000
  20
 429.000
  30
0.0
  11
 706.000
  21
 425.268
  31
0.0
   0
LINE
   8
LEVEL001
   6
CONTINUOUS
  62
7
  10
 793.000
  20
 429.000
  30
0.0
  11
 794.000
  21
 425.268
  31
0.0
   0
LINE
   8
LEVEL001
   6
CONTINUOUS
  62
7
  10
 758.000
  20
 712.848
  30
0.0
  11
 742.000
  21
 712.848
  31
0.0
   0
LINE
   8
LEVEL001
   6
CONTINUOUS
  62
7
  10
 742.000
  20
 710.000
  30
0.0
  11
 716.000
  21
 710.000
  31
0.0
   0
LINE
   8
LEVEL001
   6
CONTINUOUS
  62
7
  10
 784.000
  20
 710.000
  30
0.0
  11
 758.000
  21
 710.000
  31
0.0
   0
LINE
   8
LEVEL001
   6
CONTINUOUS
  62
7
  10
 600.029
  20
 546.578
  30
0.0
  11
 601.523
  21
 552.733
  31
0.0
   0
LINE
   8
LEVEL001
   6
CONTINUOUS
  62
7
  10
 590.953
  20
 509.172
  30
0.0
  11
 596.735
  21
 533.000
  31
0.0
   0
LINE
   8
LEVEL001
   6
CONTINUOUS
  62
7
  10
 600.401
  20
 546.566
  30
0.0
  11
 599.116
  21
 546.606
  31
0.0
   0
LINE
   8
LEVEL001
   6
CONTINUOUS
  62
7
  10
 599.116
  20
 533.394
  30
0.0
  11
 600.401
  21
 533.434
  31
0.0
   0
ARC
   8
LEVEL001
   6
CONTINUOUS
  62
7
  10
 589.007
  20
 536.500
  30
0.0
  40
 10.1093
  50
 339.744
  51
 20.2560
   0
ARC
   8
LEVEL001
   6
CONTINUOUS
  62
7
  10
 589.007
  20
 543.500
  30
0.0
  40
 10.1093
  50
 339.744
  51
 20.2560
   0
ARC
   8
LEVEL001
   6
CONTINUOUS
  62
7
  10
 584.614
  20
 549.985
  30
0.0
  40
 3.30000
  50
 202.500
  51
 228.418
   0
ARC
   8
LEVEL001
   6
CONTINUOUS
  62
7
  10
 581.893
  20
 546.918
  30
0.0
  40
 0.800000
  50
 357.576
  51
 48.4260
   0
LINE
   8
LEVEL001
   6
CONTINUOUS
  62
7
  10
 589.914
  20
 546.335
  30
0.0
  11
 594.366
  21
 546.335
  31
0.0
   0
LINE
   8
LEVEL001
   6
CONTINUOUS
  62
7
  10
 587.965
  20
 549.440
  30
0.0
  11
 582.641
  21
 547.235
  31
0.0
   0
ARC
   8
LEVEL001
   6
CONTINUOUS
  62
7
  10
 592.225
  20
 553.570
  30
0.0
  40
 6.00000
  50
 227.431
  51
 237.017
   0
ARC
   8
LEVEL001
   6
CONTINUOUS
  62
7
  10
 584.614
  20
 549.985
  30
0.0
  40
 3.30000
  50
 356.582
  51
 22.5000
   0
ARC
   8
LEVEL001
   6
CONTINUOUS
  62
7
  10
 588.321
  20
 541.035
  30
0.0
  40
 6.68738
  50
 94.9120
  51
 130.088
   0
ARC
   8
LEVEL001
   6
CONTINUOUS
  62
7
  10
 590.131
  20
 545.560
  30
0.0
  40
 3.20000
  50
 110.768
  51
 138.098
   0
ARC
   8
LEVEL001
   6
CONTINUOUS
  62
7
  10
 583.677
  20
 552.248
  30
0.0
  40
 1.00000
  50
 36.9770
  51
 188.021
   0
ARC
   8
LEVEL001
   6
CONTINUOUS
  62
7
  10
 588.707
  20
 549.740
  30
0.0
  40
 0.800000
  50
 176.573
  51
 227.428
   0
ARC
   8
LEVEL001
   6
CONTINUOUS
  62
7
  10
 576.698
  20
 547.139
  30
0.0
  40
 6.00000
  50
 347.981
  51
 357.567
   0
LINE
   8
LEVEL001
   6
CONTINUOUS
  62
7
  10
 586.604
  20
 533.665
  30
0.0
  11
 594.366
  21
 533.665
  31
0.0
   0
LINE
   8
LEVEL001
   6
CONTINUOUS
  62
7
  10
 584.694
  20
 544.511
  30
0.0
  11
 584.015
  21
 546.151
  31
0.0
   0
LINE
   8
LEVEL001
   6
CONTINUOUS
  62
7
  10
 588.428
  20
 546.058
  30
0.0
  11
 587.749
  21
 547.698
  31
0.0
   0
ARC
   8
LEVEL001
   6
CONTINUOUS
  62
7
  10
 592.688
  20
 540.000
  30
0.0
  40
 9.93811
  50
 158.413
  51
 208.731
   0
ARC
   8
LEVEL001
   6
CONTINUOUS
  62
7
  10
 586.604
  20
 536.665
  30
0.0
  40
 3.00000
  50
 208.731
  51
 270.000
   0
ARC
   8
LEVEL001
   6
CONTINUOUS
  62
7
  10
 584.614
  20
 549.985
  30
0.0
  40
 6.43506
  50
 259.551
  51
 325.449
   0
ARC
   8
LEVEL001
   6
CONTINUOUS
  62
7
  10
 584.122
  20
 551.174
  30
0.0
  40
 6.68738
  50
 274.912
  51
 310.088
   0
ARC
   8
LEVEL001
   6
CONTINUOUS
  62
7
  10
 583.842
  20
 542.956
  30
0.0
  40
 3.20000
  50
 86.9030
  51
 114.232
   0
ARC
   8
LEVEL001
   6
CONTINUOUS
  62
7
  10
 582.312
  20
 546.648
  30
0.0
  40
 3.20000
  50
 290.768
  51
 318.098
   0
ARC
   8
LEVEL001
   6
CONTINUOUS
  62
7
  10
 588.601
  20
 549.253
  30
0.0
  40
 3.20000
  50
 266.903
  51
 294.232
   0
LINE
   8
LEVEL001
   6
CONTINUOUS
  62
7
  10
 600.000
  20
 534.277
  30
0.0
  11
 600.000
  21
 545.723
  31
0.0
   0
LINE
   8
LEVEL001
   6
CONTINUOUS
  62
7
  10
 594.750
  20
 547.000
  30
0.0
  11
 594.366
  21
 546.335
  31
0.0
   0
LINE
   8
LEVEL001
   6
CONTINUOUS
  62
7
  10
 598.491
  20
 540.000
  30
0.0
  11
 595.342
  21
 540.000
  31
0.0
   0
LINE
   8
LEVEL001
   6
CONTINUOUS
  62
7
  10
 594.366
  20
 533.665
  30
0.0
  11
 594.366
  21
 546.335
  31
0.0
   0
LINE
   8
LEVEL001
   6
CONTINUOUS
  62
7
  10
 594.750
  20
 547.000
  30
0.0
  11
 594.750
  21
 533.000
  31
0.0
   0
LINE
   8
LEVEL001
   6
CONTINUOUS
  62
7
  10
 594.750
  20
 533.000
  30
0.0
  11
 594.366
  21
 533.665
  31
0.0
   0
ARC
   8
LEVEL001
   6
CONTINUOUS
  62
7
  10
 604.826
  20
 543.500
  30
0.0
  40
 10.1093
  50
 159.744
  51
 200.256
   0
ARC
   8
LEVEL001
   6
CONTINUOUS
  62
7
  10
 604.826
  20
 536.500
  30
0.0
  40
 10.1093
  50
 159.744
  51
 200.256
   0
LINE
   8
LEVEL001
   6
CONTINUOUS
  62
7
  10
 717.500
  20
 715.000
  30
0.0
  11
 782.500
  21
 715.000
  31
0.0
   0
LINE
   8
LEVEL001
   6
CONTINUOUS
  62
7
  10
 782.500
  20
 774.000
  30
0.0
  11
 717.500
  21
 774.000
  31
0.0
   0
LINE
   8
LEVEL001
   6
CONTINUOUS
  62
7
  10
 781.500
  20
 775.000
  30
0.0
  11
 718.500
  21
 775.000
  31
0.0
   0
ARC
   8
LEVEL001
   6
CONTINUOUS
  62
7
  10
 716.000
  20
 709.000
  30
0.0
  40
 1.00000
  50
 90.0000
  51
 180.000
   0
LINE
   8
LEVEL001
   6
CONTINUOUS
  62
7
  10
 718.500
  20
 775.000
  30
0.0
  11
 718.500
  21
 714.000
  31
0.0
   0
LINE
   8
LEVEL001
   6
CONTINUOUS
  62
7
  10
 718.500
  20
 714.000
  30
0.0
  11
 718.500
  21
 711.000
  31
0.0
   0
ARC
   8
LEVEL001
   6
CONTINUOUS
  62
7
  10
 717.500
  20
 711.000
  30
0.0
  40
 1.00000
  50
 270.000
  51
0.0
   0
ARC
   8
LEVEL001
   6
CONTINUOUS
  62
7
  10
 717.500
  20
 714.000
  30
0.0
  40
 1.00000
  50
0.0
  51
 90.0000
   0
ARC
   8
LEVEL001
   6
CONTINUOUS
  62
7
  10
 784.000
  20
 709.000
  30
0.0
  40
 1.00000
  50
0.0
  51
 90.0000
   0
LINE
   8
LEVEL001
   6
CONTINUOUS
  62
7
  10
 781.500
  20
 775.000
  30
0.0
  11
 781.500
  21
 714.000
  31
0.0
   0
LINE
   8
LEVEL001
   6
CONTINUOUS
  62
7
  10
 781.500
  20
 714.000
  30
0.0
  11
 781.500
  21
 711.000
  31
0.0
   0
ARC
   8
LEVEL001
   6
CONTINUOUS
  62
7
  10
 782.500
  20
 711.000
  30
0.0
  40
 1.00000
  50
 180.000
  51
 270.000
   0
ARC
   8
LEVEL001
   6
CONTINUOUS
  62
7
  10
 782.500
  20
 714.000
  30
0.0
  40
 1.00000
  50
 90.0000
  51
 180.000
   0
LINE
   8
LEVEL001
   6
CONTINUOUS
  62
7
  10
 577.269
  20
 490.542
  30
0.0
  11
 550.969
  21
 474.714
  31
0.0
   0
ARC
   8
LEVEL001
   6
CONTINUOUS
  62
7
  10
 561.799
  20
 516.246
  30
0.0
  40
 30.0000
  50
 301.041
  51
 346.362
   0
LINE
   8
LEVEL001
   6
CONTINUOUS
  62
7
  10
 552.000
  20
 475.000
  30
0.0
  11
 612.349
  21
 475.000
  31
0.0
   0
ARC
   8
LEVEL001
   6
CONTINUOUS
  62
7
  10
 612.349
  20
 485.000
  30
0.0
  40
 10.0000
  50
 270.000
  51
 30.9350
   0
LINE
   8
LEVEL001
   6
CONTINUOUS
  62
7
  10
 620.926
  20
 490.141
  30
0.0
  11
 607.681
  21
 512.241
  31
0.0
   0
ARC
   8
LEVEL001
   6
CONTINUOUS
  62
7
  10
 654.000
  20
 540.000
  30
0.0
  40
 54.0000
  50
 125.685
  51
 210.935
   0
ARC
   8
LEVEL001
   6
CONTINUOUS
  62
7
  10
 605.000
  20
 608.228
  30
0.0
  40
 30.0000
  50
 305.685
  51
 0.868503E-12
   0
LINE
   8
LEVEL001
   6
CONTINUOUS
  62
7
  10
 635.000
  20
 615.000
  30
0.0
  11
 635.000
  21
 608.228
  31
0.0
   0
LINE
   8
LEVEL001
   6
CONTINUOUS
  62
7
  10
 550.000
  20
 473.000
  30
0.0
  11
 550.000
  21
 455.000
  31
0.0
   0
ARC
   8
LEVEL001
   6
CONTINUOUS
  62
7
  10
 552.000
  20
 473.000
  30
0.0
  40
 2.00000
  50
 90.0000
  51
 180.000
   0
ARC
   8
LEVEL001
   6
CONTINUOUS
  62
7
  10
 700.398
  20
 672.000
  30
0.0
  40
 3.00000
  50
 90.0000
  51
 178.025
   0
LINE
   8
LEVEL001
   6
CONTINUOUS
  62
7
  10
 697.400
  20
 672.103
  30
0.0
  11
 696.433
  21
 644.052
  31
0.0
   0
ARC
   8
LEVEL001
   6
CONTINUOUS
  62
7
  10
 683.441
  20
 644.500
  30
0.0
  40
 13.0000
  50
 270.000
  51
 358.025
   0
ARC
   8
LEVEL001
   6
CONTINUOUS
  62
7
  10
 637.000
  20
 628.500
  30
0.0
  40
 3.00000
  50
 90.0000
  51
 180.000
   0
LINE
   8
LEVEL001
   6
CONTINUOUS
  62
7
  10
 695.000
  20
 432.000
  30
0.0
  11
 697.000
  21
 430.000
  31
0.0
   0
LINE
   8
LEVEL001
   6
CONTINUOUS
  62
7
  10
 695.000
  20
 450.000
  30
0.0
  11
 695.000
  21
 432.000
  31
0.0
   0
ARC
   8
LEVEL001
   6
CONTINUOUS
  62
7
  10
 690.000
  20
 450.000
  30
0.0
  40
 5.00000
  50
0.0
  51
 90.0000
   0
LINE
   8
LEVEL001
   6
CONTINUOUS
  62
7
  10
 805.000
  20
 432.000
  30
0.0
  11
 803.000
  21
 430.000
  31
0.0
   0
LINE
   8
LEVEL001
   6
CONTINUOUS
  62
7
  10
 805.000
  20
 450.000
  30
0.0
  11
 805.000
  21
 432.000
  31
0.0
   0
ARC
   8
LEVEL001
   6
CONTINUOUS
  62
7
  10
 810.000
  20
 450.000
  30
0.0
  40
 5.00000
  50
 90.0000
  51
 180.000
   0
ARC
   8
LEVEL001
   6
CONTINUOUS
  62
7
  10
 799.602
  20
 672.000
  30
0.0
  40
 3.00000
  50
 1.97490
  51
 90.0000
   0
LINE
   8
LEVEL001
   6
CONTINUOUS
  62
7
  10
 802.600
  20
 672.103
  30
0.0
  11
 803.567
  21
 644.052
  31
0.0
   0
ARC
   8
LEVEL001
   6
CONTINUOUS
  62
7
  10
 816.559
  20
 644.500
  30
0.0
  40
 13.0000
  50
 181.975
  51
 270.000
   0
ARC
   8
LEVEL001
   6
CONTINUOUS
  62
7
  10
 190.000
  20
 450.000
  30
0.0
  40
 5.00000
  50
0.0
  51
 90.0000
   0
ARC
   8
LEVEL001
   6
CONTINUOUS
  62
7
  10
 310.000
  20
 450.000
  30
0.0
  40
 5.00000
  50
 90.0000
  51
 180.000
   0
ARC
   8
LEVEL001
   6
CONTINUOUS
  62
7
  10
 234.500
  20
 483.000
  30
0.0
  40
 8.00000
  50
 270.000
  51
0.0
   0
ARC
   8
LEVEL001
   6
CONTINUOUS
  62
7
  10
 265.500
  20
 483.000
  30
0.0
  40
 8.00000
  50
 180.000
  51
 270.000
   0
LINE
   8
LEVEL001
   6
CONTINUOUS
  62
7
  10
 242.500
  20
 546.931
  30
0.0
  11
 242.500
  21
 483.000
  31
0.0
   0
ARC
   8
LEVEL001
   6
CONTINUOUS
  62
7
  10
 237.500
  20
 546.931
  30
0.0
  40
 5.00000
  50
0.0
  51
 90.0000
   0
LINE
   8
LEVEL001
   6
CONTINUOUS
  62
7
  10
 257.500
  20
 546.931
  30
0.0
  11
 257.500
  21
 483.000
  31
0.0
   0
ARC
   8
LEVEL001
   6
CONTINUOUS
  62
7
  10
 262.500
  20
 546.931
  30
0.0
  40
 5.00000
  50
 90.0000
  51
 180.000
   0
LINE
   8
LEVEL001
   6
CONTINUOUS
  62
7
  10
 138.000
  20
 631.500
  30
0.0
  11
 138.000
  21
 644.700
  31
0.0
   0
LINE
   8
LEVEL001
   6
CONTINUOUS
  62
7
  10
 162.000
  20
 644.700
  30
0.0
  11
 162.000
  21
 631.500
  31
0.0
   0
LINE
   8
LEVEL001
   6
CONTINUOUS
  62
7
  10
 160.614
  20
 645.500
  30
0.0
  11
 162.000
  21
 644.700
  31
0.0
   0
LINE
   8
LEVEL001
   6
CONTINUOUS
  62
7
  10
 139.386
  20
 645.500
  30
0.0
  11
 160.614
  21
 645.500
  31
0.0
   0
LINE
   8
LEVEL001
   6
CONTINUOUS
  62
7
  10
 138.000
  20
 644.700
  30
0.0
  11
 139.386
  21
 645.500
  31
0.0
   0
LINE
   8
LEVEL001
   6
CONTINUOUS
  62
7
  10
 162.000
  20
 644.700
  30
0.0
  11
 138.000
  21
 644.700
  31
0.0
   0
LINE
   8
LEVEL001
   6
CONTINUOUS
  62
7
  10
 188.000
  20
 631.500
  30
0.0
  11
 188.000
  21
 644.700
  31
0.0
   0
LINE
   8
LEVEL001
   6
CONTINUOUS
  62
7
  10
 212.000
  20
 644.700
  30
0.0
  11
 212.000
  21
 631.500
  31
0.0
   0
LINE
   8
LEVEL001
   6
CONTINUOUS
  62
7
  10
 210.614
  20
 645.500
  30
0.0
  11
 212.000
  21
 644.700
  31
0.0
   0
LINE
   8
LEVEL001
   6
CONTINUOUS
  62
7
  10
 189.386
  20
 645.500
  30
0.0
  11
 210.614
  21
 645.500
  31
0.0
   0
LINE
   8
LEVEL001
   6
CONTINUOUS
  62
7
  10
 188.000
  20
 644.700
  30
0.0
  11
 189.386
  21
 645.500
  31
0.0
   0
LINE
   8
LEVEL001
   6
CONTINUOUS
  62
7
  10
 212.000
  20
 644.700
  30
0.0
  11
 188.000
  21
 644.700
  31
0.0
   0
LINE
   8
LEVEL001
   6
CONTINUOUS
  62
7
  10
 288.000
  20
 631.500
  30
0.0
  11
 288.000
  21
 644.700
  31
0.0
   0
LINE
   8
LEVEL001
   6
CONTINUOUS
  62
7
  10
 312.000
  20
 644.700
  30
0.0
  11
 312.000
  21
 631.500
  31
0.0
   0
LINE
   8
LEVEL001
   6
CONTINUOUS
  62
7
  10
 310.614
  20
 645.500
  30
0.0
  11
 312.000
  21
 644.700
  31
0.0
   0
LINE
   8
LEVEL001
   6
CONTINUOUS
  62
7
  10
 289.386
  20
 645.500
  30
0.0
  11
 310.614
  21
 645.500
  31
0.0
   0
LINE
   8
LEVEL001
   6
CONTINUOUS
  62
7
  10
 288.000
  20
 644.700
  30
0.0
  11
 289.386
  21
 645.500
  31
0.0
   0
LINE
   8
LEVEL001
   6
CONTINUOUS
  62
7
  10
 312.000
  20
 644.700
  30
0.0
  11
 288.000
  21
 644.700
  31
0.0
   0
LINE
   8
LEVEL001
   6
CONTINUOUS
  62
7
  10
 338.000
  20
 631.500
  30
0.0
  11
 338.000
  21
 644.700
  31
0.0
   0
LINE
   8
LEVEL001
   6
CONTINUOUS
  62
7
  10
 362.000
  20
 644.700
  30
0.0
  11
 362.000
  21
 631.500
  31
0.0
   0
LINE
   8
LEVEL001
   6
CONTINUOUS
  62
7
  10
 360.614
  20
 645.500
  30
0.0
  11
 362.000
  21
 644.700
  31
0.0
   0
LINE
   8
LEVEL001
   6
CONTINUOUS
  62
7
  10
 339.386
  20
 645.500
  30
0.0
  11
 360.614
  21
 645.500
  31
0.0
   0
LINE
   8
LEVEL001
   6
CONTINUOUS
  62
7
  10
 338.000
  20
 644.700
  30
0.0
  11
 339.386
  21
 645.500
  31
0.0
   0
LINE
   8
LEVEL001
   6
CONTINUOUS
  62
7
  10
 362.000
  20
 644.700
  30
0.0
  11
 338.000
  21
 644.700
  31
0.0
   0
LINE
   8
LEVEL001
   6
CONTINUOUS
  62
7
  10
 690.794
  20
 589.000
  30
0.0
  11
 853.610
  21
 589.000
  31
0.0
   0
LINE
   8
LEVEL001
   6
CONTINUOUS
  62
7
  10
 709.642
  20
 572.000
  30
0.0
  11
 843.183
  21
 572.000
  31
0.0
   0
LINE
   8
LEVEL001
   6
CONTINUOUS
  62
7
  10
 703.226
  20
 497.882
  30
0.0
  11
 840.777
  21
 497.882
  31
0.0
   0
LINE
   8
LEVEL001
   6
CONTINUOUS
  62
7
  10
 893.000
  20
 475.000
  30
0.0
  11
 772.000
  21
 475.000
  31
0.0
   0
LINE
   8
LEVEL001
   6
CONTINUOUS
  62
7
  10
 155.000
  20
 475.000
  30
0.0
  11
 155.000
  21
 455.000
  31
0.0
   0
LINE
   8
LEVEL001
   6
CONTINUOUS
  62
7
  10
 345.000
  20
 475.000
  30
0.0
  11
 345.000
  21
 455.000
  31
0.0
   0
LINE
   8
LEVEL001
   6
CONTINUOUS
  62
7
  10
 155.000
  20
 475.000
  30
0.0
  11
 234.500
  21
 475.000
  31
0.0
   0
LINE
   8
LEVEL001
   6
CONTINUOUS
  62
7
  10
 265.500
  20
 475.000
  30
0.0
  11
 345.000
  21
 475.000
  31
0.0
   0
LINE
   8
LEVEL001
   6
CONTINUOUS
  62
7
  10
 155.000
  20
 455.000
  30
0.0
  11
 345.000
  21
 455.000
  31
0.0
   0
LINE
   8
LEVEL001
   6
CONTINUOUS
  62
7
  10
 137.750
  20
 557.500
  30
0.0
  11
 135.106
  21
 557.500
  31
0.0
   0
LINE
   8
LEVEL001
   6
CONTINUOUS
  62
7
  10
 137.750
  20
 522.500
  30
0.0
  11
 135.106
  21
 522.500
  31
0.0
   0
LINE
   8
LEVEL001
   6
CONTINUOUS
  62
7
  10
 137.750
  20
 591.500
  30
0.0
  11
 137.750
  21
 488.500
  31
0.0
   0
LINE
   8
LEVEL001
   6
CONTINUOUS
  62
7
  10
 71.0000
  20
 524.000
  30
0.0
  11
 70.0000
  21
 525.000
  31
0.0
   0
LINE
   8
LEVEL001
   6
CONTINUOUS
  62
7
  10
 127.894
  20
 524.000
  30
0.0
  11
 71.0000
  21
 524.000
  31
0.0
   0
LINE
   8
LEVEL001
   6
CONTINUOUS
  62
7
  10
 135.000
  20
 522.500
  30
0.0
  11
 135.000
  21
 557.478
  31
0.0
   0
ARC
   8
LEVEL001
   6
CONTINUOUS
  62
7
  10
 135.106
  20
 523.500
  30
0.0
  40
 1.00000
  50
 257.905
  51
 270.000
   0
LINE
   8
LEVEL001
   6
CONTINUOUS
  62
7
  10
 134.896
  20
 522.522
  30
0.0
  11
 128.104
  21
 523.978
  31
0.0
   0
ARC
   8
LEVEL001
   6
CONTINUOUS
  62
7
  10
 127.894
  20
 523.000
  30
0.0
  40
 1.00000
  50
 77.9050
  51
 90.0000
   0
ARC
   8
LEVEL001
   6
CONTINUOUS
  62
7
  10
 139.750
  20
 591.500
  30
0.0
  40
 2.00000
  50
 90.0000
  51
 180.000
   0
LINE
   8
LEVEL001
   6
CONTINUOUS
  62
7
  10
 150.750
  20
 593.500
  30
0.0
  11
 139.750
  21
 593.500
  31
0.0
   0
ARC
   8
LEVEL001
   6
CONTINUOUS
  62
7
  10
 139.750
  20
 488.500
  30
0.0
  40
 2.00000
  50
 180.000
  51
 270.000
   0
LINE
   8
LEVEL001
   6
CONTINUOUS
  62
7
  10
 150.750
  20
 593.500
  30
0.0
  11
 150.750
  21
 486.500
  31
0.0
   0
LINE
   8
LEVEL001
   6
CONTINUOUS
  62
7
  10
 150.750
  20
 486.500
  30
0.0
  11
 139.750
  21
 486.500
  31
0.0
   0
LINE
   8
LEVEL001
   6
CONTINUOUS
  62
7
  10
 70.0000
  20
 554.142
  30
0.0
  11
 71.0000
  21
 555.199
  31
0.0
   0
LINE
   8
LEVEL001
   6
CONTINUOUS
  62
7
  10
 71.0000
  20
 555.199
  30
0.0
  11
 128.000
  21
 555.199
  31
0.0
   0
LINE
   8
LEVEL001
   6
CONTINUOUS
  62
7
  10
 70.0000
  20
 559.000
  30
0.0
  11
 70.0000
  21
 554.142
  31
0.0
   0
LINE
   8
LEVEL001
   6
CONTINUOUS
  62
7
  10
 70.0000
  20
 525.000
  30
0.0
  11
 70.0000
  21
 554.142
  31
0.0
   0
LINE
   8
LEVEL001
   6
CONTINUOUS
  62
7
  10
 71.0000
  20
 555.199
  30
0.0
  11
 71.0000
  21
 524.000
  31
0.0
   0
LINE
   8
LEVEL001
   6
CONTINUOUS
  62
7
  10
 70.0000
  20
 559.000
  30
0.0
  11
 120.000
  21
 559.000
  31
0.0
   0
LINE
   8
LEVEL001
   6
CONTINUOUS
  62
7
  10
 120.000
  20
 559.000
  30
0.0
  11
 120.000
  21
 555.199
  31
0.0
   0
LINE
   8
LEVEL001
   6
CONTINUOUS
  62
7
  10
 128.000
  20
 524.000
  30
0.0
  11
 128.000
  21
 555.199
  31
0.0
   0
LINE
   8
LEVEL001
   6
CONTINUOUS
  62
7
  10
 128.000
  20
 555.199
  30
0.0
  11
 134.896
  21
 557.478
  31
0.0
   0
ARC
   8
LEVEL001
   6
CONTINUOUS
  62
7
  10
 135.106
  20
 556.500
  30
0.0
  40
 1.00000
  50
 90.0000
  51
 102.095
   0
LINE
   8
LEVEL001
   6
CONTINUOUS
  62
7
  10
 151.000
  20
 592.500
  30
0.0
  11
 151.000
  21
 487.500
  31
0.0
   0
ARC
   8
LEVEL001
   6
CONTINUOUS
  62
7
  10
 145.000
  20
 479.500
  30
0.0
  40
 10.0000
  50
0.0
  51
 53.1301
   0
LINE
   8
LEVEL001
   6
CONTINUOUS
  62
7
  10
 155.000
  20
 479.500
  30
0.0
  11
 155.000
  21
 475.000
  31
0.0
   0
LINE
   8
LEVEL001
   6
CONTINUOUS
  62
7
  10
 362.250
  20
 557.500
  30
0.0
  11
 364.894
  21
 557.500
  31
0.0
   0
LINE
   8
LEVEL001
   6
CONTINUOUS
  62
7
  10
 362.250
  20
 522.500
  30
0.0
  11
 364.894
  21
 522.500
  31
0.0
   0
LINE
   8
LEVEL001
   6
CONTINUOUS
  62
7
  10
 362.250
  20
 591.500
  30
0.0
  11
 362.250
  21
 488.500
  31
0.0
   0
LINE
   8
LEVEL001
   6
CONTINUOUS
  62
7
  10
 429.000
  20
 524.000
  30
0.0
  11
 430.000
  21
 525.000
  31
0.0
   0
LINE
   8
LEVEL001
   6
CONTINUOUS
  62
7
  10
 372.106
  20
 524.000
  30
0.0
  11
 429.000
  21
 524.000
  31
0.0
   0
LINE
   8
LEVEL001
   6
CONTINUOUS
  62
7
  10
 365.000
  20
 522.500
  30
0.0
  11
 365.000
  21
 557.478
  31
0.0
   0
ARC
   8
LEVEL001
   6
CONTINUOUS
  62
7
  10
 364.894
  20
 523.500
  30
0.0
  40
 1.00000
  50
 270.000
  51
 282.095
   0
LINE
   8
LEVEL001
   6
CONTINUOUS
  62
7
  10
 365.104
  20
 522.522
  30
0.0
  11
 371.896
  21
 523.978
  31
0.0
   0
ARC
   8
LEVEL001
   6
CONTINUOUS
  62
7
  10
 372.106
  20
 523.000
  30
0.0
  40
 1.00000
  50
 90.0000
  51
 102.095
   0
ARC
   8
LEVEL001
   6
CONTINUOUS
  62
7
  10
 360.250
  20
 591.500
  30
0.0
  40
 2.00000
  50
0.0
  51
 90.0000
   0
LINE
   8
LEVEL001
   6
CONTINUOUS
  62
7
  10
 349.250
  20
 593.500
  30
0.0
  11
 360.250
  21
 593.500
  31
0.0
   0
ARC
   8
LEVEL001
   6
CONTINUOUS
  62
7
  10
 360.250
  20
 488.500
  30
0.0
  40
 2.00000
  50
 270.000
  51
0.0
   0
LINE
   8
LEVEL001
   6
CONTINUOUS
  62
7
  10
 349.250
  20
 593.500
  30
0.0
  11
 349.250
  21
 486.500
  31
0.0
   0
LINE
   8
LEVEL001
   6
CONTINUOUS
  62
7
  10
 349.250
  20
 486.500
  30
0.0
  11
 360.250
  21
 486.500
  31
0.0
   0
LINE
   8
LEVEL001
   6
CONTINUOUS
  62
7
  10
 430.000
  20
 554.142
  30
0.0
  11
 429.000
  21
 555.199
  31
0.0
   0
LINE
   8
LEVEL001
   6
CONTINUOUS
  62
7
  10
 429.000
  20
 555.199
  30
0.0
  11
 372.000
  21
 555.199
  31
0.0
   0
LINE
   8
LEVEL001
   6
CONTINUOUS
  62
7
  10
 430.000
  20
 559.000
  30
0.0
  11
 430.000
  21
 554.142
  31
0.0
   0
LINE
   8
LEVEL001
   6
CONTINUOUS
  62
7
  10
 430.000
  20
 525.000
  30
0.0
  11
 430.000
  21
 554.142
  31
0.0
   0
LINE
   8
LEVEL001
   6
CONTINUOUS
  62
7
  10
 429.000
  20
 555.199
  30
0.0
  11
 429.000
  21
 524.000
  31
0.0
   0
LINE
   8
LEVEL001
   6
CONTINUOUS
  62
7
  10
 430.000
  20
 559.000
  30
0.0
  11
 380.000
  21
 559.000
  31
0.0
   0
LINE
   8
LEVEL001
   6
CONTINUOUS
  62
7
  10
 380.000
  20
 559.000
  30
0.0
  11
 380.000
  21
 555.199
  31
0.0
   0
LINE
   8
LEVEL001
   6
CONTINUOUS
  62
7
  10
 372.000
  20
 524.000
  30
0.0
  11
 372.000
  21
 555.199
  31
0.0
   0
LINE
   8
LEVEL001
   6
CONTINUOUS
  62
7
  10
 372.000
  20
 555.199
  30
0.0
  11
 365.104
  21
 557.478
  31
0.0
   0
ARC
   8
LEVEL001
   6
CONTINUOUS
  62
7
  10
 364.894
  20
 556.500
  30
0.0
  40
 1.00000
  50
 77.9050
  51
 90.0000
   0
LINE
   8
LEVEL001
   6
CONTINUOUS
  62
7
  10
 349.000
  20
 592.500
  30
0.0
  11
 349.000
  21
 487.500
  31
0.0
   0
ARC
   8
LEVEL001
   6
CONTINUOUS
  62
7
  10
 355.000
  20
 479.500
  30
0.0
  40
 10.0000
  50
 126.870
  51
 180.000
   0
LINE
   8
LEVEL001
   6
CONTINUOUS
  62
7
  10
 345.000
  20
 479.500
  30
0.0
  11
 345.000
  21
 475.000
  31
0.0
   0
LINE
   8
LEVEL001
   6
CONTINUOUS
  62
7
  10
 362.719
  20
 585.231
  30
0.0
  11
 362.250
  21
 584.661
  31
0.0
   0
LINE
   8
LEVEL001
   6
CONTINUOUS
  62
7
  10
 258.975
  20
 586.616
  30
0.0
  11
 280.000
  21
 592.000
  31
0.0
   0
LINE
   8
LEVEL001
   6
CONTINUOUS
  62
7
  10
 282.248
  20
 593.511
  30
0.0
  11
 349.000
  21
 592.500
  31
0.0
   0
ARC
   8
LEVEL001
   6
CONTINUOUS
  62
7
  10
 145.000
  20
 591.588
  30
0.0
  40
 10.0000
  50
 180.000
  51
 219.472
   0
LINE
   8
LEVEL001
   6
CONTINUOUS
  62
7
  10
 135.000
  20
 615.000
  30
0.0
  11
 135.000
  21
 591.588
  31
0.0
   0
LINE
   8
LEVEL001
   6
CONTINUOUS
  62
7
  10
 137.281
  20
 585.231
  30
0.0
  11
 137.750
  21
 584.661
  31
0.0
   0
LINE
   8
LEVEL001
   6
CONTINUOUS
  62
7
  10
 241.025
  20
 586.616
  30
0.0
  11
 220.000
  21
 592.000
  31
0.0
   0
LINE
   8
LEVEL001
   6
CONTINUOUS
  62
7
  10
 217.752
  20
 593.511
  30
0.0
  11
 151.000
  21
 592.500
  31
0.0
   0
LINE
   8
LEVEL001
   6
CONTINUOUS
  62
7
  10
 695.651
  20
 475.000
  30
0.0
  11
 729.854
  21
 475.000
  31
0.0
   0
ARC
   8
LEVEL001
   6
CONTINUOUS
  62
7
  10
 695.651
  20
 485.000
  30
0.0
  40
 10.0000
  50
 149.065
  51
 270.000
   0
LINE
   8
LEVEL001
   6
CONTINUOUS
  62
7
  10
 687.074
  20
 490.141
  30
0.0
  11
 692.528
  21
 499.241
  31
0.0
   0
LINE
   8
LEVEL001
   6
CONTINUOUS
  62
7
  10
 196.400
  20
 669.500
  30
0.0
  11
 196.400
  21
 656.500
  31
0.0
   0
LINE
   8
LEVEL001
   6
CONTINUOUS
  62
7
  10
 196.400
  20
 656.500
  30
0.0
  11
 196.000
  21
 657.193
  31
0.0
   0
LINE
   8
LEVEL001
   6
CONTINUOUS
  62
7
  10
 196.000
  20
 657.193
  30
0.0
  11
 196.000
  21
 668.807
  31
0.0
   0
LINE
   8
LEVEL001
   6
CONTINUOUS
  62
7
  10
 196.000
  20
 668.807
  30
0.0
  11
 196.400
  21
 669.500
  31
0.0
   0
LINE
   8
LEVEL001
   6
CONTINUOUS
  62
7
  10
 196.000
  20
 648.807
  30
0.0
  11
 196.400
  21
 649.500
  31
0.0
   0
LINE
   8
LEVEL001
   6
CONTINUOUS
  62
7
  10
 196.400
  20
 649.500
  30
0.0
  11
 196.621
  21
 649.500
  31
0.0
   0
LINE
   8
LEVEL001
   6
CONTINUOUS
  62
7
  10
 196.862
  20
 656.500
  30
0.0
  11
 196.400
  21
 656.500
  31
0.0
   0
LINE
   8
LEVEL001
   6
CONTINUOUS
  62
7
  10
 196.400
  20
 669.500
  30
0.0
  11
 197.310
  21
 669.500
  31
0.0
   0
LINE
   8
LEVEL001
   6
CONTINUOUS
  62
7
  10
 196.000
  20
 645.500
  30
0.0
  11
 196.000
  21
 648.807
  31
0.0
   0
LINE
   8
LEVEL001
   6
CONTINUOUS
  62
7
  10
 196.400
  20
 649.500
  30
0.0
  11
 196.400
  21
 645.500
  31
0.0
   0
LINE
   8
LEVEL001
   6
CONTINUOUS
  62
7
  10
 284.000
  20
 710.000
  30
0.0
  11
 216.000
  21
 710.000
  31
0.0
   0
ARC
   8
LEVEL001
   6
CONTINUOUS
  62
7
  10
 183.441
  20
 644.500
  30
0.0
  40
 13.0000
  50
 270.000
  51
 290.530
   0
LINE
   8
LEVEL001
   6
CONTINUOUS
  62
7
  10
 197.400
  20
 672.103
  30
0.0
  11
 196.483
  21
 645.500
  31
0.0
   0
ARC
   8
LEVEL001
   6
CONTINUOUS
  62
7
  10
 316.559
  20
 644.500
  30
0.0
  40
 13.0000
  50
 249.470
  51
 270.000
   0
LINE
   8
LEVEL001
   6
CONTINUOUS
  62
7
  10
 302.600
  20
 672.103
  30
0.0
  11
 303.517
  21
 645.500
  31
0.0
   0
LINE
   8
LEVEL001
   6
CONTINUOUS
  62
7
  10
 277.400
  20
 552.477
  30
0.0
  11
 277.391
  21
 552.557
  31
0.0
   0
LINE
   8
LEVEL001
   6
CONTINUOUS
  62
7
  10
 277.391
  20
 552.557
  30
0.0
  11
 277.364
  21
 552.637
  31
0.0
   0
LINE
   8
LEVEL001
   6
CONTINUOUS
  62
7
  10
 277.364
  20
 552.637
  30
0.0
  11
 277.318
  21
 552.715
  31
0.0
   0
LINE
   8
LEVEL001
   6
CONTINUOUS
  62
7
  10
 277.318
  20
 552.715
  30
0.0
  11
 277.255
  21
 552.792
  31
0.0
   0
LINE
   8
LEVEL001
   6
CONTINUOUS
  62
7
  10
 277.255
  20
 552.792
  30
0.0
  11
 277.175
  21
 552.866
  31
0.0
   0
LINE
   8
LEVEL001
   6
CONTINUOUS
  62
7
  10
 277.175
  20
 552.866
  30
0.0
  11
 277.078
  21
 552.937
  31
0.0
   0
LINE
   8
LEVEL001
   6
CONTINUOUS
  62
7
  10
 277.078
  20
 552.937
  30
0.0
  11
 276.966
  21
 553.004
  31
0.0
   0
LINE
   8
LEVEL001
   6
CONTINUOUS
  62
7
  10
 276.966
  20
 553.004
  30
0.0
  11
 276.839
  21
 553.068
  31
0.0
   0
LINE
   8
LEVEL001
   6
CONTINUOUS
  62
7
  10
 276.839
  20
 553.068
  30
0.0
  11
 276.697
  21
 553.127
  31
0.0
   0
LINE
   8
LEVEL001
   6
CONTINUOUS
  62
7
  10
 276.697
  20
 553.127
  30
0.0
  11
 276.543
  21
 553.181
  31
0.0
   0
LINE
   8
LEVEL001
   6
CONTINUOUS
  62
7
  10
 276.543
  20
 553.181
  30
0.0
  11
 276.377
  21
 553.230
  31
0.0
   0
LINE
   8
LEVEL001
   6
CONTINUOUS
  62
7
  10
 276.377
  20
 553.230
  30
0.0
  11
 276.200
  21
 553.273
  31
0.0
   0
LINE
   8
LEVEL001
   6
CONTINUOUS
  62
7
  10
 276.200
  20
 553.273
  30
0.0
  11
 276.014
  21
 553.310
  31
0.0
   0
LINE
   8
LEVEL001
   6
CONTINUOUS
  62
7
  10
 276.014
  20
 553.310
  30
0.0
  11
 275.821
  21
 553.340
  31
0.0
   0
LINE
   8
LEVEL001
   6
CONTINUOUS
  62
7
  10
 275.821
  20
 553.340
  30
0.0
  11
 275.621
  21
 553.365
  31
0.0
   0
LINE
   8
LEVEL001
   6
CONTINUOUS
  62
7
  10
 275.621
  20
 553.365
  30
0.0
  11
 275.417
  21
 553.382
  31
0.0
   0
LINE
   8
LEVEL001
   6
CONTINUOUS
  62
7
  10
 275.417
  20
 553.382
  30
0.0
  11
 275.209
  21
 553.392
  31
0.0
   0
LINE
   8
LEVEL001
   6
CONTINUOUS
  62
7
  10
 275.209
  20
 553.392
  30
0.0
  11
 275.000
  21
 553.396
  31
0.0
   0
LINE
   8
LEVEL001
   6
CONTINUOUS
  62
7
  10
 275.000
  20
 553.396
  30
0.0
  11
 274.791
  21
 553.392
  31
0.0
   0
LINE
   8
LEVEL001
   6
CONTINUOUS
  62
7
  10
 274.791
  20
 553.392
  30
0.0
  11
 274.583
  21
 553.382
  31
0.0
   0
LINE
   8
LEVEL001
   6
CONTINUOUS
  62
7
  10
 274.583
  20
 553.382
  30
0.0
  11
 274.379
  21
 553.365
  31
0.0
   0
LINE
   8
LEVEL001
   6
CONTINUOUS
  62
7
  10
 274.379
  20
 553.365
  30
0.0
  11
 274.179
  21
 553.340
  31
0.0
   0
LINE
   8
LEVEL001
   6
CONTINUOUS
  62
7
  10
 274.179
  20
 553.340
  30
0.0
  11
 273.986
  21
 553.310
  31
0.0
   0
LINE
   8
LEVEL001
   6
CONTINUOUS
  62
7
  10
 273.986
  20
 553.310
  30
0.0
  11
 273.800
  21
 553.273
  31
0.0
   0
LINE
   8
LEVEL001
   6
CONTINUOUS
  62
7
  10
 273.800
  20
 553.273
  30
0.0
  11
 273.623
  21
 553.230
  31
0.0
   0
LINE
   8
LEVEL001
   6
CONTINUOUS
  62
7
  10
 273.623
  20
 553.230
  30
0.0
  11
 273.457
  21
 553.181
  31
0.0
   0
LINE
   8
LEVEL001
   6
CONTINUOUS
  62
7
  10
 273.457
  20
 553.181
  30
0.0
  11
 273.303
  21
 553.127
  31
0.0
   0
LINE
   8
LEVEL001
   6
CONTINUOUS
  62
7
  10
 273.303
  20
 553.127
  30
0.0
  11
 273.161
  21
 553.068
  31
0.0
   0
LINE
   8
LEVEL001
   6
CONTINUOUS
  62
7
  10
 273.161
  20
 553.068
  30
0.0
  11
 273.034
  21
 553.004
  31
0.0
   0
LINE
   8
LEVEL001
   6
CONTINUOUS
  62
7
  10
 273.034
  20
 553.004
  30
0.0
  11
 272.922
  21
 552.937
  31
0.0
   0
LINE
   8
LEVEL001
   6
CONTINUOUS
  62
7
  10
 272.922
  20
 552.937
  30
0.0
  11
 272.825
  21
 552.866
  31
0.0
   0
LINE
   8
LEVEL001
   6
CONTINUOUS
  62
7
  10
 272.825
  20
 552.866
  30
0.0
  11
 272.745
  21
 552.792
  31
0.0
   0
LINE
   8
LEVEL001
   6
CONTINUOUS
  62
7
  10
 272.745
  20
 552.792
  30
0.0
  11
 272.682
  21
 552.715
  31
0.0
   0
LINE
   8
LEVEL001
   6
CONTINUOUS
  62
7
  10
 272.682
  20
 552.715
  30
0.0
  11
 272.636
  21
 552.637
  31
0.0
   0
LINE
   8
LEVEL001
   6
CONTINUOUS
  62
7
  10
 272.636
  20
 552.637
  30
0.0
  11
 272.609
  21
 552.557
  31
0.0
   0
LINE
   8
LEVEL001
   6
CONTINUOUS
  62
7
  10
 272.609
  20
 552.557
  30
0.0
  11
 272.600
  21
 552.477
  31
0.0
   0
LINE
   8
LEVEL001
   6
CONTINUOUS
  62
7
  10
 272.600
  20
 552.477
  30
0.0
  11
 272.609
  21
 552.397
  31
0.0
   0
LINE
   8
LEVEL001
   6
CONTINUOUS
  62
7
  10
 272.609
  20
 552.397
  30
0.0
  11
 272.636
  21
 552.318
  31
0.0
   0
LINE
   8
LEVEL001
   6
CONTINUOUS
  62
7
  10
 272.636
  20
 552.318
  30
0.0
  11
 272.682
  21
 552.240
  31
0.0
   0
LINE
   8
LEVEL001
   6
CONTINUOUS
  62
7
  10
 272.682
  20
 552.240
  30
0.0
  11
 272.745
  21
 552.163
  31
0.0
   0
LINE
   8
LEVEL001
   6
CONTINUOUS
  62
7
  10
 272.745
  20
 552.163
  30
0.0
  11
 272.825
  21
 552.089
  31
0.0
   0
LINE
   8
LEVEL001
   6
CONTINUOUS
  62
7
  10
 272.825
  20
 552.089
  30
0.0
  11
 272.922
  21
 552.018
  31
0.0
   0
LINE
   8
LEVEL001
   6
CONTINUOUS
  62
7
  10
 272.922
  20
 552.018
  30
0.0
  11
 273.034
  21
 551.951
  31
0.0
   0
LINE
   8
LEVEL001
   6
CONTINUOUS
  62
7
  10
 273.034
  20
 551.951
  30
0.0
  11
 273.161
  21
 551.887
  31
0.0
   0
LINE
   8
LEVEL001
   6
CONTINUOUS
  62
7
  10
 273.161
  20
 551.887
  30
0.0
  11
 273.303
  21
 551.828
  31
0.0
   0
LINE
   8
LEVEL001
   6
CONTINUOUS
  62
7
  10
 273.303
  20
 551.828
  30
0.0
  11
 273.457
  21
 551.774
  31
0.0
   0
LINE
   8
LEVEL001
   6
CONTINUOUS
  62
7
  10
 273.457
  20
 551.774
  30
0.0
  11
 273.623
  21
 551.725
  31
0.0
   0
LINE
   8
LEVEL001
   6
CONTINUOUS
  62
7
  10
 273.623
  20
 551.725
  30
0.0
  11
 273.800
  21
 551.682
  31
0.0
   0
LINE
   8
LEVEL001
   6
CONTINUOUS
  62
7
  10
 273.800
  20
 551.682
  30
0.0
  11
 273.986
  21
 551.645
  31
0.0
   0
LINE
   8
LEVEL001
   6
CONTINUOUS
  62
7
  10
 273.986
  20
 551.645
  30
0.0
  11
 274.179
  21
 551.614
  31
0.0
   0
LINE
   8
LEVEL001
   6
CONTINUOUS
  62
7
  10
 274.179
  20
 551.614
  30
0.0
  11
 274.379
  21
 551.590
  31
0.0
   0
LINE
   8
LEVEL001
   6
CONTINUOUS
  62
7
  10
 274.379
  20
 551.590
  30
0.0
  11
 274.583
  21
 551.573
  31
0.0
   0
LINE
   8
LEVEL001
   6
CONTINUOUS
  62
7
  10
 274.583
  20
 551.573
  30
0.0
  11
 274.791
  21
 551.562
  31
0.0
   0
LINE
   8
LEVEL001
   6
CONTINUOUS
  62
7
  10
 274.791
  20
 551.562
  30
0.0
  11
 275.000
  21
 551.559
  31
0.0
   0
LINE
   8
LEVEL001
   6
CONTINUOUS
  62
7
  10
 275.000
  20
 551.559
  30
0.0
  11
 275.209
  21
 551.562
  31
0.0
   0
LINE
   8
LEVEL001
   6
CONTINUOUS
  62
7
  10
 275.209
  20
 551.562
  30
0.0
  11
 275.417
  21
 551.573
  31
0.0
   0
LINE
   8
LEVEL001
   6
CONTINUOUS
  62
7
  10
 275.417
  20
 551.573
  30
0.0
  11
 275.621
  21
 551.590
  31
0.0
   0
LINE
   8
LEVEL001
   6
CONTINUOUS
  62
7
  10
 275.621
  20
 551.590
  30
0.0
  11
 275.821
  21
 551.614
  31
0.0
   0
LINE
   8
LEVEL001
   6
CONTINUOUS
  62
7
  10
 275.821
  20
 551.614
  30
0.0
  11
 276.014
  21
 551.645
  31
0.0
   0
LINE
   8
LEVEL001
   6
CONTINUOUS
  62
7
  10
 276.014
  20
 551.645
  30
0.0
  11
 276.200
  21
 551.682
  31
0.0
   0
LINE
   8
LEVEL001
   6
CONTINUOUS
  62
7
  10
 276.200
  20
 551.682
  30
0.0
  11
 276.377
  21
 551.725
  31
0.0
   0
LINE
   8
LEVEL001
   6
CONTINUOUS
  62
7
  10
 276.377
  20
 551.725
  30
0.0
  11
 276.543
  21
 551.774
  31
0.0
   0
LINE
   8
LEVEL001
   6
CONTINUOUS
  62
7
  10
 276.543
  20
 551.774
  30
0.0
  11
 276.697
  21
 551.828
  31
0.0
   0
LINE
   8
LEVEL001
   6
CONTINUOUS
  62
7
  10
 276.697
  20
 551.828
  30
0.0
  11
 276.839
  21
 551.887
  31
0.0
   0
LINE
   8
LEVEL001
   6
CONTINUOUS
  62
7
  10
 276.839
  20
 551.887
  30
0.0
  11
 276.966
  21
 551.951
  31
0.0
   0
LINE
   8
LEVEL001
   6
CONTINUOUS
  62
7
  10
 276.966
  20
 551.951
  30
0.0
  11
 277.078
  21
 552.018
  31
0.0
   0
LINE
   8
LEVEL001
   6
CONTINUOUS
  62
7
  10
 277.078
  20
 552.018
  30
0.0
  11
 277.175
  21
 552.089
  31
0.0
   0
LINE
   8
LEVEL001
   6
CONTINUOUS
  62
7
  10
 277.175
  20
 552.089
  30
0.0
  11
 277.255
  21
 552.163
  31
0.0
   0
LINE
   8
LEVEL001
   6
CONTINUOUS
  62
7
  10
 277.255
  20
 552.163
  30
0.0
  11
 277.318
  21
 552.240
  31
0.0
   0
LINE
   8
LEVEL001
   6
CONTINUOUS
  62
7
  10
 277.318
  20
 552.240
  30
0.0
  11
 277.364
  21
 552.318
  31
0.0
   0
LINE
   8
LEVEL001
   6
CONTINUOUS
  62
7
  10
 277.364
  20
 552.318
  30
0.0
  11
 277.391
  21
 552.397
  31
0.0
   0
LINE
   8
LEVEL001
   6
CONTINUOUS
  62
7
  10
 277.391
  20
 552.397
  30
0.0
  11
 277.400
  21
 552.477
  31
0.0
   0
LINE
   8
LEVEL001
   6
CONTINUOUS
  62
7
  10
 274.000
  20
 552.477
  30
0.0
  11
 274.001
  21
 552.461
  31
0.0
   0
LINE
   8
LEVEL001
   6
CONTINUOUS
  62
7
  10
 274.001
  20
 552.461
  30
0.0
  11
 274.004
  21
 552.444
  31
0.0
   0
LINE
   8
LEVEL001
   6
CONTINUOUS
  62
7
  10
 274.004
  20
 552.444
  30
0.0
  11
 274.009
  21
 552.427
  31
0.0
   0
LINE
   8
LEVEL001
   6
CONTINUOUS
  62
7
  10
 274.009
  20
 552.427
  30
0.0
  11
 274.015
  21
 552.411
  31
0.0
   0
LINE
   8
LEVEL001
   6
CONTINUOUS
  62
7
  10
 274.015
  20
 552.411
  30
0.0
  11
 274.024
  21
 552.395
  31
0.0
   0
LINE
   8
LEVEL001
   6
CONTINUOUS
  62
7
  10
 274.024
  20
 552.395
  30
0.0
  11
 274.034
  21
 552.378
  31
0.0
   0
LINE
   8
LEVEL001
   6
CONTINUOUS
  62
7
  10
 274.034
  20
 552.378
  30
0.0
  11
 274.046
  21
 552.362
  31
0.0
   0
LINE
   8
LEVEL001
   6
CONTINUOUS
  62
7
  10
 274.046
  20
 552.362
  30
0.0
  11
 274.060
  21
 552.347
  31
0.0
   0
LINE
   8
LEVEL001
   6
CONTINUOUS
  62
7
  10
 274.060
  20
 552.347
  30
0.0
  11
 274.076
  21
 552.331
  31
0.0
   0
LINE
   8
LEVEL001
   6
CONTINUOUS
  62
7
  10
 274.076
  20
 552.331
  30
0.0
  11
 274.094
  21
 552.316
  31
0.0
   0
LINE
   8
LEVEL001
   6
CONTINUOUS
  62
7
  10
 274.094
  20
 552.316
  30
0.0
  11
 274.113
  21
 552.301
  31
0.0
   0
LINE
   8
LEVEL001
   6
CONTINUOUS
  62
7
  10
 274.113
  20
 552.301
  30
0.0
  11
 274.134
  21
 552.286
  31
0.0
   0
LINE
   8
LEVEL001
   6
CONTINUOUS
  62
7
  10
 274.134
  20
 552.286
  30
0.0
  11
 274.157
  21
 552.272
  31
0.0
   0
LINE
   8
LEVEL001
   6
CONTINUOUS
  62
7
  10
 274.157
  20
 552.272
  30
0.0
  11
 274.181
  21
 552.258
  31
0.0
   0
LINE
   8
LEVEL001
   6
CONTINUOUS
  62
7
  10
 274.181
  20
 552.258
  30
0.0
  11
 274.207
  21
 552.244
  31
0.0
   0
LINE
   8
LEVEL001
   6
CONTINUOUS
  62
7
  10
 274.207
  20
 552.244
  30
0.0
  11
 274.234
  21
 552.231
  31
0.0
   0
LINE
   8
LEVEL001
   6
CONTINUOUS
  62
7
  10
 274.234
  20
 552.231
  30
0.0
  11
 274.263
  21
 552.219
  31
0.0
   0
LINE
   8
LEVEL001
   6
CONTINUOUS
  62
7
  10
 274.263
  20
 552.219
  30
0.0
  11
 274.293
  21
 552.207
  31
0.0
   0
LINE
   8
LEVEL001
   6
CONTINUOUS
  62
7
  10
 274.293
  20
 552.207
  30
0.0
  11
 274.324
  21
 552.195
  31
0.0
   0
LINE
   8
LEVEL001
   6
CONTINUOUS
  62
7
  10
 274.324
  20
 552.195
  30
0.0
  11
 274.357
  21
 552.184
  31
0.0
   0
LINE
   8
LEVEL001
   6
CONTINUOUS
  62
7
  10
 274.357
  20
 552.184
  30
0.0
  11
 274.391
  21
 552.174
  31
0.0
   0
LINE
   8
LEVEL001
   6
CONTINUOUS
  62
7
  10
 274.391
  20
 552.174
  30
0.0
  11
 274.426
  21
 552.164
  31
0.0
   0
LINE
   8
LEVEL001
   6
CONTINUOUS
  62
7
  10
 274.426
  20
 552.164
  30
0.0
  11
 274.463
  21
 552.155
  31
0.0
   0
LINE
   8
LEVEL001
   6
CONTINUOUS
  62
7
  10
 274.463
  20
 552.155
  30
0.0
  11
 274.500
  21
 552.146
  31
0.0
   0
LINE
   8
LEVEL001
   6
CONTINUOUS
  62
7
  10
 274.500
  20
 552.146
  30
0.0
  11
 274.538
  21
 552.138
  31
0.0
   0
LINE
   8
LEVEL001
   6
CONTINUOUS
  62
7
  10
 274.538
  20
 552.138
  30
0.0
  11
 274.577
  21
 552.131
  31
0.0
   0
LINE
   8
LEVEL001
   6
CONTINUOUS
  62
7
  10
 274.577
  20
 552.131
  30
0.0
  11
 274.617
  21
 552.124
  31
0.0
   0
LINE
   8
LEVEL001
   6
CONTINUOUS
  62
7
  10
 274.617
  20
 552.124
  30
0.0
  11
 274.658
  21
 552.118
  31
0.0
   0
LINE
   8
LEVEL001
   6
CONTINUOUS
  62
7
  10
 274.658
  20
 552.118
  30
0.0
  11
 274.699
  21
 552.112
  31
0.0
   0
LINE
   8
LEVEL001
   6
CONTINUOUS
  62
7
  10
 274.699
  20
 552.112
  30
0.0
  11
 274.741
  21
 552.108
  31
0.0
   0
LINE
   8
LEVEL001
   6
CONTINUOUS
  62
7
  10
 274.741
  20
 552.108
  30
0.0
  11
 274.784
  21
 552.104
  31
0.0
   0
LINE
   8
LEVEL001
   6
CONTINUOUS
  62
7
  10
 274.784
  20
 552.104
  30
0.0
  11
 274.826
  21
 552.101
  31
0.0
   0
LINE
   8
LEVEL001
   6
CONTINUOUS
  62
7
  10
 274.826
  20
 552.101
  30
0.0
  11
 274.869
  21
 552.098
  31
0.0
   0
LINE
   8
LEVEL001
   6
CONTINUOUS
  62
7
  10
 274.869
  20
 552.098
  30
0.0
  11
 274.913
  21
 552.096
  31
0.0
   0
LINE
   8
LEVEL001
   6
CONTINUOUS
  62
7
  10
 274.913
  20
 552.096
  30
0.0
  11
 274.956
  21
 552.095
  31
0.0
   0
LINE
   8
LEVEL001
   6
CONTINUOUS
  62
7
  10
 274.956
  20
 552.095
  30
0.0
  11
 275.000
  21
 552.095
  31
0.0
   0
LINE
   8
LEVEL001
   6
CONTINUOUS
  62
7
  10
 275.000
  20
 552.095
  30
0.0
  11
 275.044
  21
 552.095
  31
0.0
   0
LINE
   8
LEVEL001
   6
CONTINUOUS
  62
7
  10
 275.044
  20
 552.095
  30
0.0
  11
 275.087
  21
 552.096
  31
0.0
   0
LINE
   8
LEVEL001
   6
CONTINUOUS
  62
7
  10
 275.087
  20
 552.096
  30
0.0
  11
 275.131
  21
 552.098
  31
0.0
   0
LINE
   8
LEVEL001
   6
CONTINUOUS
  62
7
  10
 275.131
  20
 552.098
  30
0.0
  11
 275.174
  21
 552.101
  31
0.0
   0
LINE
   8
LEVEL001
   6
CONTINUOUS
  62
7
  10
 275.174
  20
 552.101
  30
0.0
  11
 275.216
  21
 552.104
  31
0.0
   0
LINE
   8
LEVEL001
   6
CONTINUOUS
  62
7
  10
 275.216
  20
 552.104
  30
0.0
  11
 275.259
  21
 552.108
  31
0.0
   0
LINE
   8
LEVEL001
   6
CONTINUOUS
  62
7
  10
 275.259
  20
 552.108
  30
0.0
  11
 275.301
  21
 552.112
  31
0.0
   0
LINE
   8
LEVEL001
   6
CONTINUOUS
  62
7
  10
 275.301
  20
 552.112
  30
0.0
  11
 275.342
  21
 552.118
  31
0.0
   0
LINE
   8
LEVEL001
   6
CONTINUOUS
  62
7
  10
 275.342
  20
 552.118
  30
0.0
  11
 275.383
  21
 552.124
  31
0.0
   0
LINE
   8
LEVEL001
   6
CONTINUOUS
  62
7
  10
 275.383
  20
 552.124
  30
0.0
  11
 275.423
  21
 552.131
  31
0.0
   0
LINE
   8
LEVEL001
   6
CONTINUOUS
  62
7
  10
 275.423
  20
 552.131
  30
0.0
  11
 275.462
  21
 552.138
  31
0.0
   0
LINE
   8
LEVEL001
   6
CONTINUOUS
  62
7
  10
 275.462
  20
 552.138
  30
0.0
  11
 275.500
  21
 552.146
  31
0.0
   0
LINE
   8
LEVEL001
   6
CONTINUOUS
  62
7
  10
 275.500
  20
 552.146
  30
0.0
  11
 275.537
  21
 552.155
  31
0.0
   0
LINE
   8
LEVEL001
   6
CONTINUOUS
  62
7
  10
 275.537
  20
 552.155
  30
0.0
  11
 275.574
  21
 552.164
  31
0.0
   0
LINE
   8
LEVEL001
   6
CONTINUOUS
  62
7
  10
 275.574
  20
 552.164
  30
0.0
  11
 275.609
  21
 552.174
  31
0.0
   0
LINE
   8
LEVEL001
   6
CONTINUOUS
  62
7
  10
 275.609
  20
 552.174
  30
0.0
  11
 275.643
  21
 552.184
  31
0.0
   0
LINE
   8
LEVEL001
   6
CONTINUOUS
  62
7
  10
 275.643
  20
 552.184
  30
0.0
  11
 275.676
  21
 552.195
  31
0.0
   0
LINE
   8
LEVEL001
   6
CONTINUOUS
  62
7
  10
 275.676
  20
 552.195
  30
0.0
  11
 275.707
  21
 552.207
  31
0.0
   0
LINE
   8
LEVEL001
   6
CONTINUOUS
  62
7
  10
 275.707
  20
 552.207
  30
0.0
  11
 275.737
  21
 552.219
  31
0.0
   0
LINE
   8
LEVEL001
   6
CONTINUOUS
  62
7
  10
 275.737
  20
 552.219
  30
0.0
  11
 275.766
  21
 552.231
  31
0.0
   0
LINE
   8
LEVEL001
   6
CONTINUOUS
  62
7
  10
 275.766
  20
 552.231
  30
0.0
  11
 275.793
  21
 552.244
  31
0.0
   0
LINE
   8
LEVEL001
   6
CONTINUOUS
  62
7
  10
 275.793
  20
 552.244
  30
0.0
  11
 275.819
  21
 552.258
  31
0.0
   0
LINE
   8
LEVEL001
   6
CONTINUOUS
  62
7
  10
 275.819
  20
 552.258
  30
0.0
  11
 275.843
  21
 552.272
  31
0.0
   0
LINE
   8
LEVEL001
   6
CONTINUOUS
  62
7
  10
 275.843
  20
 552.272
  30
0.0
  11
 275.866
  21
 552.286
  31
0.0
   0
LINE
   8
LEVEL001
   6
CONTINUOUS
  62
7
  10
 275.866
  20
 552.286
  30
0.0
  11
 275.887
  21
 552.301
  31
0.0
   0
LINE
   8
LEVEL001
   6
CONTINUOUS
  62
7
  10
 275.887
  20
 552.301
  30
0.0
  11
 275.906
  21
 552.316
  31
0.0
   0
LINE
   8
LEVEL001
   6
CONTINUOUS
  62
7
  10
 275.906
  20
 552.316
  30
0.0
  11
 275.924
  21
 552.331
  31
0.0
   0
LINE
   8
LEVEL001
   6
CONTINUOUS
  62
7
  10
 275.924
  20
 552.331
  30
0.0
  11
 275.940
  21
 552.347
  31
0.0
   0
LINE
   8
LEVEL001
   6
CONTINUOUS
  62
7
  10
 275.940
  20
 552.347
  30
0.0
  11
 275.954
  21
 552.362
  31
0.0
   0
LINE
   8
LEVEL001
   6
CONTINUOUS
  62
7
  10
 275.954
  20
 552.362
  30
0.0
  11
 275.966
  21
 552.378
  31
0.0
   0
LINE
   8
LEVEL001
   6
CONTINUOUS
  62
7
  10
 275.966
  20
 552.378
  30
0.0
  11
 275.976
  21
 552.395
  31
0.0
   0
LINE
   8
LEVEL001
   6
CONTINUOUS
  62
7
  10
 275.976
  20
 552.395
  30
0.0
  11
 275.985
  21
 552.411
  31
0.0
   0
LINE
   8
LEVEL001
   6
CONTINUOUS
  62
7
  10
 275.985
  20
 552.411
  30
0.0
  11
 275.991
  21
 552.427
  31
0.0
   0
LINE
   8
LEVEL001
   6
CONTINUOUS
  62
7
  10
 275.991
  20
 552.427
  30
0.0
  11
 275.996
  21
 552.444
  31
0.0
   0
LINE
   8
LEVEL001
   6
CONTINUOUS
  62
7
  10
 275.996
  20
 552.444
  30
0.0
  11
 275.999
  21
 552.461
  31
0.0
   0
LINE
   8
LEVEL001
   6
CONTINUOUS
  62
7
  10
 275.999
  20
 552.461
  30
0.0
  11
 276.000
  21
 552.477
  31
0.0
   0
ARC
   8
LEVEL001
   6
CONTINUOUS
  62
7
  10
 275.000
  20
 552.249
  30
0.0
  40
 1.00000
  50
 11.9426
  51
 167.156
   0
LINE
   8
LEVEL001
   6
CONTINUOUS
  62
7
  10
 271.700
  20
 549.983
  30
0.0
  11
 271.703
  21
 549.928
  31
0.0
   0
LINE
   8
LEVEL001
   6
CONTINUOUS
  62
7
  10
 271.703
  20
 549.928
  30
0.0
  11
 271.713
  21
 549.873
  31
0.0
   0
LINE
   8
LEVEL001
   6
CONTINUOUS
  62
7
  10
 271.713
  20
 549.873
  30
0.0
  11
 271.728
  21
 549.819
  31
0.0
   0
LINE
   8
LEVEL001
   6
CONTINUOUS
  62
7
  10
 271.728
  20
 549.819
  30
0.0
  11
 271.750
  21
 549.764
  31
0.0
   0
LINE
   8
LEVEL001
   6
CONTINUOUS
  62
7
  10
 271.750
  20
 549.764
  30
0.0
  11
 271.778
  21
 549.710
  31
0.0
   0
LINE
   8
LEVEL001
   6
CONTINUOUS
  62
7
  10
 271.778
  20
 549.710
  30
0.0
  11
 271.812
  21
 549.657
  31
0.0
   0
LINE
   8
LEVEL001
   6
CONTINUOUS
  62
7
  10
 271.812
  20
 549.657
  30
0.0
  11
 271.853
  21
 549.604
  31
0.0
   0
LINE
   8
LEVEL001
   6
CONTINUOUS
  62
7
  10
 271.853
  20
 549.604
  30
0.0
  11
 271.899
  21
 549.552
  31
0.0
   0
LINE
   8
LEVEL001
   6
CONTINUOUS
  62
7
  10
 271.899
  20
 549.552
  30
0.0
  11
 271.951
  21
 549.500
  31
0.0
   0
LINE
   8
LEVEL001
   6
CONTINUOUS
  62
7
  10
 271.951
  20
 549.500
  30
0.0
  11
 272.009
  21
 549.450
  31
0.0
   0
LINE
   8
LEVEL001
   6
CONTINUOUS
  62
7
  10
 272.009
  20
 549.450
  30
0.0
  11
 272.073
  21
 549.400
  31
0.0
   0
LINE
   8
LEVEL001
   6
CONTINUOUS
  62
7
  10
 272.073
  20
 549.400
  30
0.0
  11
 272.142
  21
 549.352
  31
0.0
   0
LINE
   8
LEVEL001
   6
CONTINUOUS
  62
7
  10
 272.142
  20
 549.352
  30
0.0
  11
 272.217
  21
 549.305
  31
0.0
   0
LINE
   8
LEVEL001
   6
CONTINUOUS
  62
7
  10
 272.217
  20
 549.305
  30
0.0
  11
 272.297
  21
 549.259
  31
0.0
   0
LINE
   8
LEVEL001
   6
CONTINUOUS
  62
7
  10
 272.297
  20
 549.259
  30
0.0
  11
 272.382
  21
 549.215
  31
0.0
   0
LINE
   8
LEVEL001
   6
CONTINUOUS
  62
7
  10
 272.382
  20
 549.215
  30
0.0
  11
 272.472
  21
 549.172
  31
0.0
   0
LINE
   8
LEVEL001
   6
CONTINUOUS
  62
7
  10
 272.472
  20
 549.172
  30
0.0
  11
 272.567
  21
 549.130
  31
0.0
   0
LINE
   8
LEVEL001
   6
CONTINUOUS
  62
7
  10
 272.567
  20
 549.130
  30
0.0
  11
 272.667
  21
 549.091
  31
0.0
   0
LINE
   8
LEVEL001
   6
CONTINUOUS
  62
7
  10
 272.667
  20
 549.091
  30
0.0
  11
 272.771
  21
 549.052
  31
0.0
   0
LINE
   8
LEVEL001
   6
CONTINUOUS
  62
7
  10
 272.771
  20
 549.052
  30
0.0
  11
 272.879
  21
 549.016
  31
0.0
   0
LINE
   8
LEVEL001
   6
CONTINUOUS
  62
7
  10
 272.879
  20
 549.016
  30
0.0
  11
 272.991
  21
 548.982
  31
0.0
   0
LINE
   8
LEVEL001
   6
CONTINUOUS
  62
7
  10
 272.991
  20
 548.982
  30
0.0
  11
 273.107
  21
 548.949
  31
0.0
   0
LINE
   8
LEVEL001
   6
CONTINUOUS
  62
7
  10
 273.107
  20
 548.949
  30
0.0
  11
 273.227
  21
 548.918
  31
0.0
   0
LINE
   8
LEVEL001
   6
CONTINUOUS
  62
7
  10
 273.227
  20
 548.918
  30
0.0
  11
 273.350
  21
 548.890
  31
0.0
   0
LINE
   8
LEVEL001
   6
CONTINUOUS
  62
7
  10
 273.350
  20
 548.890
  30
0.0
  11
 273.476
  21
 548.863
  31
0.0
   0
LINE
   8
LEVEL001
   6
CONTINUOUS
  62
7
  10
 273.476
  20
 548.863
  30
0.0
  11
 273.605
  21
 548.839
  31
0.0
   0
LINE
   8
LEVEL001
   6
CONTINUOUS
  62
7
  10
 273.605
  20
 548.839
  30
0.0
  11
 273.737
  21
 548.817
  31
0.0
   0
LINE
   8
LEVEL001
   6
CONTINUOUS
  62
7
  10
 273.737
  20
 548.817
  30
0.0
  11
 273.871
  21
 548.797
  31
0.0
   0
LINE
   8
LEVEL001
   6
CONTINUOUS
  62
7
  10
 273.871
  20
 548.797
  30
0.0
  11
 274.008
  21
 548.779
  31
0.0
   0
LINE
   8
LEVEL001
   6
CONTINUOUS
  62
7
  10
 274.008
  20
 548.779
  30
0.0
  11
 274.146
  21
 548.764
  31
0.0
   0
LINE
   8
LEVEL001
   6
CONTINUOUS
  62
7
  10
 274.146
  20
 548.764
  30
0.0
  11
 274.286
  21
 548.751
  31
0.0
   0
LINE
   8
LEVEL001
   6
CONTINUOUS
  62
7
  10
 274.286
  20
 548.751
  30
0.0
  11
 274.427
  21
 548.740
  31
0.0
   0
LINE
   8
LEVEL001
   6
CONTINUOUS
  62
7
  10
 274.427
  20
 548.740
  30
0.0
  11
 274.569
  21
 548.731
  31
0.0
   0
LINE
   8
LEVEL001
   6
CONTINUOUS
  62
7
  10
 274.569
  20
 548.731
  30
0.0
  11
 274.712
  21
 548.725
  31
0.0
   0
LINE
   8
LEVEL001
   6
CONTINUOUS
  62
7
  10
 274.712
  20
 548.725
  30
0.0
  11
 274.856
  21
 548.722
  31
0.0
   0
LINE
   8
LEVEL001
   6
CONTINUOUS
  62
7
  10
 274.856
  20
 548.722
  30
0.0
  11
 275.000
  21
 548.721
  31
0.0
   0
LINE
   8
LEVEL001
   6
CONTINUOUS
  62
7
  10
 275.000
  20
 548.721
  30
0.0
  11
 275.144
  21
 548.722
  31
0.0
   0
LINE
   8
LEVEL001
   6
CONTINUOUS
  62
7
  10
 275.144
  20
 548.722
  30
0.0
  11
 275.288
  21
 548.725
  31
0.0
   0
LINE
   8
LEVEL001
   6
CONTINUOUS
  62
7
  10
 275.288
  20
 548.725
  30
0.0
  11
 275.431
  21
 548.731
  31
0.0
   0
LINE
   8
LEVEL001
   6
CONTINUOUS
  62
7
  10
 275.431
  20
 548.731
  30
0.0
  11
 275.573
  21
 548.740
  31
0.0
   0
LINE
   8
LEVEL001
   6
CONTINUOUS
  62
7
  10
 275.573
  20
 548.740
  30
0.0
  11
 275.714
  21
 548.751
  31
0.0
   0
LINE
   8
LEVEL001
   6
CONTINUOUS
  62
7
  10
 275.714
  20
 548.751
  30
0.0
  11
 275.854
  21
 548.764
  31
0.0
   0
LINE
   8
LEVEL001
   6
CONTINUOUS
  62
7
  10
 275.854
  20
 548.764
  30
0.0
  11
 275.992
  21
 548.779
  31
0.0
   0
LINE
   8
LEVEL001
   6
CONTINUOUS
  62
7
  10
 275.992
  20
 548.779
  30
0.0
  11
 276.129
  21
 548.797
  31
0.0
   0
LINE
   8
LEVEL001
   6
CONTINUOUS
  62
7
  10
 276.129
  20
 548.797
  30
0.0
  11
 276.263
  21
 548.817
  31
0.0
   0
LINE
   8
LEVEL001
   6
CONTINUOUS
  62
7
  10
 276.263
  20
 548.817
  30
0.0
  11
 276.395
  21
 548.839
  31
0.0
   0
LINE
   8
LEVEL001
   6
CONTINUOUS
  62
7
  10
 276.395
  20
 548.839
  30
0.0
  11
 276.524
  21
 548.863
  31
0.0
   0
LINE
   8
LEVEL001
   6
CONTINUOUS
  62
7
  10
 276.524
  20
 548.863
  30
0.0
  11
 276.650
  21
 548.890
  31
0.0
   0
LINE
   8
LEVEL001
   6
CONTINUOUS
  62
7
  10
 276.650
  20
 548.890
  30
0.0
  11
 276.773
  21
 548.918
  31
0.0
   0
LINE
   8
LEVEL001
   6
CONTINUOUS
  62
7
  10
 276.773
  20
 548.918
  30
0.0
  11
 276.893
  21
 548.949
  31
0.0
   0
LINE
   8
LEVEL001
   6
CONTINUOUS
  62
7
  10
 276.893
  20
 548.949
  30
0.0
  11
 277.009
  21
 548.982
  31
0.0
   0
LINE
   8
LEVEL001
   6
CONTINUOUS
  62
7
  10
 277.009
  20
 548.982
  30
0.0
  11
 277.121
  21
 549.016
  31
0.0
   0
LINE
   8
LEVEL001
   6
CONTINUOUS
  62
7
  10
 277.121
  20
 549.016
  30
0.0
  11
 277.229
  21
 549.052
  31
0.0
   0
LINE
   8
LEVEL001
   6
CONTINUOUS
  62
7
  10
 277.229
  20
 549.052
  30
0.0
  11
 277.333
  21
 549.091
  31
0.0
   0
LINE
   8
LEVEL001
   6
CONTINUOUS
  62
7
  10
 277.333
  20
 549.091
  30
0.0
  11
 277.433
  21
 549.130
  31
0.0
   0
LINE
   8
LEVEL001
   6
CONTINUOUS
  62
7
  10
 277.433
  20
 549.130
  30
0.0
  11
 277.528
  21
 549.172
  31
0.0
   0
LINE
   8
LEVEL001
   6
CONTINUOUS
  62
7
  10
 277.528
  20
 549.172
  30
0.0
  11
 277.618
  21
 549.215
  31
0.0
   0
LINE
   8
LEVEL001
   6
CONTINUOUS
  62
7
  10
 277.618
  20
 549.215
  30
0.0
  11
 277.703
  21
 549.259
  31
0.0
   0
LINE
   8
LEVEL001
   6
CONTINUOUS
  62
7
  10
 277.703
  20
 549.259
  30
0.0
  11
 277.783
  21
 549.305
  31
0.0
   0
LINE
   8
LEVEL001
   6
CONTINUOUS
  62
7
  10
 277.783
  20
 549.305
  30
0.0
  11
 277.858
  21
 549.352
  31
0.0
   0
LINE
   8
LEVEL001
   6
CONTINUOUS
  62
7
  10
 277.858
  20
 549.352
  30
0.0
  11
 277.927
  21
 549.400
  31
0.0
   0
LINE
   8
LEVEL001
   6
CONTINUOUS
  62
7
  10
 277.927
  20
 549.400
  30
0.0
  11
 277.991
  21
 549.450
  31
0.0
   0
LINE
   8
LEVEL001
   6
CONTINUOUS
  62
7
  10
 277.991
  20
 549.450
  30
0.0
  11
 278.049
  21
 549.500
  31
0.0
   0
LINE
   8
LEVEL001
   6
CONTINUOUS
  62
7
  10
 278.049
  20
 549.500
  30
0.0
  11
 278.101
  21
 549.552
  31
0.0
   0
LINE
   8
LEVEL001
   6
CONTINUOUS
  62
7
  10
 278.101
  20
 549.552
  30
0.0
  11
 278.147
  21
 549.604
  31
0.0
   0
LINE
   8
LEVEL001
   6
CONTINUOUS
  62
7
  10
 278.147
  20
 549.604
  30
0.0
  11
 278.188
  21
 549.657
  31
0.0
   0
LINE
   8
LEVEL001
   6
CONTINUOUS
  62
7
  10
 278.188
  20
 549.657
  30
0.0
  11
 278.222
  21
 549.710
  31
0.0
   0
LINE
   8
LEVEL001
   6
CONTINUOUS
  62
7
  10
 278.222
  20
 549.710
  30
0.0
  11
 278.250
  21
 549.764
  31
0.0
   0
LINE
   8
LEVEL001
   6
CONTINUOUS
  62
7
  10
 278.250
  20
 549.764
  30
0.0
  11
 278.272
  21
 549.819
  31
0.0
   0
LINE
   8
LEVEL001
   6
CONTINUOUS
  62
7
  10
 278.272
  20
 549.819
  30
0.0
  11
 278.287
  21
 549.873
  31
0.0
   0
LINE
   8
LEVEL001
   6
CONTINUOUS
  62
7
  10
 278.287
  20
 549.873
  30
0.0
  11
 278.297
  21
 549.928
  31
0.0
   0
LINE
   8
LEVEL001
   6
CONTINUOUS
  62
7
  10
 278.297
  20
 549.928
  30
0.0
  11
 278.300
  21
 549.983
  31
0.0
   0
LINE
   8
LEVEL001
   6
CONTINUOUS
  62
7
  10
 271.700
  20
 549.983
  30
0.0
  11
 272.602
  21
 552.517
  31
0.0
   0
LINE
   8
LEVEL001
   6
CONTINUOUS
  62
7
  10
 278.297
  20
 549.928
  30
0.0
  11
 277.391
  21
 552.557
  31
0.0
   0
LINE
   8
LEVEL001
   6
CONTINUOUS
  62
7
  10
 272.120
  20
 548.334
  30
0.0
  11
 272.123
  21
 548.286
  31
0.0
   0
LINE
   8
LEVEL001
   6
CONTINUOUS
  62
7
  10
 272.123
  20
 548.286
  30
0.0
  11
 272.131
  21
 548.238
  31
0.0
   0
LINE
   8
LEVEL001
   6
CONTINUOUS
  62
7
  10
 272.131
  20
 548.238
  30
0.0
  11
 272.145
  21
 548.190
  31
0.0
   0
LINE
   8
LEVEL001
   6
CONTINUOUS
  62
7
  10
 272.145
  20
 548.190
  30
0.0
  11
 272.164
  21
 548.142
  31
0.0
   0
LINE
   8
LEVEL001
   6
CONTINUOUS
  62
7
  10
 272.164
  20
 548.142
  30
0.0
  11
 272.188
  21
 548.095
  31
0.0
   0
LINE
   8
LEVEL001
   6
CONTINUOUS
  62
7
  10
 272.188
  20
 548.095
  30
0.0
  11
 272.218
  21
 548.048
  31
0.0
   0
LINE
   8
LEVEL001
   6
CONTINUOUS
  62
7
  10
 272.218
  20
 548.048
  30
0.0
  11
 272.253
  21
 548.002
  31
0.0
   0
LINE
   8
LEVEL001
   6
CONTINUOUS
  62
7
  10
 272.253
  20
 548.002
  30
0.0
  11
 272.294
  21
 547.957
  31
0.0
   0
LINE
   8
LEVEL001
   6
CONTINUOUS
  62
7
  10
 272.294
  20
 547.957
  30
0.0
  11
 272.339
  21
 547.912
  31
0.0
   0
LINE
   8
LEVEL001
   6
CONTINUOUS
  62
7
  10
 272.339
  20
 547.912
  30
0.0
  11
 272.390
  21
 547.868
  31
0.0
   0
LINE
   8
LEVEL001
   6
CONTINUOUS
  62
7
  10
 272.390
  20
 547.868
  30
0.0
  11
 272.445
  21
 547.825
  31
0.0
   0
LINE
   8
LEVEL001
   6
CONTINUOUS
  62
7
  10
 272.445
  20
 547.825
  30
0.0
  11
 272.506
  21
 547.783
  31
0.0
   0
LINE
   8
LEVEL001
   6
CONTINUOUS
  62
7
  10
 272.506
  20
 547.783
  30
0.0
  11
 272.571
  21
 547.741
  31
0.0
   0
LINE
   8
LEVEL001
   6
CONTINUOUS
  62
7
  10
 272.571
  20
 547.741
  30
0.0
  11
 272.641
  21
 547.701
  31
0.0
   0
LINE
   8
LEVEL001
   6
CONTINUOUS
  62
7
  10
 272.641
  20
 547.701
  30
0.0
  11
 272.715
  21
 547.663
  31
0.0
   0
LINE
   8
LEVEL001
   6
CONTINUOUS
  62
7
  10
 272.715
  20
 547.663
  30
0.0
  11
 272.794
  21
 547.625
  31
0.0
   0
LINE
   8
LEVEL001
   6
CONTINUOUS
  62
7
  10
 272.794
  20
 547.625
  30
0.0
  11
 272.877
  21
 547.589
  31
0.0
   0
LINE
   8
LEVEL001
   6
CONTINUOUS
  62
7
  10
 272.877
  20
 547.589
  30
0.0
  11
 272.964
  21
 547.554
  31
0.0
   0
LINE
   8
LEVEL001
   6
CONTINUOUS
  62
7
  10
 272.964
  20
 547.554
  30
0.0
  11
 273.054
  21
 547.521
  31
0.0
   0
LINE
   8
LEVEL001
   6
CONTINUOUS
  62
7
  10
 273.054
  20
 547.521
  30
0.0
  11
 273.149
  21
 547.489
  31
0.0
   0
LINE
   8
LEVEL001
   6
CONTINUOUS
  62
7
  10
 273.149
  20
 547.489
  30
0.0
  11
 273.247
  21
 547.459
  31
0.0
   0
LINE
   8
LEVEL001
   6
CONTINUOUS
  62
7
  10
 273.247
  20
 547.459
  30
0.0
  11
 273.348
  21
 547.431
  31
0.0
   0
LINE
   8
LEVEL001
   6
CONTINUOUS
  62
7
  10
 273.348
  20
 547.431
  30
0.0
  11
 273.453
  21
 547.404
  31
0.0
   0
LINE
   8
LEVEL001
   6
CONTINUOUS
  62
7
  10
 273.453
  20
 547.404
  30
0.0
  11
 273.560
  21
 547.379
  31
0.0
   0
LINE
   8
LEVEL001
   6
CONTINUOUS
  62
7
  10
 273.560
  20
 547.379
  30
0.0
  11
 273.670
  21
 547.356
  31
0.0
   0
LINE
   8
LEVEL001
   6
CONTINUOUS
  62
7
  10
 273.670
  20
 547.356
  30
0.0
  11
 273.783
  21
 547.335
  31
0.0
   0
LINE
   8
LEVEL001
   6
CONTINUOUS
  62
7
  10
 273.783
  20
 547.335
  30
0.0
  11
 273.898
  21
 547.315
  31
0.0
   0
LINE
   8
LEVEL001
   6
CONTINUOUS
  62
7
  10
 273.898
  20
 547.315
  30
0.0
  11
 274.015
  21
 547.298
  31
0.0
   0
LINE
   8
LEVEL001
   6
CONTINUOUS
  62
7
  10
 274.015
  20
 547.298
  30
0.0
  11
 274.134
  21
 547.283
  31
0.0
   0
LINE
   8
LEVEL001
   6
CONTINUOUS
  62
7
  10
 274.134
  20
 547.283
  30
0.0
  11
 274.255
  21
 547.269
  31
0.0
   0
LINE
   8
LEVEL001
   6
CONTINUOUS
  62
7
  10
 274.255
  20
 547.269
  30
0.0
  11
 274.377
  21
 547.258
  31
0.0
   0
LINE
   8
LEVEL001
   6
CONTINUOUS
  62
7
  10
 274.377
  20
 547.258
  30
0.0
  11
 274.500
  21
 547.248
  31
0.0
   0
LINE
   8
LEVEL001
   6
CONTINUOUS
  62
7
  10
 274.500
  20
 547.248
  30
0.0
  11
 274.624
  21
 547.241
  31
0.0
   0
LINE
   8
LEVEL001
   6
CONTINUOUS
  62
7
  10
 274.624
  20
 547.241
  30
0.0
  11
 274.749
  21
 547.236
  31
0.0
   0
LINE
   8
LEVEL001
   6
CONTINUOUS
  62
7
  10
 274.749
  20
 547.236
  30
0.0
  11
 274.874
  21
 547.233
  31
0.0
   0
LINE
   8
LEVEL001
   6
CONTINUOUS
  62
7
  10
 274.874
  20
 547.233
  30
0.0
  11
 275.000
  21
 547.232
  31
0.0
   0
LINE
   8
LEVEL001
   6
CONTINUOUS
  62
7
  10
 275.000
  20
 547.232
  30
0.0
  11
 275.126
  21
 547.233
  31
0.0
   0
LINE
   8
LEVEL001
   6
CONTINUOUS
  62
7
  10
 275.126
  20
 547.233
  30
0.0
  11
 275.251
  21
 547.236
  31
0.0
   0
LINE
   8
LEVEL001
   6
CONTINUOUS
  62
7
  10
 275.251
  20
 547.236
  30
0.0
  11
 275.376
  21
 547.241
  31
0.0
   0
LINE
   8
LEVEL001
   6
CONTINUOUS
  62
7
  10
 275.376
  20
 547.241
  30
0.0
  11
 275.500
  21
 547.248
  31
0.0
   0
LINE
   8
LEVEL001
   6
CONTINUOUS
  62
7
  10
 275.500
  20
 547.248
  30
0.0
  11
 275.623
  21
 547.258
  31
0.0
   0
LINE
   8
LEVEL001
   6
CONTINUOUS
  62
7
  10
 275.623
  20
 547.258
  30
0.0
  11
 275.745
  21
 547.269
  31
0.0
   0
LINE
   8
LEVEL001
   6
CONTINUOUS
  62
7
  10
 275.745
  20
 547.269
  30
0.0
  11
 275.866
  21
 547.283
  31
0.0
   0
LINE
   8
LEVEL001
   6
CONTINUOUS
  62
7
  10
 275.866
  20
 547.283
  30
0.0
  11
 275.985
  21
 547.298
  31
0.0
   0
LINE
   8
LEVEL001
   6
CONTINUOUS
  62
7
  10
 275.985
  20
 547.298
  30
0.0
  11
 276.102
  21
 547.315
  31
0.0
   0
LINE
   8
LEVEL001
   6
CONTINUOUS
  62
7
  10
 276.102
  20
 547.315
  30
0.0
  11
 276.217
  21
 547.335
  31
0.0
   0
LINE
   8
LEVEL001
   6
CONTINUOUS
  62
7
  10
 276.217
  20
 547.335
  30
0.0
  11
 276.330
  21
 547.356
  31
0.0
   0
LINE
   8
LEVEL001
   6
CONTINUOUS
  62
7
  10
 276.330
  20
 547.356
  30
0.0
  11
 276.440
  21
 547.379
  31
0.0
   0
LINE
   8
LEVEL001
   6
CONTINUOUS
  62
7
  10
 276.440
  20
 547.379
  30
0.0
  11
 276.547
  21
 547.404
  31
0.0
   0
LINE
   8
LEVEL001
   6
CONTINUOUS
  62
7
  10
 276.547
  20
 547.404
  30
0.0
  11
 276.652
  21
 547.431
  31
0.0
   0
LINE
   8
LEVEL001
   6
CONTINUOUS
  62
7
  10
 276.652
  20
 547.431
  30
0.0
  11
 276.753
  21
 547.459
  31
0.0
   0
LINE
   8
LEVEL001
   6
CONTINUOUS
  62
7
  10
 276.753
  20
 547.459
  30
0.0
  11
 276.851
  21
 547.489
  31
0.0
   0
LINE
   8
LEVEL001
   6
CONTINUOUS
  62
7
  10
 276.851
  20
 547.489
  30
0.0
  11
 276.946
  21
 547.521
  31
0.0
   0
LINE
   8
LEVEL001
   6
CONTINUOUS
  62
7
  10
 276.946
  20
 547.521
  30
0.0
  11
 277.036
  21
 547.554
  31
0.0
   0
LINE
   8
LEVEL001
   6
CONTINUOUS
  62
7
  10
 277.036
  20
 547.554
  30
0.0
  11
 277.123
  21
 547.589
  31
0.0
   0
LINE
   8
LEVEL001
   6
CONTINUOUS
  62
7
  10
 277.123
  20
 547.589
  30
0.0
  11
 277.206
  21
 547.625
  31
0.0
   0
LINE
   8
LEVEL001
   6
CONTINUOUS
  62
7
  10
 277.206
  20
 547.625
  30
0.0
  11
 277.285
  21
 547.663
  31
0.0
   0
LINE
   8
LEVEL001
   6
CONTINUOUS
  62
7
  10
 277.285
  20
 547.663
  30
0.0
  11
 277.359
  21
 547.701
  31
0.0
   0
LINE
   8
LEVEL001
   6
CONTINUOUS
  62
7
  10
 277.359
  20
 547.701
  30
0.0
  11
 277.429
  21
 547.741
  31
0.0
   0
LINE
   8
LEVEL001
   6
CONTINUOUS
  62
7
  10
 277.429
  20
 547.741
  30
0.0
  11
 277.494
  21
 547.783
  31
0.0
   0
LINE
   8
LEVEL001
   6
CONTINUOUS
  62
7
  10
 277.494
  20
 547.783
  30
0.0
  11
 277.555
  21
 547.825
  31
0.0
   0
LINE
   8
LEVEL001
   6
CONTINUOUS
  62
7
  10
 277.555
  20
 547.825
  30
0.0
  11
 277.610
  21
 547.868
  31
0.0
   0
LINE
   8
LEVEL001
   6
CONTINUOUS
  62
7
  10
 277.610
  20
 547.868
  30
0.0
  11
 277.661
  21
 547.912
  31
0.0
   0
LINE
   8
LEVEL001
   6
CONTINUOUS
  62
7
  10
 277.661
  20
 547.912
  30
0.0
  11
 277.706
  21
 547.957
  31
0.0
   0
LINE
   8
LEVEL001
   6
CONTINUOUS
  62
7
  10
 277.706
  20
 547.957
  30
0.0
  11
 277.747
  21
 548.002
  31
0.0
   0
LINE
   8
LEVEL001
   6
CONTINUOUS
  62
7
  10
 277.747
  20
 548.002
  30
0.0
  11
 277.782
  21
 548.048
  31
0.0
   0
LINE
   8
LEVEL001
   6
CONTINUOUS
  62
7
  10
 277.782
  20
 548.048
  30
0.0
  11
 277.812
  21
 548.095
  31
0.0
   0
LINE
   8
LEVEL001
   6
CONTINUOUS
  62
7
  10
 277.812
  20
 548.095
  30
0.0
  11
 277.836
  21
 548.142
  31
0.0
   0
LINE
   8
LEVEL001
   6
CONTINUOUS
  62
7
  10
 277.836
  20
 548.142
  30
0.0
  11
 277.855
  21
 548.190
  31
0.0
   0
LINE
   8
LEVEL001
   6
CONTINUOUS
  62
7
  10
 277.855
  20
 548.190
  30
0.0
  11
 277.869
  21
 548.238
  31
0.0
   0
LINE
   8
LEVEL001
   6
CONTINUOUS
  62
7
  10
 277.869
  20
 548.238
  30
0.0
  11
 277.877
  21
 548.286
  31
0.0
   0
LINE
   8
LEVEL001
   6
CONTINUOUS
  62
7
  10
 277.877
  20
 548.286
  30
0.0
  11
 277.880
  21
 548.334
  31
0.0
   0
LINE
   8
LEVEL001
   6
CONTINUOUS
  62
7
  10
 271.540
  20
 547.212
  30
0.0
  11
 271.543
  21
 547.154
  31
0.0
   0
LINE
   8
LEVEL001
   6
CONTINUOUS
  62
7
  10
 271.543
  20
 547.154
  30
0.0
  11
 271.553
  21
 547.096
  31
0.0
   0
LINE
   8
LEVEL001
   6
CONTINUOUS
  62
7
  10
 271.553
  20
 547.096
  30
0.0
  11
 271.570
  21
 547.039
  31
0.0
   0
LINE
   8
LEVEL001
   6
CONTINUOUS
  62
7
  10
 271.570
  20
 547.039
  30
0.0
  11
 271.593
  21
 546.982
  31
0.0
   0
LINE
   8
LEVEL001
   6
CONTINUOUS
  62
7
  10
 271.593
  20
 546.982
  30
0.0
  11
 271.622
  21
 546.925
  31
0.0
   0
LINE
   8
LEVEL001
   6
CONTINUOUS
  62
7
  10
 271.622
  20
 546.925
  30
0.0
  11
 271.658
  21
 546.869
  31
0.0
   0
LINE
   8
LEVEL001
   6
CONTINUOUS
  62
7
  10
 271.658
  20
 546.869
  30
0.0
  11
 271.700
  21
 546.814
  31
0.0
   0
LINE
   8
LEVEL001
   6
CONTINUOUS
  62
7
  10
 271.700
  20
 546.814
  30
0.0
  11
 271.749
  21
 546.759
  31
0.0
   0
LINE
   8
LEVEL001
   6
CONTINUOUS
  62
7
  10
 271.749
  20
 546.759
  30
0.0
  11
 271.803
  21
 546.705
  31
0.0
   0
LINE
   8
LEVEL001
   6
CONTINUOUS
  62
7
  10
 271.803
  20
 546.705
  30
0.0
  11
 271.864
  21
 546.652
  31
0.0
   0
LINE
   8
LEVEL001
   6
CONTINUOUS
  62
7
  10
 271.864
  20
 546.652
  30
0.0
  11
 271.931
  21
 546.600
  31
0.0
   0
LINE
   8
LEVEL001
   6
CONTINUOUS
  62
7
  10
 271.931
  20
 546.600
  30
0.0
  11
 272.004
  21
 546.550
  31
0.0
   0
LINE
   8
LEVEL001
   6
CONTINUOUS
  62
7
  10
 272.004
  20
 546.550
  30
0.0
  11
 272.082
  21
 546.500
  31
0.0
   0
LINE
   8
LEVEL001
   6
CONTINUOUS
  62
7
  10
 272.082
  20
 546.500
  30
0.0
  11
 272.166
  21
 546.452
  31
0.0
   0
LINE
   8
LEVEL001
   6
CONTINUOUS
  62
7
  10
 272.166
  20
 546.452
  30
0.0
  11
 272.255
  21
 546.406
  31
0.0
   0
LINE
   8
LEVEL001
   6
CONTINUOUS
  62
7
  10
 272.255
  20
 546.406
  30
0.0
  11
 272.349
  21
 546.361
  31
0.0
   0
LINE
   8
LEVEL001
   6
CONTINUOUS
  62
7
  10
 272.349
  20
 546.361
  30
0.0
  11
 272.449
  21
 546.317
  31
0.0
   0
LINE
   8
LEVEL001
   6
CONTINUOUS
  62
7
  10
 272.449
  20
 546.317
  30
0.0
  11
 272.553
  21
 546.276
  31
0.0
   0
LINE
   8
LEVEL001
   6
CONTINUOUS
  62
7
  10
 272.553
  20
 546.276
  30
0.0
  11
 272.662
  21
 546.236
  31
0.0
   0
LINE
   8
LEVEL001
   6
CONTINUOUS
  62
7
  10
 272.662
  20
 546.236
  30
0.0
  11
 272.776
  21
 546.198
  31
0.0
   0
LINE
   8
LEVEL001
   6
CONTINUOUS
  62
7
  10
 272.776
  20
 546.198
  30
0.0
  11
 272.894
  21
 546.161
  31
0.0
   0
LINE
   8
LEVEL001
   6
CONTINUOUS
  62
7
  10
 272.894
  20
 546.161
  30
0.0
  11
 273.015
  21
 546.127
  31
0.0
   0
LINE
   8
LEVEL001
   6
CONTINUOUS
  62
7
  10
 273.015
  20
 546.127
  30
0.0
  11
 273.141
  21
 546.095
  31
0.0
   0
LINE
   8
LEVEL001
   6
CONTINUOUS
  62
7
  10
 273.141
  20
 546.095
  30
0.0
  11
 273.270
  21
 546.065
  31
0.0
   0
LINE
   8
LEVEL001
   6
CONTINUOUS
  62
7
  10
 273.270
  20
 546.065
  30
0.0
  11
 273.402
  21
 546.037
  31
0.0
   0
LINE
   8
LEVEL001
   6
CONTINUOUS
  62
7
  10
 273.402
  20
 546.037
  30
0.0
  11
 273.538
  21
 546.012
  31
0.0
   0
LINE
   8
LEVEL001
   6
CONTINUOUS
  62
7
  10
 273.538
  20
 546.012
  30
0.0
  11
 273.676
  21
 545.989
  31
0.0
   0
LINE
   8
LEVEL001
   6
CONTINUOUS
  62
7
  10
 273.676
  20
 545.989
  30
0.0
  11
 273.817
  21
 545.968
  31
0.0
   0
LINE
   8
LEVEL001
   6
CONTINUOUS
  62
7
  10
 273.817
  20
 545.968
  30
0.0
  11
 273.960
  21
 545.949
  31
0.0
   0
LINE
   8
LEVEL001
   6
CONTINUOUS
  62
7
  10
 273.960
  20
 545.949
  30
0.0
  11
 274.104
  21
 545.933
  31
0.0
   0
LINE
   8
LEVEL001
   6
CONTINUOUS
  62
7
  10
 274.104
  20
 545.933
  30
0.0
  11
 274.251
  21
 545.919
  31
0.0
   0
LINE
   8
LEVEL001
   6
CONTINUOUS
  62
7
  10
 274.251
  20
 545.919
  30
0.0
  11
 274.399
  21
 545.908
  31
0.0
   0
LINE
   8
LEVEL001
   6
CONTINUOUS
  62
7
  10
 274.399
  20
 545.908
  30
0.0
  11
 274.548
  21
 545.899
  31
0.0
   0
LINE
   8
LEVEL001
   6
CONTINUOUS
  62
7
  10
 274.548
  20
 545.899
  30
0.0
  11
 274.698
  21
 545.893
  31
0.0
   0
LINE
   8
LEVEL001
   6
CONTINUOUS
  62
7
  10
 274.698
  20
 545.893
  30
0.0
  11
 274.849
  21
 545.889
  31
0.0
   0
LINE
   8
LEVEL001
   6
CONTINUOUS
  62
7
  10
 274.849
  20
 545.889
  30
0.0
  11
 275.000
  21
 545.888
  31
0.0
   0
LINE
   8
LEVEL001
   6
CONTINUOUS
  62
7
  10
 275.000
  20
 545.888
  30
0.0
  11
 275.151
  21
 545.889
  31
0.0
   0
LINE
   8
LEVEL001
   6
CONTINUOUS
  62
7
  10
 275.151
  20
 545.889
  30
0.0
  11
 275.302
  21
 545.893
  31
0.0
   0
LINE
   8
LEVEL001
   6
CONTINUOUS
  62
7
  10
 275.302
  20
 545.893
  30
0.0
  11
 275.452
  21
 545.899
  31
0.0
   0
LINE
   8
LEVEL001
   6
CONTINUOUS
  62
7
  10
 275.452
  20
 545.899
  30
0.0
  11
 275.601
  21
 545.908
  31
0.0
   0
LINE
   8
LEVEL001
   6
CONTINUOUS
  62
7
  10
 275.601
  20
 545.908
  30
0.0
  11
 275.749
  21
 545.919
  31
0.0
   0
LINE
   8
LEVEL001
   6
CONTINUOUS
  62
7
  10
 275.749
  20
 545.919
  30
0.0
  11
 275.896
  21
 545.933
  31
0.0
   0
LINE
   8
LEVEL001
   6
CONTINUOUS
  62
7
  10
 275.896
  20
 545.933
  30
0.0
  11
 276.040
  21
 545.949
  31
0.0
   0
LINE
   8
LEVEL001
   6
CONTINUOUS
  62
7
  10
 276.040
  20
 545.949
  30
0.0
  11
 276.183
  21
 545.968
  31
0.0
   0
LINE
   8
LEVEL001
   6
CONTINUOUS
  62
7
  10
 276.183
  20
 545.968
  30
0.0
  11
 276.324
  21
 545.989
  31
0.0
   0
LINE
   8
LEVEL001
   6
CONTINUOUS
  62
7
  10
 276.324
  20
 545.989
  30
0.0
  11
 276.462
  21
 546.012
  31
0.0
   0
LINE
   8
LEVEL001
   6
CONTINUOUS
  62
7
  10
 276.462
  20
 546.012
  30
0.0
  11
 276.598
  21
 546.037
  31
0.0
   0
LINE
   8
LEVEL001
   6
CONTINUOUS
  62
7
  10
 276.598
  20
 546.037
  30
0.0
  11
 276.730
  21
 546.065
  31
0.0
   0
LINE
   8
LEVEL001
   6
CONTINUOUS
  62
7
  10
 276.730
  20
 546.065
  30
0.0
  11
 276.859
  21
 546.095
  31
0.0
   0
LINE
   8
LEVEL001
   6
CONTINUOUS
  62
7
  10
 276.859
  20
 546.095
  30
0.0
  11
 276.985
  21
 546.127
  31
0.0
   0
LINE
   8
LEVEL001
   6
CONTINUOUS
  62
7
  10
 276.985
  20
 546.127
  30
0.0
  11
 277.106
  21
 546.161
  31
0.0
   0
LINE
   8
LEVEL001
   6
CONTINUOUS
  62
7
  10
 277.106
  20
 546.161
  30
0.0
  11
 277.224
  21
 546.198
  31
0.0
   0
LINE
   8
LEVEL001
   6
CONTINUOUS
  62
7
  10
 277.224
  20
 546.198
  30
0.0
  11
 277.338
  21
 546.236
  31
0.0
   0
LINE
   8
LEVEL001
   6
CONTINUOUS
  62
7
  10
 277.338
  20
 546.236
  30
0.0
  11
 277.447
  21
 546.276
  31
0.0
   0
LINE
   8
LEVEL001
   6
CONTINUOUS
  62
7
  10
 277.447
  20
 546.276
  30
0.0
  11
 277.551
  21
 546.317
  31
0.0
   0
LINE
   8
LEVEL001
   6
CONTINUOUS
  62
7
  10
 277.551
  20
 546.317
  30
0.0
  11
 277.651
  21
 546.361
  31
0.0
   0
LINE
   8
LEVEL001
   6
CONTINUOUS
  62
7
  10
 277.651
  20
 546.361
  30
0.0
  11
 277.745
  21
 546.406
  31
0.0
   0
LINE
   8
LEVEL001
   6
CONTINUOUS
  62
7
  10
 277.745
  20
 546.406
  30
0.0
  11
 277.834
  21
 546.452
  31
0.0
   0
LINE
   8
LEVEL001
   6
CONTINUOUS
  62
7
  10
 277.834
  20
 546.452
  30
0.0
  11
 277.918
  21
 546.500
  31
0.0
   0
LINE
   8
LEVEL001
   6
CONTINUOUS
  62
7
  10
 277.918
  20
 546.500
  30
0.0
  11
 277.996
  21
 546.550
  31
0.0
   0
LINE
   8
LEVEL001
   6
CONTINUOUS
  62
7
  10
 277.996
  20
 546.550
  30
0.0
  11
 278.069
  21
 546.600
  31
0.0
   0
LINE
   8
LEVEL001
   6
CONTINUOUS
  62
7
  10
 278.069
  20
 546.600
  30
0.0
  11
 278.136
  21
 546.652
  31
0.0
   0
LINE
   8
LEVEL001
   6
CONTINUOUS
  62
7
  10
 278.136
  20
 546.652
  30
0.0
  11
 278.197
  21
 546.705
  31
0.0
   0
LINE
   8
LEVEL001
   6
CONTINUOUS
  62
7
  10
 278.197
  20
 546.705
  30
0.0
  11
 278.251
  21
 546.759
  31
0.0
   0
LINE
   8
LEVEL001
   6
CONTINUOUS
  62
7
  10
 278.251
  20
 546.759
  30
0.0
  11
 278.300
  21
 546.814
  31
0.0
   0
LINE
   8
LEVEL001
   6
CONTINUOUS
  62
7
  10
 278.300
  20
 546.814
  30
0.0
  11
 278.342
  21
 546.869
  31
0.0
   0
LINE
   8
LEVEL001
   6
CONTINUOUS
  62
7
  10
 278.342
  20
 546.869
  30
0.0
  11
 278.378
  21
 546.925
  31
0.0
   0
LINE
   8
LEVEL001
   6
CONTINUOUS
  62
7
  10
 278.378
  20
 546.925
  30
0.0
  11
 278.407
  21
 546.982
  31
0.0
   0
LINE
   8
LEVEL001
   6
CONTINUOUS
  62
7
  10
 278.407
  20
 546.982
  30
0.0
  11
 278.430
  21
 547.039
  31
0.0
   0
LINE
   8
LEVEL001
   6
CONTINUOUS
  62
7
  10
 278.430
  20
 547.039
  30
0.0
  11
 278.447
  21
 547.096
  31
0.0
   0
LINE
   8
LEVEL001
   6
CONTINUOUS
  62
7
  10
 278.447
  20
 547.096
  30
0.0
  11
 278.457
  21
 547.154
  31
0.0
   0
LINE
   8
LEVEL001
   6
CONTINUOUS
  62
7
  10
 278.457
  20
 547.154
  30
0.0
  11
 278.460
  21
 547.212
  31
0.0
   0
ARC
   8
LEVEL001
   6
CONTINUOUS
  62
7
  10
 272.061
  20
 550.697
  30
0.0
  40
 6.28019
  50
 337.893
  51
 352.464
   0
ARC
   8
LEVEL001
   6
CONTINUOUS
  62
7
  10
 279.013
  20
 548.209
  30
0.0
  40
 1.13965
  50
 173.696
  51
 240.986
   0
ARC
   8
LEVEL001
   6
CONTINUOUS
  62
7
  10
 277.939
  20
 550.697
  30
0.0
  40
 6.28019
  50
 187.536
  51
 202.107
   0
ARC
   8
LEVEL001
   6
CONTINUOUS
  62
7
  10
 270.987
  20
 548.209
  30
0.0
  40
 1.13965
  50
 299.014
  51
 6.30441
   0
LINE
   8
LEVEL001
   6
CONTINUOUS
  62
7
  10
 278.464
  20
 546.438
  30
0.0
  11
 275.000
  21
 545.665
  31
0.0
   0
LINE
   8
LEVEL001
   6
CONTINUOUS
  62
7
  10
 275.000
  20
 545.665
  30
0.0
  11
 271.536
  21
 546.438
  31
0.0
   0
LINE
   8
LEVEL001
   6
CONTINUOUS
  62
7
  10
 271.536
  20
 547.985
  30
0.0
  11
 272.123
  21
 548.116
  31
0.0
   0
LINE
   8
LEVEL001
   6
CONTINUOUS
  62
7
  10
 277.877
  20
 548.116
  30
0.0
  11
 278.464
  21
 547.985
  31
0.0
   0
LINE
   8
LEVEL001
   6
CONTINUOUS
  62
7
  10
 271.536
  20
 547.985
  30
0.0
  11
 271.536
  21
 544.221
  31
0.0
   0
LINE
   8
LEVEL001
   6
CONTINUOUS
  62
7
  10
 278.464
  20
 544.221
  30
0.0
  11
 278.464
  21
 547.985
  31
0.0
   0
LINE
   8
LEVEL001
   6
CONTINUOUS
  62
7
  10
 271.536
  20
 544.221
  30
0.0
  11
 275.000
  21
 543.448
  31
0.0
   0
LINE
   8
LEVEL001
   6
CONTINUOUS
  62
7
  10
 275.000
  20
 543.448
  30
0.0
  11
 278.464
  21
 544.221
  31
0.0
   0
ARC
   8
LEVEL001
   6
CONTINUOUS
  62
7
  10
 275.000
  20
 540.000
  30
0.0
  40
 6.33000
  50
 123.179
  51
 56.8213
   0
LINE
   8
LEVEL001
   6
CONTINUOUS
  62
7
  10
 283.083
  20
 540.000
  30
0.0
  11
 279.041
  21
 547.000
  31
0.0
   0
LINE
   8
LEVEL001
   6
CONTINUOUS
  62
7
  10
 270.959
  20
 547.000
  30
0.0
  11
 266.917
  21
 540.000
  31
0.0
   0
LINE
   8
LEVEL001
   6
CONTINUOUS
  62
7
  10
 266.917
  20
 540.000
  30
0.0
  11
 270.959
  21
 533.000
  31
0.0
   0
LINE
   8
LEVEL001
   6
CONTINUOUS
  62
7
  10
 270.959
  20
 533.000
  30
0.0
  11
 279.041
  21
 533.000
  31
0.0
   0
LINE
   8
LEVEL001
   6
CONTINUOUS
  62
7
  10
 279.041
  20
 533.000
  30
0.0
  11
 283.083
  21
 540.000
  31
0.0
   0
LINE
   8
LEVEL001
   6
CONTINUOUS
  62
7
  10
 279.041
  20
 547.000
  30
0.0
  11
 278.464
  21
 547.000
  31
0.0
   0
LINE
   8
LEVEL001
   6
CONTINUOUS
  62
7
  10
 271.536
  20
 547.000
  30
0.0
  11
 270.959
  21
 547.000
  31
0.0
   0
LINE
   8
LEVEL001
   6
DASHDOT
  62
1
  10
 440.000
  20
 540.000
  30
0.0
  11
 60.0000
  21
 540.000
  31
0.0
   0
LINE
   8
LEVEL001
   6
DASHDOT
  62
1
  10
 190.000
  20
 485.000
  30
0.0
  11
 190.000
  21
 445.000
  31
0.0
   0
LINE
   8
LEVEL001
   6
DASHDOT
  62
1
  10
 310.000
  20
 485.000
  30
0.0
  11
 310.000
  21
 445.000
  31
0.0
   0
LINE
   8
LEVEL001
   6
DASHDOT
  62
1
  10
 654.000
  20
 580.000
  30
0.0
  11
 654.000
  21
 500.000
  31
0.0
   0
LINE
   8
LEVEL001
   6
DASHDOT
  62
1
  10
 717.538
  20
 540.000
  30
0.0
  11
 591.020
  21
 540.000
  31
0.0
   0
LINE
   8
LEVEL001
   6
DASHDOT
  62
1
  10
 580.000
  20
 485.000
  30
0.0
  11
 580.000
  21
 445.000
  31
0.0
   0
LINE
   8
LEVEL001
   6
DASHDOT
  62
1
  10
 865.000
  20
 485.000
  30
0.0
  11
 865.000
  21
 445.000
  31
0.0
   0
LINE
   8
LEVEL001
   6
CONTINUOUS
  62
7
  10
 308.083
  20
 953.398
  30
0.0
  11
 304.041
  21
 946.397
  31
0.0
   0
LINE
   8
LEVEL001
   6
CONTINUOUS
  62
7
  10
 304.042
  20
 960.397
  30
0.0
  11
 308.083
  21
 953.398
  31
0.0
   0
LINE
   8
LEVEL001
   6
CONTINUOUS
  62
7
  10
 295.958
  20
 960.398
  30
0.0
  11
 304.042
  21
 960.397
  31
0.0
   0
LINE
   8
LEVEL001
   6
CONTINUOUS
  62
7
  10
 291.917
  20
 953.397
  30
0.0
  11
 295.958
  21
 960.398
  31
0.0
   0
LINE
   8
LEVEL001
   6
CONTINUOUS
  62
7
  10
 295.958
  20
 946.398
  30
0.0
  11
 291.917
  21
 953.397
  31
0.0
   0
LINE
   8
LEVEL001
   6
CONTINUOUS
  62
7
  10
 304.041
  20
 946.397
  30
0.0
  11
 295.958
  21
 946.398
  31
0.0
   0
LINE
   8
LEVEL001
   6
CONTINUOUS
  62
7
  10
 354.042
  20
 1047.00
  30
0.0
  11
 358.083
  21
 1040.00
  31
0.0
   0
LINE
   8
LEVEL001
   6
CONTINUOUS
  62
7
  10
 345.959
  20
 1047.00
  30
0.0
  11
 354.042
  21
 1047.00
  31
0.0
   0
LINE
   8
LEVEL001
   6
CONTINUOUS
  62
7
  10
 341.918
  20
 1040.00
  30
0.0
  11
 345.959
  21
 1047.00
  31
0.0
   0
LINE
   8
LEVEL001
   6
CONTINUOUS
  62
7
  10
 345.959
  20
 1033.00
  30
0.0
  11
 341.918
  21
 1040.00
  31
0.0
   0
LINE
   8
LEVEL001
   6
CONTINUOUS
  62
7
  10
 354.042
  20
 1033.00
  30
0.0
  11
 345.959
  21
 1033.00
  31
0.0
   0
LINE
   8
LEVEL001
   6
CONTINUOUS
  62
7
  10
 358.083
  20
 1040.00
  30
0.0
  11
 354.042
  21
 1033.00
  31
0.0
   0
LINE
   8
LEVEL001
   6
CONTINUOUS
  62
7
  10
 280.723
  20
 890.379
  30
0.0
  11
 280.720
  21
 890.465
  31
0.0
   0
LINE
   8
LEVEL001
   6
CONTINUOUS
  62
7
  10
 281.606
  20
 889.495
  30
0.0
  11
 280.723
  21
 890.379
  31
0.0
   0
LINE
   8
LEVEL001
   6
CONTINUOUS
  62
7
  10
 273.051
  20
 872.533
  30
0.0
  11
 273.342
  21
 872.357
  31
0.0
   0
LINE
   8
LEVEL001
   6
CONTINUOUS
  62
7
  10
 272.734
  20
 872.777
  30
0.0
  11
 273.051
  21
 872.533
  31
0.0
   0
LINE
   8
LEVEL001
   6
CONTINUOUS
  62
7
  10
 272.453
  20
 873.055
  30
0.0
  11
 272.734
  21
 872.777
  31
0.0
   0
LINE
   8
LEVEL001
   6
CONTINUOUS
  62
7
  10
 272.211
  20
 873.363
  30
0.0
  11
 272.453
  21
 873.055
  31
0.0
   0
LINE
   8
LEVEL001
   6
CONTINUOUS
  62
7
  10
 272.013
  20
 873.697
  30
0.0
  11
 272.211
  21
 873.363
  31
0.0
   0
LINE
   8
LEVEL001
   6
CONTINUOUS
  62
7
  10
 271.861
  20
 874.052
  30
0.0
  11
 272.013
  21
 873.697
  31
0.0
   0
LINE
   8
LEVEL001
   6
CONTINUOUS
  62
7
  10
 271.759
  20
 874.420
  30
0.0
  11
 271.861
  21
 874.052
  31
0.0
   0
LINE
   8
LEVEL001
   6
CONTINUOUS
  62
7
  10
 271.707
  20
 874.798
  30
0.0
  11
 271.759
  21
 874.420
  31
0.0
   0
LINE
   8
LEVEL001
   6
CONTINUOUS
  62
7
  10
 271.706
  20
 875.179
  30
0.0
  11
 271.707
  21
 874.798
  31
0.0
   0
LINE
   8
LEVEL001
   6
CONTINUOUS
  62
7
  10
 271.757
  20
 875.557
  30
0.0
  11
 271.706
  21
 875.179
  31
0.0
   0
LINE
   8
LEVEL001
   6
CONTINUOUS
  62
7
  10
 271.858
  20
 875.926
  30
0.0
  11
 271.757
  21
 875.557
  31
0.0
   0
LINE
   8
LEVEL001
   6
CONTINUOUS
  62
7
  10
 272.009
  20
 876.281
  30
0.0
  11
 271.858
  21
 875.926
  31
0.0
   0
LINE
   8
LEVEL001
   6
CONTINUOUS
  62
7
  10
 272.206
  20
 876.615
  30
0.0
  11
 272.009
  21
 876.281
  31
0.0
   0
LINE
   8
LEVEL001
   6
CONTINUOUS
  62
7
  10
 272.447
  20
 876.924
  30
0.0
  11
 272.206
  21
 876.615
  31
0.0
   0
LINE
   8
LEVEL001
   6
CONTINUOUS
  62
7
  10
 272.727
  20
 877.204
  30
0.0
  11
 272.447
  21
 876.924
  31
0.0
   0
LINE
   8
LEVEL001
   6
CONTINUOUS
  62
7
  10
 273.043
  20
 877.448
  30
0.0
  11
 272.727
  21
 877.204
  31
0.0
   0
LINE
   8
LEVEL001
   6
CONTINUOUS
  62
7
  10
 273.390
  20
 877.654
  30
0.0
  11
 273.043
  21
 877.448
  31
0.0
   0
LINE
   8
LEVEL001
   6
CONTINUOUS
  62
7
  10
 273.762
  20
 877.819
  30
0.0
  11
 273.390
  21
 877.654
  31
0.0
   0
LINE
   8
LEVEL001
   6
CONTINUOUS
  62
7
  10
 274.153
  20
 877.940
  30
0.0
  11
 273.762
  21
 877.819
  31
0.0
   0
LINE
   8
LEVEL001
   6
CONTINUOUS
  62
7
  10
 274.557
  20
 878.014
  30
0.0
  11
 274.153
  21
 877.940
  31
0.0
   0
LINE
   8
LEVEL001
   6
CONTINUOUS
  62
7
  10
 274.968
  20
 878.042
  30
0.0
  11
 274.557
  21
 878.014
  31
0.0
   0
LINE
   8
LEVEL001
   6
CONTINUOUS
  62
7
  10
 275.380
  20
 878.022
  30
0.0
  11
 274.968
  21
 878.042
  31
0.0
   0
LINE
   8
LEVEL001
   6
CONTINUOUS
  62
7
  10
 275.785
  20
 877.954
  30
0.0
  11
 275.380
  21
 878.022
  31
0.0
   0
LINE
   8
LEVEL001
   6
CONTINUOUS
  62
7
  10
 276.179
  20
 877.841
  30
0.0
  11
 275.785
  21
 877.954
  31
0.0
   0
LINE
   8
LEVEL001
   6
CONTINUOUS
  62
7
  10
 276.554
  20
 877.683
  30
0.0
  11
 276.179
  21
 877.841
  31
0.0
   0
LINE
   8
LEVEL001
   6
CONTINUOUS
  62
7
  10
 276.905
  20
 877.483
  30
0.0
  11
 276.554
  21
 877.683
  31
0.0
   0
LINE
   8
LEVEL001
   6
CONTINUOUS
  62
7
  10
 277.226
  20
 877.244
  30
0.0
  11
 276.905
  21
 877.483
  31
0.0
   0
LINE
   8
LEVEL001
   6
CONTINUOUS
  62
7
  10
 277.512
  20
 876.970
  30
0.0
  11
 277.226
  21
 877.244
  31
0.0
   0
LINE
   8
LEVEL001
   6
CONTINUOUS
  62
7
  10
 277.759
  20
 876.665
  30
0.0
  11
 277.512
  21
 876.970
  31
0.0
   0
LINE
   8
LEVEL001
   6
CONTINUOUS
  62
7
  10
 277.964
  20
 876.334
  30
0.0
  11
 277.759
  21
 876.665
  31
0.0
   0
LINE
   8
LEVEL001
   6
CONTINUOUS
  62
7
  10
 278.121
  20
 875.982
  30
0.0
  11
 277.964
  21
 876.334
  31
0.0
   0
LINE
   8
LEVEL001
   6
CONTINUOUS
  62
7
  10
 278.231
  20
 875.615
  30
0.0
  11
 278.121
  21
 875.982
  31
0.0
   0
LINE
   8
LEVEL001
   6
CONTINUOUS
  62
7
  10
 278.289
  20
 875.238
  30
0.0
  11
 278.231
  21
 875.615
  31
0.0
   0
LINE
   8
LEVEL001
   6
CONTINUOUS
  62
7
  10
 278.297
  20
 874.857
  30
0.0
  11
 278.289
  21
 875.238
  31
0.0
   0
LINE
   8
LEVEL001
   6
CONTINUOUS
  62
7
  10
 278.253
  20
 874.479
  30
0.0
  11
 278.297
  21
 874.857
  31
0.0
   0
LINE
   8
LEVEL001
   6
CONTINUOUS
  62
7
  10
 278.158
  20
 874.108
  30
0.0
  11
 278.253
  21
 874.479
  31
0.0
   0
LINE
   8
LEVEL001
   6
CONTINUOUS
  62
7
  10
 278.014
  20
 873.751
  30
0.0
  11
 278.158
  21
 874.108
  31
0.0
   0
LINE
   8
LEVEL001
   6
CONTINUOUS
  62
7
  10
 277.823
  20
 873.414
  30
0.0
  11
 278.014
  21
 873.751
  31
0.0
   0
LINE
   8
LEVEL001
   6
CONTINUOUS
  62
7
  10
 277.588
  20
 873.101
  30
0.0
  11
 277.823
  21
 873.414
  31
0.0
   0
LINE
   8
LEVEL001
   6
CONTINUOUS
  62
7
  10
 277.312
  20
 872.818
  30
0.0
  11
 277.588
  21
 873.101
  31
0.0
   0
LINE
   8
LEVEL001
   6
CONTINUOUS
  62
7
  10
 277.001
  20
 872.568
  30
0.0
  11
 277.312
  21
 872.818
  31
0.0
   0
LINE
   8
LEVEL001
   6
CONTINUOUS
  62
7
  10
 276.658
  20
 872.357
  30
0.0
  11
 277.001
  21
 872.568
  31
0.0
   0
LINE
   8
LEVEL001
   6
CONTINUOUS
  62
7
  10
 278.500
  20
 874.274
  30
0.0
  11
 278.151
  21
 874.088
  31
0.0
   0
LINE
   8
LEVEL001
   6
CONTINUOUS
  62
7
  10
 278.500
  20
 878.008
  30
0.0
  11
 278.500
  21
 874.274
  31
0.0
   0
LINE
   8
LEVEL001
   6
CONTINUOUS
  62
7
  10
 275.000
  20
 879.875
  30
0.0
  11
 278.500
  21
 878.008
  31
0.0
   0
LINE
   8
LEVEL001
   6
CONTINUOUS
  62
7
  10
 271.500
  20
 878.008
  30
0.0
  11
 275.000
  21
 879.875
  31
0.0
   0
LINE
   8
LEVEL001
   6
CONTINUOUS
  62
7
  10
 271.500
  20
 874.274
  30
0.0
  11
 271.500
  21
 878.008
  31
0.0
   0
LINE
   8
LEVEL001
   6
CONTINUOUS
  62
7
  10
 271.849
  20
 874.088
  30
0.0
  11
 271.500
  21
 874.274
  31
0.0
   0
LINE
   8
LEVEL001
   6
CONTINUOUS
  62
7
  10
 278.500
  20
 878.926
  30
0.0
  11
 278.500
  21
 878.008
  31
0.0
   0
LINE
   8
LEVEL001
   6
CONTINUOUS
  62
7
  10
 275.000
  20
 880.793
  30
0.0
  11
 278.500
  21
 878.926
  31
0.0
   0
LINE
   8
LEVEL001
   6
CONTINUOUS
  62
7
  10
 271.500
  20
 878.926
  30
0.0
  11
 275.000
  21
 880.793
  31
0.0
   0
LINE
   8
LEVEL001
   6
CONTINUOUS
  62
7
  10
 271.500
  20
 878.008
  30
0.0
  11
 271.500
  21
 878.926
  31
0.0
   0
LINE
   8
LEVEL001
   6
CONTINUOUS
  62
7
  10
 283.100
  20
 885.764
  30
0.0
  11
 282.000
  21
 885.129
  31
0.0
   0
LINE
   8
LEVEL001
   6
CONTINUOUS
  62
7
  10
 283.100
  20
 888.395
  30
0.0
  11
 283.100
  21
 885.764
  31
0.0
   0
LINE
   8
LEVEL001
   6
CONTINUOUS
  62
7
  10
 282.000
  20
 889.495
  30
0.0
  11
 283.100
  21
 888.395
  31
0.0
   0
LINE
   8
LEVEL001
   6
CONTINUOUS
  62
7
  10
 266.900
  20
 888.395
  30
0.0
  11
 268.000
  21
 889.495
  31
0.0
   0
LINE
   8
LEVEL001
   6
CONTINUOUS
  62
7
  10
 266.900
  20
 885.764
  30
0.0
  11
 266.900
  21
 888.395
  31
0.0
   0
LINE
   8
LEVEL001
   6
CONTINUOUS
  62
7
  10
 268.000
  20
 885.129
  30
0.0
  11
 266.900
  21
 885.764
  31
0.0
   0
LINE
   8
LEVEL001
   6
CONTINUOUS
  62
7
  10
 308.083
  20
 1126.60
  30
0.0
  11
 304.041
  21
 1133.60
  31
0.0
   0
LINE
   8
LEVEL001
   6
CONTINUOUS
  62
7
  10
 304.041
  20
 1119.60
  30
0.0
  11
 308.083
  21
 1126.60
  31
0.0
   0
LINE
   8
LEVEL001
   6
CONTINUOUS
  62
7
  10
 295.959
  20
 1119.60
  30
0.0
  11
 304.041
  21
 1119.60
  31
0.0
   0
LINE
   8
LEVEL001
   6
CONTINUOUS
  62
7
  10
 291.917
  20
 1126.60
  30
0.0
  11
 295.959
  21
 1119.60
  31
0.0
   0
LINE
   8
LEVEL001
   6
CONTINUOUS
  62
7
  10
 295.959
  20
 1133.60
  30
0.0
  11
 291.917
  21
 1126.60
  31
0.0
   0
LINE
   8
LEVEL001
   6
CONTINUOUS
  62
7
  10
 304.041
  20
 1133.60
  30
0.0
  11
 295.959
  21
 1133.60
  31
0.0
   0
LINE
   8
LEVEL001
   6
CONTINUOUS
  62
7
  10
 191.917
  20
 953.397
  30
0.0
  11
 195.959
  21
 946.397
  31
0.0
   0
LINE
   8
LEVEL001
   6
CONTINUOUS
  62
7
  10
 195.959
  20
 960.397
  30
0.0
  11
 191.917
  21
 953.397
  31
0.0
   0
LINE
   8
LEVEL001
   6
CONTINUOUS
  62
7
  10
 204.041
  20
 960.397
  30
0.0
  11
 195.959
  21
 960.397
  31
0.0
   0
LINE
   8
LEVEL001
   6
CONTINUOUS
  62
7
  10
 208.083
  20
 953.397
  30
0.0
  11
 204.041
  21
 960.397
  31
0.0
   0
LINE
   8
LEVEL001
   6
CONTINUOUS
  62
7
  10
 204.041
  20
 946.397
  30
0.0
  11
 208.083
  21
 953.397
  31
0.0
   0
LINE
   8
LEVEL001
   6
CONTINUOUS
  62
7
  10
 195.959
  20
 946.397
  30
0.0
  11
 204.041
  21
 946.397
  31
0.0
   0
LINE
   8
LEVEL001
   6
CONTINUOUS
  62
7
  10
 145.959
  20
 1047.00
  30
0.0
  11
 141.917
  21
 1040.00
  31
0.0
   0
LINE
   8
LEVEL001
   6
CONTINUOUS
  62
7
  10
 154.041
  20
 1047.00
  30
0.0
  11
 145.959
  21
 1047.00
  31
0.0
   0
LINE
   8
LEVEL001
   6
CONTINUOUS
  62
7
  10
 158.083
  20
 1040.00
  30
0.0
  11
 154.041
  21
 1047.00
  31
0.0
   0
LINE
   8
LEVEL001
   6
CONTINUOUS
  62
7
  10
 154.041
  20
 1033.00
  30
0.0
  11
 158.083
  21
 1040.00
  31
0.0
   0
LINE
   8
LEVEL001
   6
CONTINUOUS
  62
7
  10
 145.959
  20
 1033.00
  30
0.0
  11
 154.041
  21
 1033.00
  31
0.0
   0
LINE
   8
LEVEL001
   6
CONTINUOUS
  62
7
  10
 141.917
  20
 1040.00
  30
0.0
  11
 145.959
  21
 1033.00
  31
0.0
   0
LINE
   8
LEVEL001
   6
CONTINUOUS
  62
7
  10
 204.041
  20
 1133.60
  30
0.0
  11
 195.959
  21
 1133.60
  31
0.0
   0
LINE
   8
LEVEL001
   6
CONTINUOUS
  62
7
  10
 208.083
  20
 1126.60
  30
0.0
  11
 204.041
  21
 1133.60
  31
0.0
   0
LINE
   8
LEVEL001
   6
CONTINUOUS
  62
7
  10
 204.041
  20
 1119.60
  30
0.0
  11
 208.083
  21
 1126.60
  31
0.0
   0
LINE
   8
LEVEL001
   6
CONTINUOUS
  62
7
  10
 195.959
  20
 1119.60
  30
0.0
  11
 204.041
  21
 1119.60
  31
0.0
   0
LINE
   8
LEVEL001
   6
CONTINUOUS
  62
7
  10
 191.917
  20
 1126.60
  30
0.0
  11
 195.959
  21
 1119.60
  31
0.0
   0
LINE
   8
LEVEL001
   6
CONTINUOUS
  62
7
  10
 195.959
  20
 1133.60
  30
0.0
  11
 191.917
  21
 1126.60
  31
0.0
   0
LINE
   8
LEVEL001
   6
CONTINUOUS
  62
7
  10
 362.250
  20
 926.500
  30
0.0
  11
 364.894
  21
 926.500
  31
0.0
   0
LINE
   8
LEVEL001
   6
CONTINUOUS
  62
7
  10
 362.250
  20
 961.500
  30
0.0
  11
 364.894
  21
 961.500
  31
0.0
   0
LINE
   8
LEVEL001
   6
CONTINUOUS
  62
7
  10
 362.250
  20
 892.500
  30
0.0
  11
 362.250
  21
 995.500
  31
0.0
   0
LINE
   8
LEVEL001
   6
CONTINUOUS
  62
7
  10
 349.000
  20
 891.500
  30
0.0
  11
 349.000
  21
 979.542
  31
0.0
   0
LINE
   8
LEVEL001
   6
CONTINUOUS
  62
7
  10
 349.250
  20
 890.500
  30
0.0
  11
 349.250
  21
 979.951
  31
0.0
   0
LINE
   8
LEVEL001
   6
CONTINUOUS
  62
7
  10
 357.934
  20
 997.500
  30
0.0
  11
 360.250
  21
 997.500
  31
0.0
   0
CIRCLE
   8
LEVEL001
   6
CONTINUOUS
  62
7
  10
 336.603
  20
 990.000
  30
0.0
  40
 8.00000
   0
CIRCLE
   8
LEVEL001
   6
CONTINUOUS
  62
7
  10
 336.603
  20
 990.000
  30
0.0
  40
 7.00000
   0
CIRCLE
   8
LEVEL001
   6
CONTINUOUS
  62
7
  10
 300.000
  20
 953.397
  30
0.0
  40
 10.6144
   0
CIRCLE
   8
LEVEL001
   6
CONTINUOUS
  62
7
  10
 300.000
  20
 953.397
  30
0.0
  40
 12.0000
   0
CIRCLE
   8
LEVEL001
   6
CONTINUOUS
  62
7
  10
 350.000
  20
 1040.00
  30
0.0
  40
 10.6144
   0
CIRCLE
   8
LEVEL001
   6
CONTINUOUS
  62
7
  10
 350.000
  20
 1040.00
  30
0.0
  40
 12.0000
   0
LINE
   8
LEVEL001
   6
CONTINUOUS
  62
7
  10
 275.000
  20
 962.500
  30
0.0
  11
 262.298
  21
 940.500
  31
0.0
   0
LINE
   8
LEVEL001
   6
CONTINUOUS
  62
7
  10
 258.000
  20
 962.500
  30
0.0
  11
 275.000
  21
 962.500
  31
0.0
   0
CIRCLE
   8
LEVEL001
   6
CONTINUOUS
  62
7
  10
 250.000
  20
 1040.00
  30
0.0
  40
 116.000
   0
CIRCLE
   8
LEVEL001
   6
CONTINUOUS
  62
7
  10
 250.000
  20
 1040.00
  30
0.0
  40
 8.90000
   0
CIRCLE
   8
LEVEL001
   6
CONTINUOUS
  62
7
  10
 250.000
  20
 1040.00
  30
0.0
  40
 10.0000
   0
ARC
   8
LEVEL001
   6
CONTINUOUS
  62
7
  10
 250.000
  20
 1040.00
  30
0.0
  40
 35.0000
  50
 13.2130
  51
 346.787
   0
LINE
   8
LEVEL001
   6
CONTINUOUS
  62
7
  10
 281.500
  20
 1032.00
  30
0.0
  11
 291.000
  21
 1032.00
  31
0.0
   0
LINE
   8
LEVEL001
   6
CONTINUOUS
  62
7
  10
 281.500
  20
 1048.00
  30
0.0
  11
 291.000
  21
 1048.00
  31
0.0
   0
CIRCLE
   8
LEVEL001
   6
CONTINUOUS
  62
7
  10
 250.000
  20
 1040.00
  30
0.0
  40
 52.5000
   0
CIRCLE
   8
LEVEL001
   6
CONTINUOUS
  62
7
  10
 250.000
  20
 1040.00
  30
0.0
  40
 32.5000
   0
CIRCLE
   8
LEVEL001
   6
CONTINUOUS
  62
7
  10
 250.000
  20
 1040.00
  30
0.0
  40
 31.5000
   0
LINE
   8
LEVEL001
   6
CONTINUOUS
  62
7
  10
 291.000
  20
 1048.00
  30
0.0
  11
 291.000
  21
 1032.00
  31
0.0
   0
LINE
   8
LEVEL001
   6
CONTINUOUS
  62
7
  10
 268.418
  20
 890.279
  30
0.0
  11
 268.394
  21
 889.495
  31
0.0
   0
LINE
   8
LEVEL001
   6
CONTINUOUS
  62
7
  10
 281.606
  20
 889.495
  30
0.0
  11
 281.575
  21
 890.478
  31
0.0
   0
LINE
   8
LEVEL001
   6
CONTINUOUS
  62
7
  10
 268.394
  20
 889.495
  30
0.0
  11
 269.189
  21
 890.291
  31
0.0
   0
LINE
   8
LEVEL001
   6
CONTINUOUS
  62
7
  10
 280.723
  20
 890.379
  30
0.0
  11
 275.000
  21
 890.379
  31
0.0
   0
ARC
   8
LEVEL001
   6
CONTINUOUS
  62
7
  10
 283.274
  20
 880.856
  30
0.0
  40
 8.73264
  50
 98.3860
  51
 118.924
   0
ARC
   8
LEVEL001
   6
CONTINUOUS
  62
7
  10
 275.000
  20
 880.763
  30
0.0
  40
 8.73264
  50
 62.3688
  51
 117.631
   0
ARC
   8
LEVEL001
   6
CONTINUOUS
  62
7
  10
 266.726
  20
 880.856
  30
0.0
  40
 8.73264
  50
 61.0758
  51
 81.6142
   0
ARC
   8
LEVEL001
   6
CONTINUOUS
  62
7
  10
 275.000
  20
 883.067
  30
0.0
  40
 9.93811
  50
 241.269
  51
 252.935
   0
ARC
   8
LEVEL001
   6
CONTINUOUS
  62
7
  10
 271.665
  20
 876.983
  30
0.0
  40
 3.00000
  50
 180.000
  51
 241.269
   0
LINE
   8
LEVEL001
   6
CONTINUOUS
  62
7
  10
 268.665
  20
 876.983
  30
0.0
  11
 268.665
  21
 884.745
  31
0.0
   0
ARC
   8
LEVEL001
   6
CONTINUOUS
  62
7
  10
 275.000
  20
 883.067
  30
0.0
  40
 9.93811
  50
 287.065
  51
 298.731
   0
ARC
   8
LEVEL001
   6
CONTINUOUS
  62
7
  10
 278.335
  20
 876.983
  30
0.0
  40
 3.00000
  50
 298.731
  51
 0.243181E-9
   0
LINE
   8
LEVEL001
   6
CONTINUOUS
  62
7
  10
 281.335
  20
 876.983
  30
0.0
  11
 281.335
  21
 884.745
  31
0.0
   0
LINE
   8
LEVEL001
   6
CONTINUOUS
  62
7
  10
 275.000
  20
 879.875
  30
0.0
  11
 275.000
  21
 880.793
  31
0.0
   0
LINE
   8
LEVEL001
   6
CONTINUOUS
  62
7
  10
 268.000
  20
 885.129
  30
0.0
  11
 268.665
  21
 884.745
  31
0.0
   0
LINE
   8
LEVEL001
   6
CONTINUOUS
  62
7
  10
 281.335
  20
 884.745
  30
0.0
  11
 268.665
  21
 884.745
  31
0.0
   0
LINE
   8
LEVEL001
   6
CONTINUOUS
  62
7
  10
 282.000
  20
 885.129
  30
0.0
  11
 281.335
  21
 884.745
  31
0.0
   0
LINE
   8
LEVEL001
   6
CONTINUOUS
  62
7
  10
 268.000
  20
 885.129
  30
0.0
  11
 282.000
  21
 885.129
  31
0.0
   0
ARC
   8
LEVEL001
   6
CONTINUOUS
  62
7
  10
 275.000
  20
 893.861
  30
0.0
  40
 8.73264
  50
 242.369
  51
 297.631
   0
LINE
   8
LEVEL001
   6
CONTINUOUS
  62
7
  10
 282.000
  20
 889.495
  30
0.0
  11
 268.000
  21
 889.495
  31
0.0
   0
ARC
   8
LEVEL001
   6
CONTINUOUS
  62
7
  10
 266.726
  20
 893.768
  30
0.0
  40
 8.73264
  50
 278.386
  51
 298.924
   0
ARC
   8
LEVEL001
   6
CONTINUOUS
  62
7
  10
 283.274
  20
 893.768
  30
0.0
  40
 8.73264
  50
 241.076
  51
 261.614
   0
LINE
   8
LEVEL001
   6
CONTINUOUS
  62
7
  10
 270.950
  20
 886.125
  30
0.0
  11
 270.950
  21
 888.499
  31
0.0
   0
LINE
   8
LEVEL001
   6
CONTINUOUS
  62
7
  10
 279.050
  20
 886.125
  30
0.0
  11
 279.050
  21
 888.499
  31
0.0
   0
TEXT
   8
LEVEL001
  62
7
  10
 263.616
  20
 1114.00
  30
0.0
  40
 20.0000
   1
０
  50
 345.000
  41
 0.500000
   7
STANDARD
   0
TEXT
   8
LEVEL001
  62
7
  10
 250.559
  20
 1115.24
  30
0.0
  40
 20.0000
   1
２
  50
 355.000
  41
 0.500000
   7
STANDARD
   0
TEXT
   8
LEVEL001
  62
7
  10
 237.486
  20
 1114.19
  30
0.0
  40
 20.0000
   1
Ｊ
  50
 5.00000
  41
 0.500000
   7
STANDARD
   0
TEXT
   8
LEVEL001
  62
7
  10
 224.793
  20
 1110.89
  30
0.0
  40
 20.0000
   1
Ｗ
  50
 15.0000
  41
 0.500000
   7
STANDARD
   0
LINE
   8
LEVEL001
   6
CONTINUOUS
  62
7
  10
 224.798
  20
 940.500
  30
0.0
  11
 262.298
  21
 940.500
  31
0.0
   0
LINE
   8
LEVEL001
   6
CONTINUOUS
  62
7
  10
 227.108
  20
 944.500
  30
0.0
  11
 247.608
  21
 944.500
  31
0.0
   0
LINE
   8
LEVEL001
   6
CONTINUOUS
  62
7
  10
 227.108
  20
 944.500
  30
0.0
  11
 224.798
  21
 940.500
  31
0.0
   0
LINE
   8
LEVEL001
   6
CONTINUOUS
  62
7
  10
 247.608
  20
 944.500
  30
0.0
  11
 258.000
  21
 962.500
  31
0.0
   0
CIRCLE
   8
LEVEL001
   6
CONTINUOUS
  62
7
  10
 242.000
  20
 955.000
  30
0.0
  40
 7.50000
   0
CIRCLE
   8
LEVEL001
   6
CONTINUOUS
  62
7
  10
 163.397
  20
 1090.00
  30
0.0
  40
 8.00000
   0
CIRCLE
   8
LEVEL001
   6
CONTINUOUS
  62
7
  10
 163.397
  20
 1090.00
  30
0.0
  40
 7.00000
   0
LINE
   8
LEVEL001
   6
CONTINUOUS
  62
7
  10
 165.468
  20
 997.727
  30
0.0
  11
 161.327
  21
 982.273
  31
0.0
   0
LINE
   8
LEVEL001
   6
CONTINUOUS
  62
7
  10
 155.670
  20
 992.071
  30
0.0
  11
 171.125
  21
 987.929
  31
0.0
   0
CIRCLE
   8
LEVEL001
   6
CONTINUOUS
  62
7
  10
 163.397
  20
 990.000
  30
0.0
  40
 8.00000
   0
LINE
   8
LEVEL001
   6
CONTINUOUS
  62
7
  10
 338.673
  20
 1097.73
  30
0.0
  11
 334.532
  21
 1082.27
  31
0.0
   0
LINE
   8
LEVEL001
   6
CONTINUOUS
  62
7
  10
 328.875
  20
 1092.07
  30
0.0
  11
 344.330
  21
 1087.93
  31
0.0
   0
CIRCLE
   8
LEVEL001
   6
CONTINUOUS
  62
7
  10
 336.603
  20
 1090.00
  30
0.0
  40
 8.00000
   0
LINE
   8
LEVEL001
   6
CONTINUOUS
  62
7
  10
 339.777
  20
 891.360
  30
0.0
  11
 338.982
  21
 868.970
  31
0.0
   0
LINE
   8
LEVEL001
   6
CONTINUOUS
  62
7
  10
 338.959
  20
 1156.53
  30
0.0
  11
 341.345
  21
 1111.50
  31
0.0
   0
LINE
   8
LEVEL001
   6
CONTINUOUS
  62
7
  10
 250.000
  20
 1185.00
  30
0.0
  11
 310.481
  21
 1184.00
  31
0.0
   0
LINE
   8
LEVEL001
   6
CONTINUOUS
  62
7
  10
 250.000
  20
 1185.00
  30
0.0
  11
 189.519
  21
 1184.00
  31
0.0
   0
ARC
   8
LEVEL001
   6
CONTINUOUS
  62
7
  10
 265.500
  20
 1162.02
  30
0.0
  40
 8.00000
  50
 180.000
  51
 234.721
   0
ARC
   8
LEVEL001
   6
CONTINUOUS
  62
7
  10
 234.500
  20
 1162.02
  30
0.0
  40
 8.00000
  50
 305.279
  51
0.0
   0
LINE
   8
LEVEL001
   6
CONTINUOUS
  62
7
  10
 242.500
  20
 1176.74
  30
0.0
  11
 242.500
  21
 1162.02
  31
0.0
   0
LINE
   8
LEVEL001
   6
CONTINUOUS
  62
7
  10
 257.500
  20
 1176.74
  30
0.0
  11
 257.500
  21
 1162.02
  31
0.0
   0
ARC
   8
LEVEL001
   6
CONTINUOUS
  62
7
  10
 265.500
  20
 1176.74
  30
0.0
  40
 8.00000
  50
 89.0490
  51
 180.000
   0
ARC
   8
LEVEL001
   6
CONTINUOUS
  62
7
  10
 234.500
  20
 1176.74
  30
0.0
  40
 8.00000
  50
 0.162844E-11
  51
 90.9510
   0
ARC
   8
LEVEL001
   6
CONTINUOUS
  62
7
  10
 190.000
  20
 1155.00
  30
0.0
  40
 25.0000
  50
 349.541
  51
 245.565
   0
LINE
   8
LEVEL001
   6
CONTINUOUS
  62
7
  10
 161.041
  20
 1156.53
  30
0.0
  11
 158.655
  21
 1111.50
  31
0.0
   0
LINE
   8
LEVEL001
   6
CONTINUOUS
  62
7
  10
 160.223
  20
 891.360
  30
0.0
  11
 161.018
  21
 868.970
  31
0.0
   0
ARC
   8
LEVEL001
   6
CONTINUOUS
  62
7
  10
 190.000
  20
 870.000
  30
0.0
  40
 25.0000
  50
 122.384
  51
 55.8800
   0
LINE
   8
LEVEL001
   6
CONTINUOUS
  62
7
  10
 151.000
  20
 979.543
  30
0.0
  11
 151.000
  21
 891.500
  31
0.0
   0
LINE
   8
LEVEL001
   6
CONTINUOUS
  62
7
  10
 150.750
  20
 979.955
  30
0.0
  11
 150.750
  21
 890.500
  31
0.0
   0
LINE
   8
LEVEL001
   6
CONTINUOUS
  62
7
  10
 142.066
  20
 997.500
  30
0.0
  11
 139.750
  21
 997.500
  31
0.0
   0
LINE
   8
LEVEL001
   6
CONTINUOUS
  62
7
  10
 234.621
  20
 890.233
  30
0.0
  11
 151.000
  21
 891.500
  31
0.0
   0
ARC
   8
LEVEL001
   6
CONTINUOUS
  62
7
  10
 139.750
  20
 995.500
  30
0.0
  40
 2.00000
  50
 90.0000
  51
 180.000
   0
ARC
   8
LEVEL001
   6
CONTINUOUS
  62
7
  10
 234.500
  20
 848.258
  30
0.0
  40
 8.00000
  50
 269.049
  51
 0.105849E-10
   0
LINE
   8
LEVEL001
   6
CONTINUOUS
  62
7
  10
 242.500
  20
 884.820
  30
0.0
  11
 242.500
  21
 848.258
  31
0.0
   0
ARC
   8
LEVEL001
   6
CONTINUOUS
  62
7
  10
 234.500
  20
 884.820
  30
0.0
  40
 8.00000
  50
 0.814222E-12
  51
 89.1319
   0
ARC
   8
LEVEL001
   6
CONTINUOUS
  62
7
  10
 234.500
  20
 882.234
  30
0.0
  40
 8.00000
  50
0.0
  51
 89.1319
   0
LINE
   8
LEVEL001
   6
CONTINUOUS
  62
7
  10
 127.894
  20
 928.000
  30
0.0
  11
 71.0000
  21
 928.000
  31
0.0
   0
LINE
   8
LEVEL001
   6
CONTINUOUS
  62
7
  10
 70.0000
  20
 929.000
  30
0.0
  11
 71.0000
  21
 928.000
  31
0.0
   0
LINE
   8
LEVEL001
   6
CONTINUOUS
  62
7
  10
 70.0000
  20
 959.000
  30
0.0
  11
 70.0000
  21
 929.000
  31
0.0
   0
LINE
   8
LEVEL001
   6
CONTINUOUS
  62
7
  10
 71.0000
  20
 960.000
  30
0.0
  11
 70.0000
  21
 959.000
  31
0.0
   0
LINE
   8
LEVEL001
   6
CONTINUOUS
  62
7
  10
 127.894
  20
 960.000
  30
0.0
  11
 71.0000
  21
 960.000
  31
0.0
   0
LINE
   8
LEVEL001
   6
CONTINUOUS
  62
7
  10
 135.000
  20
 961.500
  30
0.0
  11
 135.000
  21
 926.522
  31
0.0
   0
LINE
   8
LEVEL001
   6
CONTINUOUS
  62
7
  10
 120.000
  20
 949.000
  30
0.0
  11
 120.000
  21
 939.000
  31
0.0
   0
LINE
   8
LEVEL001
   6
CONTINUOUS
  62
7
  10
 134.147
  20
 949.000
  30
0.0
  11
 134.147
  21
 939.000
  31
0.0
   0
LINE
   8
LEVEL001
   6
CONTINUOUS
  62
7
  10
 134.147
  20
 939.000
  30
0.0
  11
 70.0000
  21
 939.000
  31
0.0
   0
LINE
   8
LEVEL001
   6
CONTINUOUS
  62
7
  10
 134.147
  20
 949.000
  30
0.0
  11
 70.0000
  21
 949.000
  31
0.0
   0
LINE
   8
LEVEL001
   6
CONTINUOUS
  62
7
  10
 128.000
  20
 928.000
  30
0.0
  11
 128.000
  21
 939.000
  31
0.0
   0
LINE
   8
LEVEL001
   6
CONTINUOUS
  62
7
  10
 137.750
  20
 926.500
  30
0.0
  11
 135.106
  21
 926.500
  31
0.0
   0
ARC
   8
LEVEL001
   6
CONTINUOUS
  62
7
  10
 135.106
  20
 927.500
  30
0.0
  40
 1.00000
  50
 257.905
  51
 270.000
   0
LINE
   8
LEVEL001
   6
CONTINUOUS
  62
7
  10
 134.896
  20
 926.522
  30
0.0
  11
 128.104
  21
 927.978
  31
0.0
   0
ARC
   8
LEVEL001
   6
CONTINUOUS
  62
7
  10
 127.894
  20
 927.000
  30
0.0
  40
 1.00000
  50
 77.9052
  51
 90.0000
   0
LINE
   8
LEVEL001
   6
CONTINUOUS
  62
7
  10
 128.000
  20
 960.000
  30
0.0
  11
 128.000
  21
 949.000
  31
0.0
   0
LINE
   8
LEVEL001
   6
CONTINUOUS
  62
7
  10
 137.750
  20
 961.500
  30
0.0
  11
 135.106
  21
 961.500
  31
0.0
   0
ARC
   8
LEVEL001
   6
CONTINUOUS
  62
7
  10
 135.106
  20
 960.500
  30
0.0
  40
 1.00000
  50
 90.0000
  51
 102.095
   0
LINE
   8
LEVEL001
   6
CONTINUOUS
  62
7
  10
 134.896
  20
 961.478
  30
0.0
  11
 128.104
  21
 960.022
  31
0.0
   0
ARC
   8
LEVEL001
   6
CONTINUOUS
  62
7
  10
 127.894
  20
 961.000
  30
0.0
  40
 1.00000
  50
 270.000
  51
 282.095
   0
LINE
   8
LEVEL001
   6
CONTINUOUS
  62
7
  10
 137.750
  20
 995.500
  30
0.0
  11
 137.750
  21
 892.500
  31
0.0
   0
ARC
   8
LEVEL001
   6
CONTINUOUS
  62
7
  10
 139.750
  20
 892.500
  30
0.0
  40
 2.00000
  50
 180.000
  51
 270.000
   0
LINE
   8
LEVEL001
   6
CONTINUOUS
  62
7
  10
 150.750
  20
 890.500
  30
0.0
  11
 139.750
  21
 890.500
  31
0.0
   0
LINE
   8
LEVEL001
   6
CONTINUOUS
  62
7
  10
 257.500
  20
 884.820
  30
0.0
  11
 257.500
  21
 848.258
  31
0.0
   0
ARC
   8
LEVEL001
   6
CONTINUOUS
  62
7
  10
 265.500
  20
 884.820
  30
0.0
  40
 8.00000
  50
 90.8681
  51
 180.000
   0
LINE
   8
LEVEL001
   6
CONTINUOUS
  62
7
  10
 250.000
  20
 840.000
  30
0.0
  11
 310.481
  21
 841.004
  31
0.0
   0
ARC
   8
LEVEL001
   6
CONTINUOUS
  62
7
  10
 265.500
  20
 848.258
  30
0.0
  40
 8.00000
  50
 180.000
  51
 270.951
   0
ARC
   8
LEVEL001
   6
CONTINUOUS
  62
7
  10
 265.500
  20
 882.234
  30
0.0
  40
 8.00000
  50
 90.8681
  51
 180.000
   0
LINE
   8
LEVEL001
   6
CONTINUOUS
  62
7
  10
 265.379
  20
 890.233
  30
0.0
  11
 349.000
  21
 891.500
  31
0.0
   0
ARC
   8
LEVEL001
   6
CONTINUOUS
  62
7
  10
 310.000
  20
 1155.00
  30
0.0
  40
 25.0000
  50
 294.435
  51
 190.459
   0
ARC
   8
LEVEL001
   6
CONTINUOUS
  62
7
  10
 310.000
  20
 870.000
  30
0.0
  40
 25.0000
  50
 124.120
  51
 57.6161
   0
LINE
   8
LEVEL001
   6
CONTINUOUS
  62
7
  10
 372.106
  20
 928.000
  30
0.0
  11
 429.000
  21
 928.000
  31
0.0
   0
LINE
   8
LEVEL001
   6
CONTINUOUS
  62
7
  10
 430.000
  20
 929.000
  30
0.0
  11
 429.000
  21
 928.000
  31
0.0
   0
LINE
   8
LEVEL001
   6
CONTINUOUS
  62
7
  10
 430.000
  20
 959.000
  30
0.0
  11
 430.000
  21
 929.000
  31
0.0
   0
LINE
   8
LEVEL001
   6
CONTINUOUS
  62
7
  10
 429.000
  20
 960.000
  30
0.0
  11
 430.000
  21
 959.000
  31
0.0
   0
LINE
   8
LEVEL001
   6
CONTINUOUS
  62
7
  10
 372.106
  20
 960.000
  30
0.0
  11
 429.000
  21
 960.000
  31
0.0
   0
LINE
   8
LEVEL001
   6
CONTINUOUS
  62
7
  10
 365.000
  20
 961.500
  30
0.0
  11
 365.000
  21
 926.522
  31
0.0
   0
LINE
   8
LEVEL001
   6
CONTINUOUS
  62
7
  10
 380.000
  20
 949.000
  30
0.0
  11
 380.000
  21
 939.000
  31
0.0
   0
LINE
   8
LEVEL001
   6
CONTINUOUS
  62
7
  10
 365.853
  20
 949.000
  30
0.0
  11
 365.853
  21
 939.000
  31
0.0
   0
LINE
   8
LEVEL001
   6
CONTINUOUS
  62
7
  10
 365.853
  20
 939.000
  30
0.0
  11
 430.000
  21
 939.000
  31
0.0
   0
LINE
   8
LEVEL001
   6
CONTINUOUS
  62
7
  10
 365.853
  20
 949.000
  30
0.0
  11
 430.000
  21
 949.000
  31
0.0
   0
LINE
   8
LEVEL001
   6
CONTINUOUS
  62
7
  10
 372.000
  20
 928.000
  30
0.0
  11
 372.000
  21
 939.000
  31
0.0
   0
ARC
   8
LEVEL001
   6
CONTINUOUS
  62
7
  10
 364.894
  20
 927.500
  30
0.0
  40
 1.00000
  50
 270.000
  51
 282.095
   0
LINE
   8
LEVEL001
   6
CONTINUOUS
  62
7
  10
 365.104
  20
 926.522
  30
0.0
  11
 371.896
  21
 927.978
  31
0.0
   0
ARC
   8
LEVEL001
   6
CONTINUOUS
  62
7
  10
 372.106
  20
 927.000
  30
0.0
  40
 1.00000
  50
 90.0000
  51
 102.095
   0
LINE
   8
LEVEL001
   6
CONTINUOUS
  62
7
  10
 372.000
  20
 960.000
  30
0.0
  11
 372.000
  21
 949.000
  31
0.0
   0
ARC
   8
LEVEL001
   6
CONTINUOUS
  62
7
  10
 364.894
  20
 960.500
  30
0.0
  40
 1.00000
  50
 77.9052
  51
 90.0000
   0
LINE
   8
LEVEL001
   6
CONTINUOUS
  62
7
  10
 365.104
  20
 961.478
  30
0.0
  11
 371.896
  21
 960.022
  31
0.0
   0
ARC
   8
LEVEL001
   6
CONTINUOUS
  62
7
  10
 372.106
  20
 961.000
  30
0.0
  40
 1.00000
  50
 257.905
  51
 270.000
   0
CIRCLE
   8
LEVEL001
   6
CONTINUOUS
  62
7
  10
 300.000
  20
 1126.60
  30
0.0
  40
 10.6144
   0
CIRCLE
   8
LEVEL001
   6
CONTINUOUS
  62
7
  10
 300.000
  20
 1126.60
  30
0.0
  40
 12.0000
   0
CIRCLE
   8
LEVEL001
   6
CONTINUOUS
  62
7
  10
 200.000
  20
 953.397
  30
0.0
  40
 10.6144
   0
CIRCLE
   8
LEVEL001
   6
CONTINUOUS
  62
7
  10
 200.000
  20
 953.397
  30
0.0
  40
 12.0000
   0
CIRCLE
   8
LEVEL001
   6
CONTINUOUS
  62
7
  10
 150.000
  20
 1040.00
  30
0.0
  40
 10.6144
   0
CIRCLE
   8
LEVEL001
   6
CONTINUOUS
  62
7
  10
 150.000
  20
 1040.00
  30
0.0
  40
 12.0000
   0
CIRCLE
   8
LEVEL001
   6
CONTINUOUS
  62
7
  10
 200.000
  20
 1126.60
  30
0.0
  40
 10.6144
   0
CIRCLE
   8
LEVEL001
   6
CONTINUOUS
  62
7
  10
 200.000
  20
 1126.60
  30
0.0
  40
 12.0000
   0
ARC
   8
LEVEL001
   6
CONTINUOUS
  62
7
  10
 360.250
  20
 892.500
  30
0.0
  40
 2.00000
  50
 270.000
  51
0.0
   0
LINE
   8
LEVEL001
   6
CONTINUOUS
  62
7
  10
 349.250
  20
 890.500
  30
0.0
  11
 360.250
  21
 890.500
  31
0.0
   0
ARC
   8
LEVEL001
   6
CONTINUOUS
  62
7
  10
 360.250
  20
 995.500
  30
0.0
  40
 2.00000
  50
0.0
  51
 90.0000
   0
LINE
   8
LEVEL001
   6
CONTINUOUS
  62
7
  10
 250.000
  20
 840.000
  30
0.0
  11
 189.519
  21
 841.004
  31
0.0
   0
CIRCLE
   8
LEVEL001
   6
CONTINUOUS
  62
7
  10
 190.000
  20
 870.000
  30
0.0
  40
 13.0000
   0
ARC
   8
LEVEL001
   6
CONTINUOUS
  62
7
  10
 190.000
  20
 870.000
  30
0.0
  40
 29.0000
  50
 182.035
  51
 269.049
   0
ARC
   8
LEVEL001
   6
CONTINUOUS
  62
7
  10
 190.000
  20
 1155.00
  30
0.0
  40
 29.0000
  50
 90.9510
  51
 176.967
   0
CIRCLE
   8
LEVEL001
   6
CONTINUOUS
  62
7
  10
 190.000
  20
 1155.00
  30
0.0
  40
 13.0000
   0
ARC
   8
LEVEL001
   6
CONTINUOUS
  62
7
  10
 310.000
  20
 870.000
  30
0.0
  40
 29.0000
  50
 270.951
  51
 357.965
   0
ARC
   8
LEVEL001
   6
CONTINUOUS
  62
7
  10
 310.000
  20
 1155.00
  30
0.0
  40
 29.0000
  50
 3.03262
  51
 89.0490
   0
CIRCLE
   8
LEVEL001
   6
CONTINUOUS
  62
7
  10
 310.000
  20
 1155.00
  30
0.0
  40
 13.0000
   0
CIRCLE
   8
LEVEL001
   6
CONTINUOUS
  62
7
  10
 310.000
  20
 870.000
  30
0.0
  40
 13.0000
   0
LINE
   8
LEVEL001
   6
CONTINUOUS
  62
7
  10
 303.600
  20
 1046.50
  30
0.0
  11
 303.600
  21
 1033.50
  31
0.0
   0
LINE
   8
LEVEL001
   6
CONTINUOUS
  62
7
  10
 303.600
  20
 1033.50
  30
0.0
  11
 304.000
  21
 1034.19
  31
0.0
   0
LINE
   8
LEVEL001
   6
CONTINUOUS
  62
7
  10
 304.000
  20
 1034.19
  30
0.0
  11
 304.000
  21
 1045.81
  31
0.0
   0
LINE
   8
LEVEL001
   6
CONTINUOUS
  62
7
  10
 304.000
  20
 1045.81
  30
0.0
  11
 303.600
  21
 1046.50
  31
0.0
   0
LINE
   8
LEVEL001
   6
CONTINUOUS
  62
7
  10
 303.600
  20
 1046.50
  30
0.0
  11
 302.824
  21
 1046.50
  31
0.0
   0
LINE
   8
LEVEL001
   6
CONTINUOUS
  62
7
  10
 302.824
  20
 1033.50
  30
0.0
  11
 303.600
  21
 1033.50
  31
0.0
   0
LINE
   8
LEVEL001
   6
CONTINUOUS
  62
7
  10
 303.003
  20
 1046.50
  30
0.0
  11
 302.991
  21
 1046.63
  31
0.0
   0
LINE
   8
LEVEL001
   6
CONTINUOUS
  62
7
  10
 302.991
  20
 1046.63
  30
0.0
  11
 302.979
  21
 1046.74
  31
0.0
   0
LINE
   8
LEVEL001
   6
CONTINUOUS
  62
7
  10
 302.979
  20
 1046.74
  30
0.0
  11
 302.966
  21
 1046.84
  31
0.0
   0
LINE
   8
LEVEL001
   6
CONTINUOUS
  62
7
  10
 302.966
  20
 1046.84
  30
0.0
  11
 302.953
  21
 1046.91
  31
0.0
   0
LINE
   8
LEVEL001
   6
CONTINUOUS
  62
7
  10
 302.953
  20
 1046.91
  30
0.0
  11
 302.940
  21
 1046.96
  31
0.0
   0
LINE
   8
LEVEL001
   6
CONTINUOUS
  62
7
  10
 302.940
  20
 1046.96
  30
0.0
  11
 302.927
  21
 1046.99
  31
0.0
   0
LINE
   8
LEVEL001
   6
CONTINUOUS
  62
7
  10
 302.927
  20
 1046.99
  30
0.0
  11
 302.914
  21
 1047.00
  31
0.0
   0
LINE
   8
LEVEL001
   6
CONTINUOUS
  62
7
  10
 302.914
  20
 1047.00
  30
0.0
  11
 302.901
  21
 1046.99
  31
0.0
   0
LINE
   8
LEVEL001
   6
CONTINUOUS
  62
7
  10
 302.901
  20
 1046.99
  30
0.0
  11
 302.888
  21
 1046.96
  31
0.0
   0
LINE
   8
LEVEL001
   6
CONTINUOUS
  62
7
  10
 302.888
  20
 1046.96
  30
0.0
  11
 302.875
  21
 1046.91
  31
0.0
   0
LINE
   8
LEVEL001
   6
CONTINUOUS
  62
7
  10
 302.875
  20
 1046.91
  30
0.0
  11
 302.862
  21
 1046.84
  31
0.0
   0
LINE
   8
LEVEL001
   6
CONTINUOUS
  62
7
  10
 302.862
  20
 1046.84
  30
0.0
  11
 302.849
  21
 1046.75
  31
0.0
   0
LINE
   8
LEVEL001
   6
CONTINUOUS
  62
7
  10
 302.849
  20
 1046.75
  30
0.0
  11
 302.837
  21
 1046.63
  31
0.0
   0
LINE
   8
LEVEL001
   6
CONTINUOUS
  62
7
  10
 302.837
  20
 1046.63
  30
0.0
  11
 302.824
  21
 1046.50
  31
0.0
   0
LINE
   8
LEVEL001
   6
CONTINUOUS
  62
7
  10
 302.824
  20
 1046.50
  30
0.0
  11
 302.812
  21
 1046.35
  31
0.0
   0
LINE
   8
LEVEL001
   6
CONTINUOUS
  62
7
  10
 302.812
  20
 1046.35
  30
0.0
  11
 302.801
  21
 1046.19
  31
0.0
   0
LINE
   8
LEVEL001
   6
CONTINUOUS
  62
7
  10
 302.801
  20
 1046.19
  30
0.0
  11
 302.789
  21
 1046.00
  31
0.0
   0
LINE
   8
LEVEL001
   6
CONTINUOUS
  62
7
  10
 302.789
  20
 1046.00
  30
0.0
  11
 302.778
  21
 1045.79
  31
0.0
   0
LINE
   8
LEVEL001
   6
CONTINUOUS
  62
7
  10
 302.778
  20
 1045.79
  30
0.0
  11
 302.768
  21
 1045.57
  31
0.0
   0
LINE
   8
LEVEL001
   6
CONTINUOUS
  62
7
  10
 302.768
  20
 1045.57
  30
0.0
  11
 302.757
  21
 1045.34
  31
0.0
   0
LINE
   8
LEVEL001
   6
CONTINUOUS
  62
7
  10
 302.757
  20
 1045.34
  30
0.0
  11
 302.748
  21
 1045.08
  31
0.0
   0
LINE
   8
LEVEL001
   6
CONTINUOUS
  62
7
  10
 302.748
  20
 1045.08
  30
0.0
  11
 302.738
  21
 1044.81
  31
0.0
   0
LINE
   8
LEVEL001
   6
CONTINUOUS
  62
7
  10
 302.738
  20
 1044.81
  30
0.0
  11
 302.730
  21
 1044.53
  31
0.0
   0
LINE
   8
LEVEL001
   6
CONTINUOUS
  62
7
  10
 302.730
  20
 1044.53
  30
0.0
  11
 302.721
  21
 1044.24
  31
0.0
   0
LINE
   8
LEVEL001
   6
CONTINUOUS
  62
7
  10
 302.721
  20
 1044.24
  30
0.0
  11
 302.714
  21
 1043.93
  31
0.0
   0
LINE
   8
LEVEL001
   6
CONTINUOUS
  62
7
  10
 302.714
  20
 1043.93
  30
0.0
  11
 302.707
  21
 1043.61
  31
0.0
   0
LINE
   8
LEVEL001
   6
CONTINUOUS
  62
7
  10
 302.707
  20
 1043.61
  30
0.0
  11
 302.700
  21
 1043.28
  31
0.0
   0
LINE
   8
LEVEL001
   6
CONTINUOUS
  62
7
  10
 302.700
  20
 1043.28
  30
0.0
  11
 302.694
  21
 1042.94
  31
0.0
   0
LINE
   8
LEVEL001
   6
CONTINUOUS
  62
7
  10
 302.694
  20
 1042.94
  30
0.0
  11
 302.689
  21
 1042.59
  31
0.0
   0
LINE
   8
LEVEL001
   6
CONTINUOUS
  62
7
  10
 302.689
  20
 1042.59
  30
0.0
  11
 302.685
  21
 1042.24
  31
0.0
   0
LINE
   8
LEVEL001
   6
CONTINUOUS
  62
7
  10
 302.685
  20
 1042.24
  30
0.0
  11
 302.681
  21
 1041.87
  31
0.0
   0
LINE
   8
LEVEL001
   6
CONTINUOUS
  62
7
  10
 302.681
  20
 1041.87
  30
0.0
  11
 302.678
  21
 1041.51
  31
0.0
   0
LINE
   8
LEVEL001
   6
CONTINUOUS
  62
7
  10
 302.678
  20
 1041.51
  30
0.0
  11
 302.675
  21
 1041.13
  31
0.0
   0
LINE
   8
LEVEL001
   6
CONTINUOUS
  62
7
  10
 302.675
  20
 1041.13
  30
0.0
  11
 302.673
  21
 1040.76
  31
0.0
   0
LINE
   8
LEVEL001
   6
CONTINUOUS
  62
7
  10
 302.673
  20
 1040.76
  30
0.0
  11
 302.672
  21
 1040.38
  31
0.0
   0
LINE
   8
LEVEL001
   6
CONTINUOUS
  62
7
  10
 302.672
  20
 1040.38
  30
0.0
  11
 302.672
  21
 1040.00
  31
0.0
   0
LINE
   8
LEVEL001
   6
CONTINUOUS
  62
7
  10
 302.672
  20
 1040.00
  30
0.0
  11
 302.672
  21
 1039.62
  31
0.0
   0
LINE
   8
LEVEL001
   6
CONTINUOUS
  62
7
  10
 302.672
  20
 1039.62
  30
0.0
  11
 302.673
  21
 1039.24
  31
0.0
   0
LINE
   8
LEVEL001
   6
CONTINUOUS
  62
7
  10
 302.673
  20
 1039.24
  30
0.0
  11
 302.675
  21
 1038.87
  31
0.0
   0
LINE
   8
LEVEL001
   6
CONTINUOUS
  62
7
  10
 302.675
  20
 1038.87
  30
0.0
  11
 302.678
  21
 1038.49
  31
0.0
   0
LINE
   8
LEVEL001
   6
CONTINUOUS
  62
7
  10
 302.678
  20
 1038.49
  30
0.0
  11
 302.681
  21
 1038.13
  31
0.0
   0
LINE
   8
LEVEL001
   6
CONTINUOUS
  62
7
  10
 302.681
  20
 1038.13
  30
0.0
  11
 302.685
  21
 1037.76
  31
0.0
   0
LINE
   8
LEVEL001
   6
CONTINUOUS
  62
7
  10
 302.685
  20
 1037.76
  30
0.0
  11
 302.689
  21
 1037.41
  31
0.0
   0
LINE
   8
LEVEL001
   6
CONTINUOUS
  62
7
  10
 302.689
  20
 1037.41
  30
0.0
  11
 302.694
  21
 1037.06
  31
0.0
   0
LINE
   8
LEVEL001
   6
CONTINUOUS
  62
7
  10
 302.694
  20
 1037.06
  30
0.0
  11
 302.700
  21
 1036.72
  31
0.0
   0
LINE
   8
LEVEL001
   6
CONTINUOUS
  62
7
  10
 302.700
  20
 1036.72
  30
0.0
  11
 302.707
  21
 1036.39
  31
0.0
   0
LINE
   8
LEVEL001
   6
CONTINUOUS
  62
7
  10
 302.707
  20
 1036.39
  30
0.0
  11
 302.714
  21
 1036.07
  31
0.0
   0
LINE
   8
LEVEL001
   6
CONTINUOUS
  62
7
  10
 302.714
  20
 1036.07
  30
0.0
  11
 302.721
  21
 1035.76
  31
0.0
   0
LINE
   8
LEVEL001
   6
CONTINUOUS
  62
7
  10
 302.721
  20
 1035.76
  30
0.0
  11
 302.730
  21
 1035.47
  31
0.0
   0
LINE
   8
LEVEL001
   6
CONTINUOUS
  62
7
  10
 302.730
  20
 1035.47
  30
0.0
  11
 302.738
  21
 1035.19
  31
0.0
   0
LINE
   8
LEVEL001
   6
CONTINUOUS
  62
7
  10
 302.738
  20
 1035.19
  30
0.0
  11
 302.748
  21
 1034.92
  31
0.0
   0
LINE
   8
LEVEL001
   6
CONTINUOUS
  62
7
  10
 302.748
  20
 1034.92
  30
0.0
  11
 302.757
  21
 1034.66
  31
0.0
   0
LINE
   8
LEVEL001
   6
CONTINUOUS
  62
7
  10
 302.757
  20
 1034.66
  30
0.0
  11
 302.768
  21
 1034.43
  31
0.0
   0
LINE
   8
LEVEL001
   6
CONTINUOUS
  62
7
  10
 302.768
  20
 1034.43
  30
0.0
  11
 302.778
  21
 1034.21
  31
0.0
   0
LINE
   8
LEVEL001
   6
CONTINUOUS
  62
7
  10
 302.778
  20
 1034.21
  30
0.0
  11
 302.789
  21
 1034.00
  31
0.0
   0
LINE
   8
LEVEL001
   6
CONTINUOUS
  62
7
  10
 302.789
  20
 1034.00
  30
0.0
  11
 302.801
  21
 1033.81
  31
0.0
   0
LINE
   8
LEVEL001
   6
CONTINUOUS
  62
7
  10
 302.801
  20
 1033.81
  30
0.0
  11
 302.812
  21
 1033.65
  31
0.0
   0
LINE
   8
LEVEL001
   6
CONTINUOUS
  62
7
  10
 302.812
  20
 1033.65
  30
0.0
  11
 302.824
  21
 1033.50
  31
0.0
   0
LINE
   8
LEVEL001
   6
CONTINUOUS
  62
7
  10
 302.824
  20
 1033.50
  30
0.0
  11
 302.837
  21
 1033.37
  31
0.0
   0
LINE
   8
LEVEL001
   6
CONTINUOUS
  62
7
  10
 302.837
  20
 1033.37
  30
0.0
  11
 302.849
  21
 1033.25
  31
0.0
   0
LINE
   8
LEVEL001
   6
CONTINUOUS
  62
7
  10
 302.849
  20
 1033.25
  30
0.0
  11
 302.862
  21
 1033.16
  31
0.0
   0
LINE
   8
LEVEL001
   6
CONTINUOUS
  62
7
  10
 302.862
  20
 1033.16
  30
0.0
  11
 302.875
  21
 1033.09
  31
0.0
   0
LINE
   8
LEVEL001
   6
CONTINUOUS
  62
7
  10
 302.875
  20
 1033.09
  30
0.0
  11
 302.888
  21
 1033.04
  31
0.0
   0
LINE
   8
LEVEL001
   6
CONTINUOUS
  62
7
  10
 302.888
  20
 1033.04
  30
0.0
  11
 302.901
  21
 1033.01
  31
0.0
   0
LINE
   8
LEVEL001
   6
CONTINUOUS
  62
7
  10
 302.901
  20
 1033.01
  30
0.0
  11
 302.914
  21
 1033.00
  31
0.0
   0
LINE
   8
LEVEL001
   6
CONTINUOUS
  62
7
  10
 302.914
  20
 1033.00
  30
0.0
  11
 302.927
  21
 1033.01
  31
0.0
   0
LINE
   8
LEVEL001
   6
CONTINUOUS
  62
7
  10
 302.927
  20
 1033.01
  30
0.0
  11
 302.940
  21
 1033.04
  31
0.0
   0
LINE
   8
LEVEL001
   6
CONTINUOUS
  62
7
  10
 302.940
  20
 1033.04
  30
0.0
  11
 302.953
  21
 1033.09
  31
0.0
   0
LINE
   8
LEVEL001
   6
CONTINUOUS
  62
7
  10
 302.953
  20
 1033.09
  30
0.0
  11
 302.966
  21
 1033.16
  31
0.0
   0
LINE
   8
LEVEL001
   6
CONTINUOUS
  62
7
  10
 302.966
  20
 1033.16
  30
0.0
  11
 302.979
  21
 1033.26
  31
0.0
   0
LINE
   8
LEVEL001
   6
CONTINUOUS
  62
7
  10
 302.979
  20
 1033.26
  30
0.0
  11
 302.991
  21
 1033.37
  31
0.0
   0
LINE
   8
LEVEL001
   6
CONTINUOUS
  62
7
  10
 302.991
  20
 1033.37
  30
0.0
  11
 303.003
  21
 1033.50
  31
0.0
   0
ARC
   8
LEVEL001
   6
CONTINUOUS
  62
7
  10
 302.672
  20
 1040.00
  30
0.0
  40
 4.05079
  50
 328.995
  51
 31.0046
   0
LINE
   8
LEVEL001
   6
CONTINUOUS
  62
7
  10
 303.646
  20
 1033.00
  30
0.0
  11
 306.144
  21
 1037.91
  31
0.0
   0
LINE
   8
LEVEL001
   6
CONTINUOUS
  62
7
  10
 303.646
  20
 1047.00
  30
0.0
  11
 306.144
  21
 1042.09
  31
0.0
   0
LINE
   8
LEVEL001
   6
CONTINUOUS
  62
7
  10
 303.646
  20
 1047.00
  30
0.0
  11
 303.644
  21
 1047.00
  31
0.0
   0
LINE
   8
LEVEL001
   6
CONTINUOUS
  62
7
  10
 303.644
  20
 1047.00
  30
0.0
  11
 303.643
  21
 1047.00
  31
0.0
   0
LINE
   8
LEVEL001
   6
CONTINUOUS
  62
7
  10
 303.643
  20
 1047.00
  30
0.0
  11
 303.641
  21
 1047.00
  31
0.0
   0
LINE
   8
LEVEL001
   6
CONTINUOUS
  62
7
  10
 303.641
  20
 1047.00
  30
0.0
  11
 303.640
  21
 1047.00
  31
0.0
   0
LINE
   8
LEVEL001
   6
CONTINUOUS
  62
7
  10
 303.640
  20
 1047.00
  30
0.0
  11
 303.638
  21
 1047.00
  31
0.0
   0
LINE
   8
LEVEL001
   6
CONTINUOUS
  62
7
  10
 303.638
  20
 1047.00
  30
0.0
  11
 303.637
  21
 1047.00
  31
0.0
   0
LINE
   8
LEVEL001
   6
CONTINUOUS
  62
7
  10
 303.637
  20
 1047.00
  30
0.0
  11
 303.635
  21
 1047.00
  31
0.0
   0
LINE
   8
LEVEL001
   6
CONTINUOUS
  62
7
  10
 303.635
  20
 1047.00
  30
0.0
  11
 303.634
  21
 1046.99
  31
0.0
   0
LINE
   8
LEVEL001
   6
CONTINUOUS
  62
7
  10
 303.634
  20
 1046.99
  30
0.0
  11
 303.632
  21
 1046.99
  31
0.0
   0
LINE
   8
LEVEL001
   6
CONTINUOUS
  62
7
  10
 303.632
  20
 1046.99
  30
0.0
  11
 303.631
  21
 1046.99
  31
0.0
   0
LINE
   8
LEVEL001
   6
CONTINUOUS
  62
7
  10
 303.631
  20
 1046.99
  30
0.0
  11
 303.629
  21
 1046.99
  31
0.0
   0
LINE
   8
LEVEL001
   6
CONTINUOUS
  62
7
  10
 303.629
  20
 1046.99
  30
0.0
  11
 303.628
  21
 1046.99
  31
0.0
   0
LINE
   8
LEVEL001
   6
CONTINUOUS
  62
7
  10
 303.628
  20
 1046.99
  30
0.0
  11
 303.626
  21
 1046.98
  31
0.0
   0
LINE
   8
LEVEL001
   6
CONTINUOUS
  62
7
  10
 303.626
  20
 1046.98
  30
0.0
  11
 303.625
  21
 1046.98
  31
0.0
   0
LINE
   8
LEVEL001
   6
CONTINUOUS
  62
7
  10
 303.625
  20
 1046.98
  30
0.0
  11
 303.623
  21
 1046.98
  31
0.0
   0
LINE
   8
LEVEL001
   6
CONTINUOUS
  62
7
  10
 303.623
  20
 1046.98
  30
0.0
  11
 303.622
  21
 1046.98
  31
0.0
   0
LINE
   8
LEVEL001
   6
CONTINUOUS
  62
7
  10
 303.622
  20
 1046.98
  30
0.0
  11
 303.620
  21
 1046.97
  31
0.0
   0
LINE
   8
LEVEL001
   6
CONTINUOUS
  62
7
  10
 303.620
  20
 1046.97
  30
0.0
  11
 303.619
  21
 1046.97
  31
0.0
   0
LINE
   8
LEVEL001
   6
CONTINUOUS
  62
7
  10
 303.619
  20
 1046.97
  30
0.0
  11
 303.617
  21
 1046.96
  31
0.0
   0
LINE
   8
LEVEL001
   6
CONTINUOUS
  62
7
  10
 303.617
  20
 1046.96
  30
0.0
  11
 303.616
  21
 1046.96
  31
0.0
   0
LINE
   8
LEVEL001
   6
CONTINUOUS
  62
7
  10
 303.616
  20
 1046.96
  30
0.0
  11
 303.614
  21
 1046.96
  31
0.0
   0
LINE
   8
LEVEL001
   6
CONTINUOUS
  62
7
  10
 303.614
  20
 1046.96
  30
0.0
  11
 303.613
  21
 1046.95
  31
0.0
   0
LINE
   8
LEVEL001
   6
CONTINUOUS
  62
7
  10
 303.613
  20
 1046.95
  30
0.0
  11
 303.611
  21
 1046.95
  31
0.0
   0
LINE
   8
LEVEL001
   6
CONTINUOUS
  62
7
  10
 303.611
  20
 1046.95
  30
0.0
  11
 303.610
  21
 1046.94
  31
0.0
   0
LINE
   8
LEVEL001
   6
CONTINUOUS
  62
7
  10
 303.610
  20
 1046.94
  30
0.0
  11
 303.609
  21
 1046.94
  31
0.0
   0
LINE
   8
LEVEL001
   6
CONTINUOUS
  62
7
  10
 303.609
  20
 1046.94
  30
0.0
  11
 303.607
  21
 1046.93
  31
0.0
   0
LINE
   8
LEVEL001
   6
CONTINUOUS
  62
7
  10
 303.607
  20
 1046.93
  30
0.0
  11
 303.606
  21
 1046.93
  31
0.0
   0
LINE
   8
LEVEL001
   6
CONTINUOUS
  62
7
  10
 303.606
  20
 1046.93
  30
0.0
  11
 303.604
  21
 1046.92
  31
0.0
   0
LINE
   8
LEVEL001
   6
CONTINUOUS
  62
7
  10
 303.604
  20
 1046.92
  30
0.0
  11
 303.603
  21
 1046.92
  31
0.0
   0
LINE
   8
LEVEL001
   6
CONTINUOUS
  62
7
  10
 303.603
  20
 1046.92
  30
0.0
  11
 303.601
  21
 1046.91
  31
0.0
   0
LINE
   8
LEVEL001
   6
CONTINUOUS
  62
7
  10
 303.601
  20
 1046.91
  30
0.0
  11
 303.600
  21
 1046.91
  31
0.0
   0
LINE
   8
LEVEL001
   6
CONTINUOUS
  62
7
  10
 303.600
  20
 1046.91
  30
0.0
  11
 303.598
  21
 1046.90
  31
0.0
   0
LINE
   8
LEVEL001
   6
CONTINUOUS
  62
7
  10
 303.598
  20
 1046.90
  30
0.0
  11
 303.597
  21
 1046.89
  31
0.0
   0
LINE
   8
LEVEL001
   6
CONTINUOUS
  62
7
  10
 303.597
  20
 1046.89
  30
0.0
  11
 303.595
  21
 1046.89
  31
0.0
   0
LINE
   8
LEVEL001
   6
CONTINUOUS
  62
7
  10
 303.595
  20
 1046.89
  30
0.0
  11
 303.594
  21
 1046.88
  31
0.0
   0
LINE
   8
LEVEL001
   6
CONTINUOUS
  62
7
  10
 303.594
  20
 1046.88
  30
0.0
  11
 303.592
  21
 1046.87
  31
0.0
   0
LINE
   8
LEVEL001
   6
CONTINUOUS
  62
7
  10
 303.592
  20
 1046.87
  30
0.0
  11
 303.591
  21
 1046.87
  31
0.0
   0
LINE
   8
LEVEL001
   6
CONTINUOUS
  62
7
  10
 303.591
  20
 1046.87
  30
0.0
  11
 303.589
  21
 1046.86
  31
0.0
   0
LINE
   8
LEVEL001
   6
CONTINUOUS
  62
7
  10
 303.589
  20
 1046.86
  30
0.0
  11
 303.588
  21
 1046.85
  31
0.0
   0
LINE
   8
LEVEL001
   6
CONTINUOUS
  62
7
  10
 303.588
  20
 1046.85
  30
0.0
  11
 303.586
  21
 1046.84
  31
0.0
   0
LINE
   8
LEVEL001
   6
CONTINUOUS
  62
7
  10
 303.586
  20
 1046.84
  30
0.0
  11
 303.585
  21
 1046.84
  31
0.0
   0
LINE
   8
LEVEL001
   6
CONTINUOUS
  62
7
  10
 303.585
  20
 1046.84
  30
0.0
  11
 303.583
  21
 1046.83
  31
0.0
   0
LINE
   8
LEVEL001
   6
CONTINUOUS
  62
7
  10
 303.583
  20
 1046.83
  30
0.0
  11
 303.582
  21
 1046.82
  31
0.0
   0
LINE
   8
LEVEL001
   6
CONTINUOUS
  62
7
  10
 303.582
  20
 1046.82
  30
0.0
  11
 303.581
  21
 1046.81
  31
0.0
   0
LINE
   8
LEVEL001
   6
CONTINUOUS
  62
7
  10
 303.581
  20
 1046.81
  30
0.0
  11
 303.579
  21
 1046.80
  31
0.0
   0
LINE
   8
LEVEL001
   6
CONTINUOUS
  62
7
  10
 303.579
  20
 1046.80
  30
0.0
  11
 303.578
  21
 1046.79
  31
0.0
   0
LINE
   8
LEVEL001
   6
CONTINUOUS
  62
7
  10
 303.578
  20
 1046.79
  30
0.0
  11
 303.576
  21
 1046.79
  31
0.0
   0
LINE
   8
LEVEL001
   6
CONTINUOUS
  62
7
  10
 303.576
  20
 1046.79
  30
0.0
  11
 303.575
  21
 1046.78
  31
0.0
   0
LINE
   8
LEVEL001
   6
CONTINUOUS
  62
7
  10
 303.575
  20
 1046.78
  30
0.0
  11
 303.573
  21
 1046.77
  31
0.0
   0
LINE
   8
LEVEL001
   6
CONTINUOUS
  62
7
  10
 303.573
  20
 1046.77
  30
0.0
  11
 303.572
  21
 1046.76
  31
0.0
   0
LINE
   8
LEVEL001
   6
CONTINUOUS
  62
7
  10
 303.572
  20
 1046.76
  30
0.0
  11
 303.570
  21
 1046.75
  31
0.0
   0
LINE
   8
LEVEL001
   6
CONTINUOUS
  62
7
  10
 303.570
  20
 1046.75
  30
0.0
  11
 303.569
  21
 1046.74
  31
0.0
   0
LINE
   8
LEVEL001
   6
CONTINUOUS
  62
7
  10
 303.569
  20
 1046.74
  30
0.0
  11
 303.568
  21
 1046.73
  31
0.0
   0
LINE
   8
LEVEL001
   6
CONTINUOUS
  62
7
  10
 303.568
  20
 1046.73
  30
0.0
  11
 303.566
  21
 1046.72
  31
0.0
   0
LINE
   8
LEVEL001
   6
CONTINUOUS
  62
7
  10
 303.566
  20
 1046.72
  30
0.0
  11
 303.565
  21
 1046.71
  31
0.0
   0
LINE
   8
LEVEL001
   6
CONTINUOUS
  62
7
  10
 303.565
  20
 1046.71
  30
0.0
  11
 303.563
  21
 1046.70
  31
0.0
   0
LINE
   8
LEVEL001
   6
CONTINUOUS
  62
7
  10
 303.563
  20
 1046.70
  30
0.0
  11
 303.562
  21
 1046.69
  31
0.0
   0
LINE
   8
LEVEL001
   6
CONTINUOUS
  62
7
  10
 303.562
  20
 1046.69
  30
0.0
  11
 303.560
  21
 1046.68
  31
0.0
   0
LINE
   8
LEVEL001
   6
CONTINUOUS
  62
7
  10
 303.560
  20
 1046.68
  30
0.0
  11
 303.559
  21
 1046.66
  31
0.0
   0
LINE
   8
LEVEL001
   6
CONTINUOUS
  62
7
  10
 303.559
  20
 1046.66
  30
0.0
  11
 303.557
  21
 1046.65
  31
0.0
   0
LINE
   8
LEVEL001
   6
CONTINUOUS
  62
7
  10
 303.557
  20
 1046.65
  30
0.0
  11
 303.556
  21
 1046.64
  31
0.0
   0
LINE
   8
LEVEL001
   6
CONTINUOUS
  62
7
  10
 303.556
  20
 1046.64
  30
0.0
  11
 303.555
  21
 1046.63
  31
0.0
   0
LINE
   8
LEVEL001
   6
CONTINUOUS
  62
7
  10
 303.555
  20
 1046.63
  30
0.0
  11
 303.553
  21
 1046.62
  31
0.0
   0
LINE
   8
LEVEL001
   6
CONTINUOUS
  62
7
  10
 303.553
  20
 1046.62
  30
0.0
  11
 303.552
  21
 1046.60
  31
0.0
   0
LINE
   8
LEVEL001
   6
CONTINUOUS
  62
7
  10
 303.552
  20
 1046.60
  30
0.0
  11
 303.550
  21
 1046.59
  31
0.0
   0
LINE
   8
LEVEL001
   6
CONTINUOUS
  62
7
  10
 303.550
  20
 1046.59
  30
0.0
  11
 303.549
  21
 1046.58
  31
0.0
   0
LINE
   8
LEVEL001
   6
CONTINUOUS
  62
7
  10
 303.549
  20
 1046.58
  30
0.0
  11
 303.548
  21
 1046.57
  31
0.0
   0
LINE
   8
LEVEL001
   6
CONTINUOUS
  62
7
  10
 303.548
  20
 1046.57
  30
0.0
  11
 303.546
  21
 1046.55
  31
0.0
   0
LINE
   8
LEVEL001
   6
CONTINUOUS
  62
7
  10
 303.546
  20
 1046.55
  30
0.0
  11
 303.545
  21
 1046.54
  31
0.0
   0
LINE
   8
LEVEL001
   6
CONTINUOUS
  62
7
  10
 303.545
  20
 1046.54
  30
0.0
  11
 303.543
  21
 1046.53
  31
0.0
   0
LINE
   8
LEVEL001
   6
CONTINUOUS
  62
7
  10
 303.543
  20
 1046.53
  30
0.0
  11
 303.542
  21
 1046.51
  31
0.0
   0
LINE
   8
LEVEL001
   6
CONTINUOUS
  62
7
  10
 303.542
  20
 1046.51
  30
0.0
  11
 303.541
  21
 1046.50
  31
0.0
   0
LINE
   8
LEVEL001
   6
CONTINUOUS
  62
7
  10
 303.541
  20
 1033.50
  30
0.0
  11
 303.542
  21
 1033.49
  31
0.0
   0
LINE
   8
LEVEL001
   6
CONTINUOUS
  62
7
  10
 303.542
  20
 1033.49
  30
0.0
  11
 303.543
  21
 1033.47
  31
0.0
   0
LINE
   8
LEVEL001
   6
CONTINUOUS
  62
7
  10
 303.543
  20
 1033.47
  30
0.0
  11
 303.545
  21
 1033.46
  31
0.0
   0
LINE
   8
LEVEL001
   6
CONTINUOUS
  62
7
  10
 303.545
  20
 1033.46
  30
0.0
  11
 303.546
  21
 1033.45
  31
0.0
   0
LINE
   8
LEVEL001
   6
CONTINUOUS
  62
7
  10
 303.546
  20
 1033.45
  30
0.0
  11
 303.548
  21
 1033.43
  31
0.0
   0
LINE
   8
LEVEL001
   6
CONTINUOUS
  62
7
  10
 303.548
  20
 1033.43
  30
0.0
  11
 303.549
  21
 1033.42
  31
0.0
   0
LINE
   8
LEVEL001
   6
CONTINUOUS
  62
7
  10
 303.549
  20
 1033.42
  30
0.0
  11
 303.550
  21
 1033.41
  31
0.0
   0
LINE
   8
LEVEL001
   6
CONTINUOUS
  62
7
  10
 303.550
  20
 1033.41
  30
0.0
  11
 303.552
  21
 1033.40
  31
0.0
   0
LINE
   8
LEVEL001
   6
CONTINUOUS
  62
7
  10
 303.552
  20
 1033.40
  30
0.0
  11
 303.553
  21
 1033.38
  31
0.0
   0
LINE
   8
LEVEL001
   6
CONTINUOUS
  62
7
  10
 303.553
  20
 1033.38
  30
0.0
  11
 303.555
  21
 1033.37
  31
0.0
   0
LINE
   8
LEVEL001
   6
CONTINUOUS
  62
7
  10
 303.555
  20
 1033.37
  30
0.0
  11
 303.556
  21
 1033.36
  31
0.0
   0
LINE
   8
LEVEL001
   6
CONTINUOUS
  62
7
  10
 303.556
  20
 1033.36
  30
0.0
  11
 303.557
  21
 1033.35
  31
0.0
   0
LINE
   8
LEVEL001
   6
CONTINUOUS
  62
7
  10
 303.557
  20
 1033.35
  30
0.0
  11
 303.559
  21
 1033.34
  31
0.0
   0
LINE
   8
LEVEL001
   6
CONTINUOUS
  62
7
  10
 303.559
  20
 1033.34
  30
0.0
  11
 303.560
  21
 1033.32
  31
0.0
   0
LINE
   8
LEVEL001
   6
CONTINUOUS
  62
7
  10
 303.560
  20
 1033.32
  30
0.0
  11
 303.562
  21
 1033.31
  31
0.0
   0
LINE
   8
LEVEL001
   6
CONTINUOUS
  62
7
  10
 303.562
  20
 1033.31
  30
0.0
  11
 303.563
  21
 1033.30
  31
0.0
   0
LINE
   8
LEVEL001
   6
CONTINUOUS
  62
7
  10
 303.563
  20
 1033.30
  30
0.0
  11
 303.565
  21
 1033.29
  31
0.0
   0
LINE
   8
LEVEL001
   6
CONTINUOUS
  62
7
  10
 303.565
  20
 1033.29
  30
0.0
  11
 303.566
  21
 1033.28
  31
0.0
   0
LINE
   8
LEVEL001
   6
CONTINUOUS
  62
7
  10
 303.566
  20
 1033.28
  30
0.0
  11
 303.568
  21
 1033.27
  31
0.0
   0
LINE
   8
LEVEL001
   6
CONTINUOUS
  62
7
  10
 303.568
  20
 1033.27
  30
0.0
  11
 303.569
  21
 1033.26
  31
0.0
   0
LINE
   8
LEVEL001
   6
CONTINUOUS
  62
7
  10
 303.569
  20
 1033.26
  30
0.0
  11
 303.570
  21
 1033.25
  31
0.0
   0
LINE
   8
LEVEL001
   6
CONTINUOUS
  62
7
  10
 303.570
  20
 1033.25
  30
0.0
  11
 303.572
  21
 1033.24
  31
0.0
   0
LINE
   8
LEVEL001
   6
CONTINUOUS
  62
7
  10
 303.572
  20
 1033.24
  30
0.0
  11
 303.573
  21
 1033.23
  31
0.0
   0
LINE
   8
LEVEL001
   6
CONTINUOUS
  62
7
  10
 303.573
  20
 1033.23
  30
0.0
  11
 303.575
  21
 1033.22
  31
0.0
   0
LINE
   8
LEVEL001
   6
CONTINUOUS
  62
7
  10
 303.575
  20
 1033.22
  30
0.0
  11
 303.576
  21
 1033.21
  31
0.0
   0
LINE
   8
LEVEL001
   6
CONTINUOUS
  62
7
  10
 303.576
  20
 1033.21
  30
0.0
  11
 303.578
  21
 1033.21
  31
0.0
   0
LINE
   8
LEVEL001
   6
CONTINUOUS
  62
7
  10
 303.578
  20
 1033.21
  30
0.0
  11
 303.579
  21
 1033.20
  31
0.0
   0
LINE
   8
LEVEL001
   6
CONTINUOUS
  62
7
  10
 303.579
  20
 1033.20
  30
0.0
  11
 303.581
  21
 1033.19
  31
0.0
   0
LINE
   8
LEVEL001
   6
CONTINUOUS
  62
7
  10
 303.581
  20
 1033.19
  30
0.0
  11
 303.582
  21
 1033.18
  31
0.0
   0
LINE
   8
LEVEL001
   6
CONTINUOUS
  62
7
  10
 303.582
  20
 1033.18
  30
0.0
  11
 303.583
  21
 1033.17
  31
0.0
   0
LINE
   8
LEVEL001
   6
CONTINUOUS
  62
7
  10
 303.583
  20
 1033.17
  30
0.0
  11
 303.585
  21
 1033.16
  31
0.0
   0
LINE
   8
LEVEL001
   6
CONTINUOUS
  62
7
  10
 303.585
  20
 1033.16
  30
0.0
  11
 303.586
  21
 1033.16
  31
0.0
   0
LINE
   8
LEVEL001
   6
CONTINUOUS
  62
7
  10
 303.586
  20
 1033.16
  30
0.0
  11
 303.588
  21
 1033.15
  31
0.0
   0
LINE
   8
LEVEL001
   6
CONTINUOUS
  62
7
  10
 303.588
  20
 1033.15
  30
0.0
  11
 303.589
  21
 1033.14
  31
0.0
   0
LINE
   8
LEVEL001
   6
CONTINUOUS
  62
7
  10
 303.589
  20
 1033.14
  30
0.0
  11
 303.591
  21
 1033.13
  31
0.0
   0
LINE
   8
LEVEL001
   6
CONTINUOUS
  62
7
  10
 303.591
  20
 1033.13
  30
0.0
  11
 303.592
  21
 1033.13
  31
0.0
   0
LINE
   8
LEVEL001
   6
CONTINUOUS
  62
7
  10
 303.592
  20
 1033.13
  30
0.0
  11
 303.594
  21
 1033.12
  31
0.0
   0
LINE
   8
LEVEL001
   6
CONTINUOUS
  62
7
  10
 303.594
  20
 1033.12
  30
0.0
  11
 303.595
  21
 1033.11
  31
0.0
   0
LINE
   8
LEVEL001
   6
CONTINUOUS
  62
7
  10
 303.595
  20
 1033.11
  30
0.0
  11
 303.597
  21
 1033.11
  31
0.0
   0
LINE
   8
LEVEL001
   6
CONTINUOUS
  62
7
  10
 303.597
  20
 1033.11
  30
0.0
  11
 303.598
  21
 1033.10
  31
0.0
   0
LINE
   8
LEVEL001
   6
CONTINUOUS
  62
7
  10
 303.598
  20
 1033.10
  30
0.0
  11
 303.600
  21
 1033.09
  31
0.0
   0
LINE
   8
LEVEL001
   6
CONTINUOUS
  62
7
  10
 303.600
  20
 1033.09
  30
0.0
  11
 303.601
  21
 1033.09
  31
0.0
   0
LINE
   8
LEVEL001
   6
CONTINUOUS
  62
7
  10
 303.601
  20
 1033.09
  30
0.0
  11
 303.603
  21
 1033.08
  31
0.0
   0
LINE
   8
LEVEL001
   6
CONTINUOUS
  62
7
  10
 303.603
  20
 1033.08
  30
0.0
  11
 303.604
  21
 1033.08
  31
0.0
   0
LINE
   8
LEVEL001
   6
CONTINUOUS
  62
7
  10
 303.604
  20
 1033.08
  30
0.0
  11
 303.606
  21
 1033.07
  31
0.0
   0
LINE
   8
LEVEL001
   6
CONTINUOUS
  62
7
  10
 303.606
  20
 1033.07
  30
0.0
  11
 303.607
  21
 1033.07
  31
0.0
   0
LINE
   8
LEVEL001
   6
CONTINUOUS
  62
7
  10
 303.607
  20
 1033.07
  30
0.0
  11
 303.609
  21
 1033.06
  31
0.0
   0
LINE
   8
LEVEL001
   6
CONTINUOUS
  62
7
  10
 303.609
  20
 1033.06
  30
0.0
  11
 303.610
  21
 1033.06
  31
0.0
   0
LINE
   8
LEVEL001
   6
CONTINUOUS
  62
7
  10
 303.610
  20
 1033.06
  30
0.0
  11
 303.611
  21
 1033.05
  31
0.0
   0
LINE
   8
LEVEL001
   6
CONTINUOUS
  62
7
  10
 303.611
  20
 1033.05
  30
0.0
  11
 303.613
  21
 1033.05
  31
0.0
   0
LINE
   8
LEVEL001
   6
CONTINUOUS
  62
7
  10
 303.613
  20
 1033.05
  30
0.0
  11
 303.614
  21
 1033.04
  31
0.0
   0
LINE
   8
LEVEL001
   6
CONTINUOUS
  62
7
  10
 303.614
  20
 1033.04
  30
0.0
  11
 303.616
  21
 1033.04
  31
0.0
   0
LINE
   8
LEVEL001
   6
CONTINUOUS
  62
7
  10
 303.616
  20
 1033.04
  30
0.0
  11
 303.617
  21
 1033.04
  31
0.0
   0
LINE
   8
LEVEL001
   6
CONTINUOUS
  62
7
  10
 303.617
  20
 1033.04
  30
0.0
  11
 303.619
  21
 1033.03
  31
0.0
   0
LINE
   8
LEVEL001
   6
CONTINUOUS
  62
7
  10
 303.619
  20
 1033.03
  30
0.0
  11
 303.620
  21
 1033.03
  31
0.0
   0
LINE
   8
LEVEL001
   6
CONTINUOUS
  62
7
  10
 303.620
  20
 1033.03
  30
0.0
  11
 303.622
  21
 1033.02
  31
0.0
   0
LINE
   8
LEVEL001
   6
CONTINUOUS
  62
7
  10
 303.622
  20
 1033.02
  30
0.0
  11
 303.623
  21
 1033.02
  31
0.0
   0
LINE
   8
LEVEL001
   6
CONTINUOUS
  62
7
  10
 303.623
  20
 1033.02
  30
0.0
  11
 303.625
  21
 1033.02
  31
0.0
   0
LINE
   8
LEVEL001
   6
CONTINUOUS
  62
7
  10
 303.625
  20
 1033.02
  30
0.0
  11
 303.626
  21
 1033.02
  31
0.0
   0
LINE
   8
LEVEL001
   6
CONTINUOUS
  62
7
  10
 303.626
  20
 1033.02
  30
0.0
  11
 303.628
  21
 1033.01
  31
0.0
   0
LINE
   8
LEVEL001
   6
CONTINUOUS
  62
7
  10
 303.628
  20
 1033.01
  30
0.0
  11
 303.629
  21
 1033.01
  31
0.0
   0
LINE
   8
LEVEL001
   6
CONTINUOUS
  62
7
  10
 303.629
  20
 1033.01
  30
0.0
  11
 303.631
  21
 1033.01
  31
0.0
   0
LINE
   8
LEVEL001
   6
CONTINUOUS
  62
7
  10
 303.631
  20
 1033.01
  30
0.0
  11
 303.632
  21
 1033.01
  31
0.0
   0
LINE
   8
LEVEL001
   6
CONTINUOUS
  62
7
  10
 303.632
  20
 1033.01
  30
0.0
  11
 303.634
  21
 1033.01
  31
0.0
   0
LINE
   8
LEVEL001
   6
CONTINUOUS
  62
7
  10
 303.634
  20
 1033.01
  30
0.0
  11
 303.635
  21
 1033.00
  31
0.0
   0
LINE
   8
LEVEL001
   6
CONTINUOUS
  62
7
  10
 303.635
  20
 1033.00
  30
0.0
  11
 303.637
  21
 1033.00
  31
0.0
   0
LINE
   8
LEVEL001
   6
CONTINUOUS
  62
7
  10
 303.637
  20
 1033.00
  30
0.0
  11
 303.638
  21
 1033.00
  31
0.0
   0
LINE
   8
LEVEL001
   6
CONTINUOUS
  62
7
  10
 303.638
  20
 1033.00
  30
0.0
  11
 303.640
  21
 1033.00
  31
0.0
   0
LINE
   8
LEVEL001
   6
CONTINUOUS
  62
7
  10
 303.640
  20
 1033.00
  30
0.0
  11
 303.641
  21
 1033.00
  31
0.0
   0
LINE
   8
LEVEL001
   6
CONTINUOUS
  62
7
  10
 303.641
  20
 1033.00
  30
0.0
  11
 303.643
  21
 1033.00
  31
0.0
   0
LINE
   8
LEVEL001
   6
CONTINUOUS
  62
7
  10
 303.643
  20
 1033.00
  30
0.0
  11
 303.644
  21
 1033.00
  31
0.0
   0
LINE
   8
LEVEL001
   6
CONTINUOUS
  62
7
  10
 303.644
  20
 1033.00
  30
0.0
  11
 303.646
  21
 1033.00
  31
0.0
   0
ARC
   8
LEVEL001
   6
CONTINUOUS
  62
7
  10
 275.001
  20
 873.960
  30
0.0
  40
 1.00000
  50
 180.000
  51
0.0
   0
LINE
   8
LEVEL001
   6
CONTINUOUS
  62
7
  10
 276.001
  20
 873.960
  30
0.0
  11
 276.000
  21
 874.000
  31
0.0
   0
LINE
   8
LEVEL001
   6
CONTINUOUS
  62
7
  10
 276.000
  20
 874.000
  30
0.0
  11
 275.997
  21
 874.040
  31
0.0
   0
LINE
   8
LEVEL001
   6
CONTINUOUS
  62
7
  10
 275.997
  20
 874.040
  30
0.0
  11
 275.992
  21
 874.080
  31
0.0
   0
LINE
   8
LEVEL001
   6
CONTINUOUS
  62
7
  10
 275.992
  20
 874.080
  30
0.0
  11
 275.986
  21
 874.120
  31
0.0
   0
LINE
   8
LEVEL001
   6
CONTINUOUS
  62
7
  10
 275.986
  20
 874.120
  30
0.0
  11
 275.977
  21
 874.159
  31
0.0
   0
LINE
   8
LEVEL001
   6
CONTINUOUS
  62
7
  10
 275.977
  20
 874.159
  30
0.0
  11
 275.967
  21
 874.199
  31
0.0
   0
LINE
   8
LEVEL001
   6
CONTINUOUS
  62
7
  10
 275.967
  20
 874.199
  30
0.0
  11
 275.955
  21
 874.237
  31
0.0
   0
LINE
   8
LEVEL001
   6
CONTINUOUS
  62
7
  10
 275.955
  20
 874.237
  30
0.0
  11
 275.940
  21
 874.275
  31
0.0
   0
LINE
   8
LEVEL001
   6
CONTINUOUS
  62
7
  10
 275.940
  20
 874.275
  30
0.0
  11
 275.925
  21
 874.313
  31
0.0
   0
LINE
   8
LEVEL001
   6
CONTINUOUS
  62
7
  10
 275.925
  20
 874.313
  30
0.0
  11
 275.907
  21
 874.349
  31
0.0
   0
LINE
   8
LEVEL001
   6
CONTINUOUS
  62
7
  10
 275.907
  20
 874.349
  30
0.0
  11
 275.888
  21
 874.386
  31
0.0
   0
LINE
   8
LEVEL001
   6
CONTINUOUS
  62
7
  10
 275.888
  20
 874.386
  30
0.0
  11
 275.867
  21
 874.421
  31
0.0
   0
LINE
   8
LEVEL001
   6
CONTINUOUS
  62
7
  10
 275.867
  20
 874.421
  30
0.0
  11
 275.844
  21
 874.455
  31
0.0
   0
LINE
   8
LEVEL001
   6
CONTINUOUS
  62
7
  10
 275.844
  20
 874.455
  30
0.0
  11
 275.820
  21
 874.489
  31
0.0
   0
LINE
   8
LEVEL001
   6
CONTINUOUS
  62
7
  10
 275.820
  20
 874.489
  30
0.0
  11
 275.794
  21
 874.521
  31
0.0
   0
LINE
   8
LEVEL001
   6
CONTINUOUS
  62
7
  10
 275.794
  20
 874.521
  30
0.0
  11
 275.767
  21
 874.552
  31
0.0
   0
LINE
   8
LEVEL001
   6
CONTINUOUS
  62
7
  10
 275.767
  20
 874.552
  30
0.0
  11
 275.738
  21
 874.583
  31
0.0
   0
LINE
   8
LEVEL001
   6
CONTINUOUS
  62
7
  10
 275.738
  20
 874.583
  30
0.0
  11
 275.708
  21
 874.612
  31
0.0
   0
LINE
   8
LEVEL001
   6
CONTINUOUS
  62
7
  10
 275.708
  20
 874.612
  30
0.0
  11
 275.676
  21
 874.639
  31
0.0
   0
LINE
   8
LEVEL001
   6
CONTINUOUS
  62
7
  10
 275.676
  20
 874.639
  30
0.0
  11
 275.644
  21
 874.666
  31
0.0
   0
LINE
   8
LEVEL001
   6
CONTINUOUS
  62
7
  10
 275.644
  20
 874.666
  30
0.0
  11
 275.610
  21
 874.691
  31
0.0
   0
LINE
   8
LEVEL001
   6
CONTINUOUS
  62
7
  10
 275.610
  20
 874.691
  30
0.0
  11
 275.574
  21
 874.715
  31
0.0
   0
LINE
   8
LEVEL001
   6
CONTINUOUS
  62
7
  10
 275.574
  20
 874.715
  30
0.0
  11
 275.538
  21
 874.737
  31
0.0
   0
LINE
   8
LEVEL001
   6
CONTINUOUS
  62
7
  10
 275.538
  20
 874.737
  30
0.0
  11
 275.501
  21
 874.758
  31
0.0
   0
LINE
   8
LEVEL001
   6
CONTINUOUS
  62
7
  10
 275.501
  20
 874.758
  30
0.0
  11
 275.463
  21
 874.777
  31
0.0
   0
LINE
   8
LEVEL001
   6
CONTINUOUS
  62
7
  10
 275.463
  20
 874.777
  30
0.0
  11
 275.423
  21
 874.795
  31
0.0
   0
LINE
   8
LEVEL001
   6
CONTINUOUS
  62
7
  10
 275.423
  20
 874.795
  30
0.0
  11
 275.383
  21
 874.811
  31
0.0
   0
LINE
   8
LEVEL001
   6
CONTINUOUS
  62
7
  10
 275.383
  20
 874.811
  30
0.0
  11
 275.343
  21
 874.826
  31
0.0
   0
LINE
   8
LEVEL001
   6
CONTINUOUS
  62
7
  10
 275.343
  20
 874.826
  30
0.0
  11
 275.301
  21
 874.839
  31
0.0
   0
LINE
   8
LEVEL001
   6
CONTINUOUS
  62
7
  10
 275.301
  20
 874.839
  30
0.0
  11
 275.260
  21
 874.850
  31
0.0
   0
LINE
   8
LEVEL001
   6
CONTINUOUS
  62
7
  10
 275.260
  20
 874.850
  30
0.0
  11
 275.217
  21
 874.860
  31
0.0
   0
LINE
   8
LEVEL001
   6
CONTINUOUS
  62
7
  10
 275.217
  20
 874.860
  30
0.0
  11
 275.174
  21
 874.868
  31
0.0
   0
LINE
   8
LEVEL001
   6
CONTINUOUS
  62
7
  10
 275.174
  20
 874.868
  30
0.0
  11
 275.131
  21
 874.874
  31
0.0
   0
LINE
   8
LEVEL001
   6
CONTINUOUS
  62
7
  10
 275.131
  20
 874.874
  30
0.0
  11
 275.088
  21
 874.878
  31
0.0
   0
LINE
   8
LEVEL001
   6
CONTINUOUS
  62
7
  10
 275.088
  20
 874.878
  30
0.0
  11
 275.044
  21
 874.881
  31
0.0
   0
LINE
   8
LEVEL001
   6
CONTINUOUS
  62
7
  10
 275.044
  20
 874.881
  30
0.0
  11
 275.001
  21
 874.882
  31
0.0
   0
LINE
   8
LEVEL001
   6
CONTINUOUS
  62
7
  10
 275.001
  20
 874.882
  30
0.0
  11
 274.957
  21
 874.881
  31
0.0
   0
LINE
   8
LEVEL001
   6
CONTINUOUS
  62
7
  10
 274.957
  20
 874.881
  30
0.0
  11
 274.914
  21
 874.878
  31
0.0
   0
LINE
   8
LEVEL001
   6
CONTINUOUS
  62
7
  10
 274.914
  20
 874.878
  30
0.0
  11
 274.870
  21
 874.874
  31
0.0
   0
LINE
   8
LEVEL001
   6
CONTINUOUS
  62
7
  10
 274.870
  20
 874.874
  30
0.0
  11
 274.827
  21
 874.868
  31
0.0
   0
LINE
   8
LEVEL001
   6
CONTINUOUS
  62
7
  10
 274.827
  20
 874.868
  30
0.0
  11
 274.784
  21
 874.860
  31
0.0
   0
LINE
   8
LEVEL001
   6
CONTINUOUS
  62
7
  10
 274.784
  20
 874.860
  30
0.0
  11
 274.742
  21
 874.850
  31
0.0
   0
LINE
   8
LEVEL001
   6
CONTINUOUS
  62
7
  10
 274.742
  20
 874.850
  30
0.0
  11
 274.700
  21
 874.839
  31
0.0
   0
LINE
   8
LEVEL001
   6
CONTINUOUS
  62
7
  10
 274.700
  20
 874.839
  30
0.0
  11
 274.659
  21
 874.826
  31
0.0
   0
LINE
   8
LEVEL001
   6
CONTINUOUS
  62
7
  10
 274.659
  20
 874.826
  30
0.0
  11
 274.618
  21
 874.811
  31
0.0
   0
LINE
   8
LEVEL001
   6
CONTINUOUS
  62
7
  10
 274.618
  20
 874.811
  30
0.0
  11
 274.578
  21
 874.795
  31
0.0
   0
LINE
   8
LEVEL001
   6
CONTINUOUS
  62
7
  10
 274.578
  20
 874.795
  30
0.0
  11
 274.539
  21
 874.777
  31
0.0
   0
LINE
   8
LEVEL001
   6
CONTINUOUS
  62
7
  10
 274.539
  20
 874.777
  30
0.0
  11
 274.501
  21
 874.758
  31
0.0
   0
LINE
   8
LEVEL001
   6
CONTINUOUS
  62
7
  10
 274.501
  20
 874.758
  30
0.0
  11
 274.463
  21
 874.737
  31
0.0
   0
LINE
   8
LEVEL001
   6
CONTINUOUS
  62
7
  10
 274.463
  20
 874.737
  30
0.0
  11
 274.427
  21
 874.715
  31
0.0
   0
LINE
   8
LEVEL001
   6
CONTINUOUS
  62
7
  10
 274.427
  20
 874.715
  30
0.0
  11
 274.392
  21
 874.691
  31
0.0
   0
LINE
   8
LEVEL001
   6
CONTINUOUS
  62
7
  10
 274.392
  20
 874.691
  30
0.0
  11
 274.358
  21
 874.666
  31
0.0
   0
LINE
   8
LEVEL001
   6
CONTINUOUS
  62
7
  10
 274.358
  20
 874.666
  30
0.0
  11
 274.325
  21
 874.639
  31
0.0
   0
LINE
   8
LEVEL001
   6
CONTINUOUS
  62
7
  10
 274.325
  20
 874.639
  30
0.0
  11
 274.294
  21
 874.612
  31
0.0
   0
LINE
   8
LEVEL001
   6
CONTINUOUS
  62
7
  10
 274.294
  20
 874.612
  30
0.0
  11
 274.264
  21
 874.583
  31
0.0
   0
LINE
   8
LEVEL001
   6
CONTINUOUS
  62
7
  10
 274.264
  20
 874.583
  30
0.0
  11
 274.235
  21
 874.552
  31
0.0
   0
LINE
   8
LEVEL001
   6
CONTINUOUS
  62
7
  10
 274.235
  20
 874.552
  30
0.0
  11
 274.207
  21
 874.521
  31
0.0
   0
LINE
   8
LEVEL001
   6
CONTINUOUS
  62
7
  10
 274.207
  20
 874.521
  30
0.0
  11
 274.182
  21
 874.489
  31
0.0
   0
LINE
   8
LEVEL001
   6
CONTINUOUS
  62
7
  10
 274.182
  20
 874.489
  30
0.0
  11
 274.157
  21
 874.455
  31
0.0
   0
LINE
   8
LEVEL001
   6
CONTINUOUS
  62
7
  10
 274.157
  20
 874.455
  30
0.0
  11
 274.135
  21
 874.421
  31
0.0
   0
LINE
   8
LEVEL001
   6
CONTINUOUS
  62
7
  10
 274.135
  20
 874.421
  30
0.0
  11
 274.114
  21
 874.386
  31
0.0
   0
LINE
   8
LEVEL001
   6
CONTINUOUS
  62
7
  10
 274.114
  20
 874.386
  30
0.0
  11
 274.094
  21
 874.349
  31
0.0
   0
LINE
   8
LEVEL001
   6
CONTINUOUS
  62
7
  10
 274.094
  20
 874.349
  30
0.0
  11
 274.077
  21
 874.313
  31
0.0
   0
LINE
   8
LEVEL001
   6
CONTINUOUS
  62
7
  10
 274.077
  20
 874.313
  30
0.0
  11
 274.061
  21
 874.275
  31
0.0
   0
LINE
   8
LEVEL001
   6
CONTINUOUS
  62
7
  10
 274.061
  20
 874.275
  30
0.0
  11
 274.047
  21
 874.237
  31
0.0
   0
LINE
   8
LEVEL001
   6
CONTINUOUS
  62
7
  10
 274.047
  20
 874.237
  30
0.0
  11
 274.035
  21
 874.199
  31
0.0
   0
LINE
   8
LEVEL001
   6
CONTINUOUS
  62
7
  10
 274.035
  20
 874.199
  30
0.0
  11
 274.024
  21
 874.159
  31
0.0
   0
LINE
   8
LEVEL001
   6
CONTINUOUS
  62
7
  10
 274.024
  20
 874.159
  30
0.0
  11
 274.016
  21
 874.120
  31
0.0
   0
LINE
   8
LEVEL001
   6
CONTINUOUS
  62
7
  10
 274.016
  20
 874.120
  30
0.0
  11
 274.009
  21
 874.080
  31
0.0
   0
LINE
   8
LEVEL001
   6
CONTINUOUS
  62
7
  10
 274.009
  20
 874.080
  30
0.0
  11
 274.005
  21
 874.040
  31
0.0
   0
LINE
   8
LEVEL001
   6
CONTINUOUS
  62
7
  10
 274.005
  20
 874.040
  30
0.0
  11
 274.002
  21
 874.000
  31
0.0
   0
LINE
   8
LEVEL001
   6
CONTINUOUS
  62
7
  10
 274.002
  20
 874.000
  30
0.0
  11
 274.001
  21
 873.960
  31
0.0
   0
LINE
   8
LEVEL001
   6
CONTINUOUS
  62
7
  10
 277.400
  20
 873.960
  30
0.0
  11
 277.391
  21
 874.153
  31
0.0
   0
LINE
   8
LEVEL001
   6
CONTINUOUS
  62
7
  10
 277.391
  20
 874.153
  30
0.0
  11
 277.364
  21
 874.344
  31
0.0
   0
LINE
   8
LEVEL001
   6
CONTINUOUS
  62
7
  10
 277.364
  20
 874.344
  30
0.0
  11
 277.318
  21
 874.533
  31
0.0
   0
LINE
   8
LEVEL001
   6
CONTINUOUS
  62
7
  10
 277.318
  20
 874.533
  30
0.0
  11
 277.255
  21
 874.717
  31
0.0
   0
LINE
   8
LEVEL001
   6
CONTINUOUS
  62
7
  10
 277.255
  20
 874.717
  30
0.0
  11
 277.175
  21
 874.895
  31
0.0
   0
LINE
   8
LEVEL001
   6
CONTINUOUS
  62
7
  10
 277.175
  20
 874.895
  30
0.0
  11
 277.079
  21
 875.067
  31
0.0
   0
LINE
   8
LEVEL001
   6
CONTINUOUS
  62
7
  10
 277.079
  20
 875.067
  30
0.0
  11
 276.966
  21
 875.229
  31
0.0
   0
LINE
   8
LEVEL001
   6
CONTINUOUS
  62
7
  10
 276.966
  20
 875.229
  30
0.0
  11
 276.839
  21
 875.383
  31
0.0
   0
LINE
   8
LEVEL001
   6
CONTINUOUS
  62
7
  10
 276.839
  20
 875.383
  30
0.0
  11
 276.697
  21
 875.525
  31
0.0
   0
LINE
   8
LEVEL001
   6
CONTINUOUS
  62
7
  10
 276.697
  20
 875.525
  30
0.0
  11
 276.543
  21
 875.655
  31
0.0
   0
LINE
   8
LEVEL001
   6
CONTINUOUS
  62
7
  10
 276.543
  20
 875.655
  30
0.0
  11
 276.377
  21
 875.773
  31
0.0
   0
LINE
   8
LEVEL001
   6
CONTINUOUS
  62
7
  10
 276.377
  20
 875.773
  30
0.0
  11
 276.200
  21
 875.877
  31
0.0
   0
LINE
   8
LEVEL001
   6
CONTINUOUS
  62
7
  10
 276.200
  20
 875.877
  30
0.0
  11
 276.015
  21
 875.966
  31
0.0
   0
LINE
   8
LEVEL001
   6
CONTINUOUS
  62
7
  10
 276.015
  20
 875.966
  30
0.0
  11
 275.821
  21
 876.040
  31
0.0
   0
LINE
   8
LEVEL001
   6
CONTINUOUS
  62
7
  10
 275.821
  20
 876.040
  30
0.0
  11
 275.622
  21
 876.098
  31
0.0
   0
LINE
   8
LEVEL001
   6
CONTINUOUS
  62
7
  10
 275.622
  20
 876.098
  30
0.0
  11
 275.417
  21
 876.140
  31
0.0
   0
LINE
   8
LEVEL001
   6
CONTINUOUS
  62
7
  10
 275.417
  20
 876.140
  30
0.0
  11
 275.210
  21
 876.165
  31
0.0
   0
LINE
   8
LEVEL001
   6
CONTINUOUS
  62
7
  10
 275.210
  20
 876.165
  30
0.0
  11
 275.001
  21
 876.173
  31
0.0
   0
LINE
   8
LEVEL001
   6
CONTINUOUS
  62
7
  10
 275.001
  20
 876.173
  30
0.0
  11
 274.792
  21
 876.165
  31
0.0
   0
LINE
   8
LEVEL001
   6
CONTINUOUS
  62
7
  10
 274.792
  20
 876.165
  30
0.0
  11
 274.584
  21
 876.140
  31
0.0
   0
LINE
   8
LEVEL001
   6
CONTINUOUS
  62
7
  10
 274.584
  20
 876.140
  30
0.0
  11
 274.380
  21
 876.098
  31
0.0
   0
LINE
   8
LEVEL001
   6
CONTINUOUS
  62
7
  10
 274.380
  20
 876.098
  30
0.0
  11
 274.180
  21
 876.040
  31
0.0
   0
LINE
   8
LEVEL001
   6
CONTINUOUS
  62
7
  10
 274.180
  20
 876.040
  30
0.0
  11
 273.987
  21
 875.966
  31
0.0
   0
LINE
   8
LEVEL001
   6
CONTINUOUS
  62
7
  10
 273.987
  20
 875.966
  30
0.0
  11
 273.801
  21
 875.877
  31
0.0
   0
LINE
   8
LEVEL001
   6
CONTINUOUS
  62
7
  10
 273.801
  20
 875.877
  30
0.0
  11
 273.625
  21
 875.773
  31
0.0
   0
LINE
   8
LEVEL001
   6
CONTINUOUS
  62
7
  10
 273.625
  20
 875.773
  30
0.0
  11
 273.459
  21
 875.655
  31
0.0
   0
LINE
   8
LEVEL001
   6
CONTINUOUS
  62
7
  10
 273.459
  20
 875.655
  30
0.0
  11
 273.304
  21
 875.525
  31
0.0
   0
LINE
   8
LEVEL001
   6
CONTINUOUS
  62
7
  10
 273.304
  20
 875.525
  30
0.0
  11
 273.163
  21
 875.383
  31
0.0
   0
LINE
   8
LEVEL001
   6
CONTINUOUS
  62
7
  10
 273.163
  20
 875.383
  30
0.0
  11
 273.035
  21
 875.229
  31
0.0
   0
LINE
   8
LEVEL001
   6
CONTINUOUS
  62
7
  10
 273.035
  20
 875.229
  30
0.0
  11
 272.923
  21
 875.067
  31
0.0
   0
LINE
   8
LEVEL001
   6
CONTINUOUS
  62
7
  10
 272.923
  20
 875.067
  30
0.0
  11
 272.826
  21
 874.895
  31
0.0
   0
LINE
   8
LEVEL001
   6
CONTINUOUS
  62
7
  10
 272.826
  20
 874.895
  30
0.0
  11
 272.746
  21
 874.717
  31
0.0
   0
LINE
   8
LEVEL001
   6
CONTINUOUS
  62
7
  10
 272.746
  20
 874.717
  30
0.0
  11
 272.683
  21
 874.533
  31
0.0
   0
LINE
   8
LEVEL001
   6
CONTINUOUS
  62
7
  10
 272.683
  20
 874.533
  30
0.0
  11
 272.638
  21
 874.344
  31
0.0
   0
LINE
   8
LEVEL001
   6
CONTINUOUS
  62
7
  10
 272.638
  20
 874.344
  30
0.0
  11
 272.611
  21
 874.153
  31
0.0
   0
LINE
   8
LEVEL001
   6
CONTINUOUS
  62
7
  10
 272.611
  20
 874.153
  30
0.0
  11
 272.602
  21
 873.960
  31
0.0
   0
LINE
   8
LEVEL001
   6
CONTINUOUS
  62
7
  10
 272.602
  20
 873.960
  30
0.0
  11
 272.611
  21
 873.767
  31
0.0
   0
LINE
   8
LEVEL001
   6
CONTINUOUS
  62
7
  10
 272.611
  20
 873.767
  30
0.0
  11
 272.638
  21
 873.576
  31
0.0
   0
LINE
   8
LEVEL001
   6
CONTINUOUS
  62
7
  10
 272.638
  20
 873.576
  30
0.0
  11
 272.683
  21
 873.387
  31
0.0
   0
LINE
   8
LEVEL001
   6
CONTINUOUS
  62
7
  10
 272.683
  20
 873.387
  30
0.0
  11
 272.746
  21
 873.203
  31
0.0
   0
LINE
   8
LEVEL001
   6
CONTINUOUS
  62
7
  10
 272.746
  20
 873.203
  30
0.0
  11
 272.826
  21
 873.025
  31
0.0
   0
LINE
   8
LEVEL001
   6
CONTINUOUS
  62
7
  10
 272.826
  20
 873.025
  30
0.0
  11
 272.923
  21
 872.853
  31
0.0
   0
LINE
   8
LEVEL001
   6
CONTINUOUS
  62
7
  10
 272.923
  20
 872.853
  30
0.0
  11
 273.035
  21
 872.691
  31
0.0
   0
LINE
   8
LEVEL001
   6
CONTINUOUS
  62
7
  10
 273.035
  20
 872.691
  30
0.0
  11
 273.163
  21
 872.537
  31
0.0
   0
LINE
   8
LEVEL001
   6
CONTINUOUS
  62
7
  10
 273.163
  20
 872.537
  30
0.0
  11
 273.304
  21
 872.395
  31
0.0
   0
LINE
   8
LEVEL001
   6
CONTINUOUS
  62
7
  10
 273.304
  20
 872.395
  30
0.0
  11
 273.459
  21
 872.265
  31
0.0
   0
LINE
   8
LEVEL001
   6
CONTINUOUS
  62
7
  10
 273.459
  20
 872.265
  30
0.0
  11
 273.625
  21
 872.147
  31
0.0
   0
LINE
   8
LEVEL001
   6
CONTINUOUS
  62
7
  10
 273.625
  20
 872.147
  30
0.0
  11
 273.801
  21
 872.043
  31
0.0
   0
LINE
   8
LEVEL001
   6
CONTINUOUS
  62
7
  10
 273.801
  20
 872.043
  30
0.0
  11
 273.987
  21
 871.954
  31
0.0
   0
LINE
   8
LEVEL001
   6
CONTINUOUS
  62
7
  10
 273.987
  20
 871.954
  30
0.0
  11
 274.180
  21
 871.880
  31
0.0
   0
LINE
   8
LEVEL001
   6
CONTINUOUS
  62
7
  10
 274.180
  20
 871.880
  30
0.0
  11
 274.380
  21
 871.822
  31
0.0
   0
LINE
   8
LEVEL001
   6
CONTINUOUS
  62
7
  10
 274.380
  20
 871.822
  30
0.0
  11
 274.584
  21
 871.780
  31
0.0
   0
LINE
   8
LEVEL001
   6
CONTINUOUS
  62
7
  10
 274.584
  20
 871.780
  30
0.0
  11
 274.792
  21
 871.755
  31
0.0
   0
LINE
   8
LEVEL001
   6
CONTINUOUS
  62
7
  10
 274.792
  20
 871.755
  30
0.0
  11
 275.001
  21
 871.747
  31
0.0
   0
LINE
   8
LEVEL001
   6
CONTINUOUS
  62
7
  10
 275.001
  20
 871.747
  30
0.0
  11
 275.210
  21
 871.755
  31
0.0
   0
LINE
   8
LEVEL001
   6
CONTINUOUS
  62
7
  10
 275.210
  20
 871.755
  30
0.0
  11
 275.417
  21
 871.780
  31
0.0
   0
LINE
   8
LEVEL001
   6
CONTINUOUS
  62
7
  10
 275.417
  20
 871.780
  30
0.0
  11
 275.622
  21
 871.822
  31
0.0
   0
LINE
   8
LEVEL001
   6
CONTINUOUS
  62
7
  10
 275.622
  20
 871.822
  30
0.0
  11
 275.821
  21
 871.880
  31
0.0
   0
LINE
   8
LEVEL001
   6
CONTINUOUS
  62
7
  10
 275.821
  20
 871.880
  30
0.0
  11
 276.015
  21
 871.954
  31
0.0
   0
LINE
   8
LEVEL001
   6
CONTINUOUS
  62
7
  10
 276.015
  20
 871.954
  30
0.0
  11
 276.200
  21
 872.043
  31
0.0
   0
LINE
   8
LEVEL001
   6
CONTINUOUS
  62
7
  10
 276.200
  20
 872.043
  30
0.0
  11
 276.377
  21
 872.147
  31
0.0
   0
LINE
   8
LEVEL001
   6
CONTINUOUS
  62
7
  10
 276.377
  20
 872.147
  30
0.0
  11
 276.543
  21
 872.265
  31
0.0
   0
LINE
   8
LEVEL001
   6
CONTINUOUS
  62
7
  10
 276.543
  20
 872.265
  30
0.0
  11
 276.697
  21
 872.395
  31
0.0
   0
LINE
   8
LEVEL001
   6
CONTINUOUS
  62
7
  10
 276.697
  20
 872.395
  30
0.0
  11
 276.839
  21
 872.537
  31
0.0
   0
LINE
   8
LEVEL001
   6
CONTINUOUS
  62
7
  10
 276.839
  20
 872.537
  30
0.0
  11
 276.966
  21
 872.691
  31
0.0
   0
LINE
   8
LEVEL001
   6
CONTINUOUS
  62
7
  10
 276.966
  20
 872.691
  30
0.0
  11
 277.079
  21
 872.853
  31
0.0
   0
LINE
   8
LEVEL001
   6
CONTINUOUS
  62
7
  10
 277.079
  20
 872.853
  30
0.0
  11
 277.175
  21
 873.025
  31
0.0
   0
LINE
   8
LEVEL001
   6
CONTINUOUS
  62
7
  10
 277.175
  20
 873.025
  30
0.0
  11
 277.255
  21
 873.203
  31
0.0
   0
LINE
   8
LEVEL001
   6
CONTINUOUS
  62
7
  10
 277.255
  20
 873.203
  30
0.0
  11
 277.318
  21
 873.387
  31
0.0
   0
LINE
   8
LEVEL001
   6
CONTINUOUS
  62
7
  10
 277.318
  20
 873.387
  30
0.0
  11
 277.364
  21
 873.576
  31
0.0
   0
LINE
   8
LEVEL001
   6
CONTINUOUS
  62
7
  10
 277.364
  20
 873.576
  30
0.0
  11
 277.391
  21
 873.767
  31
0.0
   0
LINE
   8
LEVEL001
   6
CONTINUOUS
  62
7
  10
 277.391
  20
 873.767
  30
0.0
  11
 277.400
  21
 873.960
  31
0.0
   0
LINE
   8
LEVEL001
   6
DASHDOT
  62
1
  10
 345.000
  20
 870.000
  30
0.0
  11
 275.000
  21
 870.000
  31
0.0
   0
LINE
   8
LEVEL001
   6
DASHDOT
  62
1
  10
 310.000
  20
 898.432
  30
0.0
  11
 310.000
  21
 835.000
  31
0.0
   0
LINE
   8
LEVEL001
   6
DASHDOT
  62
1
  10
 155.000
  20
 870.000
  30
0.0
  11
 225.000
  21
 870.000
  31
0.0
   0
LINE
   8
LEVEL001
   6
DASHDOT
  62
1
  10
 190.000
  20
 897.518
  30
0.0
  11
 190.000
  21
 835.000
  31
0.0
   0
LINE
   8
LEVEL001
   6
DASHDOT
  62
1
  10
 60.0000
  20
 944.000
  30
0.0
  11
 440.000
  21
 944.000
  31
0.0
   0
LINE
   8
LEVEL001
   6
DASHDOT
  62
1
  10
 250.000
  20
 1195.00
  30
0.0
  11
 250.000
  21
 830.000
  31
0.0
   0
LINE
   8
LEVEL001
   6
DASHDOT
  62
1
  10
 124.000
  20
 1040.00
  30
0.0
  11
 376.000
  21
 1040.00
  31
0.0
   0
LINE
   8
LEVEL001
   6
DASHDOT
  62
1
  10
 155.000
  20
 1155.00
  30
0.0
  11
 225.000
  21
 1155.00
  31
0.0
   0
LINE
   8
LEVEL001
   6
DASHDOT
  62
1
  10
 190.000
  20
 1190.00
  30
0.0
  11
 190.000
  21
 1133.24
  31
0.0
   0
LINE
   8
LEVEL001
   6
DASHDOT
  62
1
  10
 345.000
  20
 1155.00
  30
0.0
  11
 275.000
  21
 1155.00
  31
0.0
   0
LINE
   8
LEVEL001
   6
DASHDOT
  62
1
  10
 310.000
  20
 1190.00
  30
0.0
  11
 310.000
  21
 1133.24
  31
0.0
   0
LINE
   8
LEVEL001
   6
DASHDOT
  62
1
  10
 750.000
  20
 785.000
  30
0.0
  11
 750.000
  21
 20.0000
  31
0.0
   0
LINE
   8
LEVEL001
   6
DASHDOT
  62
1
  10
 250.000
  20
 785.000
  30
0.0
  11
 250.000
  21
 20.0000
  31
0.0
   0
TEXT
   8
LEVEL003
  62
7
  10
 1064.00
  20
 70.5927
  30
0.0
  40
 20.0000
   1
ＯＳＡＫＡ ＪＡＣＫ
   7
STANDARD
   0
CIRCLE
   8
LEVEL003
   6
CONTINUOUS
  62
7
  10
 1040.06
  20
 84.6941
  30
0.0
  40
 6.00000
   0
LINE
   8
LEVEL003
   6
CONTINUOUS
  62
7
  10
 1051.83
  20
 90.6941
  30
0.0
  11
 1044.21
  21
 77.4941
  31
0.0
   0
LINE
   8
LEVEL003
   6
CONTINUOUS
  62
7
  10
 1044.21
  20
 77.4941
  30
0.0
  11
 1028.97
  21
 77.4941
  31
0.0
   0
LINE
   8
LEVEL003
   6
CONTINUOUS
  62
7
  10
 1027.24
  20
 74.4941
  30
0.0
  11
 1054.48
  21
 74.4941
  31
0.0
   0
LINE
   8
LEVEL003
   6
CONTINUOUS
  62
7
  10
 1054.48
  20
 74.4941
  30
0.0
  11
 1063.83
  21
 90.6941
  31
0.0
   0
LINE
   8
LEVEL003
   6
CONTINUOUS
  62
7
  10
 1063.83
  20
 90.6941
  30
0.0
  11
 1051.83
  21
 90.6941
  31
0.0
   0
LINE
   8
LEVEL003
   6
CONTINUOUS
  62
7
  10
 1028.97
  20
 77.4941
  30
0.0
  11
 1027.24
  21
 74.4941
  31
0.0
   0
TEXT
   8
LEVEL003
  62
7
  10
 1069.82
  20
 104.380
  30
0.0
  40
 12.0000
   1
Model : ＷＪ２０Ｕ
   7
STANDARD
   0
LINE
   8
LEVEL003
   6
CONTINUOUS
  62
3
  10
 346.000
  20
 455.000
  30
0.0
  11
 412.000
  21
 455.000
  31
0.0
   0
LINE
   8
LEVEL003
   6
CONTINUOUS
  62
3
  10
 292.500
  20
 40.0000
  30
0.0
  11
 412.000
  21
 40.0000
  31
0.0
   0
LINE
   8
LEVEL003
   6
CONTINUOUS
  62
3
  10
 410.000
  20
 455.000
  30
0.0
  11
 410.000
  21
 40.0000
  31
0.0
   0
LINE
   8
LEVEL003
   6
CONTINUOUS
  62
3
  10
 410.000
  20
 455.000
  30
0.0
  11
 409.196
  21
 452.000
  31
0.0
   0
LINE
   8
LEVEL003
   6
CONTINUOUS
  62
3
  10
 410.000
  20
 455.000
  30
0.0
  11
 410.804
  21
 452.000
  31
0.0
   0
LINE
   8
LEVEL003
   6
CONTINUOUS
  62
3
  10
 410.000
  20
 40.0000
  30
0.0
  11
 410.804
  21
 43.0000
  31
0.0
   0
LINE
   8
LEVEL003
   6
CONTINUOUS
  62
3
  10
 410.000
  20
 40.0000
  30
0.0
  11
 409.196
  21
 43.0000
  31
0.0
   0
LINE
   8
LEVEL003
   6
CONTINUOUS
  62
3
  10
 896.000
  20
 455.000
  30
0.0
  11
 932.000
  21
 455.000
  31
0.0
   0
LINE
   8
LEVEL003
   6
CONTINUOUS
  62
3
  10
 891.000
  20
 474.000
  30
0.0
  11
 932.000
  21
 474.000
  31
0.0
   0
LINE
   8
LEVEL003
   6
CONTINUOUS
  62
3
  10
 930.000
  20
 455.000
  30
0.0
  11
 930.000
  21
 474.000
  31
0.0
   0
LINE
   8
LEVEL003
   6
CONTINUOUS
  62
3
  10
 930.000
  20
 455.000
  30
0.0
  11
 930.804
  21
 458.000
  31
0.0
   0
LINE
   8
LEVEL003
   6
CONTINUOUS
  62
3
  10
 930.000
  20
 455.000
  30
0.0
  11
 929.196
  21
 458.000
  31
0.0
   0
LINE
   8
LEVEL003
   6
CONTINUOUS
  62
3
  10
 930.000
  20
 474.000
  30
0.0
  11
 929.196
  21
 471.000
  31
0.0
   0
LINE
   8
LEVEL003
   6
CONTINUOUS
  62
3
  10
 930.000
  20
 474.000
  30
0.0
  11
 930.804
  21
 471.000
  31
0.0
   0
TEXT
   8
LEVEL003
  62
3
  10
 928.286
  20
 462.500
  30
0.0
  40
 4.00000
   1
19
  50
 90.0000
  41
 0.500000
   7
STANDARD
  72
1
  11
 928.286
  21
 464.500
  31
0.0
   0
LINE
   8
LEVEL003
   6
CONTINUOUS
  62
3
  10
 896.000
  20
 455.000
  30
0.0
  11
 972.000
  21
 455.000
  31
0.0
   0
LINE
   8
LEVEL003
   6
CONTINUOUS
  62
3
  10
 718.538
  20
 540.000
  30
0.0
  11
 972.000
  21
 540.000
  31
0.0
   0
LINE
   8
LEVEL003
   6
CONTINUOUS
  62
3
  10
 970.000
  20
 455.000
  30
0.0
  11
 970.000
  21
 540.000
  31
0.0
   0
LINE
   8
LEVEL003
   6
CONTINUOUS
  62
3
  10
 970.000
  20
 455.000
  30
0.0
  11
 970.804
  21
 458.000
  31
0.0
   0
LINE
   8
LEVEL003
   6
CONTINUOUS
  62
3
  10
 970.000
  20
 455.000
  30
0.0
  11
 969.196
  21
 458.000
  31
0.0
   0
LINE
   8
LEVEL003
   6
CONTINUOUS
  62
3
  10
 970.000
  20
 540.000
  30
0.0
  11
 969.196
  21
 537.000
  31
0.0
   0
LINE
   8
LEVEL003
   6
CONTINUOUS
  62
3
  10
 970.000
  20
 540.000
  30
0.0
  11
 970.804
  21
 537.000
  31
0.0
   0
TEXT
   8
LEVEL003
  62
3
  10
 968.286
  20
 495.500
  30
0.0
  40
 4.00000
   1
85
  50
 90.0000
  41
 0.500000
   7
STANDARD
  72
1
  11
 968.286
  21
 497.500
  31
0.0
   0
LINE
   8
LEVEL003
   6
CONTINUOUS
  62
3
  10
 896.000
  20
 455.000
  30
0.0
  11
 1012.00
  21
 455.000
  31
0.0
   0
LINE
   8
LEVEL003
   6
CONTINUOUS
  62
3
  10
 782.500
  20
 775.000
  30
0.0
  11
 1012.00
  21
 775.000
  31
0.0
   0
LINE
   8
LEVEL003
   6
CONTINUOUS
  62
3
  10
 1010.00
  20
 455.000
  30
0.0
  11
 1010.00
  21
 775.000
  31
0.0
   0
LINE
   8
LEVEL003
   6
CONTINUOUS
  62
3
  10
 1010.00
  20
 455.000
  30
0.0
  11
 1010.80
  21
 458.000
  31
0.0
   0
LINE
   8
LEVEL003
   6
CONTINUOUS
  62
3
  10
 1010.00
  20
 455.000
  30
0.0
  11
 1009.20
  21
 458.000
  31
0.0
   0
LINE
   8
LEVEL003
   6
CONTINUOUS
  62
3
  10
 1010.00
  20
 775.000
  30
0.0
  11
 1009.20
  21
 772.000
  31
0.0
   0
LINE
   8
LEVEL003
   6
CONTINUOUS
  62
3
  10
 1010.00
  20
 775.000
  30
0.0
  11
 1010.80
  21
 772.000
  31
0.0
   0
TEXT
   8
LEVEL003
  62
3
  10
 1008.29
  20
 612.000
  30
0.0
  40
 4.00000
   1
320
  50
 90.0000
  41
 0.500000
   7
STANDARD
  72
1
  11
 1008.29
  21
 615.000
  31
0.0
   0
LINE
   8
LEVEL003
   6
CONTINUOUS
  62
3
  10
 380.000
  20
 560.000
  30
0.0
  11
 380.000
  21
 592.000
  31
0.0
   0
LINE
   8
LEVEL003
   6
CONTINUOUS
  62
3
  10
 430.000
  20
 560.000
  30
0.0
  11
 430.000
  21
 592.000
  31
0.0
   0
LINE
   8
LEVEL003
   6
CONTINUOUS
  62
3
  10
 380.000
  20
 590.000
  30
0.0
  11
 430.000
  21
 590.000
  31
0.0
   0
LINE
   8
LEVEL003
   6
CONTINUOUS
  62
3
  10
 380.000
  20
 590.000
  30
0.0
  11
 383.000
  21
 589.196
  31
0.0
   0
LINE
   8
LEVEL003
   6
CONTINUOUS
  62
3
  10
 380.000
  20
 590.000
  30
0.0
  11
 383.000
  21
 590.804
  31
0.0
   0
LINE
   8
LEVEL003
   6
CONTINUOUS
  62
3
  10
 430.000
  20
 590.000
  30
0.0
  11
 427.000
  21
 590.804
  31
0.0
   0
LINE
   8
LEVEL003
   6
CONTINUOUS
  62
3
  10
 430.000
  20
 590.000
  30
0.0
  11
 427.000
  21
 589.196
  31
0.0
   0
TEXT
   8
LEVEL003
  62
3
  10
 403.000
  20
 591.714
  30
0.0
  40
 4.00000
   1
50
  41
 0.500000
   7
STANDARD
  72
1
  11
 405.000
  21
 591.714
  31
0.0
   0
LINE
   8
LEVEL003
   6
CONTINUOUS
  62
3
  10
 372.000
  20
 556.199
  30
0.0
  11
 372.000
  21
 622.000
  31
0.0
   0
LINE
   8
LEVEL003
   6
CONTINUOUS
  62
3
  10
 430.000
  20
 560.000
  30
0.0
  11
 430.000
  21
 622.000
  31
0.0
   0
LINE
   8
LEVEL003
   6
CONTINUOUS
  62
3
  10
 372.000
  20
 620.000
  30
0.0
  11
 430.000
  21
 620.000
  31
0.0
   0
LINE
   8
LEVEL003
   6
CONTINUOUS
  62
3
  10
 372.000
  20
 620.000
  30
0.0
  11
 375.000
  21
 619.196
  31
0.0
   0
LINE
   8
LEVEL003
   6
CONTINUOUS
  62
3
  10
 372.000
  20
 620.000
  30
0.0
  11
 375.000
  21
 620.804
  31
0.0
   0
LINE
   8
LEVEL003
   6
CONTINUOUS
  62
3
  10
 430.000
  20
 620.000
  30
0.0
  11
 427.000
  21
 620.804
  31
0.0
   0
LINE
   8
LEVEL003
   6
CONTINUOUS
  62
3
  10
 430.000
  20
 620.000
  30
0.0
  11
 427.000
  21
 619.196
  31
0.0
   0
TEXT
   8
LEVEL003
  62
3
  10
 399.000
  20
 621.714
  30
0.0
  40
 4.00000
   1
58
  41
 0.500000
   7
STANDARD
  72
1
  11
 401.000
  21
 621.714
  31
0.0
   0
LINE
   8
LEVEL003
   6
CONTINUOUS
  62
3
  10
 717.500
  20
 775.000
  30
0.0
  11
 717.500
  21
 812.000
  31
0.0
   0
LINE
   8
LEVEL003
   6
CONTINUOUS
  62
3
  10
 782.500
  20
 775.000
  30
0.0
  11
 782.500
  21
 812.000
  31
0.0
   0
LINE
   8
LEVEL003
   6
CONTINUOUS
  62
3
  10
 717.500
  20
 810.000
  30
0.0
  11
 782.500
  21
 810.000
  31
0.0
   0
LINE
   8
LEVEL003
   6
CONTINUOUS
  62
3
  10
 717.500
  20
 810.000
  30
0.0
  11
 720.500
  21
 809.196
  31
0.0
   0
LINE
   8
LEVEL003
   6
CONTINUOUS
  62
3
  10
 717.500
  20
 810.000
  30
0.0
  11
 720.500
  21
 810.804
  31
0.0
   0
LINE
   8
LEVEL003
   6
CONTINUOUS
  62
3
  10
 782.500
  20
 810.000
  30
0.0
  11
 779.500
  21
 810.804
  31
0.0
   0
LINE
   8
LEVEL003
   6
CONTINUOUS
  62
3
  10
 782.500
  20
 810.000
  30
0.0
  11
 779.500
  21
 809.196
  31
0.0
   0
TEXT
   8
LEVEL003
  62
3
  10
 744.000
  20
 811.714
  30
0.0
  40
 4.00000
   1
M65×2
   7
STANDARD
  72
1
  11
 750.000
  21
 811.714
  31
0.0
   0
LINE
   8
LEVEL003
   6
CONTINUOUS
  62
3
  10
 190.000
  20
 1191.00
  30
0.0
  11
 190.000
  21
 1242.00
  31
0.0
   0
LINE
   8
LEVEL003
   6
CONTINUOUS
  62
3
  10
 310.000
  20
 1191.00
  30
0.0
  11
 310.000
  21
 1242.00
  31
0.0
   0
LINE
   8
LEVEL003
   6
CONTINUOUS
  62
3
  10
 190.000
  20
 1240.00
  30
0.0
  11
 310.000
  21
 1240.00
  31
0.0
   0
LINE
   8
LEVEL003
   6
CONTINUOUS
  62
3
  10
 190.000
  20
 1240.00
  30
0.0
  11
 193.000
  21
 1239.20
  31
0.0
   0
LINE
   8
LEVEL003
   6
CONTINUOUS
  62
3
  10
 190.000
  20
 1240.00
  30
0.0
  11
 193.000
  21
 1240.80
  31
0.0
   0
LINE
   8
LEVEL003
   6
CONTINUOUS
  62
3
  10
 310.000
  20
 1240.00
  30
0.0
  11
 307.000
  21
 1240.80
  31
0.0
   0
LINE
   8
LEVEL003
   6
CONTINUOUS
  62
3
  10
 310.000
  20
 1240.00
  30
0.0
  11
 307.000
  21
 1239.20
  31
0.0
   0
TEXT
   8
LEVEL003
  62
3
  10
 247.000
  20
 1241.71
  30
0.0
  40
 4.00000
   1
120
  41
 0.500000
   7
STANDARD
  72
1
  11
 250.000
  21
 1241.71
  31
0.0
   0
LINE
   8
LEVEL003
   6
CONTINUOUS
  62
3
  10
 346.000
  20
 1155.00
  30
0.0
  11
 472.000
  21
 1155.00
  31
0.0
   0
LINE
   8
LEVEL003
   6
CONTINUOUS
  62
3
  10
 377.000
  20
 1040.00
  30
0.0
  11
 472.000
  21
 1040.00
  31
0.0
   0
LINE
   8
LEVEL003
   6
CONTINUOUS
  62
3
  10
 470.000
  20
 1155.00
  30
0.0
  11
 470.000
  21
 1040.00
  31
0.0
   0
LINE
   8
LEVEL003
   6
CONTINUOUS
  62
3
  10
 470.000
  20
 1155.00
  30
0.0
  11
 469.196
  21
 1152.00
  31
0.0
   0
LINE
   8
LEVEL003
   6
CONTINUOUS
  62
3
  10
 470.000
  20
 1155.00
  30
0.0
  11
 470.804
  21
 1152.00
  31
0.0
   0
LINE
   8
LEVEL003
   6
CONTINUOUS
  62
3
  10
 470.000
  20
 1040.00
  30
0.0
  11
 470.804
  21
 1043.00
  31
0.0
   0
LINE
   8
LEVEL003
   6
CONTINUOUS
  62
3
  10
 470.000
  20
 1040.00
  30
0.0
  11
 469.196
  21
 1043.00
  31
0.0
   0
TEXT
   8
LEVEL003
  62
3
  10
 468.286
  20
 1094.50
  30
0.0
  40
 4.00000
   1
115
  50
 90.0000
  41
 0.500000
   7
STANDARD
  72
1
  11
 468.286
  21
 1097.50
  31
0.0
   0
LINE
   8
LEVEL003
   6
CONTINUOUS
  62
3
  10
 377.000
  20
 1040.00
  30
0.0
  11
 472.000
  21
 1040.00
  31
0.0
   0
LINE
   8
LEVEL003
   6
CONTINUOUS
  62
3
  10
 346.000
  20
 870.000
  30
0.0
  11
 472.000
  21
 870.000
  31
0.0
   0
LINE
   8
LEVEL003
   6
CONTINUOUS
  62
3
  10
 470.000
  20
 1040.00
  30
0.0
  11
 470.000
  21
 870.000
  31
0.0
   0
LINE
   8
LEVEL003
   6
CONTINUOUS
  62
3
  10
 470.000
  20
 1040.00
  30
0.0
  11
 469.196
  21
 1037.00
  31
0.0
   0
LINE
   8
LEVEL003
   6
CONTINUOUS
  62
3
  10
 470.000
  20
 1040.00
  30
0.0
  11
 470.804
  21
 1037.00
  31
0.0
   0
LINE
   8
LEVEL003
   6
CONTINUOUS
  62
3
  10
 470.000
  20
 870.000
  30
0.0
  11
 470.804
  21
 873.000
  31
0.0
   0
LINE
   8
LEVEL003
   6
CONTINUOUS
  62
3
  10
 470.000
  20
 870.000
  30
0.0
  11
 469.196
  21
 873.000
  31
0.0
   0
TEXT
   8
LEVEL003
  62
3
  10
 468.286
  20
 952.000
  30
0.0
  40
 4.00000
   1
170
  50
 90.0000
  41
 0.500000
   7
STANDARD
  72
1
  11
 468.286
  21
 955.000
  31
0.0
   0
LINE
   8
LEVEL003
   6
CONTINUOUS
  62
3
  10
 430.000
  20
 928.000
  30
0.0
  11
 430.000
  21
 798.000
  31
0.0
   0
LINE
   8
LEVEL003
   6
CONTINUOUS
  62
3
  10
 70.0000
  20
 928.000
  30
0.0
  11
 70.0000
  21
 798.000
  31
0.0
   0
LINE
   8
LEVEL003
   6
CONTINUOUS
  62
3
  10
 430.000
  20
 800.000
  30
0.0
  11
 70.0000
  21
 800.000
  31
0.0
   0
LINE
   8
LEVEL003
   6
CONTINUOUS
  62
3
  10
 430.000
  20
 800.000
  30
0.0
  11
 427.000
  21
 800.804
  31
0.0
   0
LINE
   8
LEVEL003
   6
CONTINUOUS
  62
3
  10
 430.000
  20
 800.000
  30
0.0
  11
 427.000
  21
 799.196
  31
0.0
   0
LINE
   8
LEVEL003
   6
CONTINUOUS
  62
3
  10
 70.0000
  20
 800.000
  30
0.0
  11
 73.0000
  21
 799.196
  31
0.0
   0
LINE
   8
LEVEL003
   6
CONTINUOUS
  62
3
  10
 70.0000
  20
 800.000
  30
0.0
  11
 73.0000
  21
 800.804
  31
0.0
   0
TEXT
   8
LEVEL003
  62
3
  10
 247.000
  20
 801.714
  30
0.0
  40
 4.00000
   1
360
  41
 0.500000
   7
STANDARD
  72
1
  11
 250.000
  21
 801.714
  31
0.0
   0
TEXT
   8
LEVEL003
  62
3
  10
 408.286
  20
 231.500
  30
0.0
  40
 4.00000
   1
６５＋ストローク
  50
 90.0000
   7
STANDARD
  72
1
  11
 408.286
  21
 247.500
  31
0.0
   0
LINE
   8
LEVEL004
   6
DOT
  62
3
  10
 890.000
  20
 474.000
  30
0.0
  11
 840.000
  21
 474.000
  31
0.0
   0
LINE
   8
LEVEL004
   6
DOT
  62
3
  10
 890.000
  20
 475.000
  30
0.0
  11
 890.000
  21
 474.000
  31
0.0
   0
LINE
   8
LEVEL004
   6
DOT
  62
3
  10
 840.000
  20
 475.000
  30
0.0
  11
 840.000
  21
 474.000
  31
0.0
   0
ENDSEC
   0
EOF
