   0
SECTION
   2
HEADER
   9
$LIMMIN
  10
-2.00000
  20
0.0
   9
$LIMMAX
  10
 1782.00
  20
 1564.00
   9
$EXTMIN
  10
-2.00000
  20
0.0
   9
$EXTMAX
  10
 1782.00
  20
 1564.00
   9
$LTSCALE
  40
 35.6800
   0
ENDSEC
   0
SECTION
   2
TABLES
  0
TABLE
  2
LTYPE
 70
    25
  0
LTYPE
  2
CONTINUOUS
 70
    64
  3
Solid line
 72
    65
 73
     0
 40
0.0
  0
LTYPE
  2
BORDER
 70
    64
  3
__ __ . __ __ . __ __ . __ __ . __ __ . __ __ .
 72
    65
 73
     6
 40
1.75
 49
0.5
 49
-0.25
 49
0.5
 49
-0.25
 49
0.0
 49
-0.25
  0
LTYPE
  2
BORDER2
 70
    64
  3
__.__.__.__.__.__.__.__.__.__.__.__.__.__.__.__
 72
    65
 73
     6
 40
0.875
 49
0.25
 49
-0.125
 49
0.25
 49
-0.125
 49
0.0
 49
-0.125
  0
LTYPE
  2
BORDERX2
 70
    64
  3
____  ____  .  ____  ____  .  ____  ____  .  __
 72
    65
 73
     6
 40
3.5
 49
1.0
 49
-0.5
 49
1.0
 49
-0.5
 49
0.0
 49
-0.5
  0
LTYPE
  2
CENTER
 70
    64
  3
____ _ ____ _ ____ _ ____ _ ____ _ ____ _ ____ 
 72
    65
 73
     4
 40
2.0
 49
1.25
 49
-0.25
 49
0.25
 49
-0.25
  0
LTYPE
  2
CENTER2
 70
    64
  3
___ _ ___ _ ___ _ ___ _ ___ _ ___ _ ___ _ ___ _
 72
    65
 73
     4
 40
1.125
 49
0.75
 49
-0.125
 49
0.125
 49
-0.125
  0
LTYPE
  2
CENTERX2
 70
    64
  3
________  __  ________  __  ________  __  _____
 72
    65
 73
     4
 40
4.0
 49
2.5
 49
-0.5
 49
0.5
 49
-0.5
  0
LTYPE
  2
DASHDOT
 70
    64
  3
__ . __ . __ . __ . __ . __ . __ . __ . __ . __
 72
    65
 73
     4
 40
1.0
 49
0.5
 49
-0.25
 49
0.0
 49
-0.25
  0
LTYPE
  2
DASHDOT2
 70
    64
  3
_._._._._._._._._._._._._._._._._._._._._._._._
 72
    65
 73
     4
 40
0.5
 49
0.25
 49
-0.125
 49
0.0
 49
-0.125
  0
LTYPE
  2
DASHDOTX2
 70
    64
  3
____  .  ____  .  ____  .  ____  .  ____  .  __
 72
    65
 73
     4
 40
2.0
 49
1.0
 49
-0.5
 49
0.0
 49
-0.5
  0
LTYPE
  2
DASHED
 70
    64
  3
__ __ __ __ __ __ __ __ __ __ __ __ __ __ __ __
 72
    65
 73
     2
 40
0.75
 49
0.5
 49
-0.25
  0
LTYPE
  2
DASHED2
 70
    64
  3
_ _ _ _ _ _ _ _ _ _ _ _ _ _ _ _ _ _ _ _ _ _ _ _
 72
    65
 73
     2
 40
0.375
 49
0.25
 49
-0.125
  0
LTYPE
  2
DASHEDX2
 70
    64
  3
____  ____  ____  ____  ____  ____  ____  ____ 
 72
    65
 73
     2
 40
1.5
 49
1.0
 49
-0.5
  0
LTYPE
  2
DIVIDE
 70
    64
  3
____ . . ____ . . ____ . . ____ . . ____ . . __
 72
    65
 73
     6
 40
1.25
 49
0.5
 49
-0.25
 49
0.0
 49
-0.25
 49
0.0
 49
-0.25
  0
LTYPE
  2
DIVIDE2
 70
    64
  3
__..__..__..__..__..__..__..__..__..__..__..__.
 72
    65
 73
     6
 40
0.625
 49
0.25
 49
-0.125
 49
0.0
 49
-0.125
 49
0.0
 49
-0.125
  0
LTYPE
  2
DIVIDEX2
 70
    64
  3
________  .  .  ________  .  .  ________  .  . 
 72
    65
 73
     6
 40
2.5
 49
1.0
 49
-0.5
 49
0.0
 49
-0.5
 49
0.0
 49
-0.5
  0
LTYPE
  2
DOT
 70
    64
  3
. . . . . . . . . . . . . . . . . . . . . . . .
 72
    65
 73
     2
 40
0.25
 49
0.0
 49
-0.25
  0
LTYPE
  2
DOT2
 70
    64
  3
...............................................
 72
    65
 73
     2
 40
0.125
 49
0.0
 49
-0.125
  0
LTYPE
  2
DOTX2
 70
    64
  3
.  .  .  .  .  .  .  .  .  .  .  .  .  .  .  . 
 72
    65
 73
     2
 40
0.5
 49
0.0
 49
-0.5
  0
LTYPE
  2
HIDDEN
 70
    64
  3
__ __ __ __ __ __ __ __ __ __ __ __ __ __ __ __
 72
    65
 73
     2
 40
0.375
 49
0.25
 49
-0.125
  0
LTYPE
  2
HIDDEN2
 70
    64
  3
_ _ _ _ _ _ _ _ _ _ _ _ _ _ _ _ _ _ _ _ _ _ _ _
 72
    65
 73
     2
 40
0.1875
 49
0.125
 49
-0.0625
  0
LTYPE
  2
HIDDENX2
 70
    64
  3
____ ____ ____ ____ ____ ____ ____ ____ ____ __
 72
    65
 73
     2
 40
0.75
 49
0.5
 49
-0.25
  0
LTYPE
  2
PHANTOM
 70
    64
  3
______  __  __  ______  __  __  ______  __  __ 
 72
    65
 73
     6
 40
2.5
 49
1.25
 49
-0.25
 49
0.25
 49
-0.25
 49
0.25
 49
-0.25
  0
LTYPE
  2
PHANTOM2
 70
    64
  3
___ _ _ ___ _ _ ___ _ _ ___ _ _ ___ _ _ ___ _ _
 72
    65
 73
     6
 40
1.25
 49
0.625
 49
-0.125
 49
0.125
 49
-0.125
 49
0.125
 49
-0.125
  0
LTYPE
  2
PHANTOMX2
 70
    64
  3
____________    ____    ____    ____________   
 72
    65
 73
     6
 40
5.0
 49
2.5
 49
-0.5
 49
0.5
 49
-0.5
 49
0.5
 49
-0.5
  0
ENDTAB
  0
TABLE
  2
STYLE
 70
     2
  0
STYLE
  2
STANDARD
 70
0
 40
0.0
 41
1.0
 50
0.0
 71
0
 42
0.2
  3
TXT
  4
BIGFONT
  0
STYLE
  2
STANDARD1
 70
     4
 40
0.0
 41
1.0
 50
0.0
 71
     0
 42
0.2
  3
TXT
  4
BIGFONT
  0
ENDTAB
   0
TABLE
   2
LAYER
  70
4
   0
LAYER
   2
0
  70
0
  62
7
   6
CONTINUOUS
   0
LAYER
   2
LEVEL001
  70
0
  62
7
   6
CONTINUOUS
   0
LAYER
   2
LEVEL003
  70
0
  62
7
   6
CONTINUOUS
   0
LAYER
   2
LEVEL004
  70
0
  62
7
   6
CONTINUOUS
   0
ENDTAB
   0
ENDSEC
   0
SECTION
   2
ENTITIES
   0
LINE
   8
LEVEL001
   6
CONTINUOUS
  62
7
  10
 394.000
  20
 718.600
  30
0.0
  11
 421.000
  21
 718.600
  31
0.0
   0
LINE
   8
LEVEL001
   6
CONTINUOUS
  62
7
  10
 419.441
  20
 719.500
  30
0.0
  11
 395.559
  21
 719.500
  31
0.0
   0
LINE
   8
LEVEL001
   6
CONTINUOUS
  62
7
  10
 407.594
  20
 747.097
  30
0.0
  11
 408.484
  21
 719.500
  31
0.0
   0
LINE
   8
LEVEL001
   6
CONTINUOUS
  62
7
  10
 355.000
  20
 753.000
  30
0.0
  11
 387.500
  21
 753.000
  31
0.0
   0
LINE
   8
LEVEL001
   6
CONTINUOUS
  62
7
  10
 312.750
  20
 753.000
  30
0.0
  11
 345.000
  21
 753.000
  31
0.0
   0
LINE
   8
LEVEL001
   6
CONTINUOUS
  62
7
  10
 355.000
  20
 750.000
  30
0.0
  11
 404.595
  21
 750.000
  31
0.0
   0
LINE
   8
LEVEL001
   6
CONTINUOUS
  62
7
  10
 295.405
  20
 750.000
  30
0.0
  11
 345.000
  21
 750.000
  31
0.0
   0
LINE
   8
LEVEL001
   6
CONTINUOUS
  62
7
  10
 292.406
  20
 747.097
  30
0.0
  11
 291.516
  21
 719.500
  31
0.0
   0
LINE
   8
LEVEL001
   6
CONTINUOUS
  62
7
  10
 306.000
  20
 703.500
  30
0.0
  11
 306.000
  21
 718.600
  31
0.0
   0
LINE
   8
LEVEL001
   6
CONTINUOUS
  62
7
  10
 279.000
  20
 718.600
  30
0.0
  11
 279.000
  21
 703.500
  31
0.0
   0
LINE
   8
LEVEL001
   6
CONTINUOUS
  62
7
  10
 280.559
  20
 719.500
  30
0.0
  11
 279.000
  21
 718.600
  31
0.0
   0
LINE
   8
LEVEL001
   6
CONTINUOUS
  62
7
  10
 304.441
  20
 719.500
  30
0.0
  11
 280.559
  21
 719.500
  31
0.0
   0
LINE
   8
LEVEL001
   6
CONTINUOUS
  62
7
  10
 306.000
  20
 718.600
  30
0.0
  11
 304.441
  21
 719.500
  31
0.0
   0
LINE
   8
LEVEL001
   6
CONTINUOUS
  62
7
  10
 279.000
  20
 718.600
  30
0.0
  11
 306.000
  21
 718.600
  31
0.0
   0
LINE
   8
LEVEL001
   6
CONTINUOUS
  62
7
  10
 421.000
  20
 703.500
  30
0.0
  11
 421.000
  21
 718.600
  31
0.0
   0
LINE
   8
LEVEL001
   6
CONTINUOUS
  62
7
  10
 394.000
  20
 718.600
  30
0.0
  11
 394.000
  21
 703.500
  31
0.0
   0
LINE
   8
LEVEL001
   6
CONTINUOUS
  62
7
  10
 395.559
  20
 719.500
  30
0.0
  11
 394.000
  21
 718.600
  31
0.0
   0
LINE
   8
LEVEL001
   6
CONTINUOUS
  62
7
  10
 421.000
  20
 718.600
  30
0.0
  11
 419.441
  21
 719.500
  31
0.0
   0
LINE
   8
LEVEL001
   6
CONTINUOUS
  62
7
  10
 478.500
  20
 703.500
  30
0.0
  11
 478.500
  21
 718.600
  31
0.0
   0
LINE
   8
LEVEL001
   6
CONTINUOUS
  62
7
  10
 451.500
  20
 718.600
  30
0.0
  11
 451.500
  21
 703.500
  31
0.0
   0
LINE
   8
LEVEL001
   6
CONTINUOUS
  62
7
  10
 453.059
  20
 719.500
  30
0.0
  11
 451.500
  21
 718.600
  31
0.0
   0
LINE
   8
LEVEL001
   6
CONTINUOUS
  62
7
  10
 476.941
  20
 719.500
  30
0.0
  11
 453.059
  21
 719.500
  31
0.0
   0
LINE
   8
LEVEL001
   6
CONTINUOUS
  62
7
  10
 478.500
  20
 718.600
  30
0.0
  11
 476.941
  21
 719.500
  31
0.0
   0
LINE
   8
LEVEL001
   6
CONTINUOUS
  62
7
  10
 451.500
  20
 718.600
  30
0.0
  11
 478.500
  21
 718.600
  31
0.0
   0
LINE
   8
LEVEL001
   6
CONTINUOUS
  62
7
  10
 248.500
  20
 703.500
  30
0.0
  11
 248.500
  21
 718.600
  31
0.0
   0
LINE
   8
LEVEL001
   6
CONTINUOUS
  62
7
  10
 221.500
  20
 718.600
  30
0.0
  11
 221.500
  21
 703.500
  31
0.0
   0
LINE
   8
LEVEL001
   6
CONTINUOUS
  62
7
  10
 223.059
  20
 719.500
  30
0.0
  11
 221.500
  21
 718.600
  31
0.0
   0
LINE
   8
LEVEL001
   6
CONTINUOUS
  62
7
  10
 246.941
  20
 719.500
  30
0.0
  11
 223.059
  21
 719.500
  31
0.0
   0
LINE
   8
LEVEL001
   6
CONTINUOUS
  62
7
  10
 248.500
  20
 718.600
  30
0.0
  11
 246.941
  21
 719.500
  31
0.0
   0
LINE
   8
LEVEL001
   6
CONTINUOUS
  62
7
  10
 221.500
  20
 718.600
  30
0.0
  11
 248.500
  21
 718.600
  31
0.0
   0
LINE
   8
LEVEL001
   6
CONTINUOUS
  62
7
  10
 240.000
  20
 505.000
  30
0.0
  11
 460.000
  21
 505.000
  31
0.0
   0
LINE
   8
LEVEL001
   6
CONTINUOUS
  62
7
  10
 355.000
  20
 719.500
  30
0.0
  11
 359.235
  21
 719.500
  31
0.0
   0
LINE
   8
LEVEL001
   6
CONTINUOUS
  62
7
  10
 340.765
  20
 719.500
  30
0.0
  11
 345.000
  21
 719.500
  31
0.0
   0
LINE
   8
LEVEL001
   6
CONTINUOUS
  62
7
  10
 345.000
  20
 720.441
  30
0.0
  11
 340.351
  21
 719.457
  31
0.0
   0
LINE
   8
LEVEL001
   6
CONTINUOUS
  62
7
  10
 355.000
  20
 720.441
  30
0.0
  11
 359.649
  21
 719.457
  31
0.0
   0
LINE
   8
LEVEL001
   6
CONTINUOUS
  62
7
  10
 345.001
  20
 718.046
  30
0.0
  11
 345.002
  21
 717.766
  31
0.0
   0
LINE
   8
LEVEL001
   6
CONTINUOUS
  62
7
  10
 345.002
  20
 717.766
  30
0.0
  11
 345.013
  21
 717.486
  31
0.0
   0
LINE
   8
LEVEL001
   6
CONTINUOUS
  62
7
  10
 345.013
  20
 717.486
  30
0.0
  11
 345.033
  21
 717.207
  31
0.0
   0
LINE
   8
LEVEL001
   6
CONTINUOUS
  62
7
  10
 345.033
  20
 717.207
  30
0.0
  11
 345.063
  21
 716.930
  31
0.0
   0
LINE
   8
LEVEL001
   6
CONTINUOUS
  62
7
  10
 345.063
  20
 716.930
  30
0.0
  11
 345.103
  21
 716.654
  31
0.0
   0
LINE
   8
LEVEL001
   6
CONTINUOUS
  62
7
  10
 345.103
  20
 716.654
  30
0.0
  11
 345.152
  21
 716.381
  31
0.0
   0
LINE
   8
LEVEL001
   6
CONTINUOUS
  62
7
  10
 345.152
  20
 716.381
  30
0.0
  11
 345.210
  21
 716.111
  31
0.0
   0
LINE
   8
LEVEL001
   6
CONTINUOUS
  62
7
  10
 345.210
  20
 716.111
  30
0.0
  11
 345.278
  21
 715.845
  31
0.0
   0
LINE
   8
LEVEL001
   6
CONTINUOUS
  62
7
  10
 345.278
  20
 715.845
  30
0.0
  11
 345.354
  21
 715.582
  31
0.0
   0
LINE
   8
LEVEL001
   6
CONTINUOUS
  62
7
  10
 345.354
  20
 715.582
  30
0.0
  11
 345.440
  21
 715.324
  31
0.0
   0
LINE
   8
LEVEL001
   6
CONTINUOUS
  62
7
  10
 345.440
  20
 715.324
  30
0.0
  11
 345.534
  21
 715.071
  31
0.0
   0
LINE
   8
LEVEL001
   6
CONTINUOUS
  62
7
  10
 345.534
  20
 715.071
  30
0.0
  11
 345.637
  21
 714.824
  31
0.0
   0
LINE
   8
LEVEL001
   6
CONTINUOUS
  62
7
  10
 345.637
  20
 714.824
  30
0.0
  11
 345.748
  21
 714.583
  31
0.0
   0
LINE
   8
LEVEL001
   6
CONTINUOUS
  62
7
  10
 345.748
  20
 714.583
  30
0.0
  11
 345.868
  21
 714.348
  31
0.0
   0
LINE
   8
LEVEL001
   6
CONTINUOUS
  62
7
  10
 345.868
  20
 714.348
  30
0.0
  11
 345.995
  21
 714.120
  31
0.0
   0
LINE
   8
LEVEL001
   6
CONTINUOUS
  62
7
  10
 345.995
  20
 714.120
  30
0.0
  11
 346.130
  21
 713.899
  31
0.0
   0
LINE
   8
LEVEL001
   6
CONTINUOUS
  62
7
  10
 346.130
  20
 713.899
  30
0.0
  11
 346.273
  21
 713.686
  31
0.0
   0
LINE
   8
LEVEL001
   6
CONTINUOUS
  62
7
  10
 346.273
  20
 713.686
  30
0.0
  11
 346.422
  21
 713.481
  31
0.0
   0
LINE
   8
LEVEL001
   6
CONTINUOUS
  62
7
  10
 346.422
  20
 713.481
  30
0.0
  11
 346.579
  21
 713.285
  31
0.0
   0
LINE
   8
LEVEL001
   6
CONTINUOUS
  62
7
  10
 346.579
  20
 713.285
  30
0.0
  11
 346.742
  21
 713.098
  31
0.0
   0
LINE
   8
LEVEL001
   6
CONTINUOUS
  62
7
  10
 346.742
  20
 713.098
  30
0.0
  11
 346.912
  21
 712.920
  31
0.0
   0
LINE
   8
LEVEL001
   6
CONTINUOUS
  62
7
  10
 346.912
  20
 712.920
  30
0.0
  11
 347.087
  21
 712.752
  31
0.0
   0
LINE
   8
LEVEL001
   6
CONTINUOUS
  62
7
  10
 347.087
  20
 712.752
  30
0.0
  11
 347.268
  21
 712.594
  31
0.0
   0
LINE
   8
LEVEL001
   6
CONTINUOUS
  62
7
  10
 347.268
  20
 712.594
  30
0.0
  11
 347.454
  21
 712.446
  31
0.0
   0
LINE
   8
LEVEL001
   6
CONTINUOUS
  62
7
  10
 347.454
  20
 712.446
  30
0.0
  11
 347.645
  21
 712.309
  31
0.0
   0
LINE
   8
LEVEL001
   6
CONTINUOUS
  62
7
  10
 347.645
  20
 712.309
  30
0.0
  11
 347.841
  21
 712.182
  31
0.0
   0
LINE
   8
LEVEL001
   6
CONTINUOUS
  62
7
  10
 347.841
  20
 712.182
  30
0.0
  11
 348.041
  21
 712.067
  31
0.0
   0
LINE
   8
LEVEL001
   6
CONTINUOUS
  62
7
  10
 348.041
  20
 712.067
  30
0.0
  11
 348.244
  21
 711.963
  31
0.0
   0
LINE
   8
LEVEL001
   6
CONTINUOUS
  62
7
  10
 348.244
  20
 711.963
  30
0.0
  11
 348.451
  21
 711.870
  31
0.0
   0
LINE
   8
LEVEL001
   6
CONTINUOUS
  62
7
  10
 348.451
  20
 711.870
  30
0.0
  11
 348.661
  21
 711.789
  31
0.0
   0
LINE
   8
LEVEL001
   6
CONTINUOUS
  62
7
  10
 348.661
  20
 711.789
  30
0.0
  11
 348.873
  21
 711.720
  31
0.0
   0
LINE
   8
LEVEL001
   6
CONTINUOUS
  62
7
  10
 348.873
  20
 711.720
  30
0.0
  11
 349.088
  21
 711.663
  31
0.0
   0
LINE
   8
LEVEL001
   6
CONTINUOUS
  62
7
  10
 349.088
  20
 711.663
  30
0.0
  11
 349.304
  21
 711.618
  31
0.0
   0
LINE
   8
LEVEL001
   6
CONTINUOUS
  62
7
  10
 349.304
  20
 711.618
  30
0.0
  11
 349.522
  21
 711.585
  31
0.0
   0
LINE
   8
LEVEL001
   6
CONTINUOUS
  62
7
  10
 349.522
  20
 711.585
  30
0.0
  11
 349.741
  21
 711.565
  31
0.0
   0
LINE
   8
LEVEL001
   6
CONTINUOUS
  62
7
  10
 349.741
  20
 711.565
  30
0.0
  11
 349.960
  21
 711.556
  31
0.0
   0
LINE
   8
LEVEL001
   6
CONTINUOUS
  62
7
  10
 349.960
  20
 711.556
  30
0.0
  11
 350.179
  21
 711.560
  31
0.0
   0
LINE
   8
LEVEL001
   6
CONTINUOUS
  62
7
  10
 350.179
  20
 711.560
  30
0.0
  11
 350.398
  21
 711.576
  31
0.0
   0
LINE
   8
LEVEL001
   6
CONTINUOUS
  62
7
  10
 350.398
  20
 711.576
  30
0.0
  11
 350.616
  21
 711.605
  31
0.0
   0
LINE
   8
LEVEL001
   6
CONTINUOUS
  62
7
  10
 350.616
  20
 711.605
  30
0.0
  11
 350.833
  21
 711.645
  31
0.0
   0
LINE
   8
LEVEL001
   6
CONTINUOUS
  62
7
  10
 350.833
  20
 711.645
  30
0.0
  11
 351.049
  21
 711.698
  31
0.0
   0
LINE
   8
LEVEL001
   6
CONTINUOUS
  62
7
  10
 351.049
  20
 711.698
  30
0.0
  11
 351.262
  21
 711.763
  31
0.0
   0
LINE
   8
LEVEL001
   6
CONTINUOUS
  62
7
  10
 351.262
  20
 711.763
  30
0.0
  11
 351.473
  21
 711.839
  31
0.0
   0
LINE
   8
LEVEL001
   6
CONTINUOUS
  62
7
  10
 351.473
  20
 711.839
  30
0.0
  11
 351.681
  21
 711.928
  31
0.0
   0
LINE
   8
LEVEL001
   6
CONTINUOUS
  62
7
  10
 351.681
  20
 711.928
  30
0.0
  11
 351.886
  21
 712.028
  31
0.0
   0
LINE
   8
LEVEL001
   6
CONTINUOUS
  62
7
  10
 351.886
  20
 712.028
  30
0.0
  11
 352.087
  21
 712.139
  31
0.0
   0
LINE
   8
LEVEL001
   6
CONTINUOUS
  62
7
  10
 352.087
  20
 712.139
  30
0.0
  11
 352.284
  21
 712.262
  31
0.0
   0
LINE
   8
LEVEL001
   6
CONTINUOUS
  62
7
  10
 352.284
  20
 712.262
  30
0.0
  11
 352.477
  21
 712.395
  31
0.0
   0
LINE
   8
LEVEL001
   6
CONTINUOUS
  62
7
  10
 352.477
  20
 712.395
  30
0.0
  11
 352.665
  21
 712.539
  31
0.0
   0
LINE
   8
LEVEL001
   6
CONTINUOUS
  62
7
  10
 352.665
  20
 712.539
  30
0.0
  11
 352.848
  21
 712.693
  31
0.0
   0
LINE
   8
LEVEL001
   6
CONTINUOUS
  62
7
  10
 352.848
  20
 712.693
  30
0.0
  11
 353.025
  21
 712.858
  31
0.0
   0
LINE
   8
LEVEL001
   6
CONTINUOUS
  62
7
  10
 353.025
  20
 712.858
  30
0.0
  11
 353.197
  21
 713.032
  31
0.0
   0
LINE
   8
LEVEL001
   6
CONTINUOUS
  62
7
  10
 353.197
  20
 713.032
  30
0.0
  11
 353.362
  21
 713.216
  31
0.0
   0
LINE
   8
LEVEL001
   6
CONTINUOUS
  62
7
  10
 353.362
  20
 713.216
  30
0.0
  11
 353.521
  21
 713.409
  31
0.0
   0
LINE
   8
LEVEL001
   6
CONTINUOUS
  62
7
  10
 353.521
  20
 713.409
  30
0.0
  11
 353.674
  21
 713.611
  31
0.0
   0
LINE
   8
LEVEL001
   6
CONTINUOUS
  62
7
  10
 353.674
  20
 713.611
  30
0.0
  11
 353.819
  21
 713.821
  31
0.0
   0
LINE
   8
LEVEL001
   6
CONTINUOUS
  62
7
  10
 353.819
  20
 713.821
  30
0.0
  11
 353.957
  21
 714.038
  31
0.0
   0
LINE
   8
LEVEL001
   6
CONTINUOUS
  62
7
  10
 353.957
  20
 714.038
  30
0.0
  11
 354.087
  21
 714.264
  31
0.0
   0
LINE
   8
LEVEL001
   6
CONTINUOUS
  62
7
  10
 354.087
  20
 714.264
  30
0.0
  11
 354.209
  21
 714.496
  31
0.0
   0
LINE
   8
LEVEL001
   6
CONTINUOUS
  62
7
  10
 354.209
  20
 714.496
  30
0.0
  11
 354.323
  21
 714.735
  31
0.0
   0
LINE
   8
LEVEL001
   6
CONTINUOUS
  62
7
  10
 354.323
  20
 714.735
  30
0.0
  11
 354.429
  21
 714.981
  31
0.0
   0
LINE
   8
LEVEL001
   6
CONTINUOUS
  62
7
  10
 354.429
  20
 714.981
  30
0.0
  11
 354.527
  21
 715.232
  31
0.0
   0
LINE
   8
LEVEL001
   6
CONTINUOUS
  62
7
  10
 354.527
  20
 715.232
  30
0.0
  11
 354.616
  21
 715.488
  31
0.0
   0
LINE
   8
LEVEL001
   6
CONTINUOUS
  62
7
  10
 354.616
  20
 715.488
  30
0.0
  11
 354.695
  21
 715.749
  31
0.0
   0
LINE
   8
LEVEL001
   6
CONTINUOUS
  62
7
  10
 354.695
  20
 715.749
  30
0.0
  11
 354.766
  21
 716.014
  31
0.0
   0
LINE
   8
LEVEL001
   6
CONTINUOUS
  62
7
  10
 354.766
  20
 716.014
  30
0.0
  11
 354.828
  21
 716.282
  31
0.0
   0
LINE
   8
LEVEL001
   6
CONTINUOUS
  62
7
  10
 354.828
  20
 716.282
  30
0.0
  11
 354.880
  21
 716.554
  31
0.0
   0
LINE
   8
LEVEL001
   6
CONTINUOUS
  62
7
  10
 354.880
  20
 716.554
  30
0.0
  11
 354.923
  21
 716.829
  31
0.0
   0
LINE
   8
LEVEL001
   6
CONTINUOUS
  62
7
  10
 354.923
  20
 716.829
  30
0.0
  11
 354.957
  21
 717.106
  31
0.0
   0
LINE
   8
LEVEL001
   6
CONTINUOUS
  62
7
  10
 354.957
  20
 717.106
  30
0.0
  11
 354.981
  21
 717.384
  31
0.0
   0
LINE
   8
LEVEL001
   6
CONTINUOUS
  62
7
  10
 354.981
  20
 717.384
  30
0.0
  11
 354.995
  21
 717.664
  31
0.0
   0
LINE
   8
LEVEL001
   6
CONTINUOUS
  62
7
  10
 354.995
  20
 717.664
  30
0.0
  11
 355.000
  21
 717.944
  31
0.0
   0
LINE
   8
LEVEL001
   6
CONTINUOUS
  62
7
  10
 355.000
  20
 756.500
  30
0.0
  11
 355.000
  21
 717.944
  31
0.0
   0
LINE
   8
LEVEL001
   6
CONTINUOUS
  62
7
  10
 345.000
  20
 756.500
  30
0.0
  11
 345.000
  21
 718.046
  31
0.0
   0
ARC
   8
LEVEL001
   6
CONTINUOUS
  62
7
  10
 350.000
  20
 756.500
  30
0.0
  40
 5.00000
  50
0.0
  51
 180.000
   0
LINE
   8
LEVEL001
   6
CONTINUOUS
  62
7
  10
 362.500
  20
 710.500
  30
0.0
  11
 361.205
  21
 717.847
  31
0.0
   0
ARC
   8
LEVEL001
   6
CONTINUOUS
  62
7
  10
 359.235
  20
 717.500
  30
0.0
  40
 2.00000
  50
 9.99980
  51
 90.0030
   0
LINE
   8
LEVEL001
   6
CONTINUOUS
  62
7
  10
 365.000
  20
 710.500
  30
0.0
  11
 362.500
  21
 710.500
  31
0.0
   0
LINE
   8
LEVEL001
   6
CONTINUOUS
  62
7
  10
 337.500
  20
 710.500
  30
0.0
  11
 338.796
  21
 717.847
  31
0.0
   0
ARC
   8
LEVEL001
   6
CONTINUOUS
  62
7
  10
 340.765
  20
 717.500
  30
0.0
  40
 2.00000
  50
 90.0000
  51
 170.000
   0
LINE
   8
LEVEL001
   6
CONTINUOUS
  62
7
  10
 337.500
  20
 710.500
  30
0.0
  11
 362.500
  21
 710.500
  31
0.0
   0
LINE
   8
LEVEL001
   6
CONTINUOUS
  62
7
  10
 337.500
  20
 710.500
  30
0.0
  11
 335.000
  21
 710.500
  31
0.0
   0
LINE
   8
LEVEL001
   6
CONTINUOUS
  62
7
  10
 335.000
  20
 708.500
  30
0.0
  11
 335.000
  21
 710.500
  31
0.0
   0
ARC
   8
LEVEL001
   6
CONTINUOUS
  62
7
  10
 330.000
  20
 708.500
  30
0.0
  40
 5.00000
  50
 270.000
  51
0.0
   0
LINE
   8
LEVEL001
   6
CONTINUOUS
  62
7
  10
 386.500
  20
 785.000
  30
0.0
  11
 313.500
  21
 785.000
  31
0.0
   0
LINE
   8
LEVEL001
   6
CONTINUOUS
  62
7
  10
 315.000
  20
 788.000
  30
0.0
  11
 385.000
  21
 788.000
  31
0.0
   0
LINE
   8
LEVEL001
   6
CONTINUOUS
  62
7
  10
 387.500
  20
 784.000
  30
0.0
  11
 387.500
  21
 753.000
  31
0.0
   0
LINE
   8
LEVEL001
   6
CONTINUOUS
  62
7
  10
 481.500
  20
 703.500
  30
0.0
  11
 218.500
  21
 703.500
  31
0.0
   0
LINE
   8
LEVEL001
   6
CONTINUOUS
  62
7
  10
 217.500
  20
 685.000
  30
0.0
  11
 482.500
  21
 685.000
  31
0.0
   0
LINE
   8
LEVEL001
   6
CONTINUOUS
  62
7
  10
 216.500
  20
 685.500
  30
0.0
  11
 483.500
  21
 685.500
  31
0.0
   0
LINE
   8
LEVEL001
   6
CONTINUOUS
  62
7
  10
 399.000
  20
 480.000
  30
0.0
  11
 399.000
  21
 479.000
  31
0.0
   0
LINE
   8
LEVEL001
   6
CONTINUOUS
  62
7
  10
 400.000
  20
 480.000
  30
0.0
  11
 400.000
  21
 475.270
  31
0.0
   0
LINE
   8
LEVEL001
   6
CONTINUOUS
  62
7
  10
 300.000
  20
 480.000
  30
0.0
  11
 300.000
  21
 475.270
  31
0.0
   0
LINE
   8
LEVEL001
   6
CONTINUOUS
  62
7
  10
 301.000
  20
 480.000
  30
0.0
  11
 301.000
  21
 479.000
  31
0.0
   0
LINE
   8
LEVEL001
   6
CONTINUOUS
  62
7
  10
 410.000
  20
 482.000
  30
0.0
  11
 290.000
  21
 482.000
  31
0.0
   0
LINE
   8
LEVEL001
   6
CONTINUOUS
  62
7
  10
 300.000
  20
 479.000
  30
0.0
  11
 400.000
  21
 479.000
  31
0.0
   0
LINE
   8
LEVEL001
   6
CONTINUOUS
  62
7
  10
 408.000
  20
 480.000
  30
0.0
  11
 292.000
  21
 480.000
  31
0.0
   0
LINE
   8
LEVEL001
   6
CONTINUOUS
  62
7
  10
 299.200
  20
 475.270
  30
0.0
  11
 400.800
  21
 475.270
  31
0.0
   0
LINE
   8
LEVEL001
   6
CONTINUOUS
  62
7
  10
 340.656
  20
 89.1000
  30
0.0
  11
 359.344
  21
 89.1000
  31
0.0
   0
LINE
   8
LEVEL001
   6
CONTINUOUS
  62
7
  10
 339.759
  20
 90.0000
  30
0.0
  11
 340.656
  21
 89.1000
  31
0.0
   0
LINE
   8
LEVEL001
   6
CONTINUOUS
  62
7
  10
 359.344
  20
 89.1000
  30
0.0
  11
 360.241
  21
 90.0000
  31
0.0
   0
LINE
   8
LEVEL001
   6
CONTINUOUS
  62
7
  10
 340.684
  20
 90.0000
  30
0.0
  11
 340.656
  21
 89.1000
  31
0.0
   0
LINE
   8
LEVEL001
   6
CONTINUOUS
  62
7
  10
 359.316
  20
 90.0000
  30
0.0
  11
 359.344
  21
 89.1000
  31
0.0
   0
LINE
   8
LEVEL001
   6
CONTINUOUS
  62
7
  10
 398.500
  20
 90.0000
  30
0.0
  11
 301.500
  21
 90.0000
  31
0.0
   0
LINE
   8
LEVEL001
   6
CONTINUOUS
  62
7
  10
 400.800
  20
 94.5000
  30
0.0
  11
 398.500
  21
 90.0000
  31
0.0
   0
LINE
   8
LEVEL001
   6
CONTINUOUS
  62
7
  10
 400.800
  20
 94.5000
  30
0.0
  11
 400.800
  21
 475.270
  31
0.0
   0
LINE
   8
LEVEL001
   6
CONTINUOUS
  62
7
  10
 400.800
  20
 94.5000
  30
0.0
  11
 299.200
  21
 94.5000
  31
0.0
   0
LINE
   8
LEVEL001
   6
CONTINUOUS
  62
7
  10
 299.200
  20
 94.5000
  30
0.0
  11
 299.200
  21
 475.270
  31
0.0
   0
LINE
   8
LEVEL001
   6
CONTINUOUS
  62
7
  10
 299.200
  20
 94.5000
  30
0.0
  11
 301.500
  21
 90.0000
  31
0.0
   0
LINE
   8
LEVEL001
   6
CONTINUOUS
  62
7
  10
 315.000
  20
 854.000
  30
0.0
  11
 385.000
  21
 854.000
  31
0.0
   0
LINE
   8
LEVEL001
   6
CONTINUOUS
  62
7
  10
 384.000
  20
 855.000
  30
0.0
  11
 316.000
  21
 855.000
  31
0.0
   0
LINE
   8
LEVEL001
   6
CONTINUOUS
  62
7
  10
 216.500
  20
 701.500
  30
0.0
  11
 216.500
  21
 685.500
  31
0.0
   0
LINE
   8
LEVEL001
   6
CONTINUOUS
  62
7
  10
 483.500
  20
 701.500
  30
0.0
  11
 483.500
  21
 685.500
  31
0.0
   0
LINE
   8
LEVEL001
   6
CONTINUOUS
  62
7
  10
 481.000
  20
 703.500
  30
0.0
  11
 481.500
  21
 703.500
  31
0.0
   0
LINE
   8
LEVEL001
   6
CONTINUOUS
  62
7
  10
 482.500
  20
 685.000
  30
0.0
  11
 482.500
  21
 659.150
  31
0.0
   0
ARC
   8
LEVEL001
   6
CONTINUOUS
  62
7
  10
 481.500
  20
 701.500
  30
0.0
  40
 2.00000
  50
0.0
  51
 90.0000
   0
LINE
   8
LEVEL001
   6
CONTINUOUS
  62
7
  10
 301.000
  20
 479.000
  30
0.0
  11
 300.000
  21
 475.270
  31
0.0
   0
LINE
   8
LEVEL001
   6
CONTINUOUS
  62
7
  10
 290.000
  20
 500.000
  30
0.0
  11
 290.000
  21
 482.000
  31
0.0
   0
LINE
   8
LEVEL001
   6
CONTINUOUS
  62
7
  10
 290.000
  20
 482.000
  30
0.0
  11
 292.000
  21
 480.000
  31
0.0
   0
ARC
   8
LEVEL001
   6
CONTINUOUS
  62
7
  10
 285.000
  20
 500.000
  30
0.0
  40
 5.00000
  50
0.0
  51
 90.0000
   0
LINE
   8
LEVEL001
   6
CONTINUOUS
  62
7
  10
 399.000
  20
 479.000
  30
0.0
  11
 400.000
  21
 475.270
  31
0.0
   0
LINE
   8
LEVEL001
   6
CONTINUOUS
  62
7
  10
 410.000
  20
 500.000
  30
0.0
  11
 410.000
  21
 482.000
  31
0.0
   0
LINE
   8
LEVEL001
   6
CONTINUOUS
  62
7
  10
 410.000
  20
 482.000
  30
0.0
  11
 408.000
  21
 480.000
  31
0.0
   0
ARC
   8
LEVEL001
   6
CONTINUOUS
  62
7
  10
 415.000
  20
 500.000
  30
0.0
  40
 5.00000
  50
 90.0000
  51
 180.000
   0
LINE
   8
LEVEL001
   6
CONTINUOUS
  62
7
  10
 384.000
  20
 855.000
  30
0.0
  11
 385.000
  21
 854.000
  31
0.0
   0
LINE
   8
LEVEL001
   6
DASHDOT
  62
7
  10
 373.500
  20
 685.000
  30
0.0
  11
 394.500
  21
 685.000
  31
0.0
   0
ARC
   8
LEVEL001
   6
CONTINUOUS
  62
7
  10
 295.405
  20
 747.000
  30
0.0
  40
 3.00000
  50
 89.9980
  51
 178.154
   0
LINE
   8
LEVEL001
   6
CONTINUOUS
  62
7
  10
 312.750
  20
 750.000
  30
0.0
  11
 312.500
  21
 750.000
  31
0.0
   0
LINE
   8
LEVEL001
   6
CONTINUOUS
  62
7
  10
 312.750
  20
 753.000
  30
0.0
  11
 312.750
  21
 750.000
  31
0.0
   0
ARC
   8
LEVEL001
   6
CONTINUOUS
  62
7
  10
 404.595
  20
 747.000
  30
0.0
  40
 3.00000
  50
 1.84560
  51
 90.0020
   0
LINE
   8
LEVEL001
   6
CONTINUOUS
  62
7
  10
 387.250
  20
 750.000
  30
0.0
  11
 387.500
  21
 750.000
  31
0.0
   0
LINE
   8
LEVEL001
   6
CONTINUOUS
  62
7
  10
 387.250
  20
 753.000
  30
0.0
  11
 387.250
  21
 750.000
  31
0.0
   0
ARC
   8
LEVEL001
   6
CONTINUOUS
  62
7
  10
 218.500
  20
 701.500
  30
0.0
  40
 2.00000
  50
 90.0000
  51
 180.000
   0
LINE
   8
LEVEL001
   6
CONTINUOUS
  62
7
  10
 312.500
  20
 784.000
  30
0.0
  11
 312.500
  21
 753.000
  31
0.0
   0
ARC
   8
LEVEL001
   6
CONTINUOUS
  62
7
  10
 313.500
  20
 784.000
  30
0.0
  40
 1.00000
  50
 90.0000
  51
 180.000
   0
LINE
   8
LEVEL001
   6
CONTINUOUS
  62
7
  10
 316.000
  20
 855.000
  30
0.0
  11
 316.000
  21
 787.000
  31
0.0
   0
LINE
   8
LEVEL001
   6
CONTINUOUS
  62
7
  10
 316.000
  20
 787.000
  30
0.0
  11
 316.000
  21
 786.000
  31
0.0
   0
ARC
   8
LEVEL001
   6
CONTINUOUS
  62
7
  10
 315.000
  20
 786.000
  30
0.0
  40
 1.00000
  50
 270.000
  51
0.0
   0
ARC
   8
LEVEL001
   6
CONTINUOUS
  62
7
  10
 315.000
  20
 787.000
  30
0.0
  40
 1.00000
  50
0.0
  51
 90.0000
   0
LINE
   8
LEVEL001
   6
CONTINUOUS
  62
7
  10
 312.500
  20
 753.000
  30
0.0
  11
 312.750
  21
 753.000
  31
0.0
   0
ARC
   8
LEVEL001
   6
CONTINUOUS
  62
7
  10
 386.500
  20
 784.000
  30
0.0
  40
 1.00000
  50
0.0
  51
 90.0000
   0
LINE
   8
LEVEL001
   6
CONTINUOUS
  62
7
  10
 384.000
  20
 855.000
  30
0.0
  11
 384.000
  21
 787.000
  31
0.0
   0
LINE
   8
LEVEL001
   6
CONTINUOUS
  62
7
  10
 384.000
  20
 787.000
  30
0.0
  11
 384.000
  21
 786.000
  31
0.0
   0
ARC
   8
LEVEL001
   6
CONTINUOUS
  62
7
  10
 385.000
  20
 786.000
  30
0.0
  40
 1.00000
  50
 180.000
  51
 270.000
   0
ARC
   8
LEVEL001
   6
CONTINUOUS
  62
7
  10
 385.000
  20
 787.000
  30
0.0
  40
 1.00000
  50
 90.0000
  51
 180.000
   0
LINE
   8
LEVEL001
   6
CONTINUOUS
  62
7
  10
 387.500
  20
 753.000
  30
0.0
  11
 387.250
  21
 753.000
  31
0.0
   0
LINE
   8
LEVEL001
   6
CONTINUOUS
  62
7
  10
 385.000
  20
 820.000
  30
0.0
  11
 385.000
  21
 854.000
  31
0.0
   0
LINE
   8
LEVEL001
   6
CONTINUOUS
  62
7
  10
 385.000
  20
 788.000
  30
0.0
  11
 385.000
  21
 820.000
  31
0.0
   0
LINE
   8
LEVEL001
   6
CONTINUOUS
  62
7
  10
 316.000
  20
 855.000
  30
0.0
  11
 315.000
  21
 854.000
  31
0.0
   0
LINE
   8
LEVEL001
   6
CONTINUOUS
  62
7
  10
 315.000
  20
 854.000
  30
0.0
  11
 315.000
  21
 788.000
  31
0.0
   0
LINE
   8
LEVEL001
   6
CONTINUOUS
  62
7
  10
 216.750
  20
 654.000
  30
0.0
  11
 216.750
  21
 546.000
  31
0.0
   0
LINE
   8
LEVEL001
   6
CONTINUOUS
  62
7
  10
 483.250
  20
 580.000
  30
0.0
  11
 486.347
  21
 580.000
  31
0.0
   0
LINE
   8
LEVEL001
   6
CONTINUOUS
  62
7
  10
 483.250
  20
 620.000
  30
0.0
  11
 486.347
  21
 620.000
  31
0.0
   0
LINE
   8
LEVEL001
   6
CONTINUOUS
  62
7
  10
 483.250
  20
 546.000
  30
0.0
  11
 483.250
  21
 654.000
  31
0.0
   0
ARC
   8
LEVEL001
   6
CONTINUOUS
  62
7
  10
 481.250
  20
 654.000
  30
0.0
  40
 2.00000
  50
0.0
  51
 90.0000
   0
LINE
   8
LEVEL001
   6
CONTINUOUS
  62
7
  10
 481.250
  20
 656.000
  30
0.0
  11
 470.250
  21
 656.000
  31
0.0
   0
ARC
   8
LEVEL001
   6
CONTINUOUS
  62
7
  10
 481.250
  20
 546.000
  30
0.0
  40
 2.00000
  50
 270.000
  51
0.0
   0
ARC
   8
LEVEL001
   6
CONTINUOUS
  62
7
  10
 218.750
  20
 654.000
  30
0.0
  40
 2.00000
  50
 90.0000
  51
 180.000
   0
LINE
   8
LEVEL001
   6
CONTINUOUS
  62
7
  10
 218.750
  20
 656.000
  30
0.0
  11
 229.750
  21
 656.000
  31
0.0
   0
ARC
   8
LEVEL001
   6
CONTINUOUS
  62
7
  10
 218.750
  20
 546.000
  30
0.0
  40
 2.00000
  50
 180.000
  51
 270.000
   0
LINE
   8
LEVEL001
   6
CONTINUOUS
  62
7
  10
 486.347
  20
 580.000
  30
0.0
  11
 486.347
  21
 620.000
  31
0.0
   0
LINE
   8
LEVEL001
   6
CONTINUOUS
  62
7
  10
 494.347
  20
 582.500
  30
0.0
  11
 486.347
  21
 580.000
  31
0.0
   0
LINE
   8
LEVEL001
   6
CONTINUOUS
  62
7
  10
 494.347
  20
 582.500
  30
0.0
  11
 551.500
  21
 582.500
  31
0.0
   0
LINE
   8
LEVEL001
   6
CONTINUOUS
  62
7
  10
 551.500
  20
 582.500
  30
0.0
  11
 552.500
  21
 583.500
  31
0.0
   0
LINE
   8
LEVEL001
   6
CONTINUOUS
  62
7
  10
 470.250
  20
 544.000
  30
0.0
  11
 470.250
  21
 656.000
  31
0.0
   0
LINE
   8
LEVEL001
   6
CONTINUOUS
  62
7
  10
 481.250
  20
 544.000
  30
0.0
  11
 470.250
  21
 544.000
  31
0.0
   0
LINE
   8
LEVEL001
   6
CONTINUOUS
  62
7
  10
 470.000
  20
 545.000
  30
0.0
  11
 470.000
  21
 655.000
  31
0.0
   0
ARC
   8
LEVEL001
   6
CONTINUOUS
  62
7
  10
 470.000
  20
 535.000
  30
0.0
  40
 10.0000
  50
 90.0000
  51
 180.000
   0
LINE
   8
LEVEL001
   6
CONTINUOUS
  62
7
  10
 460.000
  20
 535.000
  30
0.0
  11
 460.000
  21
 505.000
  31
0.0
   0
LINE
   8
LEVEL001
   6
CONTINUOUS
  62
7
  10
 462.394
  20
 541.492
  30
0.0
  11
 459.999
  21
 530.000
  31
0.0
   0
ARC
   8
LEVEL001
   6
CONTINUOUS
  62
7
  10
 467.500
  20
 659.150
  30
0.0
  40
 15.0000
  50
 347.096
  51
 0.600000E-3
   0
LINE
   8
LEVEL001
   6
CONTINUOUS
  62
7
  10
 217.500
  20
 659.150
  30
0.0
  11
 217.500
  21
 685.000
  31
0.0
   0
ARC
   8
LEVEL001
   6
CONTINUOUS
  62
7
  10
 232.500
  20
 659.150
  30
0.0
  40
 15.0000
  50
 180.000
  51
 192.904
   0
LINE
   8
LEVEL001
   6
CONTINUOUS
  62
7
  10
 237.606
  20
 541.492
  30
0.0
  11
 240.001
  21
 530.000
  31
0.0
   0
LINE
   8
LEVEL001
   6
CONTINUOUS
  62
7
  10
 240.000
  20
 535.000
  30
0.0
  11
 240.000
  21
 505.000
  31
0.0
   0
LINE
   8
LEVEL001
   6
CONTINUOUS
  62
7
  10
 229.750
  20
 656.000
  30
0.0
  11
 229.750
  21
 544.000
  31
0.0
   0
LINE
   8
LEVEL001
   6
CONTINUOUS
  62
7
  10
 218.750
  20
 544.000
  30
0.0
  11
 229.750
  21
 544.000
  31
0.0
   0
LINE
   8
LEVEL001
   6
CONTINUOUS
  62
7
  10
 230.000
  20
 655.000
  30
0.0
  11
 230.000
  21
 545.000
  31
0.0
   0
ARC
   8
LEVEL001
   6
CONTINUOUS
  62
7
  10
 230.000
  20
 535.000
  30
0.0
  40
 10.0000
  50
0.0
  51
 90.0000
   0
LINE
   8
LEVEL001
   6
CONTINUOUS
  62
7
  10
 380.000
  20
 653.000
  30
0.0
  11
 367.000
  21
 648.000
  31
0.0
   0
LINE
   8
LEVEL001
   6
CONTINUOUS
  62
7
  10
 367.000
  20
 648.000
  30
0.0
  11
 356.000
  21
 646.000
  31
0.0
   0
LINE
   8
LEVEL001
   6
CONTINUOUS
  62
7
  10
 320.000
  20
 653.000
  30
0.0
  11
 333.000
  21
 648.000
  31
0.0
   0
LINE
   8
LEVEL001
   6
CONTINUOUS
  62
7
  10
 333.000
  20
 648.000
  30
0.0
  11
 344.000
  21
 646.000
  31
0.0
   0
LINE
   8
LEVEL001
   6
CONTINUOUS
  62
7
  10
 397.056
  20
 655.911
  30
0.0
  11
 380.000
  21
 653.000
  31
0.0
   0
LINE
   8
LEVEL001
   6
CONTINUOUS
  62
7
  10
 470.000
  20
 655.000
  30
0.0
  11
 397.056
  21
 655.911
  31
0.0
   0
LINE
   8
LEVEL001
   6
CONTINUOUS
  62
7
  10
 302.944
  20
 655.911
  30
0.0
  11
 320.000
  21
 653.000
  31
0.0
   0
LINE
   8
LEVEL001
   6
CONTINUOUS
  62
7
  10
 230.000
  20
 655.000
  30
0.0
  11
 302.944
  21
 655.911
  31
0.0
   0
LINE
   8
LEVEL001
   6
CONTINUOUS
  62
7
  10
 502.500
  20
 616.771
  30
0.0
  11
 502.500
  21
 621.500
  31
0.0
   0
LINE
   8
LEVEL001
   6
CONTINUOUS
  62
7
  10
 551.500
  20
 616.771
  30
0.0
  11
 552.500
  21
 615.724
  31
0.0
   0
LINE
   8
LEVEL001
   6
CONTINUOUS
  62
7
  10
 552.500
  20
 583.500
  30
0.0
  11
 552.500
  21
 615.724
  31
0.0
   0
LINE
   8
LEVEL001
   6
CONTINUOUS
  62
7
  10
 494.500
  20
 616.771
  30
0.0
  11
 486.347
  21
 620.000
  31
0.0
   0
LINE
   8
LEVEL001
   6
CONTINUOUS
  62
7
  10
 502.500
  20
 621.500
  30
0.0
  11
 552.500
  21
 621.500
  31
0.0
   0
LINE
   8
LEVEL001
   6
CONTINUOUS
  62
7
  10
 552.500
  20
 621.500
  30
0.0
  11
 552.500
  21
 615.724
  31
0.0
   0
LINE
   8
LEVEL001
   6
CONTINUOUS
  62
7
  10
 494.500
  20
 582.500
  30
0.0
  11
 494.500
  21
 616.771
  31
0.0
   0
LINE
   8
LEVEL001
   6
CONTINUOUS
  62
7
  10
 494.500
  20
 616.771
  30
0.0
  11
 551.500
  21
 616.771
  31
0.0
   0
LINE
   8
LEVEL001
   6
CONTINUOUS
  62
7
  10
 551.500
  20
 616.771
  30
0.0
  11
 551.500
  21
 582.500
  31
0.0
   0
LINE
   8
LEVEL001
   6
CONTINUOUS
  62
7
  10
 216.750
  20
 580.000
  30
0.0
  11
 213.653
  21
 580.000
  31
0.0
   0
LINE
   8
LEVEL001
   6
CONTINUOUS
  62
7
  10
 216.750
  20
 620.000
  30
0.0
  11
 213.653
  21
 620.000
  31
0.0
   0
LINE
   8
LEVEL001
   6
CONTINUOUS
  62
7
  10
 213.653
  20
 580.000
  30
0.0
  11
 213.653
  21
 620.000
  31
0.0
   0
LINE
   8
LEVEL001
   6
CONTINUOUS
  62
7
  10
 205.653
  20
 582.500
  30
0.0
  11
 213.653
  21
 580.000
  31
0.0
   0
LINE
   8
LEVEL001
   6
CONTINUOUS
  62
7
  10
 205.653
  20
 582.500
  30
0.0
  11
 148.500
  21
 582.500
  31
0.0
   0
LINE
   8
LEVEL001
   6
CONTINUOUS
  62
7
  10
 148.500
  20
 582.500
  30
0.0
  11
 147.500
  21
 583.500
  31
0.0
   0
LINE
   8
LEVEL001
   6
CONTINUOUS
  62
7
  10
 197.500
  20
 616.771
  30
0.0
  11
 197.500
  21
 621.500
  31
0.0
   0
LINE
   8
LEVEL001
   6
CONTINUOUS
  62
7
  10
 148.500
  20
 616.771
  30
0.0
  11
 147.500
  21
 615.724
  31
0.0
   0
LINE
   8
LEVEL001
   6
CONTINUOUS
  62
7
  10
 147.500
  20
 583.500
  30
0.0
  11
 147.500
  21
 615.724
  31
0.0
   0
LINE
   8
LEVEL001
   6
CONTINUOUS
  62
7
  10
 205.500
  20
 616.771
  30
0.0
  11
 213.653
  21
 620.000
  31
0.0
   0
LINE
   8
LEVEL001
   6
CONTINUOUS
  62
7
  10
 197.500
  20
 621.500
  30
0.0
  11
 147.500
  21
 621.500
  31
0.0
   0
LINE
   8
LEVEL001
   6
CONTINUOUS
  62
7
  10
 147.500
  20
 621.500
  30
0.0
  11
 147.500
  21
 615.724
  31
0.0
   0
LINE
   8
LEVEL001
   6
CONTINUOUS
  62
7
  10
 205.500
  20
 582.500
  30
0.0
  11
 205.500
  21
 616.771
  31
0.0
   0
LINE
   8
LEVEL001
   6
CONTINUOUS
  62
7
  10
 205.500
  20
 616.771
  30
0.0
  11
 148.500
  21
 616.771
  31
0.0
   0
LINE
   8
LEVEL001
   6
CONTINUOUS
  62
7
  10
 148.500
  20
 616.771
  30
0.0
  11
 148.500
  21
 582.500
  31
0.0
   0
ARC
   8
LEVEL001
   6
CONTINUOUS
  62
7
  10
 334.500
  20
 538.000
  30
0.0
  40
 8.00000
  50
 270.000
  51
0.0
   0
LINE
   8
LEVEL001
   6
CONTINUOUS
  62
7
  10
 240.000
  20
 530.000
  30
0.0
  11
 460.000
  21
 530.000
  31
0.0
   0
ARC
   8
LEVEL001
   6
CONTINUOUS
  62
7
  10
 365.500
  20
 538.000
  30
0.0
  40
 8.00000
  50
 180.000
  51
 270.000
   0
LINE
   8
LEVEL001
   6
CONTINUOUS
  62
7
  10
 357.500
  20
 609.398
  30
0.0
  11
 357.500
  21
 538.000
  31
0.0
   0
ARC
   8
LEVEL001
   6
CONTINUOUS
  62
7
  10
 365.500
  20
 609.398
  30
0.0
  40
 8.00000
  50
 90.0000
  51
 180.000
   0
LINE
   8
LEVEL001
   6
CONTINUOUS
  62
7
  10
 342.500
  20
 609.398
  30
0.0
  11
 342.500
  21
 538.000
  31
0.0
   0
ARC
   8
LEVEL001
   6
CONTINUOUS
  62
7
  10
 334.500
  20
 609.398
  30
0.0
  40
 8.00000
  50
0.0
  51
 90.0000
   0
LINE
   8
LEVEL001
   6
CONTINUOUS
  62
7
  10
 248.452
  20
 545.000
  30
0.0
  11
 328.343
  21
 545.000
  31
0.0
   0
LINE
   8
LEVEL001
   6
CONTINUOUS
  62
7
  10
 452.466
  20
 545.000
  30
0.0
  11
 371.203
  21
 545.000
  31
0.0
   0
LINE
   8
LEVEL001
   6
CONTINUOUS
  62
7
  10
 387.400
  20
 612.477
  30
0.0
  11
 387.391
  21
 612.557
  31
0.0
   0
LINE
   8
LEVEL001
   6
CONTINUOUS
  62
7
  10
 387.391
  20
 612.557
  30
0.0
  11
 387.364
  21
 612.637
  31
0.0
   0
LINE
   8
LEVEL001
   6
CONTINUOUS
  62
7
  10
 387.364
  20
 612.637
  30
0.0
  11
 387.318
  21
 612.715
  31
0.0
   0
LINE
   8
LEVEL001
   6
CONTINUOUS
  62
7
  10
 387.318
  20
 612.715
  30
0.0
  11
 387.255
  21
 612.792
  31
0.0
   0
LINE
   8
LEVEL001
   6
CONTINUOUS
  62
7
  10
 387.255
  20
 612.792
  30
0.0
  11
 387.175
  21
 612.866
  31
0.0
   0
LINE
   8
LEVEL001
   6
CONTINUOUS
  62
7
  10
 387.175
  20
 612.866
  30
0.0
  11
 387.078
  21
 612.937
  31
0.0
   0
LINE
   8
LEVEL001
   6
CONTINUOUS
  62
7
  10
 387.078
  20
 612.937
  30
0.0
  11
 386.966
  21
 613.004
  31
0.0
   0
LINE
   8
LEVEL001
   6
CONTINUOUS
  62
7
  10
 386.966
  20
 613.004
  30
0.0
  11
 386.839
  21
 613.068
  31
0.0
   0
LINE
   8
LEVEL001
   6
CONTINUOUS
  62
7
  10
 386.839
  20
 613.068
  30
0.0
  11
 386.697
  21
 613.127
  31
0.0
   0
LINE
   8
LEVEL001
   6
CONTINUOUS
  62
7
  10
 386.697
  20
 613.127
  30
0.0
  11
 386.543
  21
 613.181
  31
0.0
   0
LINE
   8
LEVEL001
   6
CONTINUOUS
  62
7
  10
 386.543
  20
 613.181
  30
0.0
  11
 386.377
  21
 613.230
  31
0.0
   0
LINE
   8
LEVEL001
   6
CONTINUOUS
  62
7
  10
 386.377
  20
 613.230
  30
0.0
  11
 386.200
  21
 613.273
  31
0.0
   0
LINE
   8
LEVEL001
   6
CONTINUOUS
  62
7
  10
 386.200
  20
 613.273
  30
0.0
  11
 386.014
  21
 613.310
  31
0.0
   0
LINE
   8
LEVEL001
   6
CONTINUOUS
  62
7
  10
 386.014
  20
 613.310
  30
0.0
  11
 385.821
  21
 613.340
  31
0.0
   0
LINE
   8
LEVEL001
   6
CONTINUOUS
  62
7
  10
 385.821
  20
 613.340
  30
0.0
  11
 385.621
  21
 613.365
  31
0.0
   0
LINE
   8
LEVEL001
   6
CONTINUOUS
  62
7
  10
 385.621
  20
 613.365
  30
0.0
  11
 385.417
  21
 613.382
  31
0.0
   0
LINE
   8
LEVEL001
   6
CONTINUOUS
  62
7
  10
 385.417
  20
 613.382
  30
0.0
  11
 385.209
  21
 613.392
  31
0.0
   0
LINE
   8
LEVEL001
   6
CONTINUOUS
  62
7
  10
 385.209
  20
 613.392
  30
0.0
  11
 385.000
  21
 613.396
  31
0.0
   0
LINE
   8
LEVEL001
   6
CONTINUOUS
  62
7
  10
 385.000
  20
 613.396
  30
0.0
  11
 384.791
  21
 613.392
  31
0.0
   0
LINE
   8
LEVEL001
   6
CONTINUOUS
  62
7
  10
 384.791
  20
 613.392
  30
0.0
  11
 384.583
  21
 613.382
  31
0.0
   0
LINE
   8
LEVEL001
   6
CONTINUOUS
  62
7
  10
 384.583
  20
 613.382
  30
0.0
  11
 384.379
  21
 613.365
  31
0.0
   0
LINE
   8
LEVEL001
   6
CONTINUOUS
  62
7
  10
 384.379
  20
 613.365
  30
0.0
  11
 384.179
  21
 613.340
  31
0.0
   0
LINE
   8
LEVEL001
   6
CONTINUOUS
  62
7
  10
 384.179
  20
 613.340
  30
0.0
  11
 383.986
  21
 613.310
  31
0.0
   0
LINE
   8
LEVEL001
   6
CONTINUOUS
  62
7
  10
 383.986
  20
 613.310
  30
0.0
  11
 383.800
  21
 613.273
  31
0.0
   0
LINE
   8
LEVEL001
   6
CONTINUOUS
  62
7
  10
 383.800
  20
 613.273
  30
0.0
  11
 383.623
  21
 613.230
  31
0.0
   0
LINE
   8
LEVEL001
   6
CONTINUOUS
  62
7
  10
 383.623
  20
 613.230
  30
0.0
  11
 383.457
  21
 613.181
  31
0.0
   0
LINE
   8
LEVEL001
   6
CONTINUOUS
  62
7
  10
 383.457
  20
 613.181
  30
0.0
  11
 383.303
  21
 613.127
  31
0.0
   0
LINE
   8
LEVEL001
   6
CONTINUOUS
  62
7
  10
 383.303
  20
 613.127
  30
0.0
  11
 383.161
  21
 613.068
  31
0.0
   0
LINE
   8
LEVEL001
   6
CONTINUOUS
  62
7
  10
 383.161
  20
 613.068
  30
0.0
  11
 383.034
  21
 613.004
  31
0.0
   0
LINE
   8
LEVEL001
   6
CONTINUOUS
  62
7
  10
 383.034
  20
 613.004
  30
0.0
  11
 382.922
  21
 612.937
  31
0.0
   0
LINE
   8
LEVEL001
   6
CONTINUOUS
  62
7
  10
 382.922
  20
 612.937
  30
0.0
  11
 382.825
  21
 612.866
  31
0.0
   0
LINE
   8
LEVEL001
   6
CONTINUOUS
  62
7
  10
 382.825
  20
 612.866
  30
0.0
  11
 382.745
  21
 612.792
  31
0.0
   0
LINE
   8
LEVEL001
   6
CONTINUOUS
  62
7
  10
 382.745
  20
 612.792
  30
0.0
  11
 382.682
  21
 612.715
  31
0.0
   0
LINE
   8
LEVEL001
   6
CONTINUOUS
  62
7
  10
 382.682
  20
 612.715
  30
0.0
  11
 382.636
  21
 612.637
  31
0.0
   0
LINE
   8
LEVEL001
   6
CONTINUOUS
  62
7
  10
 382.636
  20
 612.637
  30
0.0
  11
 382.609
  21
 612.557
  31
0.0
   0
LINE
   8
LEVEL001
   6
CONTINUOUS
  62
7
  10
 382.609
  20
 612.557
  30
0.0
  11
 382.600
  21
 612.477
  31
0.0
   0
LINE
   8
LEVEL001
   6
CONTINUOUS
  62
7
  10
 382.600
  20
 612.477
  30
0.0
  11
 382.609
  21
 612.397
  31
0.0
   0
LINE
   8
LEVEL001
   6
CONTINUOUS
  62
7
  10
 382.609
  20
 612.397
  30
0.0
  11
 382.636
  21
 612.318
  31
0.0
   0
LINE
   8
LEVEL001
   6
CONTINUOUS
  62
7
  10
 382.636
  20
 612.318
  30
0.0
  11
 382.682
  21
 612.240
  31
0.0
   0
LINE
   8
LEVEL001
   6
CONTINUOUS
  62
7
  10
 382.682
  20
 612.240
  30
0.0
  11
 382.745
  21
 612.163
  31
0.0
   0
LINE
   8
LEVEL001
   6
CONTINUOUS
  62
7
  10
 382.745
  20
 612.163
  30
0.0
  11
 382.825
  21
 612.089
  31
0.0
   0
LINE
   8
LEVEL001
   6
CONTINUOUS
  62
7
  10
 382.825
  20
 612.089
  30
0.0
  11
 382.922
  21
 612.018
  31
0.0
   0
LINE
   8
LEVEL001
   6
CONTINUOUS
  62
7
  10
 382.922
  20
 612.018
  30
0.0
  11
 383.034
  21
 611.951
  31
0.0
   0
LINE
   8
LEVEL001
   6
CONTINUOUS
  62
7
  10
 383.034
  20
 611.951
  30
0.0
  11
 383.161
  21
 611.887
  31
0.0
   0
LINE
   8
LEVEL001
   6
CONTINUOUS
  62
7
  10
 383.161
  20
 611.887
  30
0.0
  11
 383.303
  21
 611.828
  31
0.0
   0
LINE
   8
LEVEL001
   6
CONTINUOUS
  62
7
  10
 383.303
  20
 611.828
  30
0.0
  11
 383.457
  21
 611.774
  31
0.0
   0
LINE
   8
LEVEL001
   6
CONTINUOUS
  62
7
  10
 383.457
  20
 611.774
  30
0.0
  11
 383.623
  21
 611.725
  31
0.0
   0
LINE
   8
LEVEL001
   6
CONTINUOUS
  62
7
  10
 383.623
  20
 611.725
  30
0.0
  11
 383.800
  21
 611.682
  31
0.0
   0
LINE
   8
LEVEL001
   6
CONTINUOUS
  62
7
  10
 383.800
  20
 611.682
  30
0.0
  11
 383.986
  21
 611.645
  31
0.0
   0
LINE
   8
LEVEL001
   6
CONTINUOUS
  62
7
  10
 383.986
  20
 611.645
  30
0.0
  11
 384.179
  21
 611.614
  31
0.0
   0
LINE
   8
LEVEL001
   6
CONTINUOUS
  62
7
  10
 384.179
  20
 611.614
  30
0.0
  11
 384.379
  21
 611.590
  31
0.0
   0
LINE
   8
LEVEL001
   6
CONTINUOUS
  62
7
  10
 384.379
  20
 611.590
  30
0.0
  11
 384.583
  21
 611.573
  31
0.0
   0
LINE
   8
LEVEL001
   6
CONTINUOUS
  62
7
  10
 384.583
  20
 611.573
  30
0.0
  11
 384.791
  21
 611.562
  31
0.0
   0
LINE
   8
LEVEL001
   6
CONTINUOUS
  62
7
  10
 384.791
  20
 611.562
  30
0.0
  11
 385.000
  21
 611.559
  31
0.0
   0
LINE
   8
LEVEL001
   6
CONTINUOUS
  62
7
  10
 385.000
  20
 611.559
  30
0.0
  11
 385.209
  21
 611.562
  31
0.0
   0
LINE
   8
LEVEL001
   6
CONTINUOUS
  62
7
  10
 385.209
  20
 611.562
  30
0.0
  11
 385.417
  21
 611.573
  31
0.0
   0
LINE
   8
LEVEL001
   6
CONTINUOUS
  62
7
  10
 385.417
  20
 611.573
  30
0.0
  11
 385.621
  21
 611.590
  31
0.0
   0
LINE
   8
LEVEL001
   6
CONTINUOUS
  62
7
  10
 385.621
  20
 611.590
  30
0.0
  11
 385.821
  21
 611.614
  31
0.0
   0
LINE
   8
LEVEL001
   6
CONTINUOUS
  62
7
  10
 385.821
  20
 611.614
  30
0.0
  11
 386.014
  21
 611.645
  31
0.0
   0
LINE
   8
LEVEL001
   6
CONTINUOUS
  62
7
  10
 386.014
  20
 611.645
  30
0.0
  11
 386.200
  21
 611.682
  31
0.0
   0
LINE
   8
LEVEL001
   6
CONTINUOUS
  62
7
  10
 386.200
  20
 611.682
  30
0.0
  11
 386.377
  21
 611.725
  31
0.0
   0
LINE
   8
LEVEL001
   6
CONTINUOUS
  62
7
  10
 386.377
  20
 611.725
  30
0.0
  11
 386.543
  21
 611.774
  31
0.0
   0
LINE
   8
LEVEL001
   6
CONTINUOUS
  62
7
  10
 386.543
  20
 611.774
  30
0.0
  11
 386.697
  21
 611.828
  31
0.0
   0
LINE
   8
LEVEL001
   6
CONTINUOUS
  62
7
  10
 386.697
  20
 611.828
  30
0.0
  11
 386.839
  21
 611.887
  31
0.0
   0
LINE
   8
LEVEL001
   6
CONTINUOUS
  62
7
  10
 386.839
  20
 611.887
  30
0.0
  11
 386.966
  21
 611.951
  31
0.0
   0
LINE
   8
LEVEL001
   6
CONTINUOUS
  62
7
  10
 386.966
  20
 611.951
  30
0.0
  11
 387.078
  21
 612.018
  31
0.0
   0
LINE
   8
LEVEL001
   6
CONTINUOUS
  62
7
  10
 387.078
  20
 612.018
  30
0.0
  11
 387.175
  21
 612.089
  31
0.0
   0
LINE
   8
LEVEL001
   6
CONTINUOUS
  62
7
  10
 387.175
  20
 612.089
  30
0.0
  11
 387.255
  21
 612.163
  31
0.0
   0
LINE
   8
LEVEL001
   6
CONTINUOUS
  62
7
  10
 387.255
  20
 612.163
  30
0.0
  11
 387.318
  21
 612.240
  31
0.0
   0
LINE
   8
LEVEL001
   6
CONTINUOUS
  62
7
  10
 387.318
  20
 612.240
  30
0.0
  11
 387.364
  21
 612.318
  31
0.0
   0
LINE
   8
LEVEL001
   6
CONTINUOUS
  62
7
  10
 387.364
  20
 612.318
  30
0.0
  11
 387.391
  21
 612.397
  31
0.0
   0
LINE
   8
LEVEL001
   6
CONTINUOUS
  62
7
  10
 387.391
  20
 612.397
  30
0.0
  11
 387.400
  21
 612.477
  31
0.0
   0
LINE
   8
LEVEL001
   6
CONTINUOUS
  62
7
  10
 384.000
  20
 612.477
  30
0.0
  11
 384.001
  21
 612.461
  31
0.0
   0
LINE
   8
LEVEL001
   6
CONTINUOUS
  62
7
  10
 384.001
  20
 612.461
  30
0.0
  11
 384.004
  21
 612.444
  31
0.0
   0
LINE
   8
LEVEL001
   6
CONTINUOUS
  62
7
  10
 384.004
  20
 612.444
  30
0.0
  11
 384.009
  21
 612.427
  31
0.0
   0
LINE
   8
LEVEL001
   6
CONTINUOUS
  62
7
  10
 384.009
  20
 612.427
  30
0.0
  11
 384.015
  21
 612.411
  31
0.0
   0
LINE
   8
LEVEL001
   6
CONTINUOUS
  62
7
  10
 384.015
  20
 612.411
  30
0.0
  11
 384.024
  21
 612.395
  31
0.0
   0
LINE
   8
LEVEL001
   6
CONTINUOUS
  62
7
  10
 384.024
  20
 612.395
  30
0.0
  11
 384.034
  21
 612.378
  31
0.0
   0
LINE
   8
LEVEL001
   6
CONTINUOUS
  62
7
  10
 384.034
  20
 612.378
  30
0.0
  11
 384.046
  21
 612.362
  31
0.0
   0
LINE
   8
LEVEL001
   6
CONTINUOUS
  62
7
  10
 384.046
  20
 612.362
  30
0.0
  11
 384.060
  21
 612.347
  31
0.0
   0
LINE
   8
LEVEL001
   6
CONTINUOUS
  62
7
  10
 384.060
  20
 612.347
  30
0.0
  11
 384.076
  21
 612.331
  31
0.0
   0
LINE
   8
LEVEL001
   6
CONTINUOUS
  62
7
  10
 384.076
  20
 612.331
  30
0.0
  11
 384.094
  21
 612.316
  31
0.0
   0
LINE
   8
LEVEL001
   6
CONTINUOUS
  62
7
  10
 384.094
  20
 612.316
  30
0.0
  11
 384.113
  21
 612.301
  31
0.0
   0
LINE
   8
LEVEL001
   6
CONTINUOUS
  62
7
  10
 384.113
  20
 612.301
  30
0.0
  11
 384.134
  21
 612.286
  31
0.0
   0
LINE
   8
LEVEL001
   6
CONTINUOUS
  62
7
  10
 384.134
  20
 612.286
  30
0.0
  11
 384.157
  21
 612.272
  31
0.0
   0
LINE
   8
LEVEL001
   6
CONTINUOUS
  62
7
  10
 384.157
  20
 612.272
  30
0.0
  11
 384.181
  21
 612.258
  31
0.0
   0
LINE
   8
LEVEL001
   6
CONTINUOUS
  62
7
  10
 384.181
  20
 612.258
  30
0.0
  11
 384.207
  21
 612.244
  31
0.0
   0
LINE
   8
LEVEL001
   6
CONTINUOUS
  62
7
  10
 384.207
  20
 612.244
  30
0.0
  11
 384.234
  21
 612.231
  31
0.0
   0
LINE
   8
LEVEL001
   6
CONTINUOUS
  62
7
  10
 384.234
  20
 612.231
  30
0.0
  11
 384.263
  21
 612.219
  31
0.0
   0
LINE
   8
LEVEL001
   6
CONTINUOUS
  62
7
  10
 384.263
  20
 612.219
  30
0.0
  11
 384.293
  21
 612.207
  31
0.0
   0
LINE
   8
LEVEL001
   6
CONTINUOUS
  62
7
  10
 384.293
  20
 612.207
  30
0.0
  11
 384.324
  21
 612.195
  31
0.0
   0
LINE
   8
LEVEL001
   6
CONTINUOUS
  62
7
  10
 384.324
  20
 612.195
  30
0.0
  11
 384.357
  21
 612.184
  31
0.0
   0
LINE
   8
LEVEL001
   6
CONTINUOUS
  62
7
  10
 384.357
  20
 612.184
  30
0.0
  11
 384.391
  21
 612.174
  31
0.0
   0
LINE
   8
LEVEL001
   6
CONTINUOUS
  62
7
  10
 384.391
  20
 612.174
  30
0.0
  11
 384.426
  21
 612.164
  31
0.0
   0
LINE
   8
LEVEL001
   6
CONTINUOUS
  62
7
  10
 384.426
  20
 612.164
  30
0.0
  11
 384.463
  21
 612.155
  31
0.0
   0
LINE
   8
LEVEL001
   6
CONTINUOUS
  62
7
  10
 384.463
  20
 612.155
  30
0.0
  11
 384.500
  21
 612.146
  31
0.0
   0
LINE
   8
LEVEL001
   6
CONTINUOUS
  62
7
  10
 384.500
  20
 612.146
  30
0.0
  11
 384.538
  21
 612.138
  31
0.0
   0
LINE
   8
LEVEL001
   6
CONTINUOUS
  62
7
  10
 384.538
  20
 612.138
  30
0.0
  11
 384.577
  21
 612.131
  31
0.0
   0
LINE
   8
LEVEL001
   6
CONTINUOUS
  62
7
  10
 384.577
  20
 612.131
  30
0.0
  11
 384.617
  21
 612.124
  31
0.0
   0
LINE
   8
LEVEL001
   6
CONTINUOUS
  62
7
  10
 384.617
  20
 612.124
  30
0.0
  11
 384.658
  21
 612.118
  31
0.0
   0
LINE
   8
LEVEL001
   6
CONTINUOUS
  62
7
  10
 384.658
  20
 612.118
  30
0.0
  11
 384.699
  21
 612.112
  31
0.0
   0
LINE
   8
LEVEL001
   6
CONTINUOUS
  62
7
  10
 384.699
  20
 612.112
  30
0.0
  11
 384.741
  21
 612.108
  31
0.0
   0
LINE
   8
LEVEL001
   6
CONTINUOUS
  62
7
  10
 384.741
  20
 612.108
  30
0.0
  11
 384.784
  21
 612.104
  31
0.0
   0
LINE
   8
LEVEL001
   6
CONTINUOUS
  62
7
  10
 384.784
  20
 612.104
  30
0.0
  11
 384.826
  21
 612.101
  31
0.0
   0
LINE
   8
LEVEL001
   6
CONTINUOUS
  62
7
  10
 384.826
  20
 612.101
  30
0.0
  11
 384.869
  21
 612.098
  31
0.0
   0
LINE
   8
LEVEL001
   6
CONTINUOUS
  62
7
  10
 384.869
  20
 612.098
  30
0.0
  11
 384.913
  21
 612.096
  31
0.0
   0
LINE
   8
LEVEL001
   6
CONTINUOUS
  62
7
  10
 384.913
  20
 612.096
  30
0.0
  11
 384.956
  21
 612.095
  31
0.0
   0
LINE
   8
LEVEL001
   6
CONTINUOUS
  62
7
  10
 384.956
  20
 612.095
  30
0.0
  11
 385.000
  21
 612.095
  31
0.0
   0
LINE
   8
LEVEL001
   6
CONTINUOUS
  62
7
  10
 385.000
  20
 612.095
  30
0.0
  11
 385.044
  21
 612.095
  31
0.0
   0
LINE
   8
LEVEL001
   6
CONTINUOUS
  62
7
  10
 385.044
  20
 612.095
  30
0.0
  11
 385.087
  21
 612.096
  31
0.0
   0
LINE
   8
LEVEL001
   6
CONTINUOUS
  62
7
  10
 385.087
  20
 612.096
  30
0.0
  11
 385.131
  21
 612.098
  31
0.0
   0
LINE
   8
LEVEL001
   6
CONTINUOUS
  62
7
  10
 385.131
  20
 612.098
  30
0.0
  11
 385.174
  21
 612.101
  31
0.0
   0
LINE
   8
LEVEL001
   6
CONTINUOUS
  62
7
  10
 385.174
  20
 612.101
  30
0.0
  11
 385.216
  21
 612.104
  31
0.0
   0
LINE
   8
LEVEL001
   6
CONTINUOUS
  62
7
  10
 385.216
  20
 612.104
  30
0.0
  11
 385.259
  21
 612.108
  31
0.0
   0
LINE
   8
LEVEL001
   6
CONTINUOUS
  62
7
  10
 385.259
  20
 612.108
  30
0.0
  11
 385.301
  21
 612.112
  31
0.0
   0
LINE
   8
LEVEL001
   6
CONTINUOUS
  62
7
  10
 385.301
  20
 612.112
  30
0.0
  11
 385.342
  21
 612.118
  31
0.0
   0
LINE
   8
LEVEL001
   6
CONTINUOUS
  62
7
  10
 385.342
  20
 612.118
  30
0.0
  11
 385.383
  21
 612.124
  31
0.0
   0
LINE
   8
LEVEL001
   6
CONTINUOUS
  62
7
  10
 385.383
  20
 612.124
  30
0.0
  11
 385.423
  21
 612.131
  31
0.0
   0
LINE
   8
LEVEL001
   6
CONTINUOUS
  62
7
  10
 385.423
  20
 612.131
  30
0.0
  11
 385.462
  21
 612.138
  31
0.0
   0
LINE
   8
LEVEL001
   6
CONTINUOUS
  62
7
  10
 385.462
  20
 612.138
  30
0.0
  11
 385.500
  21
 612.146
  31
0.0
   0
LINE
   8
LEVEL001
   6
CONTINUOUS
  62
7
  10
 385.500
  20
 612.146
  30
0.0
  11
 385.537
  21
 612.155
  31
0.0
   0
LINE
   8
LEVEL001
   6
CONTINUOUS
  62
7
  10
 385.537
  20
 612.155
  30
0.0
  11
 385.574
  21
 612.164
  31
0.0
   0
LINE
   8
LEVEL001
   6
CONTINUOUS
  62
7
  10
 385.574
  20
 612.164
  30
0.0
  11
 385.609
  21
 612.174
  31
0.0
   0
LINE
   8
LEVEL001
   6
CONTINUOUS
  62
7
  10
 385.609
  20
 612.174
  30
0.0
  11
 385.643
  21
 612.184
  31
0.0
   0
LINE
   8
LEVEL001
   6
CONTINUOUS
  62
7
  10
 385.643
  20
 612.184
  30
0.0
  11
 385.676
  21
 612.195
  31
0.0
   0
LINE
   8
LEVEL001
   6
CONTINUOUS
  62
7
  10
 385.676
  20
 612.195
  30
0.0
  11
 385.707
  21
 612.207
  31
0.0
   0
LINE
   8
LEVEL001
   6
CONTINUOUS
  62
7
  10
 385.707
  20
 612.207
  30
0.0
  11
 385.737
  21
 612.219
  31
0.0
   0
LINE
   8
LEVEL001
   6
CONTINUOUS
  62
7
  10
 385.737
  20
 612.219
  30
0.0
  11
 385.766
  21
 612.231
  31
0.0
   0
LINE
   8
LEVEL001
   6
CONTINUOUS
  62
7
  10
 385.766
  20
 612.231
  30
0.0
  11
 385.793
  21
 612.244
  31
0.0
   0
LINE
   8
LEVEL001
   6
CONTINUOUS
  62
7
  10
 385.793
  20
 612.244
  30
0.0
  11
 385.819
  21
 612.258
  31
0.0
   0
LINE
   8
LEVEL001
   6
CONTINUOUS
  62
7
  10
 385.819
  20
 612.258
  30
0.0
  11
 385.843
  21
 612.272
  31
0.0
   0
LINE
   8
LEVEL001
   6
CONTINUOUS
  62
7
  10
 385.843
  20
 612.272
  30
0.0
  11
 385.866
  21
 612.286
  31
0.0
   0
LINE
   8
LEVEL001
   6
CONTINUOUS
  62
7
  10
 385.866
  20
 612.286
  30
0.0
  11
 385.887
  21
 612.301
  31
0.0
   0
LINE
   8
LEVEL001
   6
CONTINUOUS
  62
7
  10
 385.887
  20
 612.301
  30
0.0
  11
 385.906
  21
 612.316
  31
0.0
   0
LINE
   8
LEVEL001
   6
CONTINUOUS
  62
7
  10
 385.906
  20
 612.316
  30
0.0
  11
 385.924
  21
 612.331
  31
0.0
   0
LINE
   8
LEVEL001
   6
CONTINUOUS
  62
7
  10
 385.924
  20
 612.331
  30
0.0
  11
 385.940
  21
 612.347
  31
0.0
   0
LINE
   8
LEVEL001
   6
CONTINUOUS
  62
7
  10
 385.940
  20
 612.347
  30
0.0
  11
 385.954
  21
 612.362
  31
0.0
   0
LINE
   8
LEVEL001
   6
CONTINUOUS
  62
7
  10
 385.954
  20
 612.362
  30
0.0
  11
 385.966
  21
 612.378
  31
0.0
   0
LINE
   8
LEVEL001
   6
CONTINUOUS
  62
7
  10
 385.966
  20
 612.378
  30
0.0
  11
 385.976
  21
 612.395
  31
0.0
   0
LINE
   8
LEVEL001
   6
CONTINUOUS
  62
7
  10
 385.976
  20
 612.395
  30
0.0
  11
 385.985
  21
 612.411
  31
0.0
   0
LINE
   8
LEVEL001
   6
CONTINUOUS
  62
7
  10
 385.985
  20
 612.411
  30
0.0
  11
 385.991
  21
 612.427
  31
0.0
   0
LINE
   8
LEVEL001
   6
CONTINUOUS
  62
7
  10
 385.991
  20
 612.427
  30
0.0
  11
 385.996
  21
 612.444
  31
0.0
   0
LINE
   8
LEVEL001
   6
CONTINUOUS
  62
7
  10
 385.996
  20
 612.444
  30
0.0
  11
 385.999
  21
 612.461
  31
0.0
   0
LINE
   8
LEVEL001
   6
CONTINUOUS
  62
7
  10
 385.999
  20
 612.461
  30
0.0
  11
 386.000
  21
 612.477
  31
0.0
   0
ARC
   8
LEVEL001
   6
CONTINUOUS
  62
7
  10
 385.000
  20
 612.249
  30
0.0
  40
 1.00000
  50
 11.9426
  51
 167.156
   0
LINE
   8
LEVEL001
   6
CONTINUOUS
  62
7
  10
 381.700
  20
 609.983
  30
0.0
  11
 381.703
  21
 609.928
  31
0.0
   0
LINE
   8
LEVEL001
   6
CONTINUOUS
  62
7
  10
 381.703
  20
 609.928
  30
0.0
  11
 381.713
  21
 609.873
  31
0.0
   0
LINE
   8
LEVEL001
   6
CONTINUOUS
  62
7
  10
 381.713
  20
 609.873
  30
0.0
  11
 381.728
  21
 609.819
  31
0.0
   0
LINE
   8
LEVEL001
   6
CONTINUOUS
  62
7
  10
 381.728
  20
 609.819
  30
0.0
  11
 381.750
  21
 609.764
  31
0.0
   0
LINE
   8
LEVEL001
   6
CONTINUOUS
  62
7
  10
 381.750
  20
 609.764
  30
0.0
  11
 381.778
  21
 609.710
  31
0.0
   0
LINE
   8
LEVEL001
   6
CONTINUOUS
  62
7
  10
 381.778
  20
 609.710
  30
0.0
  11
 381.812
  21
 609.657
  31
0.0
   0
LINE
   8
LEVEL001
   6
CONTINUOUS
  62
7
  10
 381.812
  20
 609.657
  30
0.0
  11
 381.853
  21
 609.604
  31
0.0
   0
LINE
   8
LEVEL001
   6
CONTINUOUS
  62
7
  10
 381.853
  20
 609.604
  30
0.0
  11
 381.899
  21
 609.552
  31
0.0
   0
LINE
   8
LEVEL001
   6
CONTINUOUS
  62
7
  10
 381.899
  20
 609.552
  30
0.0
  11
 381.951
  21
 609.500
  31
0.0
   0
LINE
   8
LEVEL001
   6
CONTINUOUS
  62
7
  10
 381.951
  20
 609.500
  30
0.0
  11
 382.009
  21
 609.450
  31
0.0
   0
LINE
   8
LEVEL001
   6
CONTINUOUS
  62
7
  10
 382.009
  20
 609.450
  30
0.0
  11
 382.073
  21
 609.400
  31
0.0
   0
LINE
   8
LEVEL001
   6
CONTINUOUS
  62
7
  10
 382.073
  20
 609.400
  30
0.0
  11
 382.142
  21
 609.352
  31
0.0
   0
LINE
   8
LEVEL001
   6
CONTINUOUS
  62
7
  10
 382.142
  20
 609.352
  30
0.0
  11
 382.217
  21
 609.305
  31
0.0
   0
LINE
   8
LEVEL001
   6
CONTINUOUS
  62
7
  10
 382.217
  20
 609.305
  30
0.0
  11
 382.297
  21
 609.259
  31
0.0
   0
LINE
   8
LEVEL001
   6
CONTINUOUS
  62
7
  10
 382.297
  20
 609.259
  30
0.0
  11
 382.382
  21
 609.215
  31
0.0
   0
LINE
   8
LEVEL001
   6
CONTINUOUS
  62
7
  10
 382.382
  20
 609.215
  30
0.0
  11
 382.472
  21
 609.172
  31
0.0
   0
LINE
   8
LEVEL001
   6
CONTINUOUS
  62
7
  10
 382.472
  20
 609.172
  30
0.0
  11
 382.567
  21
 609.130
  31
0.0
   0
LINE
   8
LEVEL001
   6
CONTINUOUS
  62
7
  10
 382.567
  20
 609.130
  30
0.0
  11
 382.667
  21
 609.091
  31
0.0
   0
LINE
   8
LEVEL001
   6
CONTINUOUS
  62
7
  10
 382.667
  20
 609.091
  30
0.0
  11
 382.771
  21
 609.052
  31
0.0
   0
LINE
   8
LEVEL001
   6
CONTINUOUS
  62
7
  10
 382.771
  20
 609.052
  30
0.0
  11
 382.879
  21
 609.016
  31
0.0
   0
LINE
   8
LEVEL001
   6
CONTINUOUS
  62
7
  10
 382.879
  20
 609.016
  30
0.0
  11
 382.991
  21
 608.982
  31
0.0
   0
LINE
   8
LEVEL001
   6
CONTINUOUS
  62
7
  10
 382.991
  20
 608.982
  30
0.0
  11
 383.107
  21
 608.949
  31
0.0
   0
LINE
   8
LEVEL001
   6
CONTINUOUS
  62
7
  10
 383.107
  20
 608.949
  30
0.0
  11
 383.227
  21
 608.918
  31
0.0
   0
LINE
   8
LEVEL001
   6
CONTINUOUS
  62
7
  10
 383.227
  20
 608.918
  30
0.0
  11
 383.350
  21
 608.890
  31
0.0
   0
LINE
   8
LEVEL001
   6
CONTINUOUS
  62
7
  10
 383.350
  20
 608.890
  30
0.0
  11
 383.476
  21
 608.863
  31
0.0
   0
LINE
   8
LEVEL001
   6
CONTINUOUS
  62
7
  10
 383.476
  20
 608.863
  30
0.0
  11
 383.605
  21
 608.839
  31
0.0
   0
LINE
   8
LEVEL001
   6
CONTINUOUS
  62
7
  10
 383.605
  20
 608.839
  30
0.0
  11
 383.737
  21
 608.817
  31
0.0
   0
LINE
   8
LEVEL001
   6
CONTINUOUS
  62
7
  10
 383.737
  20
 608.817
  30
0.0
  11
 383.871
  21
 608.797
  31
0.0
   0
LINE
   8
LEVEL001
   6
CONTINUOUS
  62
7
  10
 383.871
  20
 608.797
  30
0.0
  11
 384.008
  21
 608.779
  31
0.0
   0
LINE
   8
LEVEL001
   6
CONTINUOUS
  62
7
  10
 384.008
  20
 608.779
  30
0.0
  11
 384.146
  21
 608.764
  31
0.0
   0
LINE
   8
LEVEL001
   6
CONTINUOUS
  62
7
  10
 384.146
  20
 608.764
  30
0.0
  11
 384.286
  21
 608.751
  31
0.0
   0
LINE
   8
LEVEL001
   6
CONTINUOUS
  62
7
  10
 384.286
  20
 608.751
  30
0.0
  11
 384.427
  21
 608.740
  31
0.0
   0
LINE
   8
LEVEL001
   6
CONTINUOUS
  62
7
  10
 384.427
  20
 608.740
  30
0.0
  11
 384.569
  21
 608.731
  31
0.0
   0
LINE
   8
LEVEL001
   6
CONTINUOUS
  62
7
  10
 384.569
  20
 608.731
  30
0.0
  11
 384.712
  21
 608.725
  31
0.0
   0
LINE
   8
LEVEL001
   6
CONTINUOUS
  62
7
  10
 384.712
  20
 608.725
  30
0.0
  11
 384.856
  21
 608.722
  31
0.0
   0
LINE
   8
LEVEL001
   6
CONTINUOUS
  62
7
  10
 384.856
  20
 608.722
  30
0.0
  11
 385.000
  21
 608.721
  31
0.0
   0
LINE
   8
LEVEL001
   6
CONTINUOUS
  62
7
  10
 385.000
  20
 608.721
  30
0.0
  11
 385.144
  21
 608.722
  31
0.0
   0
LINE
   8
LEVEL001
   6
CONTINUOUS
  62
7
  10
 385.144
  20
 608.722
  30
0.0
  11
 385.288
  21
 608.725
  31
0.0
   0
LINE
   8
LEVEL001
   6
CONTINUOUS
  62
7
  10
 385.288
  20
 608.725
  30
0.0
  11
 385.431
  21
 608.731
  31
0.0
   0
LINE
   8
LEVEL001
   6
CONTINUOUS
  62
7
  10
 385.431
  20
 608.731
  30
0.0
  11
 385.573
  21
 608.740
  31
0.0
   0
LINE
   8
LEVEL001
   6
CONTINUOUS
  62
7
  10
 385.573
  20
 608.740
  30
0.0
  11
 385.714
  21
 608.751
  31
0.0
   0
LINE
   8
LEVEL001
   6
CONTINUOUS
  62
7
  10
 385.714
  20
 608.751
  30
0.0
  11
 385.854
  21
 608.764
  31
0.0
   0
LINE
   8
LEVEL001
   6
CONTINUOUS
  62
7
  10
 385.854
  20
 608.764
  30
0.0
  11
 385.992
  21
 608.779
  31
0.0
   0
LINE
   8
LEVEL001
   6
CONTINUOUS
  62
7
  10
 385.992
  20
 608.779
  30
0.0
  11
 386.129
  21
 608.797
  31
0.0
   0
LINE
   8
LEVEL001
   6
CONTINUOUS
  62
7
  10
 386.129
  20
 608.797
  30
0.0
  11
 386.263
  21
 608.817
  31
0.0
   0
LINE
   8
LEVEL001
   6
CONTINUOUS
  62
7
  10
 386.263
  20
 608.817
  30
0.0
  11
 386.395
  21
 608.839
  31
0.0
   0
LINE
   8
LEVEL001
   6
CONTINUOUS
  62
7
  10
 386.395
  20
 608.839
  30
0.0
  11
 386.524
  21
 608.863
  31
0.0
   0
LINE
   8
LEVEL001
   6
CONTINUOUS
  62
7
  10
 386.524
  20
 608.863
  30
0.0
  11
 386.650
  21
 608.890
  31
0.0
   0
LINE
   8
LEVEL001
   6
CONTINUOUS
  62
7
  10
 386.650
  20
 608.890
  30
0.0
  11
 386.773
  21
 608.918
  31
0.0
   0
LINE
   8
LEVEL001
   6
CONTINUOUS
  62
7
  10
 386.773
  20
 608.918
  30
0.0
  11
 386.893
  21
 608.949
  31
0.0
   0
LINE
   8
LEVEL001
   6
CONTINUOUS
  62
7
  10
 386.893
  20
 608.949
  30
0.0
  11
 387.009
  21
 608.982
  31
0.0
   0
LINE
   8
LEVEL001
   6
CONTINUOUS
  62
7
  10
 387.009
  20
 608.982
  30
0.0
  11
 387.121
  21
 609.016
  31
0.0
   0
LINE
   8
LEVEL001
   6
CONTINUOUS
  62
7
  10
 387.121
  20
 609.016
  30
0.0
  11
 387.229
  21
 609.052
  31
0.0
   0
LINE
   8
LEVEL001
   6
CONTINUOUS
  62
7
  10
 387.229
  20
 609.052
  30
0.0
  11
 387.333
  21
 609.091
  31
0.0
   0
LINE
   8
LEVEL001
   6
CONTINUOUS
  62
7
  10
 387.333
  20
 609.091
  30
0.0
  11
 387.433
  21
 609.130
  31
0.0
   0
LINE
   8
LEVEL001
   6
CONTINUOUS
  62
7
  10
 387.433
  20
 609.130
  30
0.0
  11
 387.528
  21
 609.172
  31
0.0
   0
LINE
   8
LEVEL001
   6
CONTINUOUS
  62
7
  10
 387.528
  20
 609.172
  30
0.0
  11
 387.618
  21
 609.215
  31
0.0
   0
LINE
   8
LEVEL001
   6
CONTINUOUS
  62
7
  10
 387.618
  20
 609.215
  30
0.0
  11
 387.703
  21
 609.259
  31
0.0
   0
LINE
   8
LEVEL001
   6
CONTINUOUS
  62
7
  10
 387.703
  20
 609.259
  30
0.0
  11
 387.783
  21
 609.305
  31
0.0
   0
LINE
   8
LEVEL001
   6
CONTINUOUS
  62
7
  10
 387.783
  20
 609.305
  30
0.0
  11
 387.858
  21
 609.352
  31
0.0
   0
LINE
   8
LEVEL001
   6
CONTINUOUS
  62
7
  10
 387.858
  20
 609.352
  30
0.0
  11
 387.927
  21
 609.400
  31
0.0
   0
LINE
   8
LEVEL001
   6
CONTINUOUS
  62
7
  10
 387.927
  20
 609.400
  30
0.0
  11
 387.991
  21
 609.450
  31
0.0
   0
LINE
   8
LEVEL001
   6
CONTINUOUS
  62
7
  10
 387.991
  20
 609.450
  30
0.0
  11
 388.049
  21
 609.500
  31
0.0
   0
LINE
   8
LEVEL001
   6
CONTINUOUS
  62
7
  10
 388.049
  20
 609.500
  30
0.0
  11
 388.101
  21
 609.552
  31
0.0
   0
LINE
   8
LEVEL001
   6
CONTINUOUS
  62
7
  10
 388.101
  20
 609.552
  30
0.0
  11
 388.147
  21
 609.604
  31
0.0
   0
LINE
   8
LEVEL001
   6
CONTINUOUS
  62
7
  10
 388.147
  20
 609.604
  30
0.0
  11
 388.188
  21
 609.657
  31
0.0
   0
LINE
   8
LEVEL001
   6
CONTINUOUS
  62
7
  10
 388.188
  20
 609.657
  30
0.0
  11
 388.222
  21
 609.710
  31
0.0
   0
LINE
   8
LEVEL001
   6
CONTINUOUS
  62
7
  10
 388.222
  20
 609.710
  30
0.0
  11
 388.250
  21
 609.764
  31
0.0
   0
LINE
   8
LEVEL001
   6
CONTINUOUS
  62
7
  10
 388.250
  20
 609.764
  30
0.0
  11
 388.272
  21
 609.819
  31
0.0
   0
LINE
   8
LEVEL001
   6
CONTINUOUS
  62
7
  10
 388.272
  20
 609.819
  30
0.0
  11
 388.287
  21
 609.873
  31
0.0
   0
LINE
   8
LEVEL001
   6
CONTINUOUS
  62
7
  10
 388.287
  20
 609.873
  30
0.0
  11
 388.297
  21
 609.928
  31
0.0
   0
LINE
   8
LEVEL001
   6
CONTINUOUS
  62
7
  10
 388.297
  20
 609.928
  30
0.0
  11
 388.300
  21
 609.983
  31
0.0
   0
LINE
   8
LEVEL001
   6
CONTINUOUS
  62
7
  10
 381.700
  20
 609.983
  30
0.0
  11
 382.602
  21
 612.517
  31
0.0
   0
LINE
   8
LEVEL001
   6
CONTINUOUS
  62
7
  10
 388.297
  20
 609.928
  30
0.0
  11
 387.391
  21
 612.557
  31
0.0
   0
LINE
   8
LEVEL001
   6
CONTINUOUS
  62
7
  10
 382.120
  20
 608.334
  30
0.0
  11
 382.123
  21
 608.286
  31
0.0
   0
LINE
   8
LEVEL001
   6
CONTINUOUS
  62
7
  10
 382.123
  20
 608.286
  30
0.0
  11
 382.131
  21
 608.238
  31
0.0
   0
LINE
   8
LEVEL001
   6
CONTINUOUS
  62
7
  10
 382.131
  20
 608.238
  30
0.0
  11
 382.145
  21
 608.190
  31
0.0
   0
LINE
   8
LEVEL001
   6
CONTINUOUS
  62
7
  10
 382.145
  20
 608.190
  30
0.0
  11
 382.164
  21
 608.142
  31
0.0
   0
LINE
   8
LEVEL001
   6
CONTINUOUS
  62
7
  10
 382.164
  20
 608.142
  30
0.0
  11
 382.188
  21
 608.095
  31
0.0
   0
LINE
   8
LEVEL001
   6
CONTINUOUS
  62
7
  10
 382.188
  20
 608.095
  30
0.0
  11
 382.218
  21
 608.048
  31
0.0
   0
LINE
   8
LEVEL001
   6
CONTINUOUS
  62
7
  10
 382.218
  20
 608.048
  30
0.0
  11
 382.253
  21
 608.002
  31
0.0
   0
LINE
   8
LEVEL001
   6
CONTINUOUS
  62
7
  10
 382.253
  20
 608.002
  30
0.0
  11
 382.294
  21
 607.957
  31
0.0
   0
LINE
   8
LEVEL001
   6
CONTINUOUS
  62
7
  10
 382.294
  20
 607.957
  30
0.0
  11
 382.339
  21
 607.912
  31
0.0
   0
LINE
   8
LEVEL001
   6
CONTINUOUS
  62
7
  10
 382.339
  20
 607.912
  30
0.0
  11
 382.390
  21
 607.868
  31
0.0
   0
LINE
   8
LEVEL001
   6
CONTINUOUS
  62
7
  10
 382.390
  20
 607.868
  30
0.0
  11
 382.445
  21
 607.825
  31
0.0
   0
LINE
   8
LEVEL001
   6
CONTINUOUS
  62
7
  10
 382.445
  20
 607.825
  30
0.0
  11
 382.506
  21
 607.783
  31
0.0
   0
LINE
   8
LEVEL001
   6
CONTINUOUS
  62
7
  10
 382.506
  20
 607.783
  30
0.0
  11
 382.571
  21
 607.741
  31
0.0
   0
LINE
   8
LEVEL001
   6
CONTINUOUS
  62
7
  10
 382.571
  20
 607.741
  30
0.0
  11
 382.641
  21
 607.701
  31
0.0
   0
LINE
   8
LEVEL001
   6
CONTINUOUS
  62
7
  10
 382.641
  20
 607.701
  30
0.0
  11
 382.715
  21
 607.663
  31
0.0
   0
LINE
   8
LEVEL001
   6
CONTINUOUS
  62
7
  10
 382.715
  20
 607.663
  30
0.0
  11
 382.794
  21
 607.625
  31
0.0
   0
LINE
   8
LEVEL001
   6
CONTINUOUS
  62
7
  10
 382.794
  20
 607.625
  30
0.0
  11
 382.877
  21
 607.589
  31
0.0
   0
LINE
   8
LEVEL001
   6
CONTINUOUS
  62
7
  10
 382.877
  20
 607.589
  30
0.0
  11
 382.964
  21
 607.554
  31
0.0
   0
LINE
   8
LEVEL001
   6
CONTINUOUS
  62
7
  10
 382.964
  20
 607.554
  30
0.0
  11
 383.054
  21
 607.521
  31
0.0
   0
LINE
   8
LEVEL001
   6
CONTINUOUS
  62
7
  10
 383.054
  20
 607.521
  30
0.0
  11
 383.149
  21
 607.489
  31
0.0
   0
LINE
   8
LEVEL001
   6
CONTINUOUS
  62
7
  10
 383.149
  20
 607.489
  30
0.0
  11
 383.247
  21
 607.459
  31
0.0
   0
LINE
   8
LEVEL001
   6
CONTINUOUS
  62
7
  10
 383.247
  20
 607.459
  30
0.0
  11
 383.348
  21
 607.431
  31
0.0
   0
LINE
   8
LEVEL001
   6
CONTINUOUS
  62
7
  10
 383.348
  20
 607.431
  30
0.0
  11
 383.453
  21
 607.404
  31
0.0
   0
LINE
   8
LEVEL001
   6
CONTINUOUS
  62
7
  10
 383.453
  20
 607.404
  30
0.0
  11
 383.560
  21
 607.379
  31
0.0
   0
LINE
   8
LEVEL001
   6
CONTINUOUS
  62
7
  10
 383.560
  20
 607.379
  30
0.0
  11
 383.670
  21
 607.356
  31
0.0
   0
LINE
   8
LEVEL001
   6
CONTINUOUS
  62
7
  10
 383.670
  20
 607.356
  30
0.0
  11
 383.783
  21
 607.335
  31
0.0
   0
LINE
   8
LEVEL001
   6
CONTINUOUS
  62
7
  10
 383.783
  20
 607.335
  30
0.0
  11
 383.898
  21
 607.315
  31
0.0
   0
LINE
   8
LEVEL001
   6
CONTINUOUS
  62
7
  10
 383.898
  20
 607.315
  30
0.0
  11
 384.015
  21
 607.298
  31
0.0
   0
LINE
   8
LEVEL001
   6
CONTINUOUS
  62
7
  10
 384.015
  20
 607.298
  30
0.0
  11
 384.134
  21
 607.283
  31
0.0
   0
LINE
   8
LEVEL001
   6
CONTINUOUS
  62
7
  10
 384.134
  20
 607.283
  30
0.0
  11
 384.255
  21
 607.269
  31
0.0
   0
LINE
   8
LEVEL001
   6
CONTINUOUS
  62
7
  10
 384.255
  20
 607.269
  30
0.0
  11
 384.377
  21
 607.258
  31
0.0
   0
LINE
   8
LEVEL001
   6
CONTINUOUS
  62
7
  10
 384.377
  20
 607.258
  30
0.0
  11
 384.500
  21
 607.248
  31
0.0
   0
LINE
   8
LEVEL001
   6
CONTINUOUS
  62
7
  10
 384.500
  20
 607.248
  30
0.0
  11
 384.624
  21
 607.241
  31
0.0
   0
LINE
   8
LEVEL001
   6
CONTINUOUS
  62
7
  10
 384.624
  20
 607.241
  30
0.0
  11
 384.749
  21
 607.236
  31
0.0
   0
LINE
   8
LEVEL001
   6
CONTINUOUS
  62
7
  10
 384.749
  20
 607.236
  30
0.0
  11
 384.874
  21
 607.233
  31
0.0
   0
LINE
   8
LEVEL001
   6
CONTINUOUS
  62
7
  10
 384.874
  20
 607.233
  30
0.0
  11
 385.000
  21
 607.232
  31
0.0
   0
LINE
   8
LEVEL001
   6
CONTINUOUS
  62
7
  10
 385.000
  20
 607.232
  30
0.0
  11
 385.126
  21
 607.233
  31
0.0
   0
LINE
   8
LEVEL001
   6
CONTINUOUS
  62
7
  10
 385.126
  20
 607.233
  30
0.0
  11
 385.251
  21
 607.236
  31
0.0
   0
LINE
   8
LEVEL001
   6
CONTINUOUS
  62
7
  10
 385.251
  20
 607.236
  30
0.0
  11
 385.376
  21
 607.241
  31
0.0
   0
LINE
   8
LEVEL001
   6
CONTINUOUS
  62
7
  10
 385.376
  20
 607.241
  30
0.0
  11
 385.500
  21
 607.248
  31
0.0
   0
LINE
   8
LEVEL001
   6
CONTINUOUS
  62
7
  10
 385.500
  20
 607.248
  30
0.0
  11
 385.623
  21
 607.258
  31
0.0
   0
LINE
   8
LEVEL001
   6
CONTINUOUS
  62
7
  10
 385.623
  20
 607.258
  30
0.0
  11
 385.745
  21
 607.269
  31
0.0
   0
LINE
   8
LEVEL001
   6
CONTINUOUS
  62
7
  10
 385.745
  20
 607.269
  30
0.0
  11
 385.866
  21
 607.283
  31
0.0
   0
LINE
   8
LEVEL001
   6
CONTINUOUS
  62
7
  10
 385.866
  20
 607.283
  30
0.0
  11
 385.985
  21
 607.298
  31
0.0
   0
LINE
   8
LEVEL001
   6
CONTINUOUS
  62
7
  10
 385.985
  20
 607.298
  30
0.0
  11
 386.102
  21
 607.315
  31
0.0
   0
LINE
   8
LEVEL001
   6
CONTINUOUS
  62
7
  10
 386.102
  20
 607.315
  30
0.0
  11
 386.217
  21
 607.335
  31
0.0
   0
LINE
   8
LEVEL001
   6
CONTINUOUS
  62
7
  10
 386.217
  20
 607.335
  30
0.0
  11
 386.330
  21
 607.356
  31
0.0
   0
LINE
   8
LEVEL001
   6
CONTINUOUS
  62
7
  10
 386.330
  20
 607.356
  30
0.0
  11
 386.440
  21
 607.379
  31
0.0
   0
LINE
   8
LEVEL001
   6
CONTINUOUS
  62
7
  10
 386.440
  20
 607.379
  30
0.0
  11
 386.547
  21
 607.404
  31
0.0
   0
LINE
   8
LEVEL001
   6
CONTINUOUS
  62
7
  10
 386.547
  20
 607.404
  30
0.0
  11
 386.652
  21
 607.431
  31
0.0
   0
LINE
   8
LEVEL001
   6
CONTINUOUS
  62
7
  10
 386.652
  20
 607.431
  30
0.0
  11
 386.753
  21
 607.459
  31
0.0
   0
LINE
   8
LEVEL001
   6
CONTINUOUS
  62
7
  10
 386.753
  20
 607.459
  30
0.0
  11
 386.851
  21
 607.489
  31
0.0
   0
LINE
   8
LEVEL001
   6
CONTINUOUS
  62
7
  10
 386.851
  20
 607.489
  30
0.0
  11
 386.946
  21
 607.521
  31
0.0
   0
LINE
   8
LEVEL001
   6
CONTINUOUS
  62
7
  10
 386.946
  20
 607.521
  30
0.0
  11
 387.036
  21
 607.554
  31
0.0
   0
LINE
   8
LEVEL001
   6
CONTINUOUS
  62
7
  10
 387.036
  20
 607.554
  30
0.0
  11
 387.123
  21
 607.589
  31
0.0
   0
LINE
   8
LEVEL001
   6
CONTINUOUS
  62
7
  10
 387.123
  20
 607.589
  30
0.0
  11
 387.206
  21
 607.625
  31
0.0
   0
LINE
   8
LEVEL001
   6
CONTINUOUS
  62
7
  10
 387.206
  20
 607.625
  30
0.0
  11
 387.285
  21
 607.663
  31
0.0
   0
LINE
   8
LEVEL001
   6
CONTINUOUS
  62
7
  10
 387.285
  20
 607.663
  30
0.0
  11
 387.359
  21
 607.701
  31
0.0
   0
LINE
   8
LEVEL001
   6
CONTINUOUS
  62
7
  10
 387.359
  20
 607.701
  30
0.0
  11
 387.429
  21
 607.741
  31
0.0
   0
LINE
   8
LEVEL001
   6
CONTINUOUS
  62
7
  10
 387.429
  20
 607.741
  30
0.0
  11
 387.494
  21
 607.783
  31
0.0
   0
LINE
   8
LEVEL001
   6
CONTINUOUS
  62
7
  10
 387.494
  20
 607.783
  30
0.0
  11
 387.555
  21
 607.825
  31
0.0
   0
LINE
   8
LEVEL001
   6
CONTINUOUS
  62
7
  10
 387.555
  20
 607.825
  30
0.0
  11
 387.610
  21
 607.868
  31
0.0
   0
LINE
   8
LEVEL001
   6
CONTINUOUS
  62
7
  10
 387.610
  20
 607.868
  30
0.0
  11
 387.661
  21
 607.912
  31
0.0
   0
LINE
   8
LEVEL001
   6
CONTINUOUS
  62
7
  10
 387.661
  20
 607.912
  30
0.0
  11
 387.706
  21
 607.957
  31
0.0
   0
LINE
   8
LEVEL001
   6
CONTINUOUS
  62
7
  10
 387.706
  20
 607.957
  30
0.0
  11
 387.747
  21
 608.002
  31
0.0
   0
LINE
   8
LEVEL001
   6
CONTINUOUS
  62
7
  10
 387.747
  20
 608.002
  30
0.0
  11
 387.782
  21
 608.048
  31
0.0
   0
LINE
   8
LEVEL001
   6
CONTINUOUS
  62
7
  10
 387.782
  20
 608.048
  30
0.0
  11
 387.812
  21
 608.095
  31
0.0
   0
LINE
   8
LEVEL001
   6
CONTINUOUS
  62
7
  10
 387.812
  20
 608.095
  30
0.0
  11
 387.836
  21
 608.142
  31
0.0
   0
LINE
   8
LEVEL001
   6
CONTINUOUS
  62
7
  10
 387.836
  20
 608.142
  30
0.0
  11
 387.855
  21
 608.190
  31
0.0
   0
LINE
   8
LEVEL001
   6
CONTINUOUS
  62
7
  10
 387.855
  20
 608.190
  30
0.0
  11
 387.869
  21
 608.238
  31
0.0
   0
LINE
   8
LEVEL001
   6
CONTINUOUS
  62
7
  10
 387.869
  20
 608.238
  30
0.0
  11
 387.877
  21
 608.286
  31
0.0
   0
LINE
   8
LEVEL001
   6
CONTINUOUS
  62
7
  10
 387.877
  20
 608.286
  30
0.0
  11
 387.880
  21
 608.334
  31
0.0
   0
LINE
   8
LEVEL001
   6
CONTINUOUS
  62
7
  10
 381.540
  20
 607.212
  30
0.0
  11
 381.543
  21
 607.154
  31
0.0
   0
LINE
   8
LEVEL001
   6
CONTINUOUS
  62
7
  10
 381.543
  20
 607.154
  30
0.0
  11
 381.553
  21
 607.096
  31
0.0
   0
LINE
   8
LEVEL001
   6
CONTINUOUS
  62
7
  10
 381.553
  20
 607.096
  30
0.0
  11
 381.570
  21
 607.039
  31
0.0
   0
LINE
   8
LEVEL001
   6
CONTINUOUS
  62
7
  10
 381.570
  20
 607.039
  30
0.0
  11
 381.593
  21
 606.982
  31
0.0
   0
LINE
   8
LEVEL001
   6
CONTINUOUS
  62
7
  10
 381.593
  20
 606.982
  30
0.0
  11
 381.622
  21
 606.925
  31
0.0
   0
LINE
   8
LEVEL001
   6
CONTINUOUS
  62
7
  10
 381.622
  20
 606.925
  30
0.0
  11
 381.658
  21
 606.869
  31
0.0
   0
LINE
   8
LEVEL001
   6
CONTINUOUS
  62
7
  10
 381.658
  20
 606.869
  30
0.0
  11
 381.700
  21
 606.814
  31
0.0
   0
LINE
   8
LEVEL001
   6
CONTINUOUS
  62
7
  10
 381.700
  20
 606.814
  30
0.0
  11
 381.749
  21
 606.759
  31
0.0
   0
LINE
   8
LEVEL001
   6
CONTINUOUS
  62
7
  10
 381.749
  20
 606.759
  30
0.0
  11
 381.803
  21
 606.705
  31
0.0
   0
LINE
   8
LEVEL001
   6
CONTINUOUS
  62
7
  10
 381.803
  20
 606.705
  30
0.0
  11
 381.864
  21
 606.652
  31
0.0
   0
LINE
   8
LEVEL001
   6
CONTINUOUS
  62
7
  10
 381.864
  20
 606.652
  30
0.0
  11
 381.931
  21
 606.600
  31
0.0
   0
LINE
   8
LEVEL001
   6
CONTINUOUS
  62
7
  10
 381.931
  20
 606.600
  30
0.0
  11
 382.004
  21
 606.550
  31
0.0
   0
LINE
   8
LEVEL001
   6
CONTINUOUS
  62
7
  10
 382.004
  20
 606.550
  30
0.0
  11
 382.082
  21
 606.500
  31
0.0
   0
LINE
   8
LEVEL001
   6
CONTINUOUS
  62
7
  10
 382.082
  20
 606.500
  30
0.0
  11
 382.166
  21
 606.452
  31
0.0
   0
LINE
   8
LEVEL001
   6
CONTINUOUS
  62
7
  10
 382.166
  20
 606.452
  30
0.0
  11
 382.255
  21
 606.406
  31
0.0
   0
LINE
   8
LEVEL001
   6
CONTINUOUS
  62
7
  10
 382.255
  20
 606.406
  30
0.0
  11
 382.349
  21
 606.361
  31
0.0
   0
LINE
   8
LEVEL001
   6
CONTINUOUS
  62
7
  10
 382.349
  20
 606.361
  30
0.0
  11
 382.449
  21
 606.317
  31
0.0
   0
LINE
   8
LEVEL001
   6
CONTINUOUS
  62
7
  10
 382.449
  20
 606.317
  30
0.0
  11
 382.553
  21
 606.276
  31
0.0
   0
LINE
   8
LEVEL001
   6
CONTINUOUS
  62
7
  10
 382.553
  20
 606.276
  30
0.0
  11
 382.662
  21
 606.236
  31
0.0
   0
LINE
   8
LEVEL001
   6
CONTINUOUS
  62
7
  10
 382.662
  20
 606.236
  30
0.0
  11
 382.776
  21
 606.198
  31
0.0
   0
LINE
   8
LEVEL001
   6
CONTINUOUS
  62
7
  10
 382.776
  20
 606.198
  30
0.0
  11
 382.894
  21
 606.161
  31
0.0
   0
LINE
   8
LEVEL001
   6
CONTINUOUS
  62
7
  10
 382.894
  20
 606.161
  30
0.0
  11
 383.015
  21
 606.127
  31
0.0
   0
LINE
   8
LEVEL001
   6
CONTINUOUS
  62
7
  10
 383.015
  20
 606.127
  30
0.0
  11
 383.141
  21
 606.095
  31
0.0
   0
LINE
   8
LEVEL001
   6
CONTINUOUS
  62
7
  10
 383.141
  20
 606.095
  30
0.0
  11
 383.270
  21
 606.065
  31
0.0
   0
LINE
   8
LEVEL001
   6
CONTINUOUS
  62
7
  10
 383.270
  20
 606.065
  30
0.0
  11
 383.402
  21
 606.037
  31
0.0
   0
LINE
   8
LEVEL001
   6
CONTINUOUS
  62
7
  10
 383.402
  20
 606.037
  30
0.0
  11
 383.538
  21
 606.012
  31
0.0
   0
LINE
   8
LEVEL001
   6
CONTINUOUS
  62
7
  10
 383.538
  20
 606.012
  30
0.0
  11
 383.676
  21
 605.989
  31
0.0
   0
LINE
   8
LEVEL001
   6
CONTINUOUS
  62
7
  10
 383.676
  20
 605.989
  30
0.0
  11
 383.817
  21
 605.968
  31
0.0
   0
LINE
   8
LEVEL001
   6
CONTINUOUS
  62
7
  10
 383.817
  20
 605.968
  30
0.0
  11
 383.960
  21
 605.949
  31
0.0
   0
LINE
   8
LEVEL001
   6
CONTINUOUS
  62
7
  10
 383.960
  20
 605.949
  30
0.0
  11
 384.104
  21
 605.933
  31
0.0
   0
LINE
   8
LEVEL001
   6
CONTINUOUS
  62
7
  10
 384.104
  20
 605.933
  30
0.0
  11
 384.251
  21
 605.919
  31
0.0
   0
LINE
   8
LEVEL001
   6
CONTINUOUS
  62
7
  10
 384.251
  20
 605.919
  30
0.0
  11
 384.399
  21
 605.908
  31
0.0
   0
LINE
   8
LEVEL001
   6
CONTINUOUS
  62
7
  10
 384.399
  20
 605.908
  30
0.0
  11
 384.548
  21
 605.899
  31
0.0
   0
LINE
   8
LEVEL001
   6
CONTINUOUS
  62
7
  10
 384.548
  20
 605.899
  30
0.0
  11
 384.698
  21
 605.893
  31
0.0
   0
LINE
   8
LEVEL001
   6
CONTINUOUS
  62
7
  10
 384.698
  20
 605.893
  30
0.0
  11
 384.849
  21
 605.889
  31
0.0
   0
LINE
   8
LEVEL001
   6
CONTINUOUS
  62
7
  10
 384.849
  20
 605.889
  30
0.0
  11
 385.000
  21
 605.888
  31
0.0
   0
LINE
   8
LEVEL001
   6
CONTINUOUS
  62
7
  10
 385.000
  20
 605.888
  30
0.0
  11
 385.151
  21
 605.889
  31
0.0
   0
LINE
   8
LEVEL001
   6
CONTINUOUS
  62
7
  10
 385.151
  20
 605.889
  30
0.0
  11
 385.302
  21
 605.893
  31
0.0
   0
LINE
   8
LEVEL001
   6
CONTINUOUS
  62
7
  10
 385.302
  20
 605.893
  30
0.0
  11
 385.452
  21
 605.899
  31
0.0
   0
LINE
   8
LEVEL001
   6
CONTINUOUS
  62
7
  10
 385.452
  20
 605.899
  30
0.0
  11
 385.601
  21
 605.908
  31
0.0
   0
LINE
   8
LEVEL001
   6
CONTINUOUS
  62
7
  10
 385.601
  20
 605.908
  30
0.0
  11
 385.749
  21
 605.919
  31
0.0
   0
LINE
   8
LEVEL001
   6
CONTINUOUS
  62
7
  10
 385.749
  20
 605.919
  30
0.0
  11
 385.896
  21
 605.933
  31
0.0
   0
LINE
   8
LEVEL001
   6
CONTINUOUS
  62
7
  10
 385.896
  20
 605.933
  30
0.0
  11
 386.040
  21
 605.949
  31
0.0
   0
LINE
   8
LEVEL001
   6
CONTINUOUS
  62
7
  10
 386.040
  20
 605.949
  30
0.0
  11
 386.183
  21
 605.968
  31
0.0
   0
LINE
   8
LEVEL001
   6
CONTINUOUS
  62
7
  10
 386.183
  20
 605.968
  30
0.0
  11
 386.324
  21
 605.989
  31
0.0
   0
LINE
   8
LEVEL001
   6
CONTINUOUS
  62
7
  10
 386.324
  20
 605.989
  30
0.0
  11
 386.462
  21
 606.012
  31
0.0
   0
LINE
   8
LEVEL001
   6
CONTINUOUS
  62
7
  10
 386.462
  20
 606.012
  30
0.0
  11
 386.598
  21
 606.037
  31
0.0
   0
LINE
   8
LEVEL001
   6
CONTINUOUS
  62
7
  10
 386.598
  20
 606.037
  30
0.0
  11
 386.730
  21
 606.065
  31
0.0
   0
LINE
   8
LEVEL001
   6
CONTINUOUS
  62
7
  10
 386.730
  20
 606.065
  30
0.0
  11
 386.859
  21
 606.095
  31
0.0
   0
LINE
   8
LEVEL001
   6
CONTINUOUS
  62
7
  10
 386.859
  20
 606.095
  30
0.0
  11
 386.985
  21
 606.127
  31
0.0
   0
LINE
   8
LEVEL001
   6
CONTINUOUS
  62
7
  10
 386.985
  20
 606.127
  30
0.0
  11
 387.106
  21
 606.161
  31
0.0
   0
LINE
   8
LEVEL001
   6
CONTINUOUS
  62
7
  10
 387.106
  20
 606.161
  30
0.0
  11
 387.224
  21
 606.198
  31
0.0
   0
LINE
   8
LEVEL001
   6
CONTINUOUS
  62
7
  10
 387.224
  20
 606.198
  30
0.0
  11
 387.338
  21
 606.236
  31
0.0
   0
LINE
   8
LEVEL001
   6
CONTINUOUS
  62
7
  10
 387.338
  20
 606.236
  30
0.0
  11
 387.447
  21
 606.276
  31
0.0
   0
LINE
   8
LEVEL001
   6
CONTINUOUS
  62
7
  10
 387.447
  20
 606.276
  30
0.0
  11
 387.551
  21
 606.317
  31
0.0
   0
LINE
   8
LEVEL001
   6
CONTINUOUS
  62
7
  10
 387.551
  20
 606.317
  30
0.0
  11
 387.651
  21
 606.361
  31
0.0
   0
LINE
   8
LEVEL001
   6
CONTINUOUS
  62
7
  10
 387.651
  20
 606.361
  30
0.0
  11
 387.745
  21
 606.406
  31
0.0
   0
LINE
   8
LEVEL001
   6
CONTINUOUS
  62
7
  10
 387.745
  20
 606.406
  30
0.0
  11
 387.834
  21
 606.452
  31
0.0
   0
LINE
   8
LEVEL001
   6
CONTINUOUS
  62
7
  10
 387.834
  20
 606.452
  30
0.0
  11
 387.918
  21
 606.500
  31
0.0
   0
LINE
   8
LEVEL001
   6
CONTINUOUS
  62
7
  10
 387.918
  20
 606.500
  30
0.0
  11
 387.996
  21
 606.550
  31
0.0
   0
LINE
   8
LEVEL001
   6
CONTINUOUS
  62
7
  10
 387.996
  20
 606.550
  30
0.0
  11
 388.069
  21
 606.600
  31
0.0
   0
LINE
   8
LEVEL001
   6
CONTINUOUS
  62
7
  10
 388.069
  20
 606.600
  30
0.0
  11
 388.136
  21
 606.652
  31
0.0
   0
LINE
   8
LEVEL001
   6
CONTINUOUS
  62
7
  10
 388.136
  20
 606.652
  30
0.0
  11
 388.197
  21
 606.705
  31
0.0
   0
LINE
   8
LEVEL001
   6
CONTINUOUS
  62
7
  10
 388.197
  20
 606.705
  30
0.0
  11
 388.251
  21
 606.759
  31
0.0
   0
LINE
   8
LEVEL001
   6
CONTINUOUS
  62
7
  10
 388.251
  20
 606.759
  30
0.0
  11
 388.300
  21
 606.814
  31
0.0
   0
LINE
   8
LEVEL001
   6
CONTINUOUS
  62
7
  10
 388.300
  20
 606.814
  30
0.0
  11
 388.342
  21
 606.869
  31
0.0
   0
LINE
   8
LEVEL001
   6
CONTINUOUS
  62
7
  10
 388.342
  20
 606.869
  30
0.0
  11
 388.378
  21
 606.925
  31
0.0
   0
LINE
   8
LEVEL001
   6
CONTINUOUS
  62
7
  10
 388.378
  20
 606.925
  30
0.0
  11
 388.407
  21
 606.982
  31
0.0
   0
LINE
   8
LEVEL001
   6
CONTINUOUS
  62
7
  10
 388.407
  20
 606.982
  30
0.0
  11
 388.430
  21
 607.039
  31
0.0
   0
LINE
   8
LEVEL001
   6
CONTINUOUS
  62
7
  10
 388.430
  20
 607.039
  30
0.0
  11
 388.447
  21
 607.096
  31
0.0
   0
LINE
   8
LEVEL001
   6
CONTINUOUS
  62
7
  10
 388.447
  20
 607.096
  30
0.0
  11
 388.457
  21
 607.154
  31
0.0
   0
LINE
   8
LEVEL001
   6
CONTINUOUS
  62
7
  10
 388.457
  20
 607.154
  30
0.0
  11
 388.460
  21
 607.212
  31
0.0
   0
ARC
   8
LEVEL001
   6
CONTINUOUS
  62
7
  10
 382.061
  20
 610.697
  30
0.0
  40
 6.28019
  50
 337.893
  51
 352.464
   0
ARC
   8
LEVEL001
   6
CONTINUOUS
  62
7
  10
 389.013
  20
 608.209
  30
0.0
  40
 1.13965
  50
 173.696
  51
 240.986
   0
ARC
   8
LEVEL001
   6
CONTINUOUS
  62
7
  10
 387.939
  20
 610.697
  30
0.0
  40
 6.28019
  50
 187.536
  51
 202.107
   0
ARC
   8
LEVEL001
   6
CONTINUOUS
  62
7
  10
 380.987
  20
 608.209
  30
0.0
  40
 1.13965
  50
 299.014
  51
 6.30441
   0
LINE
   8
LEVEL001
   6
CONTINUOUS
  62
7
  10
 388.464
  20
 606.438
  30
0.0
  11
 385.000
  21
 605.665
  31
0.0
   0
LINE
   8
LEVEL001
   6
CONTINUOUS
  62
7
  10
 385.000
  20
 605.665
  30
0.0
  11
 381.536
  21
 606.438
  31
0.0
   0
LINE
   8
LEVEL001
   6
CONTINUOUS
  62
7
  10
 381.536
  20
 607.985
  30
0.0
  11
 382.123
  21
 608.116
  31
0.0
   0
LINE
   8
LEVEL001
   6
CONTINUOUS
  62
7
  10
 387.877
  20
 608.116
  30
0.0
  11
 388.464
  21
 607.985
  31
0.0
   0
LINE
   8
LEVEL001
   6
CONTINUOUS
  62
7
  10
 381.536
  20
 607.985
  30
0.0
  11
 381.536
  21
 604.221
  31
0.0
   0
LINE
   8
LEVEL001
   6
CONTINUOUS
  62
7
  10
 388.464
  20
 604.221
  30
0.0
  11
 388.464
  21
 607.985
  31
0.0
   0
LINE
   8
LEVEL001
   6
CONTINUOUS
  62
7
  10
 381.536
  20
 604.221
  30
0.0
  11
 385.000
  21
 603.448
  31
0.0
   0
LINE
   8
LEVEL001
   6
CONTINUOUS
  62
7
  10
 385.000
  20
 603.448
  30
0.0
  11
 388.464
  21
 604.221
  31
0.0
   0
ARC
   8
LEVEL001
   6
CONTINUOUS
  62
7
  10
 385.000
  20
 600.000
  30
0.0
  40
 6.33000
  50
 123.179
  51
 56.8213
   0
CIRCLE
   8
LEVEL001
   6
CONTINUOUS
  62
7
  10
 835.500
  20
 600.000
  30
0.0
  40
 3.30000
   0
CIRCLE
   8
LEVEL001
   6
CONTINUOUS
  62
7
  10
 835.500
  20
 600.000
  30
0.0
  40
 4.00000
   0
CIRCLE
   8
LEVEL001
   6
CONTINUOUS
  62
7
  10
 740.500
  20
 600.000
  30
0.0
  40
 3.30000
   0
CIRCLE
   8
LEVEL001
   6
CONTINUOUS
  62
7
  10
 740.500
  20
 600.000
  30
0.0
  40
 4.00000
   0
LINE
   8
LEVEL001
   6
CONTINUOUS
  62
7
  10
 730.480
  20
 607.000
  30
0.0
  11
 734.828
  21
 619.100
  31
0.0
   0
LINE
   8
LEVEL001
   6
CONTINUOUS
  62
7
  10
 713.973
  20
 561.060
  30
0.0
  11
 725.707
  21
 593.717
  31
0.0
   0
LINE
   8
LEVEL001
   6
CONTINUOUS
  62
7
  10
 730.616
  20
 593.390
  30
0.0
  11
 731.883
  21
 593.430
  31
0.0
   0
LINE
   8
LEVEL001
   6
CONTINUOUS
  62
7
  10
 731.500
  20
 594.280
  30
0.0
  11
 731.789
  21
 594.289
  31
0.0
   0
LINE
   8
LEVEL001
   6
CONTINUOUS
  62
7
  10
 731.500
  20
 605.720
  30
0.0
  11
 731.789
  21
 605.711
  31
0.0
   0
LINE
   8
LEVEL001
   6
CONTINUOUS
  62
7
  10
 731.883
  20
 606.570
  30
0.0
  11
 730.616
  21
 606.610
  31
0.0
   0
LINE
   8
LEVEL001
   6
CONTINUOUS
  62
7
  10
 730.616
  20
 607.000
  30
0.0
  11
 726.250
  21
 607.000
  31
0.0
   0
LINE
   8
LEVEL001
   6
CONTINUOUS
  62
7
  10
 730.616
  20
 593.000
  30
0.0
  11
 730.616
  21
 607.000
  31
0.0
   0
LINE
   8
LEVEL001
   6
CONTINUOUS
  62
7
  10
 726.250
  20
 593.000
  30
0.0
  11
 730.616
  21
 593.000
  31
0.0
   0
LINE
   8
LEVEL001
   6
CONTINUOUS
  62
7
  10
 730.616
  20
 593.390
  30
0.0
  11
 731.500
  21
 594.280
  31
0.0
   0
LINE
   8
LEVEL001
   6
CONTINUOUS
  62
7
  10
 730.616
  20
 606.610
  30
0.0
  11
 731.500
  21
 605.720
  31
0.0
   0
LINE
   8
LEVEL001
   6
CONTINUOUS
  62
7
  10
 721.116
  20
 608.470
  30
0.0
  11
 721.795
  21
 606.830
  31
0.0
   0
LINE
   8
LEVEL001
   6
CONTINUOUS
  62
7
  10
 720.496
  20
 608.550
  30
0.0
  11
 721.116
  21
 608.470
  31
0.0
   0
LINE
   8
LEVEL001
   6
CONTINUOUS
  62
7
  10
 714.029
  20
 605.870
  30
0.0
  11
 720.496
  21
 608.550
  31
0.0
   0
LINE
   8
LEVEL001
   6
CONTINUOUS
  62
7
  10
 713.648
  20
 605.380
  30
0.0
  11
 714.029
  21
 605.870
  31
0.0
   0
LINE
   8
LEVEL001
   6
CONTINUOUS
  62
7
  10
 714.327
  20
 603.740
  30
0.0
  11
 713.648
  21
 605.380
  31
0.0
   0
LINE
   8
LEVEL001
   6
CONTINUOUS
  62
7
  10
 714.947
  20
 603.660
  30
0.0
  11
 714.327
  21
 603.740
  31
0.0
   0
LINE
   8
LEVEL001
   6
CONTINUOUS
  62
7
  10
 721.414
  20
 606.340
  30
0.0
  11
 714.947
  21
 603.660
  31
0.0
   0
LINE
   8
LEVEL001
   6
CONTINUOUS
  62
7
  10
 721.795
  20
 606.830
  30
0.0
  11
 721.414
  21
 606.340
  31
0.0
   0
LINE
   8
LEVEL001
   6
CONTINUOUS
  62
7
  10
 712.864
  20
 611.560
  30
0.0
  11
 715.081
  21
 612.480
  31
0.0
   0
LINE
   8
LEVEL001
   6
CONTINUOUS
  62
7
  10
 713.065
  20
 608.720
  30
0.0
  11
 712.864
  21
 611.560
  31
0.0
   0
LINE
   8
LEVEL001
   6
CONTINUOUS
  62
7
  10
 716.114
  20
 609.980
  30
0.0
  11
 713.065
  21
 608.720
  31
0.0
   0
LINE
   8
LEVEL001
   6
CONTINUOUS
  62
7
  10
 719.163
  20
 611.250
  30
0.0
  11
 716.114
  21
 609.980
  31
0.0
   0
LINE
   8
LEVEL001
   6
CONTINUOUS
  62
7
  10
 717.298
  20
 613.400
  30
0.0
  11
 719.163
  21
 611.250
  31
0.0
   0
LINE
   8
LEVEL001
   6
CONTINUOUS
  62
7
  10
 715.081
  20
 612.480
  30
0.0
  11
 717.298
  21
 613.400
  31
0.0
   0
ARC
   8
LEVEL001
   6
CONTINUOUS
  62
7
  10
 736.326
  20
 596.500
  30
0.0
  40
 10.1093
  50
 159.744
  51
 200.256
   0
ARC
   8
LEVEL001
   6
CONTINUOUS
  62
7
  10
 736.326
  20
 603.500
  30
0.0
  40
 10.1093
  50
 159.744
  51
 200.256
   0
LINE
   8
LEVEL001
   6
CONTINUOUS
  62
7
  10
 726.250
  20
 593.000
  30
0.0
  11
 725.866
  21
 593.660
  31
0.0
   0
LINE
   8
LEVEL001
   6
CONTINUOUS
  62
7
  10
 726.250
  20
 607.000
  30
0.0
  11
 726.250
  21
 593.000
  31
0.0
   0
LINE
   8
LEVEL001
   6
CONTINUOUS
  62
7
  10
 725.866
  20
 593.660
  30
0.0
  11
 725.866
  21
 606.340
  31
0.0
   0
LINE
   8
LEVEL001
   6
CONTINUOUS
  62
7
  10
 729.991
  20
 600.000
  30
0.0
  11
 726.842
  21
 600.000
  31
0.0
   0
LINE
   8
LEVEL001
   6
CONTINUOUS
  62
7
  10
 726.250
  20
 607.000
  30
0.0
  11
 725.866
  21
 606.340
  31
0.0
   0
LINE
   8
LEVEL001
   6
CONTINUOUS
  62
7
  10
 731.500
  20
 594.280
  30
0.0
  11
 731.500
  21
 605.720
  31
0.0
   0
LINE
   8
LEVEL001
   6
CONTINUOUS
  62
7
  10
 718.104
  20
 593.660
  30
0.0
  11
 725.866
  21
 593.660
  31
0.0
   0
ARC
   8
LEVEL001
   6
CONTINUOUS
  62
7
  10
 720.507
  20
 603.500
  30
0.0
  40
 10.1093
  50
 339.744
  51
 20.2560
   0
ARC
   8
LEVEL001
   6
CONTINUOUS
  62
7
  10
 720.507
  20
 596.500
  30
0.0
  40
 10.1093
  50
 339.744
  51
 20.2560
   0
ARC
   8
LEVEL001
   6
CONTINUOUS
  62
7
  10
 720.101
  20
 609.250
  30
0.0
  40
 3.20000
  50
 266.905
  51
 294.235
   0
ARC
   8
LEVEL001
   6
CONTINUOUS
  62
7
  10
 713.812
  20
 606.650
  30
0.0
  40
 3.20000
  50
 290.769
  51
 318.100
   0
ARC
   8
LEVEL001
   6
CONTINUOUS
  62
7
  10
 715.342
  20
 602.960
  30
0.0
  40
 3.20000
  50
 86.9010
  51
 114.230
   0
ARC
   8
LEVEL001
   6
CONTINUOUS
  62
7
  10
 715.622
  20
 611.170
  30
0.0
  40
 6.68738
  50
 274.911
  51
 310.087
   0
ARC
   8
LEVEL001
   6
CONTINUOUS
  62
7
  10
 716.114
  20
 609.980
  30
0.0
  40
 6.43506
  50
 259.551
  51
 325.450
   0
ARC
   8
LEVEL001
   6
CONTINUOUS
  62
7
  10
 724.188
  20
 600.000
  30
0.0
  40
 9.93811
  50
 158.413
  51
 208.732
   0
LINE
   8
LEVEL001
   6
CONTINUOUS
  62
7
  10
 719.928
  20
 606.060
  30
0.0
  11
 719.249
  21
 607.700
  31
0.0
   0
LINE
   8
LEVEL001
   6
CONTINUOUS
  62
7
  10
 716.194
  20
 604.510
  30
0.0
  11
 715.515
  21
 606.150
  31
0.0
   0
ARC
   8
LEVEL001
   6
CONTINUOUS
  62
7
  10
 708.198
  20
 607.140
  30
0.0
  40
 6.00000
  50
 347.982
  51
 357.569
   0
ARC
   8
LEVEL001
   6
CONTINUOUS
  62
7
  10
 720.207
  20
 609.740
  30
0.0
  40
 0.800000
  50
 176.571
  51
 227.425
   0
ARC
   8
LEVEL001
   6
CONTINUOUS
  62
7
  10
 715.177
  20
 612.250
  30
0.0
  40
 1.00000
  50
 36.9820
  51
 188.013
   0
ARC
   8
LEVEL001
   6
CONTINUOUS
  62
7
  10
 721.630
  20
 605.560
  30
0.0
  40
 3.20000
  50
 110.767
  51
 138.096
   0
ARC
   8
LEVEL001
   6
CONTINUOUS
  62
7
  10
 719.821
  20
 601.030
  30
0.0
  40
 6.68738
  50
 94.9120
  51
 130.088
   0
ARC
   8
LEVEL001
   6
CONTINUOUS
  62
7
  10
 716.114
  20
 609.980
  30
0.0
  40
 3.30000
  50
 356.583
  51
 22.5010
   0
ARC
   8
LEVEL001
   6
CONTINUOUS
  62
7
  10
 723.725
  20
 613.570
  30
0.0
  40
 6.00000
  50
 227.429
  51
 237.016
   0
LINE
   8
LEVEL001
   6
CONTINUOUS
  62
7
  10
 719.466
  20
 609.440
  30
0.0
  11
 714.141
  21
 607.230
  31
0.0
   0
ARC
   8
LEVEL001
   6
CONTINUOUS
  62
7
  10
 713.393
  20
 606.920
  30
0.0
  40
 0.800000
  50
 357.573
  51
 48.4220
   0
ARC
   8
LEVEL001
   6
CONTINUOUS
  62
7
  10
 716.114
  20
 609.980
  30
0.0
  40
 3.30000
  50
 202.501
  51
 228.419
   0
LINE
   8
LEVEL001
   6
CONTINUOUS
  62
7
  10
 721.414
  20
 606.340
  30
0.0
  11
 725.866
  21
 606.340
  31
0.0
   0
ARC
   8
LEVEL001
   6
CONTINUOUS
  62
7
  10
 718.104
  20
 596.660
  30
0.0
  40
 3.00000
  50
 208.732
  51
 270.000
   0
LINE
   8
LEVEL001
   6
CONTINUOUS
  62
7
  10
 1015.00
  20
 721.500
  30
0.0
  11
 1005.55
  21
 719.500
  31
0.0
   0
LINE
   8
LEVEL001
   6
CONTINUOUS
  62
7
  10
 900.206
  20
 719.500
  30
0.0
  11
 900.000
  21
 719.619
  31
0.0
   0
LINE
   8
LEVEL001
   6
CONTINUOUS
  62
7
  10
 900.000
  20
 719.619
  30
0.0
  11
 899.794
  21
 719.500
  31
0.0
   0
ARC
   8
LEVEL001
   6
CONTINUOUS
  62
7
  10
 900.000
  20
 715.000
  30
0.0
  40
 8.75000
  50
 30.9497
  51
 149.050
   0
ARC
   8
LEVEL001
   6
CONTINUOUS
  62
7
  10
 900.000
  20
 715.000
  30
0.0
  40
 8.00000
  50
 34.2289
  51
 145.771
   0
CIRCLE
   8
LEVEL001
   6
CONTINUOUS
  62
7
  10
 900.000
  20
 735.000
  30
0.0
  40
 8.75000
   0
CIRCLE
   8
LEVEL001
   6
CONTINUOUS
  62
7
  10
 900.000
  20
 735.000
  30
0.0
  40
 8.00000
   0
ARC
   8
LEVEL001
   6
CONTINUOUS
  62
7
  10
 769.000
  20
 704.500
  30
0.0
  40
 1.00000
  50
 270.000
  51
0.0
   0
LINE
   8
LEVEL001
   6
CONTINUOUS
  62
7
  10
 786.907
  20
 710.500
  30
0.0
  11
 772.500
  21
 710.500
  31
0.0
   0
ARC
   8
LEVEL001
   6
CONTINUOUS
  62
7
  10
 785.000
  20
 736.500
  30
0.0
  40
 25.0000
  50
 317.156
  51
 233.576
   0
LINE
   8
LEVEL001
   6
CONTINUOUS
  62
7
  10
 772.500
  20
 710.500
  30
0.0
  11
 773.795
  21
 717.847
  31
0.0
   0
ARC
   8
LEVEL001
   6
CONTINUOUS
  62
7
  10
 775.765
  20
 717.500
  30
0.0
  40
 2.00000
  50
 89.9970
  51
 170.000
   0
ARC
   8
LEVEL001
   6
CONTINUOUS
  62
7
  10
 766.594
  20
 711.556
  30
0.0
  40
 6.00000
  50
 349.999
  51
 53.5760
   0
LINE
   8
LEVEL001
   6
CONTINUOUS
  62
7
  10
 770.000
  20
 710.500
  30
0.0
  11
 772.500
  21
 710.500
  31
0.0
   0
LINE
   8
LEVEL001
   6
CONTINUOUS
  62
7
  10
 770.000
  20
 710.500
  30
0.0
  11
 770.000
  21
 704.500
  31
0.0
   0
LINE
   8
LEVEL001
   6
CONTINUOUS
  62
7
  10
 785.000
  20
 721.500
  30
0.0
  11
 794.649
  21
 719.457
  31
0.0
   0
LINE
   8
LEVEL001
   6
CONTINUOUS
  62
7
  10
 785.000
  20
 721.500
  30
0.0
  11
 775.351
  21
 719.457
  31
0.0
   0
LINE
   8
LEVEL001
   6
CONTINUOUS
  62
7
  10
 794.235
  20
 719.500
  30
0.0
  11
 775.765
  21
 719.500
  31
0.0
   0
CIRCLE
   8
LEVEL001
   6
CONTINUOUS
  62
7
  10
 785.000
  20
 736.500
  30
0.0
  40
 15.0000
   0
LINE
   8
LEVEL001
   6
CONTINUOUS
  62
7
  10
 1013.09
  20
 710.500
  30
0.0
  11
 1027.50
  21
 710.500
  31
0.0
   0
ARC
   8
LEVEL001
   6
CONTINUOUS
  62
7
  10
 1015.00
  20
 736.500
  30
0.0
  40
 25.0000
  50
 306.424
  51
 222.844
   0
LINE
   8
LEVEL001
   6
CONTINUOUS
  62
7
  10
 1013.09
  20
 703.500
  30
0.0
  11
 1013.09
  21
 718.600
  31
0.0
   0
LINE
   8
LEVEL001
   6
CONTINUOUS
  62
7
  10
 986.093
  20
 718.600
  30
0.0
  11
 986.093
  21
 703.500
  31
0.0
   0
LINE
   8
LEVEL001
   6
CONTINUOUS
  62
7
  10
 987.652
  20
 719.500
  30
0.0
  11
 986.093
  21
 718.600
  31
0.0
   0
LINE
   8
LEVEL001
   6
CONTINUOUS
  62
7
  10
 1011.53
  20
 719.500
  30
0.0
  11
 987.652
  21
 719.500
  31
0.0
   0
LINE
   8
LEVEL001
   6
CONTINUOUS
  62
7
  10
 1013.09
  20
 718.600
  30
0.0
  11
 1011.53
  21
 719.500
  31
0.0
   0
LINE
   8
LEVEL001
   6
CONTINUOUS
  62
7
  10
 986.093
  20
 718.600
  30
0.0
  11
 1013.09
  21
 718.600
  31
0.0
   0
LINE
   8
LEVEL001
   6
CONTINUOUS
  62
7
  10
 913.500
  20
 703.500
  30
0.0
  11
 913.500
  21
 718.600
  31
0.0
   0
LINE
   8
LEVEL001
   6
CONTINUOUS
  62
7
  10
 886.500
  20
 718.600
  30
0.0
  11
 886.500
  21
 703.500
  31
0.0
   0
LINE
   8
LEVEL001
   6
CONTINUOUS
  62
7
  10
 888.059
  20
 719.500
  30
0.0
  11
 886.500
  21
 718.600
  31
0.0
   0
LINE
   8
LEVEL001
   6
CONTINUOUS
  62
7
  10
 911.941
  20
 719.500
  30
0.0
  11
 888.059
  21
 719.500
  31
0.0
   0
LINE
   8
LEVEL001
   6
CONTINUOUS
  62
7
  10
 913.500
  20
 718.600
  30
0.0
  11
 911.941
  21
 719.500
  31
0.0
   0
LINE
   8
LEVEL001
   6
CONTINUOUS
  62
7
  10
 886.500
  20
 718.600
  30
0.0
  11
 913.500
  21
 718.600
  31
0.0
   0
LINE
   8
LEVEL001
   6
CONTINUOUS
  62
7
  10
 813.907
  20
 703.500
  30
0.0
  11
 813.907
  21
 718.600
  31
0.0
   0
LINE
   8
LEVEL001
   6
CONTINUOUS
  62
7
  10
 786.907
  20
 718.600
  30
0.0
  11
 786.907
  21
 703.500
  31
0.0
   0
LINE
   8
LEVEL001
   6
CONTINUOUS
  62
7
  10
 788.466
  20
 719.500
  30
0.0
  11
 786.907
  21
 718.600
  31
0.0
   0
LINE
   8
LEVEL001
   6
CONTINUOUS
  62
7
  10
 812.348
  20
 719.500
  30
0.0
  11
 788.466
  21
 719.500
  31
0.0
   0
LINE
   8
LEVEL001
   6
CONTINUOUS
  62
7
  10
 813.907
  20
 718.600
  30
0.0
  11
 812.348
  21
 719.500
  31
0.0
   0
LINE
   8
LEVEL001
   6
CONTINUOUS
  62
7
  10
 786.907
  20
 718.600
  30
0.0
  11
 813.907
  21
 718.600
  31
0.0
   0
LINE
   8
LEVEL001
   6
CONTINUOUS
  62
7
  10
 1031.50
  20
 703.500
  30
0.0
  11
 768.500
  21
 703.500
  31
0.0
   0
CIRCLE
   8
LEVEL001
   6
CONTINUOUS
  62
7
  10
 754.412
  20
 633.588
  30
0.0
  40
 7.00000
   0
CIRCLE
   8
LEVEL001
   6
CONTINUOUS
  62
7
  10
 754.412
  20
 633.588
  30
0.0
  40
 6.50000
   0
CIRCLE
   8
LEVEL001
   6
CONTINUOUS
  62
7
  10
 821.588
  20
 633.588
  30
0.0
  40
 7.00000
   0
CIRCLE
   8
LEVEL001
   6
CONTINUOUS
  62
7
  10
 821.588
  20
 633.588
  30
0.0
  40
 6.50000
   0
CIRCLE
   8
LEVEL001
   6
CONTINUOUS
  62
7
  10
 821.588
  20
 566.412
  30
0.0
  40
 7.00000
   0
CIRCLE
   8
LEVEL001
   6
CONTINUOUS
  62
7
  10
 821.588
  20
 566.412
  30
0.0
  40
 6.50000
   0
CIRCLE
   8
LEVEL001
   6
CONTINUOUS
  62
7
  10
 754.412
  20
 566.412
  30
0.0
  40
 7.00000
   0
CIRCLE
   8
LEVEL001
   6
CONTINUOUS
  62
7
  10
 754.412
  20
 566.412
  30
0.0
  40
 6.50000
   0
CIRCLE
   8
LEVEL001
   6
CONTINUOUS
  62
7
  10
 754.412
  20
 633.588
  30
0.0
  40
 7.00000
   0
CIRCLE
   8
LEVEL001
   6
CONTINUOUS
  62
7
  10
 754.412
  20
 633.588
  30
0.0
  40
 6.50000
   0
ARC
   8
LEVEL001
   6
CONTINUOUS
  62
7
  10
 788.000
  20
 600.000
  30
0.0
  40
 20.0000
  50
 104.478
  51
 75.5225
   0
ARC
   8
LEVEL001
   6
CONTINUOUS
  62
7
  10
 788.000
  20
 600.000
  30
0.0
  40
 16.5000
  50
 107.640
  51
 72.3603
   0
CIRCLE
   8
LEVEL001
   6
CONTINUOUS
  62
7
  10
 788.000
  20
 600.000
  30
0.0
  40
 29.0000
   0
CIRCLE
   8
LEVEL001
   6
CONTINUOUS
  62
7
  10
 788.000
  20
 600.000
  30
0.0
  40
 56.0000
   0
ARC
   8
LEVEL001
   6
CONTINUOUS
  62
7
  10
 788.000
  20
 600.000
  30
0.0
  40
 17.5000
  50
 106.602
  51
 73.3980
   0
LINE
   8
LEVEL001
   6
CONTINUOUS
  62
7
  10
 767.500
  20
 685.000
  30
0.0
  11
 1032.50
  21
 685.000
  31
0.0
   0
LINE
   8
LEVEL001
   6
CONTINUOUS
  62
7
  10
 766.500
  20
 685.500
  30
0.0
  11
 1033.50
  21
 685.500
  31
0.0
   0
LINE
   8
LEVEL001
   6
CONTINUOUS
  62
7
  10
 909.000
  20
 753.000
  30
0.0
  11
 937.500
  21
 753.000
  31
0.0
   0
LINE
   8
LEVEL001
   6
CONTINUOUS
  62
7
  10
 862.750
  20
 753.000
  30
0.0
  11
 891.000
  21
 753.000
  31
0.0
   0
LINE
   8
LEVEL001
   6
CONTINUOUS
  62
7
  10
 891.000
  20
 793.128
  30
0.0
  11
 891.000
  21
 750.000
  31
0.0
   0
LINE
   8
LEVEL001
   6
CONTINUOUS
  62
7
  10
 909.000
  20
 750.000
  30
0.0
  11
 909.000
  21
 793.128
  31
0.0
   0
LINE
   8
LEVEL001
   6
CONTINUOUS
  62
7
  10
 845.405
  20
 750.000
  30
0.0
  11
 954.595
  21
 750.000
  31
0.0
   0
LINE
   8
LEVEL001
   6
CONTINUOUS
  62
7
  10
 937.500
  20
 784.000
  30
0.0
  11
 937.500
  21
 753.000
  31
0.0
   0
LINE
   8
LEVEL001
   6
CONTINUOUS
  62
7
  10
 949.000
  20
 480.000
  30
0.0
  11
 949.000
  21
 479.000
  31
0.0
   0
LINE
   8
LEVEL001
   6
CONTINUOUS
  62
7
  10
 950.000
  20
 480.000
  30
0.0
  11
 950.000
  21
 475.270
  31
0.0
   0
LINE
   8
LEVEL001
   6
CONTINUOUS
  62
7
  10
 850.000
  20
 480.000
  30
0.0
  11
 850.000
  21
 475.270
  31
0.0
   0
LINE
   8
LEVEL001
   6
CONTINUOUS
  62
7
  10
 851.000
  20
 480.000
  30
0.0
  11
 851.000
  21
 479.000
  31
0.0
   0
LINE
   8
LEVEL001
   6
CONTINUOUS
  62
7
  10
 670.000
  20
 505.000
  30
0.0
  11
 1065.00
  21
 505.000
  31
0.0
   0
LINE
   8
LEVEL001
   6
CONTINUOUS
  62
7
  10
 960.000
  20
 482.000
  30
0.0
  11
 840.000
  21
 482.000
  31
0.0
   0
LINE
   8
LEVEL001
   6
CONTINUOUS
  62
7
  10
 850.000
  20
 479.000
  30
0.0
  11
 950.000
  21
 479.000
  31
0.0
   0
LINE
   8
LEVEL001
   6
CONTINUOUS
  62
7
  10
 958.000
  20
 480.000
  30
0.0
  11
 842.000
  21
 480.000
  31
0.0
   0
LINE
   8
LEVEL001
   6
CONTINUOUS
  62
7
  10
 849.200
  20
 475.270
  30
0.0
  11
 950.800
  21
 475.270
  31
0.0
   0
LINE
   8
LEVEL001
   6
CONTINUOUS
  62
7
  10
 890.656
  20
 89.1000
  30
0.0
  11
 909.344
  21
 89.1000
  31
0.0
   0
LINE
   8
LEVEL001
   6
CONTINUOUS
  62
7
  10
 889.759
  20
 90.0000
  30
0.0
  11
 890.656
  21
 89.1000
  31
0.0
   0
LINE
   8
LEVEL001
   6
CONTINUOUS
  62
7
  10
 909.344
  20
 89.1000
  30
0.0
  11
 910.241
  21
 90.0000
  31
0.0
   0
LINE
   8
LEVEL001
   6
CONTINUOUS
  62
7
  10
 890.684
  20
 90.0000
  30
0.0
  11
 890.656
  21
 89.1000
  31
0.0
   0
LINE
   8
LEVEL001
   6
CONTINUOUS
  62
7
  10
 909.316
  20
 90.0000
  30
0.0
  11
 909.344
  21
 89.1000
  31
0.0
   0
LINE
   8
LEVEL001
   6
CONTINUOUS
  62
7
  10
 948.500
  20
 90.0000
  30
0.0
  11
 851.500
  21
 90.0000
  31
0.0
   0
LINE
   8
LEVEL001
   6
CONTINUOUS
  62
7
  10
 950.800
  20
 94.5000
  30
0.0
  11
 948.500
  21
 90.0000
  31
0.0
   0
LINE
   8
LEVEL001
   6
CONTINUOUS
  62
7
  10
 950.800
  20
 94.5000
  30
0.0
  11
 950.800
  21
 475.270
  31
0.0
   0
LINE
   8
LEVEL001
   6
CONTINUOUS
  62
7
  10
 950.800
  20
 94.5000
  30
0.0
  11
 849.200
  21
 94.5000
  31
0.0
   0
LINE
   8
LEVEL001
   6
CONTINUOUS
  62
7
  10
 849.200
  20
 94.5000
  30
0.0
  11
 849.200
  21
 475.270
  31
0.0
   0
LINE
   8
LEVEL001
   6
CONTINUOUS
  62
7
  10
 849.200
  20
 94.5000
  30
0.0
  11
 851.500
  21
 90.0000
  31
0.0
   0
LINE
   8
LEVEL001
   6
CONTINUOUS
  62
7
  10
 865.000
  20
 854.000
  30
0.0
  11
 935.000
  21
 854.000
  31
0.0
   0
LINE
   8
LEVEL001
   6
CONTINUOUS
  62
7
  10
 934.000
  20
 855.000
  30
0.0
  11
 866.000
  21
 855.000
  31
0.0
   0
LINE
   8
LEVEL001
   6
CONTINUOUS
  62
7
  10
 766.500
  20
 701.500
  30
0.0
  11
 766.500
  21
 685.500
  31
0.0
   0
LINE
   8
LEVEL001
   6
CONTINUOUS
  62
7
  10
 672.000
  20
 530.000
  30
0.0
  11
 737.568
  21
 530.000
  31
0.0
   0
LINE
   8
LEVEL001
   6
CONTINUOUS
  62
7
  10
 1033.50
  20
 701.500
  30
0.0
  11
 1033.50
  21
 685.500
  31
0.0
   0
ARC
   8
LEVEL001
   6
CONTINUOUS
  62
7
  10
 788.000
  20
 600.000
  30
0.0
  40
 56.5000
  50
 140.783
  51
 210.850
   0
ARC
   8
LEVEL001
   6
CONTINUOUS
  62
7
  10
 788.000
  20
 600.000
  30
0.0
  40
 56.5000
  50
 125.720
  51
 140.783
   0
LINE
   8
LEVEL001
   6
CONTINUOUS
  62
7
  10
 909.000
  20
 793.128
  30
0.0
  11
 891.000
  21
 793.128
  31
0.0
   0
LINE
   8
LEVEL001
   6
CONTINUOUS
  62
7
  10
 865.000
  20
 788.000
  30
0.0
  11
 891.000
  21
 788.000
  31
0.0
   0
LINE
   8
LEVEL001
   6
CONTINUOUS
  62
7
  10
 935.000
  20
 788.000
  30
0.0
  11
 909.000
  21
 788.000
  31
0.0
   0
LINE
   8
LEVEL001
   6
CONTINUOUS
  62
7
  10
 670.000
  20
 528.000
  30
0.0
  11
 670.000
  21
 505.000
  31
0.0
   0
ARC
   8
LEVEL001
   6
CONTINUOUS
  62
7
  10
 672.000
  20
 528.000
  30
0.0
  40
 2.00000
  50
 90.0000
  51
 180.000
   0
LINE
   8
LEVEL001
   6
CONTINUOUS
  62
7
  10
 1027.50
  20
 710.500
  30
0.0
  11
 1026.21
  21
 717.847
  31
0.0
   0
ARC
   8
LEVEL001
   6
CONTINUOUS
  62
7
  10
 1024.23
  20
 717.500
  30
0.0
  40
 2.00000
  50
 9.99980
  51
 90.0030
   0
ARC
   8
LEVEL001
   6
CONTINUOUS
  62
7
  10
 1033.41
  20
 711.556
  30
0.0
  40
 6.00000
  50
 126.424
  51
 190.001
   0
LINE
   8
LEVEL001
   6
CONTINUOUS
  62
7
  10
 1030.00
  20
 710.500
  30
0.0
  11
 1027.50
  21
 710.500
  31
0.0
   0
LINE
   8
LEVEL001
   6
CONTINUOUS
  62
7
  10
 1031.00
  20
 703.500
  30
0.0
  11
 1031.50
  21
 703.500
  31
0.0
   0
LINE
   8
LEVEL001
   6
CONTINUOUS
  62
7
  10
 1030.00
  20
 710.500
  30
0.0
  11
 1030.00
  21
 704.500
  31
0.0
   0
ARC
   8
LEVEL001
   6
CONTINUOUS
  62
7
  10
 1031.00
  20
 704.500
  30
0.0
  40
 1.00000
  50
 180.000
  51
 270.000
   0
LINE
   8
LEVEL001
   6
CONTINUOUS
  62
7
  10
 1049.72
  20
 541.800
  30
0.0
  11
 1064.29
  21
 529.530
  31
0.0
   0
LINE
   8
LEVEL001
   6
CONTINUOUS
  62
7
  10
 1032.50
  20
 659.150
  30
0.0
  11
 1039.13
  21
 562.690
  31
0.0
   0
ARC
   8
LEVEL001
   6
CONTINUOUS
  62
7
  10
 1069.06
  20
 564.740
  30
0.0
  40
 30.0000
  50
 183.931
  51
 229.876
   0
LINE
   8
LEVEL001
   6
CONTINUOUS
  62
7
  10
 1065.00
  20
 528.000
  30
0.0
  11
 1065.00
  21
 505.000
  31
0.0
   0
ARC
   8
LEVEL001
   6
CONTINUOUS
  62
7
  10
 1063.00
  20
 528.000
  30
0.0
  40
 2.00000
  50
0.0
  51
 90.0000
   0
LINE
   8
LEVEL001
   6
CONTINUOUS
  62
7
  10
 1021.06
  20
 635.940
  30
0.0
  11
 1030.36
  21
 651.440
  31
0.0
   0
LINE
   8
LEVEL001
   6
CONTINUOUS
  62
7
  10
 1032.50
  20
 685.000
  30
0.0
  11
 1032.50
  21
 659.150
  31
0.0
   0
ARC
   8
LEVEL001
   6
CONTINUOUS
  62
7
  10
 1017.50
  20
 659.150
  30
0.0
  40
 15.0000
  50
 329.036
  51
 0.600000E-3
   0
LINE
   8
LEVEL001
   6
CONTINUOUS
  62
7
  10
 1017.50
  20
 623.080
  30
0.0
  11
 1017.50
  21
 567.030
  31
0.0
   0
ARC
   8
LEVEL001
   6
CONTINUOUS
  62
7
  10
 1042.50
  20
 623.080
  30
0.0
  40
 25.0000
  50
 149.036
  51
 180.000
   0
LINE
   8
LEVEL001
   6
CONTINUOUS
  62
7
  10
 1017.29
  20
 564.990
  30
0.0
  11
 1012.51
  21
 542.040
  31
0.0
   0
ARC
   8
LEVEL001
   6
CONTINUOUS
  62
7
  10
 1007.50
  20
 567.030
  30
0.0
  40
 10.0000
  50
 348.231
  51
 0.201927E-10
   0
ARC
   8
LEVEL001
   6
CONTINUOUS
  62
7
  10
 1022.30
  20
 540.000
  30
0.0
  40
 10.0000
  50
 168.232
  51
 270.000
   0
ARC
   8
LEVEL001
   6
CONTINUOUS
  62
7
  10
 1031.50
  20
 701.500
  30
0.0
  40
 2.00000
  50
0.0
  51
 90.0000
   0
LINE
   8
LEVEL001
   6
CONTINUOUS
  62
7
  10
 1015.00
  20
 721.500
  30
0.0
  11
 1024.65
  21
 719.457
  31
0.0
   0
LINE
   8
LEVEL001
   6
CONTINUOUS
  62
7
  10
 1005.77
  20
 719.500
  30
0.0
  11
 1024.24
  21
 719.500
  31
0.0
   0
CIRCLE
   8
LEVEL001
   6
CONTINUOUS
  62
7
  10
 1015.00
  20
 736.500
  30
0.0
  40
 15.0000
   0
LINE
   8
LEVEL001
   6
CONTINUOUS
  62
7
  10
 851.000
  20
 479.000
  30
0.0
  11
 850.000
  21
 475.270
  31
0.0
   0
LINE
   8
LEVEL001
   6
CONTINUOUS
  62
7
  10
 840.000
  20
 500.000
  30
0.0
  11
 840.000
  21
 482.000
  31
0.0
   0
LINE
   8
LEVEL001
   6
CONTINUOUS
  62
7
  10
 840.000
  20
 482.000
  30
0.0
  11
 842.000
  21
 480.000
  31
0.0
   0
ARC
   8
LEVEL001
   6
CONTINUOUS
  62
7
  10
 835.000
  20
 500.000
  30
0.0
  40
 5.00000
  50
0.0
  51
 90.0000
   0
LINE
   8
LEVEL001
   6
CONTINUOUS
  62
7
  10
 949.000
  20
 479.000
  30
0.0
  11
 950.000
  21
 475.270
  31
0.0
   0
LINE
   8
LEVEL001
   6
CONTINUOUS
  62
7
  10
 960.000
  20
 500.000
  30
0.0
  11
 960.000
  21
 482.000
  31
0.0
   0
LINE
   8
LEVEL001
   6
CONTINUOUS
  62
7
  10
 960.000
  20
 482.000
  30
0.0
  11
 958.000
  21
 480.000
  31
0.0
   0
ARC
   8
LEVEL001
   6
CONTINUOUS
  62
7
  10
 965.000
  20
 500.000
  30
0.0
  40
 5.00000
  50
 90.0000
  51
 180.000
   0
LINE
   8
LEVEL001
   6
CONTINUOUS
  62
7
  10
 750.446
  20
 552.690
  30
0.0
  11
 739.494
  21
 571.030
  31
0.0
   0
ARC
   8
LEVEL001
   6
CONTINUOUS
  62
7
  10
 737.568
  20
 545.000
  30
0.0
  40
 15.0000
  50
 270.000
  51
 30.8500
   0
LINE
   8
LEVEL001
   6
CONTINUOUS
  62
7
  10
 699.573
  20
 544.580
  30
0.0
  11
 671.078
  21
 529.770
  31
0.0
   0
ARC
   8
LEVEL001
   6
CONTINUOUS
  62
7
  10
 685.740
  20
 571.200
  30
0.0
  40
 30.0000
  50
 297.458
  51
 340.237
   0
LINE
   8
LEVEL001
   6
CONTINUOUS
  62
7
  10
 934.000
  20
 855.000
  30
0.0
  11
 935.000
  21
 854.000
  31
0.0
   0
LINE
   8
LEVEL001
   6
DASHDOT
  62
7
  10
 923.500
  20
 685.000
  30
0.0
  11
 944.500
  21
 685.000
  31
0.0
   0
LINE
   8
LEVEL001
   6
CONTINUOUS
  62
7
  10
 842.406
  20
 747.097
  30
0.0
  11
 841.406
  21
 716.081
  31
0.0
   0
ARC
   8
LEVEL001
   6
CONTINUOUS
  62
7
  10
 845.405
  20
 747.000
  30
0.0
  40
 3.00000
  50
 89.9980
  51
 178.154
   0
ARC
   8
LEVEL001
   6
CONTINUOUS
  62
7
  10
 828.413
  20
 716.500
  30
0.0
  40
 13.0000
  50
 270.000
  51
 358.152
   0
LINE
   8
LEVEL001
   6
CONTINUOUS
  62
7
  10
 862.750
  20
 750.000
  30
0.0
  11
 862.500
  21
 750.000
  31
0.0
   0
LINE
   8
LEVEL001
   6
CONTINUOUS
  62
7
  10
 862.750
  20
 753.000
  30
0.0
  11
 862.750
  21
 750.000
  31
0.0
   0
LINE
   8
LEVEL001
   6
CONTINUOUS
  62
7
  10
 957.594
  20
 747.097
  30
0.0
  11
 958.594
  21
 716.081
  31
0.0
   0
ARC
   8
LEVEL001
   6
CONTINUOUS
  62
7
  10
 954.595
  20
 747.000
  30
0.0
  40
 3.00000
  50
 1.84560
  51
 90.0020
   0
ARC
   8
LEVEL001
   6
CONTINUOUS
  62
7
  10
 971.587
  20
 716.500
  30
0.0
  40
 13.0000
  50
 181.848
  51
 270.000
   0
LINE
   8
LEVEL001
   6
CONTINUOUS
  62
7
  10
 937.250
  20
 750.000
  30
0.0
  11
 937.500
  21
 750.000
  31
0.0
   0
LINE
   8
LEVEL001
   6
CONTINUOUS
  62
7
  10
 937.250
  20
 753.000
  30
0.0
  11
 937.250
  21
 750.000
  31
0.0
   0
LINE
   8
LEVEL001
   6
CONTINUOUS
  62
7
  10
 767.500
  20
 670.228
  30
0.0
  11
 767.500
  21
 685.000
  31
0.0
   0
ARC
   8
LEVEL001
   6
CONTINUOUS
  62
7
  10
 737.500
  20
 670.228
  30
0.0
  40
 30.0000
  50
 305.719
  51
 0.100000E-3
   0
ARC
   8
LEVEL001
   6
CONTINUOUS
  62
7
  10
 768.500
  20
 701.500
  30
0.0
  40
 2.00000
  50
 90.0000
  51
 180.000
   0
LINE
   8
LEVEL001
   6
CONTINUOUS
  62
7
  10
 891.000
  20
 785.000
  30
0.0
  11
 863.500
  21
 785.000
  31
0.0
   0
LINE
   8
LEVEL001
   6
CONTINUOUS
  62
7
  10
 862.500
  20
 784.000
  30
0.0
  11
 862.500
  21
 753.000
  31
0.0
   0
ARC
   8
LEVEL001
   6
CONTINUOUS
  62
7
  10
 863.500
  20
 784.000
  30
0.0
  40
 1.00000
  50
 90.0000
  51
 180.000
   0
LINE
   8
LEVEL001
   6
CONTINUOUS
  62
7
  10
 866.000
  20
 855.000
  30
0.0
  11
 866.000
  21
 787.000
  31
0.0
   0
LINE
   8
LEVEL001
   6
CONTINUOUS
  62
7
  10
 866.000
  20
 787.000
  30
0.0
  11
 866.000
  21
 786.000
  31
0.0
   0
ARC
   8
LEVEL001
   6
CONTINUOUS
  62
7
  10
 865.000
  20
 786.000
  30
0.0
  40
 1.00000
  50
 270.000
  51
0.0
   0
ARC
   8
LEVEL001
   6
CONTINUOUS
  62
7
  10
 865.000
  20
 787.000
  30
0.0
  40
 1.00000
  50
0.0
  51
 90.0000
   0
LINE
   8
LEVEL001
   6
CONTINUOUS
  62
7
  10
 862.500
  20
 753.000
  30
0.0
  11
 862.750
  21
 753.000
  31
0.0
   0
LINE
   8
LEVEL001
   6
CONTINUOUS
  62
7
  10
 909.000
  20
 785.000
  30
0.0
  11
 936.500
  21
 785.000
  31
0.0
   0
ARC
   8
LEVEL001
   6
CONTINUOUS
  62
7
  10
 936.500
  20
 784.000
  30
0.0
  40
 1.00000
  50
0.0
  51
 90.0000
   0
LINE
   8
LEVEL001
   6
CONTINUOUS
  62
7
  10
 934.000
  20
 855.000
  30
0.0
  11
 934.000
  21
 787.000
  31
0.0
   0
LINE
   8
LEVEL001
   6
CONTINUOUS
  62
7
  10
 934.000
  20
 787.000
  30
0.0
  11
 934.000
  21
 786.000
  31
0.0
   0
ARC
   8
LEVEL001
   6
CONTINUOUS
  62
7
  10
 935.000
  20
 786.000
  30
0.0
  40
 1.00000
  50
 180.000
  51
 270.000
   0
ARC
   8
LEVEL001
   6
CONTINUOUS
  62
7
  10
 935.000
  20
 787.000
  30
0.0
  40
 1.00000
  50
 90.0000
  51
 180.000
   0
LINE
   8
LEVEL001
   6
CONTINUOUS
  62
7
  10
 937.500
  20
 753.000
  30
0.0
  11
 937.250
  21
 753.000
  31
0.0
   0
LINE
   8
LEVEL001
   6
CONTINUOUS
  62
7
  10
 900.000
  20
 739.619
  30
0.0
  11
 896.000
  21
 737.309
  31
0.0
   0
LINE
   8
LEVEL001
   6
CONTINUOUS
  62
7
  10
 896.000
  20
 737.309
  30
0.0
  11
 896.000
  21
 732.691
  31
0.0
   0
LINE
   8
LEVEL001
   6
CONTINUOUS
  62
7
  10
 896.000
  20
 732.691
  30
0.0
  11
 900.000
  21
 730.381
  31
0.0
   0
LINE
   8
LEVEL001
   6
CONTINUOUS
  62
7
  10
 900.000
  20
 730.381
  30
0.0
  11
 904.000
  21
 732.691
  31
0.0
   0
LINE
   8
LEVEL001
   6
CONTINUOUS
  62
7
  10
 904.000
  20
 732.691
  30
0.0
  11
 904.000
  21
 737.309
  31
0.0
   0
LINE
   8
LEVEL001
   6
CONTINUOUS
  62
7
  10
 904.000
  20
 737.309
  30
0.0
  11
 900.000
  21
 739.619
  31
0.0
   0
LINE
   8
LEVEL001
   6
CONTINUOUS
  62
7
  10
 756.862
  20
 631.138
  30
0.0
  11
 757.758
  21
 634.484
  31
0.0
   0
LINE
   8
LEVEL001
   6
CONTINUOUS
  62
7
  10
 757.758
  20
 634.484
  30
0.0
  11
 755.309
  21
 636.934
  31
0.0
   0
LINE
   8
LEVEL001
   6
CONTINUOUS
  62
7
  10
 755.309
  20
 636.934
  30
0.0
  11
 751.963
  21
 636.037
  31
0.0
   0
LINE
   8
LEVEL001
   6
CONTINUOUS
  62
7
  10
 751.963
  20
 636.037
  30
0.0
  11
 751.066
  21
 632.691
  31
0.0
   0
LINE
   8
LEVEL001
   6
CONTINUOUS
  62
7
  10
 751.066
  20
 632.691
  30
0.0
  11
 753.516
  21
 630.242
  31
0.0
   0
LINE
   8
LEVEL001
   6
CONTINUOUS
  62
7
  10
 753.516
  20
 630.242
  30
0.0
  11
 756.862
  21
 631.138
  31
0.0
   0
LINE
   8
LEVEL001
   6
CONTINUOUS
  62
7
  10
 819.138
  20
 631.138
  30
0.0
  11
 822.484
  21
 630.242
  31
0.0
   0
LINE
   8
LEVEL001
   6
CONTINUOUS
  62
7
  10
 822.484
  20
 630.242
  30
0.0
  11
 824.934
  21
 632.691
  31
0.0
   0
LINE
   8
LEVEL001
   6
CONTINUOUS
  62
7
  10
 824.934
  20
 632.691
  30
0.0
  11
 824.037
  21
 636.037
  31
0.0
   0
LINE
   8
LEVEL001
   6
CONTINUOUS
  62
7
  10
 824.037
  20
 636.037
  30
0.0
  11
 820.691
  21
 636.934
  31
0.0
   0
LINE
   8
LEVEL001
   6
CONTINUOUS
  62
7
  10
 820.691
  20
 636.934
  30
0.0
  11
 818.242
  21
 634.484
  31
0.0
   0
LINE
   8
LEVEL001
   6
CONTINUOUS
  62
7
  10
 818.242
  20
 634.484
  30
0.0
  11
 819.138
  21
 631.138
  31
0.0
   0
LINE
   8
LEVEL001
   6
CONTINUOUS
  62
7
  10
 819.138
  20
 568.862
  30
0.0
  11
 818.242
  21
 565.516
  31
0.0
   0
LINE
   8
LEVEL001
   6
CONTINUOUS
  62
7
  10
 818.242
  20
 565.516
  30
0.0
  11
 820.691
  21
 563.066
  31
0.0
   0
LINE
   8
LEVEL001
   6
CONTINUOUS
  62
7
  10
 820.691
  20
 563.066
  30
0.0
  11
 824.037
  21
 563.963
  31
0.0
   0
LINE
   8
LEVEL001
   6
CONTINUOUS
  62
7
  10
 824.037
  20
 563.963
  30
0.0
  11
 824.934
  21
 567.309
  31
0.0
   0
LINE
   8
LEVEL001
   6
CONTINUOUS
  62
7
  10
 824.934
  20
 567.309
  30
0.0
  11
 822.484
  21
 569.758
  31
0.0
   0
LINE
   8
LEVEL001
   6
CONTINUOUS
  62
7
  10
 822.484
  20
 569.758
  30
0.0
  11
 819.138
  21
 568.862
  31
0.0
   0
LINE
   8
LEVEL001
   6
CONTINUOUS
  62
7
  10
 756.862
  20
 568.862
  30
0.0
  11
 753.516
  21
 569.758
  31
0.0
   0
LINE
   8
LEVEL001
   6
CONTINUOUS
  62
7
  10
 753.516
  20
 569.758
  30
0.0
  11
 751.066
  21
 567.309
  31
0.0
   0
LINE
   8
LEVEL001
   6
CONTINUOUS
  62
7
  10
 751.066
  20
 567.309
  30
0.0
  11
 751.963
  21
 563.963
  31
0.0
   0
LINE
   8
LEVEL001
   6
CONTINUOUS
  62
7
  10
 751.963
  20
 563.963
  30
0.0
  11
 755.309
  21
 563.066
  31
0.0
   0
LINE
   8
LEVEL001
   6
CONTINUOUS
  62
7
  10
 755.309
  20
 563.066
  30
0.0
  11
 757.758
  21
 565.516
  31
0.0
   0
LINE
   8
LEVEL001
   6
CONTINUOUS
  62
7
  10
 757.758
  20
 565.516
  30
0.0
  11
 756.862
  21
 568.862
  31
0.0
   0
LINE
   8
LEVEL001
   6
CONTINUOUS
  62
7
  10
 756.862
  20
 631.138
  30
0.0
  11
 757.758
  21
 634.484
  31
0.0
   0
LINE
   8
LEVEL001
   6
CONTINUOUS
  62
7
  10
 757.758
  20
 634.484
  30
0.0
  11
 755.309
  21
 636.934
  31
0.0
   0
LINE
   8
LEVEL001
   6
CONTINUOUS
  62
7
  10
 755.309
  20
 636.934
  30
0.0
  11
 751.963
  21
 636.037
  31
0.0
   0
LINE
   8
LEVEL001
   6
CONTINUOUS
  62
7
  10
 751.963
  20
 636.037
  30
0.0
  11
 751.066
  21
 632.691
  31
0.0
   0
LINE
   8
LEVEL001
   6
CONTINUOUS
  62
7
  10
 751.066
  20
 632.691
  30
0.0
  11
 753.516
  21
 630.242
  31
0.0
   0
LINE
   8
LEVEL001
   6
CONTINUOUS
  62
7
  10
 753.516
  20
 630.242
  30
0.0
  11
 756.862
  21
 631.138
  31
0.0
   0
LINE
   8
LEVEL001
   6
CONTINUOUS
  62
7
  10
 783.000
  20
 612.500
  30
0.0
  11
 783.000
  21
 621.500
  31
0.0
   0
LINE
   8
LEVEL001
   6
CONTINUOUS
  62
7
  10
 783.000
  20
 621.500
  30
0.0
  11
 793.000
  21
 621.500
  31
0.0
   0
LINE
   8
LEVEL001
   6
CONTINUOUS
  62
7
  10
 793.000
  20
 621.500
  30
0.0
  11
 793.000
  21
 612.500
  31
0.0
   0
LINE
   8
LEVEL001
   6
CONTINUOUS
  62
7
  10
 793.000
  20
 612.500
  30
0.0
  11
 783.000
  21
 612.500
  31
0.0
   0
LINE
   8
LEVEL001
   6
CONTINUOUS
  62
7
  10
 935.000
  20
 788.000
  30
0.0
  11
 935.000
  21
 820.000
  31
0.0
   0
LINE
   8
LEVEL001
   6
CONTINUOUS
  62
7
  10
 935.000
  20
 820.000
  30
0.0
  11
 935.000
  21
 854.000
  31
0.0
   0
LINE
   8
LEVEL001
   6
CONTINUOUS
  62
7
  10
 866.000
  20
 855.000
  30
0.0
  11
 865.000
  21
 854.000
  31
0.0
   0
LINE
   8
LEVEL001
   6
CONTINUOUS
  62
7
  10
 865.000
  20
 854.000
  30
0.0
  11
 865.000
  21
 788.000
  31
0.0
   0
LINE
   8
LEVEL001
   6
CONTINUOUS
  62
7
  10
 827.921
  20
 655.800
  30
0.0
  11
 1018.69
  21
 655.800
  31
0.0
   0
LINE
   8
LEVEL001
   6
CONTINUOUS
  62
7
  10
 848.599
  20
 629.000
  30
0.0
  11
 1006.02
  21
 629.000
  31
0.0
   0
LINE
   8
LEVEL001
   6
CONTINUOUS
  62
7
  10
 847.932
  20
 567.030
  30
0.0
  11
 1004.69
  21
 567.030
  31
0.0
   0
ARC
   8
LEVEL001
   6
CONTINUOUS
  62
7
  10
 838.432
  20
 545.000
  30
0.0
  40
 15.0000
  50
 149.150
  51
 270.000
   0
LINE
   8
LEVEL001
   6
CONTINUOUS
  62
7
  10
 838.432
  20
 530.000
  30
0.0
  11
 871.946
  21
 530.000
  31
0.0
   0
LINE
   8
LEVEL001
   6
CONTINUOUS
  62
7
  10
 925.309
  20
 530.000
  30
0.0
  11
 1063.00
  21
 530.000
  31
0.0
   0
LINE
   8
LEVEL001
   6
CONTINUOUS
  62
7
  10
 365.000
  20
 708.500
  30
0.0
  11
 365.000
  21
 710.500
  31
0.0
   0
ARC
   8
LEVEL001
   6
CONTINUOUS
  62
7
  10
 370.000
  20
 708.500
  30
0.0
  40
 5.00000
  50
 180.000
  51
 270.000
   0
LINE
   8
LEVEL001
   6
CONTINUOUS
  62
7
  10
 393.083
  20
 600.000
  30
0.0
  11
 389.041
  21
 607.000
  31
0.0
   0
LINE
   8
LEVEL001
   6
CONTINUOUS
  62
7
  10
 380.959
  20
 607.000
  30
0.0
  11
 376.917
  21
 600.000
  31
0.0
   0
LINE
   8
LEVEL001
   6
CONTINUOUS
  62
7
  10
 376.917
  20
 600.000
  30
0.0
  11
 380.959
  21
 593.000
  31
0.0
   0
LINE
   8
LEVEL001
   6
CONTINUOUS
  62
7
  10
 380.959
  20
 593.000
  30
0.0
  11
 389.041
  21
 593.000
  31
0.0
   0
LINE
   8
LEVEL001
   6
CONTINUOUS
  62
7
  10
 389.041
  20
 593.000
  30
0.0
  11
 393.083
  21
 600.000
  31
0.0
   0
LINE
   8
LEVEL001
   6
CONTINUOUS
  62
7
  10
 389.041
  20
 607.000
  30
0.0
  11
 388.464
  21
 607.000
  31
0.0
   0
LINE
   8
LEVEL001
   6
CONTINUOUS
  62
7
  10
 381.536
  20
 607.000
  30
0.0
  11
 380.959
  21
 607.000
  31
0.0
   0
LINE
   8
LEVEL001
   6
DASHDOT
  62
1
  10
 900.000
  20
 60.2163
  30
0.0
  11
 900.000
  21
 865.000
  31
0.0
   0
LINE
   8
LEVEL001
   6
DASHDOT
  62
1
  10
 705.000
  20
 535.000
  30
0.0
  11
 705.000
  21
 495.000
  31
0.0
   0
LINE
   8
LEVEL001
   6
DASHDOT
  62
1
  10
 1030.00
  20
 535.000
  30
0.0
  11
 1030.00
  21
 495.000
  31
0.0
   0
LINE
   8
LEVEL001
   6
DASHDOT
  62
1
  10
 788.000
  20
 645.040
  30
0.0
  11
 788.000
  21
 554.960
  31
0.0
   0
LINE
   8
LEVEL001
   6
DASHDOT
  62
1
  10
 733.572
  20
 600.000
  30
0.0
  11
 861.054
  21
 600.000
  31
0.0
   0
CIRCLE
   8
LEVEL001
   6
DASHDOT
  62
1
  10
 788.000
  20
 600.000
  30
0.0
  40
 47.5000
   0
LINE
   8
LEVEL001
   6
DASHDOT
  62
1
  10
 567.500
  20
 600.000
  30
0.0
  11
 130.000
  21
 600.000
  31
0.0
   0
LINE
   8
LEVEL001
   6
DASHDOT
  62
1
  10
 350.000
  20
 60.2163
  30
0.0
  11
 350.000
  21
 865.000
  31
0.0
   0
LINE
   8
LEVEL001
   6
DASHDOT
  62
1
  10
 425.000
  20
 535.000
  30
0.0
  11
 425.000
  21
 495.000
  31
0.0
   0
LINE
   8
LEVEL001
   6
DASHDOT
  62
1
  10
 275.000
  20
 535.000
  30
0.0
  11
 275.000
  21
 495.000
  31
0.0
   0
LINE
   8
LEVEL001
   6
CONTINUOUS
  62
7
  10
 481.250
  20
 1094.00
  30
0.0
  11
 471.187
  21
 1094.00
  31
0.0
   0
LINE
   8
LEVEL001
   6
CONTINUOUS
  62
7
  10
 470.000
  20
 983.000
  30
0.0
  11
 470.000
  21
 1091.59
  31
0.0
   0
LINE
   8
LEVEL001
   6
CONTINUOUS
  62
7
  10
 470.250
  20
 982.000
  30
0.0
  11
 470.250
  21
 1092.03
  31
0.0
   0
LINE
   8
LEVEL001
   6
CONTINUOUS
  62
7
  10
 483.250
  20
 1018.00
  30
0.0
  11
 486.347
  21
 1018.00
  31
0.0
   0
LINE
   8
LEVEL001
   6
CONTINUOUS
  62
7
  10
 483.250
  20
 1058.00
  30
0.0
  11
 486.347
  21
 1058.00
  31
0.0
   0
LINE
   8
LEVEL001
   6
CONTINUOUS
  62
7
  10
 483.250
  20
 984.000
  30
0.0
  11
 483.250
  21
 1092.00
  31
0.0
   0
CIRCLE
   8
LEVEL001
   6
CONTINUOUS
  62
7
  10
 350.000
  20
 1150.00
  30
0.0
  40
 11.0000
   0
CIRCLE
   8
LEVEL001
   6
CONTINUOUS
  62
7
  10
 350.000
  20
 1150.00
  30
0.0
  40
 9.75000
   0
LINE
   8
LEVEL001
   6
CONTINUOUS
  62
7
  10
 383.823
  20
 1159.00
  30
0.0
  11
 394.500
  21
 1159.00
  31
0.0
   0
CIRCLE
   8
LEVEL001
   6
CONTINUOUS
  62
7
  10
 465.000
  20
 1150.00
  30
0.0
  40
 15.0000
   0
CIRCLE
   8
LEVEL001
   6
CONTINUOUS
  62
7
  10
 465.000
  20
 1150.00
  30
0.0
  40
 13.2679
   0
CIRCLE
   8
LEVEL001
   6
CONTINUOUS
  62
7
  10
 407.500
  20
 1050.41
  30
0.0
  40
 15.0000
   0
CIRCLE
   8
LEVEL001
   6
CONTINUOUS
  62
7
  10
 407.500
  20
 1050.41
  30
0.0
  40
 13.2679
   0
CIRCLE
   8
LEVEL001
   6
CONTINUOUS
  62
7
  10
 449.593
  20
 1092.50
  30
0.0
  40
 7.75000
   0
CIRCLE
   8
LEVEL001
   6
CONTINUOUS
  62
7
  10
 449.593
  20
 1092.50
  30
0.0
  40
 9.00000
   0
LINE
   8
LEVEL001
   6
CONTINUOUS
  62
7
  10
 416.000
  20
 1045.50
  30
0.0
  11
 407.500
  21
 1040.59
  31
0.0
   0
LINE
   8
LEVEL001
   6
CONTINUOUS
  62
7
  10
 416.000
  20
 1055.32
  30
0.0
  11
 416.000
  21
 1045.50
  31
0.0
   0
LINE
   8
LEVEL001
   6
CONTINUOUS
  62
7
  10
 407.500
  20
 1060.22
  30
0.0
  11
 416.000
  21
 1055.32
  31
0.0
   0
LINE
   8
LEVEL001
   6
CONTINUOUS
  62
7
  10
 399.000
  20
 1055.32
  30
0.0
  11
 407.500
  21
 1060.22
  31
0.0
   0
LINE
   8
LEVEL001
   6
CONTINUOUS
  62
7
  10
 399.000
  20
 1045.50
  30
0.0
  11
 399.000
  21
 1055.32
  31
0.0
   0
LINE
   8
LEVEL001
   6
CONTINUOUS
  62
7
  10
 407.500
  20
 1040.59
  30
0.0
  11
 399.000
  21
 1045.50
  31
0.0
   0
LINE
   8
LEVEL001
   6
CONTINUOUS
  62
7
  10
 473.500
  20
 1145.09
  30
0.0
  11
 465.000
  21
 1140.18
  31
0.0
   0
LINE
   8
LEVEL001
   6
CONTINUOUS
  62
7
  10
 473.500
  20
 1154.91
  30
0.0
  11
 473.500
  21
 1145.09
  31
0.0
   0
LINE
   8
LEVEL001
   6
CONTINUOUS
  62
7
  10
 465.000
  20
 1159.82
  30
0.0
  11
 473.500
  21
 1154.91
  31
0.0
   0
LINE
   8
LEVEL001
   6
CONTINUOUS
  62
7
  10
 456.500
  20
 1154.91
  30
0.0
  11
 465.000
  21
 1159.82
  31
0.0
   0
LINE
   8
LEVEL001
   6
CONTINUOUS
  62
7
  10
 456.500
  20
 1145.09
  30
0.0
  11
 456.500
  21
 1154.91
  31
0.0
   0
LINE
   8
LEVEL001
   6
CONTINUOUS
  62
7
  10
 465.000
  20
 1140.18
  30
0.0
  11
 456.500
  21
 1145.09
  31
0.0
   0
CIRCLE
   8
LEVEL001
   6
CONTINUOUS
  62
7
  10
 350.000
  20
 1150.00
  30
0.0
  40
 35.0000
   0
CIRCLE
   8
LEVEL001
   6
CONTINUOUS
  62
7
  10
 350.000
  20
 1150.00
  30
0.0
  40
 34.0000
   0
CIRCLE
   8
LEVEL001
   6
CONTINUOUS
  62
7
  10
 350.000
  20
 1150.00
  30
0.0
  40
 34.0000
   0
LINE
   8
LEVEL001
   6
CONTINUOUS
  62
7
  10
 218.750
  20
 1094.00
  30
0.0
  11
 228.812
  21
 1094.00
  31
0.0
   0
LINE
   8
LEVEL001
   6
CONTINUOUS
  62
7
  10
 229.750
  20
 1092.01
  30
0.0
  11
 229.750
  21
 982.000
  31
0.0
   0
LINE
   8
LEVEL001
   6
CONTINUOUS
  62
7
  10
 216.750
  20
 1058.00
  30
0.0
  11
 213.653
  21
 1058.00
  31
0.0
   0
LINE
   8
LEVEL001
   6
CONTINUOUS
  62
7
  10
 216.750
  20
 1018.00
  30
0.0
  11
 213.653
  21
 1018.00
  31
0.0
   0
LINE
   8
LEVEL001
   6
CONTINUOUS
  62
7
  10
 216.750
  20
 1092.00
  30
0.0
  11
 216.750
  21
 984.000
  31
0.0
   0
LINE
   8
LEVEL001
   6
CONTINUOUS
  62
7
  10
 230.000
  20
 1091.50
  30
0.0
  11
 230.000
  21
 983.000
  31
0.0
   0
ARC
   8
LEVEL001
   6
CONTINUOUS
  62
7
  10
 218.750
  20
 984.000
  30
0.0
  40
 2.00000
  50
 180.000
  51
 270.000
   0
LINE
   8
LEVEL001
   6
CONTINUOUS
  62
7
  10
 218.750
  20
 982.000
  30
0.0
  11
 229.750
  21
 982.000
  31
0.0
   0
ARC
   8
LEVEL001
   6
CONTINUOUS
  62
7
  10
 218.750
  20
 1092.00
  30
0.0
  40
 2.00000
  50
 90.0000
  51
 180.000
   0
LINE
   8
LEVEL001
   6
CONTINUOUS
  62
7
  10
 252.478
  20
 1100.23
  30
0.0
  11
 248.337
  21
 1084.77
  31
0.0
   0
LINE
   8
LEVEL001
   6
CONTINUOUS
  62
7
  10
 242.680
  20
 1094.57
  30
0.0
  11
 258.134
  21
 1090.43
  31
0.0
   0
LINE
   8
LEVEL001
   6
CONTINUOUS
  62
7
  10
 447.522
  20
 1199.77
  30
0.0
  11
 451.663
  21
 1215.23
  31
0.0
   0
LINE
   8
LEVEL001
   6
CONTINUOUS
  62
7
  10
 457.320
  20
 1205.43
  30
0.0
  11
 441.866
  21
 1209.57
  31
0.0
   0
ARC
   8
LEVEL001
   6
CONTINUOUS
  62
7
  10
 425.000
  20
 955.000
  30
0.0
  40
 34.0000
  50
 270.762
  51
 359.706
   0
LINE
   8
LEVEL001
   6
CONTINUOUS
  62
7
  10
 357.500
  20
 928.207
  30
0.0
  11
 357.500
  21
 980.500
  31
0.0
   0
LINE
   8
LEVEL001
   6
CONTINUOUS
  62
7
  10
 342.500
  20
 928.207
  30
0.0
  11
 342.500
  21
 980.500
  31
0.0
   0
LINE
   8
LEVEL001
   6
CONTINUOUS
  62
7
  10
 350.000
  20
 920.000
  30
0.0
  11
 425.452
  21
 921.003
  31
0.0
   0
ARC
   8
LEVEL001
   6
CONTINUOUS
  62
7
  10
 365.500
  20
 928.207
  30
0.0
  40
 8.00000
  50
 180.000
  51
 270.762
   0
LINE
   8
LEVEL001
   6
CONTINUOUS
  62
7
  10
 350.000
  20
 920.000
  30
0.0
  11
 274.548
  21
 921.003
  31
0.0
   0
ARC
   8
LEVEL001
   6
CONTINUOUS
  62
7
  10
 334.500
  20
 928.207
  30
0.0
  40
 8.00000
  50
 269.238
  51
0.0
   0
ARC
   8
LEVEL001
   6
CONTINUOUS
  62
7
  10
 275.000
  20
 955.000
  30
0.0
  40
 34.0000
  50
 180.294
  51
 269.238
   0
ARC
   8
LEVEL001
   6
DOT
  62
7
  10
 350.000
  20
 1150.00
  30
0.0
  40
 110.000
  50
 0.109997E-4
  51
 0.441722
   0
LINE
   8
LEVEL001
   6
CONTINUOUS
  62
7
  10
 459.414
  20
 1226.49
  30
0.0
  11
 458.999
  21
 1280.26
  31
0.0
   0
LINE
   8
LEVEL001
   6
CONTINUOUS
  62
7
  10
 459.144
  20
 982.864
  30
0.0
  11
 459.000
  21
 954.825
  31
0.0
   0
ARC
   8
LEVEL001
   6
DOT
  62
7
  10
 350.000
  20
 1150.00
  30
0.0
  40
 110.000
  50
 179.558
  51
 180.294
   0
LINE
   8
LEVEL001
   6
CONTINUOUS
  62
7
  10
 240.856
  20
 982.864
  30
0.0
  11
 241.000
  21
 954.825
  31
0.0
   0
LINE
   8
LEVEL001
   6
CONTINUOUS
  62
7
  10
 240.586
  20
 1226.49
  30
0.0
  11
 241.001
  21
 1280.26
  31
0.0
   0
ARC
   8
LEVEL001
   6
CONTINUOUS
  62
7
  10
 275.000
  20
 1280.00
  30
0.0
  40
 34.0000
  50
 90.7616
  51
 179.558
   0
ARC
   8
LEVEL001
   6
CONTINUOUS
  62
7
  10
 481.250
  20
 984.000
  30
0.0
  40
 2.00000
  50
 270.000
  51
0.0
   0
LINE
   8
LEVEL001
   6
CONTINUOUS
  62
7
  10
 481.250
  20
 982.000
  30
0.0
  11
 470.250
  21
 982.000
  31
0.0
   0
ARC
   8
LEVEL001
   6
CONTINUOUS
  62
7
  10
 481.250
  20
 1092.00
  30
0.0
  40
 2.00000
  50
0.0
  51
 90.0000
   0
LINE
   8
LEVEL001
   6
CONTINUOUS
  62
7
  10
 552.500
  20
 1021.50
  30
0.0
  11
 552.500
  21
 1054.50
  31
0.0
   0
LINE
   8
LEVEL001
   6
CONTINUOUS
  62
7
  10
 502.500
  20
 1033.00
  30
0.0
  11
 502.500
  21
 1043.00
  31
0.0
   0
LINE
   8
LEVEL001
   6
CONTINUOUS
  62
7
  10
 487.300
  20
 1043.00
  30
0.0
  11
 487.300
  21
 1033.00
  31
0.0
   0
LINE
   8
LEVEL001
   6
CONTINUOUS
  62
7
  10
 486.347
  20
 1018.00
  30
0.0
  11
 486.347
  21
 1058.00
  31
0.0
   0
LINE
   8
LEVEL001
   6
CONTINUOUS
  62
7
  10
 213.653
  20
 1058.00
  30
0.0
  11
 213.653
  21
 1018.00
  31
0.0
   0
LINE
   8
LEVEL001
   6
CONTINUOUS
  62
7
  10
 212.700
  20
 1033.00
  30
0.0
  11
 212.700
  21
 1043.00
  31
0.0
   0
LINE
   8
LEVEL001
   6
CONTINUOUS
  62
7
  10
 197.500
  20
 1043.00
  30
0.0
  11
 197.500
  21
 1033.00
  31
0.0
   0
LINE
   8
LEVEL001
   6
CONTINUOUS
  62
7
  10
 147.500
  20
 1054.50
  30
0.0
  11
 147.500
  21
 1021.50
  31
0.0
   0
TEXT
   8
LEVEL001
  62
7
  10
 367.790
  20
 1212.81
  30
0.0
  40
 32.0000
   1
５
  50
 337.500
  41
 0.395833
   7
STANDARD
   0
TEXT
   8
LEVEL001
  62
7
  10
 350.928
  20
 1215.27
  30
0.0
  40
 32.0000
   1
２
  50
 352.500
  41
 0.395833
   7
STANDARD
   0
TEXT
   8
LEVEL001
  62
7
  10
 334.002
  20
 1213.29
  30
0.0
  40
 32.0000
   1
Ｊ
  50
 7.50000
  41
 0.395833
   7
STANDARD
   0
TEXT
   8
LEVEL001
  62
7
  10
 318.168
  20
 1206.99
  30
0.0
  40
 32.0000
   1
Ｗ
  50
 22.5000
  41
 0.395833
   7
STANDARD
   0
LINE
   8
LEVEL001
   6
CONTINUOUS
  62
7
  10
 391.562
  20
 982.020
  30
0.0
  11
 391.606
  21
 980.616
  31
0.0
   0
LINE
   8
LEVEL001
   6
CONTINUOUS
  62
7
  10
 378.394
  20
 980.616
  30
0.0
  11
 378.433
  21
 981.856
  31
0.0
   0
ARC
   8
LEVEL001
   6
CONTINUOUS
  62
7
  10
 376.726
  20
 971.977
  30
0.0
  40
 8.73264
  50
 61.0752
  51
 81.6135
   0
ARC
   8
LEVEL001
   6
CONTINUOUS
  62
7
  10
 385.000
  20
 971.884
  30
0.0
  40
 8.73264
  50
 62.3693
  51
 117.632
   0
ARC
   8
LEVEL001
   6
CONTINUOUS
  62
7
  10
 393.273
  20
 971.977
  30
0.0
  40
 8.73264
  50
 98.3853
  51
 118.924
   0
ARC
   8
LEVEL001
   6
CONTINUOUS
  62
7
  10
 385.000
  20
 974.188
  30
0.0
  40
 9.93811
  50
 287.065
  51
 298.732
   0
ARC
   8
LEVEL001
   6
CONTINUOUS
  62
7
  10
 388.335
  20
 968.104
  30
0.0
  40
 3.00000
  50
 298.731
  51
 0.282264E-9
   0
LINE
   8
LEVEL001
   6
CONTINUOUS
  62
7
  10
 391.335
  20
 968.104
  30
0.0
  11
 391.335
  21
 975.866
  31
0.0
   0
ARC
   8
LEVEL001
   6
CONTINUOUS
  62
7
  10
 385.000
  20
 974.188
  30
0.0
  40
 9.93811
  50
 241.268
  51
 252.935
   0
ARC
   8
LEVEL001
   6
CONTINUOUS
  62
7
  10
 381.665
  20
 968.104
  30
0.0
  40
 3.00000
  50
 180.001
  51
 241.269
   0
LINE
   8
LEVEL001
   6
CONTINUOUS
  62
7
  10
 378.665
  20
 968.104
  30
0.0
  11
 378.665
  21
 975.866
  31
0.0
   0
LINE
   8
LEVEL001
   6
CONTINUOUS
  62
7
  10
 385.000
  20
 970.996
  30
0.0
  11
 385.000
  21
 971.915
  31
0.0
   0
LINE
   8
LEVEL001
   6
CONTINUOUS
  62
7
  10
 379.277
  20
 981.500
  30
0.0
  11
 390.723
  21
 981.500
  31
0.0
   0
LINE
   8
LEVEL001
   6
CONTINUOUS
  62
7
  10
 392.000
  20
 976.250
  30
0.0
  11
 391.335
  21
 975.866
  31
0.0
   0
LINE
   8
LEVEL001
   6
CONTINUOUS
  62
7
  10
 378.665
  20
 975.866
  30
0.0
  11
 391.335
  21
 975.866
  31
0.0
   0
LINE
   8
LEVEL001
   6
CONTINUOUS
  62
7
  10
 378.000
  20
 976.250
  30
0.0
  11
 378.665
  21
 975.866
  31
0.0
   0
LINE
   8
LEVEL001
   6
CONTINUOUS
  62
7
  10
 392.000
  20
 976.250
  30
0.0
  11
 378.000
  21
 976.250
  31
0.0
   0
ARC
   8
LEVEL001
   6
CONTINUOUS
  62
7
  10
 385.000
  20
 984.983
  30
0.0
  40
 8.73264
  50
 242.369
  51
 297.632
   0
LINE
   8
LEVEL001
   6
CONTINUOUS
  62
7
  10
 378.000
  20
 980.616
  30
0.0
  11
 392.000
  21
 980.616
  31
0.0
   0
ARC
   8
LEVEL001
   6
CONTINUOUS
  62
7
  10
 393.274
  20
 984.889
  30
0.0
  40
 8.73264
  50
 241.075
  51
 261.614
   0
ARC
   8
LEVEL001
   6
CONTINUOUS
  62
7
  10
 376.726
  20
 984.889
  30
0.0
  40
 8.73264
  50
 278.386
  51
 298.924
   0
LINE
   8
LEVEL001
   6
CONTINUOUS
  62
7
  10
 389.050
  20
 977.246
  30
0.0
  11
 389.050
  21
 979.620
  31
0.0
   0
LINE
   8
LEVEL001
   6
CONTINUOUS
  62
7
  10
 380.950
  20
 977.246
  30
0.0
  11
 380.950
  21
 979.620
  31
0.0
   0
ARC
   8
LEVEL001
   6
CONTINUOUS
  62
7
  10
 350.000
  20
 1035.00
  30
0.0
  40
 12.5000
  50
 293.578
  51
 66.4216
   0
ARC
   8
LEVEL001
   6
CONTINUOUS
  62
7
  10
 350.000
  20
 1035.00
  30
0.0
  40
 12.5000
  50
 113.578
  51
 246.422
   0
LINE
   8
LEVEL001
   6
CONTINUOUS
  62
7
  10
 355.000
  20
 1055.00
  30
0.0
  11
 355.000
  21
 1015.00
  31
0.0
   0
LINE
   8
LEVEL001
   6
CONTINUOUS
  62
7
  10
 345.000
  20
 1015.00
  30
0.0
  11
 345.000
  21
 1055.00
  31
0.0
   0
LINE
   8
LEVEL001
   6
CONTINUOUS
  62
7
  10
 377.000
  20
 1080.00
  30
0.0
  11
 360.618
  21
 1080.00
  31
0.0
   0
LINE
   8
LEVEL001
   6
CONTINUOUS
  62
7
  10
 377.000
  20
 1080.00
  30
0.0
  11
 363.432
  21
 1056.50
  31
0.0
   0
LINE
   8
LEVEL001
   6
CONTINUOUS
  62
7
  10
 354.770
  20
 1056.50
  30
0.0
  11
 363.432
  21
 1056.50
  31
0.0
   0
ARC
   8
LEVEL001
   6
CONTINUOUS
  62
7
  10
 350.000
  20
 1055.00
  30
0.0
  40
 5.00000
  50
0.0
  51
 180.000
   0
LINE
   8
LEVEL001
   6
CONTINUOUS
  62
7
  10
 323.432
  20
 1056.50
  30
0.0
  11
 345.230
  21
 1056.50
  31
0.0
   0
LINE
   8
LEVEL001
   6
CONTINUOUS
  62
7
  10
 326.030
  20
 1061.00
  30
0.0
  11
 323.432
  21
 1056.50
  31
0.0
   0
LINE
   8
LEVEL001
   6
CONTINUOUS
  62
7
  10
 326.030
  20
 1061.00
  30
0.0
  11
 348.030
  21
 1061.00
  31
0.0
   0
CIRCLE
   8
LEVEL001
   6
CONTINUOUS
  62
7
  10
 341.000
  20
 1072.00
  30
0.0
  40
 8.00000
   0
CIRCLE
   8
LEVEL001
   6
CONTINUOUS
  62
7
  10
 292.500
  20
 1050.41
  30
0.0
  40
 15.0000
   0
CIRCLE
   8
LEVEL001
   6
CONTINUOUS
  62
7
  10
 292.500
  20
 1050.41
  30
0.0
  40
 13.2679
   0
CIRCLE
   8
LEVEL001
   6
CONTINUOUS
  62
7
  10
 235.000
  20
 1150.00
  30
0.0
  40
 15.0000
   0
CIRCLE
   8
LEVEL001
   6
CONTINUOUS
  62
7
  10
 235.000
  20
 1150.00
  30
0.0
  40
 13.2679
   0
LINE
   8
LEVEL001
   6
CONTINUOUS
  62
7
  10
 355.000
  20
 1285.00
  30
0.0
  11
 355.000
  21
 1245.00
  31
0.0
   0
LINE
   8
LEVEL001
   6
CONTINUOUS
  62
7
  10
 345.000
  20
 1245.00
  30
0.0
  11
 345.000
  21
 1285.00
  31
0.0
   0
ARC
   8
LEVEL001
   6
CONTINUOUS
  62
7
  10
 350.000
  20
 1245.00
  30
0.0
  40
 5.00000
  50
 180.000
  51
0.0
   0
ARC
   8
LEVEL001
   6
CONTINUOUS
  62
7
  10
 350.000
  20
 1265.00
  30
0.0
  40
 12.5000
  50
 296.565
  51
 66.4219
   0
ARC
   8
LEVEL001
   6
CONTINUOUS
  62
7
  10
 350.000
  20
 1265.00
  30
0.0
  40
 12.5000
  50
 113.578
  51
 243.435
   0
CIRCLE
   8
LEVEL001
   6
CONTINUOUS
  62
7
  10
 407.500
  20
 1249.59
  30
0.0
  40
 15.0000
   0
CIRCLE
   8
LEVEL001
   6
CONTINUOUS
  62
7
  10
 407.500
  20
 1249.59
  30
0.0
  40
 13.2679
   0
CIRCLE
   8
LEVEL001
   6
CONTINUOUS
  62
7
  10
 292.500
  20
 1249.59
  30
0.0
  40
 15.0000
   0
CIRCLE
   8
LEVEL001
   6
CONTINUOUS
  62
7
  10
 292.500
  20
 1249.59
  30
0.0
  40
 13.2679
   0
LINE
   8
LEVEL001
   6
CONTINUOUS
  62
7
  10
 551.500
  20
 1033.00
  30
0.0
  11
 551.500
  21
 1020.50
  31
0.0
   0
LINE
   8
LEVEL001
   6
CONTINUOUS
  62
7
  10
 551.500
  20
 1020.50
  30
0.0
  11
 552.500
  21
 1021.50
  31
0.0
   0
LINE
   8
LEVEL001
   6
CONTINUOUS
  62
7
  10
 551.500
  20
 1043.00
  30
0.0
  11
 551.500
  21
 1055.50
  31
0.0
   0
LINE
   8
LEVEL001
   6
CONTINUOUS
  62
7
  10
 551.500
  20
 1055.50
  30
0.0
  11
 552.500
  21
 1054.50
  31
0.0
   0
LINE
   8
LEVEL001
   6
CONTINUOUS
  62
7
  10
 230.000
  20
 983.000
  30
0.0
  11
 334.515
  21
 981.694
  31
0.0
   0
LINE
   8
LEVEL001
   6
CONTINUOUS
  62
7
  10
 470.000
  20
 983.000
  30
0.0
  11
 365.485
  21
 981.694
  31
0.0
   0
LINE
   8
LEVEL001
   6
CONTINUOUS
  62
7
  10
 359.000
  20
 1080.00
  30
0.0
  11
 360.618
  21
 1080.00
  31
0.0
   0
LINE
   8
LEVEL001
   6
CONTINUOUS
  62
7
  10
 348.030
  20
 1061.00
  30
0.0
  11
 359.000
  21
 1080.00
  31
0.0
   0
ARC
   8
LEVEL001
   6
CONTINUOUS
  62
7
  10
 349.999
  20
 1150.00
  30
0.0
  40
 133.500
  50
 92.1460
  51
 267.854
   0
ARC
   8
LEVEL001
   6
CONTINUOUS
  62
7
  10
 350.000
  20
 1150.00
  30
0.0
  40
 133.500
  50
 272.146
  51
 300.000
   0
LINE
   8
LEVEL001
   6
CONTINUOUS
  62
7
  10
 284.000
  20
 1055.32
  30
0.0
  11
 292.500
  21
 1060.22
  31
0.0
   0
LINE
   8
LEVEL001
   6
CONTINUOUS
  62
7
  10
 284.000
  20
 1045.50
  30
0.0
  11
 284.000
  21
 1055.32
  31
0.0
   0
LINE
   8
LEVEL001
   6
CONTINUOUS
  62
7
  10
 292.500
  20
 1040.59
  30
0.0
  11
 284.000
  21
 1045.50
  31
0.0
   0
LINE
   8
LEVEL001
   6
CONTINUOUS
  62
7
  10
 301.000
  20
 1055.32
  30
0.0
  11
 301.000
  21
 1045.50
  31
0.0
   0
LINE
   8
LEVEL001
   6
CONTINUOUS
  62
7
  10
 301.000
  20
 1045.50
  30
0.0
  11
 292.500
  21
 1040.59
  31
0.0
   0
LINE
   8
LEVEL001
   6
CONTINUOUS
  62
7
  10
 292.500
  20
 1060.22
  30
0.0
  11
 301.000
  21
 1055.32
  31
0.0
   0
ARC
   8
LEVEL001
   6
CONTINUOUS
  62
7
  10
 350.000
  20
 1015.00
  30
0.0
  40
 5.00000
  50
 180.000
  51
0.0
   0
ARC
   8
LEVEL001
   6
CONTINUOUS
  62
7
  10
 350.000
  20
 1285.00
  30
0.0
  40
 5.00000
  50
0.0
  51
 180.000
   0
CIRCLE
   8
LEVEL001
   6
CONTINUOUS
  62
7
  10
 250.407
  20
 1207.50
  30
0.0
  40
 7.75000
   0
CIRCLE
   8
LEVEL001
   6
CONTINUOUS
  62
7
  10
 250.407
  20
 1207.50
  30
0.0
  40
 9.00000
   0
CIRCLE
   8
LEVEL001
   6
CONTINUOUS
  62
7
  10
 250.407
  20
 1092.50
  30
0.0
  40
 8.00000
   0
CIRCLE
   8
LEVEL001
   6
CONTINUOUS
  62
7
  10
 449.593
  20
 1207.50
  30
0.0
  40
 8.00000
   0
LINE
   8
LEVEL001
   6
CONTINUOUS
  62
7
  10
 407.500
  20
 1259.41
  30
0.0
  11
 416.000
  21
 1254.50
  31
0.0
   0
LINE
   8
LEVEL001
   6
CONTINUOUS
  62
7
  10
 399.000
  20
 1254.50
  30
0.0
  11
 407.500
  21
 1259.41
  31
0.0
   0
LINE
   8
LEVEL001
   6
CONTINUOUS
  62
7
  10
 399.000
  20
 1244.68
  30
0.0
  11
 399.000
  21
 1254.50
  31
0.0
   0
LINE
   8
LEVEL001
   6
CONTINUOUS
  62
7
  10
 407.500
  20
 1239.78
  30
0.0
  11
 399.000
  21
 1244.68
  31
0.0
   0
LINE
   8
LEVEL001
   6
CONTINUOUS
  62
7
  10
 416.000
  20
 1244.68
  30
0.0
  11
 407.500
  21
 1239.78
  31
0.0
   0
LINE
   8
LEVEL001
   6
CONTINUOUS
  62
7
  10
 416.000
  20
 1254.50
  30
0.0
  11
 416.000
  21
 1244.69
  31
0.0
   0
LINE
   8
LEVEL001
   6
CONTINUOUS
  62
7
  10
 284.000
  20
 1254.50
  30
0.0
  11
 292.500
  21
 1259.41
  31
0.0
   0
LINE
   8
LEVEL001
   6
CONTINUOUS
  62
7
  10
 284.000
  20
 1244.68
  30
0.0
  11
 284.000
  21
 1254.50
  31
0.0
   0
LINE
   8
LEVEL001
   6
CONTINUOUS
  62
7
  10
 292.500
  20
 1239.78
  30
0.0
  11
 284.000
  21
 1244.68
  31
0.0
   0
LINE
   8
LEVEL001
   6
CONTINUOUS
  62
7
  10
 301.000
  20
 1244.68
  30
0.0
  11
 292.500
  21
 1239.78
  31
0.0
   0
LINE
   8
LEVEL001
   6
CONTINUOUS
  62
7
  10
 301.000
  20
 1254.50
  30
0.0
  11
 301.000
  21
 1244.68
  31
0.0
   0
LINE
   8
LEVEL001
   6
CONTINUOUS
  62
7
  10
 292.500
  20
 1259.41
  30
0.0
  11
 301.000
  21
 1254.50
  31
0.0
   0
LINE
   8
LEVEL001
   6
CONTINUOUS
  62
7
  10
 226.500
  20
 1154.91
  30
0.0
  11
 235.000
  21
 1159.82
  31
0.0
   0
LINE
   8
LEVEL001
   6
CONTINUOUS
  62
7
  10
 226.500
  20
 1145.09
  30
0.0
  11
 226.500
  21
 1154.91
  31
0.0
   0
LINE
   8
LEVEL001
   6
CONTINUOUS
  62
7
  10
 235.000
  20
 1140.18
  30
0.0
  11
 226.500
  21
 1145.09
  31
0.0
   0
LINE
   8
LEVEL001
   6
CONTINUOUS
  62
7
  10
 243.500
  20
 1145.09
  30
0.0
  11
 235.000
  21
 1140.18
  31
0.0
   0
LINE
   8
LEVEL001
   6
CONTINUOUS
  62
7
  10
 243.500
  20
 1154.91
  30
0.0
  11
 243.500
  21
 1145.09
  31
0.0
   0
LINE
   8
LEVEL001
   6
CONTINUOUS
  62
7
  10
 235.000
  20
 1159.82
  30
0.0
  11
 243.500
  21
 1154.91
  31
0.0
   0
LINE
   8
LEVEL001
   6
CONTINUOUS
  62
7
  10
 205.500
  20
 1020.50
  30
0.0
  11
 205.500
  21
 1033.00
  31
0.0
   0
LINE
   8
LEVEL001
   6
CONTINUOUS
  62
7
  10
 147.500
  20
 1033.00
  30
0.0
  11
 212.700
  21
 1033.00
  31
0.0
   0
LINE
   8
LEVEL001
   6
CONTINUOUS
  62
7
  10
 205.653
  20
 1020.50
  30
0.0
  11
 213.653
  21
 1018.00
  31
0.0
   0
LINE
   8
LEVEL001
   6
CONTINUOUS
  62
7
  10
 205.653
  20
 1020.50
  30
0.0
  11
 148.500
  21
 1020.50
  31
0.0
   0
LINE
   8
LEVEL001
   6
CONTINUOUS
  62
7
  10
 148.500
  20
 1033.00
  30
0.0
  11
 148.500
  21
 1020.50
  31
0.0
   0
LINE
   8
LEVEL001
   6
CONTINUOUS
  62
7
  10
 148.500
  20
 1020.50
  30
0.0
  11
 147.500
  21
 1021.50
  31
0.0
   0
LINE
   8
LEVEL001
   6
CONTINUOUS
  62
7
  10
 205.500
  20
 1055.50
  30
0.0
  11
 205.500
  21
 1043.00
  31
0.0
   0
LINE
   8
LEVEL001
   6
CONTINUOUS
  62
7
  10
 147.500
  20
 1043.00
  30
0.0
  11
 212.700
  21
 1043.00
  31
0.0
   0
LINE
   8
LEVEL001
   6
CONTINUOUS
  62
7
  10
 205.653
  20
 1055.50
  30
0.0
  11
 213.653
  21
 1058.00
  31
0.0
   0
LINE
   8
LEVEL001
   6
CONTINUOUS
  62
7
  10
 205.653
  20
 1055.50
  30
0.0
  11
 148.500
  21
 1055.50
  31
0.0
   0
LINE
   8
LEVEL001
   6
CONTINUOUS
  62
7
  10
 148.500
  20
 1043.00
  30
0.0
  11
 148.500
  21
 1055.50
  31
0.0
   0
LINE
   8
LEVEL001
   6
CONTINUOUS
  62
7
  10
 148.500
  20
 1055.50
  30
0.0
  11
 147.500
  21
 1054.50
  31
0.0
   0
ARC
   8
LEVEL001
   6
CONTINUOUS
  62
7
  10
 334.500
  20
 980.500
  30
0.0
  40
 8.00000
  50
0.0
  51
 90.0000
   0
ARC
   8
LEVEL001
   6
CONTINUOUS
  62
7
  10
 365.500
  20
 980.500
  30
0.0
  40
 8.00000
  50
 90.0000
  51
 180.000
   0
ARC
   8
LEVEL001
   6
CONTINUOUS
  62
7
  10
 275.000
  20
 955.000
  30
0.0
  40
 29.0000
  50
 108.191
  51
 70.3772
   0
ARC
   8
LEVEL001
   6
CONTINUOUS
  62
7
  10
 425.000
  20
 955.000
  30
0.0
  40
 29.0000
  50
 109.623
  51
 71.8094
   0
LINE
   8
LEVEL001
   6
CONTINUOUS
  62
7
  10
 494.500
  20
 1020.50
  30
0.0
  11
 494.500
  21
 1033.00
  31
0.0
   0
LINE
   8
LEVEL001
   6
CONTINUOUS
  62
7
  10
 552.500
  20
 1033.00
  30
0.0
  11
 487.300
  21
 1033.00
  31
0.0
   0
LINE
   8
LEVEL001
   6
CONTINUOUS
  62
7
  10
 494.347
  20
 1020.50
  30
0.0
  11
 486.347
  21
 1018.00
  31
0.0
   0
LINE
   8
LEVEL001
   6
CONTINUOUS
  62
7
  10
 494.347
  20
 1020.50
  30
0.0
  11
 551.500
  21
 1020.50
  31
0.0
   0
LINE
   8
LEVEL001
   6
CONTINUOUS
  62
7
  10
 494.500
  20
 1055.50
  30
0.0
  11
 494.500
  21
 1043.00
  31
0.0
   0
LINE
   8
LEVEL001
   6
CONTINUOUS
  62
7
  10
 552.500
  20
 1043.00
  30
0.0
  11
 487.300
  21
 1043.00
  31
0.0
   0
LINE
   8
LEVEL001
   6
CONTINUOUS
  62
7
  10
 494.347
  20
 1055.50
  30
0.0
  11
 486.347
  21
 1058.00
  31
0.0
   0
LINE
   8
LEVEL001
   6
CONTINUOUS
  62
7
  10
 494.347
  20
 1055.50
  30
0.0
  11
 551.500
  21
 1055.50
  31
0.0
   0
ARC
   8
LEVEL001
   6
CONTINUOUS
  62
7
  10
 365.500
  20
 973.693
  30
0.0
  40
 8.00000
  50
 90.7160
  51
 180.000
   0
ARC
   8
LEVEL001
   6
CONTINUOUS
  62
7
  10
 334.500
  20
 973.693
  30
0.0
  40
 8.00000
  50
0.0
  51
 89.2840
   0
LINE
   8
LEVEL001
   6
CONTINUOUS
  62
7
  10
 357.500
  20
 1283.29
  30
0.0
  11
 357.500
  21
 1306.79
  31
0.0
   0
LINE
   8
LEVEL001
   6
CONTINUOUS
  62
7
  10
 342.500
  20
 1283.29
  30
0.0
  11
 342.500
  21
 1306.79
  31
0.0
   0
ARC
   8
LEVEL001
   6
CONTINUOUS
  62
7
  10
 365.500
  20
 1306.79
  30
0.0
  40
 8.00000
  50
 89.2385
  51
 180.001
   0
ARC
   8
LEVEL001
   6
CONTINUOUS
  62
7
  10
 334.500
  20
 1306.79
  30
0.0
  40
 8.00000
  50
0.0
  51
 90.7615
   0
CIRCLE
   8
LEVEL001
   6
CONTINUOUS
  62
7
  10
 425.000
  20
 955.000
  30
0.0
  40
 16.5000
   0
CIRCLE
   8
LEVEL001
   6
CONTINUOUS
  62
7
  10
 275.000
  20
 955.000
  30
0.0
  40
 16.5000
   0
ARC
   8
LEVEL001
   6
CONTINUOUS
  62
7
  10
 425.000
  20
 1280.00
  30
0.0
  40
 34.0000
  50
 0.441537
  51
 89.2383
   0
LINE
   8
LEVEL001
   6
CONTINUOUS
  62
7
  10
 350.000
  20
 1315.00
  30
0.0
  11
 425.452
  21
 1314.00
  31
0.0
   0
LINE
   8
LEVEL001
   6
CONTINUOUS
  62
7
  10
 350.000
  20
 1315.00
  30
0.0
  11
 274.548
  21
 1314.00
  31
0.0
   0
ARC
   8
LEVEL001
   6
CONTINUOUS
  62
7
  10
 425.000
  20
 1280.00
  30
0.0
  40
 29.0000
  50
 288.150
  51
 191.886
   0
ARC
   8
LEVEL001
   6
CONTINUOUS
  62
7
  10
 275.000
  20
 1280.00
  30
0.0
  40
 29.0000
  50
 348.114
  51
 251.849
   0
CIRCLE
   8
LEVEL001
   6
CONTINUOUS
  62
7
  10
 275.000
  20
 1280.00
  30
0.0
  40
 16.5000
   0
CIRCLE
   8
LEVEL001
   6
CONTINUOUS
  62
7
  10
 425.000
  20
 1280.00
  30
0.0
  40
 16.5000
   0
LINE
   8
LEVEL001
   6
CONTINUOUS
  62
7
  10
 391.606
  20
 980.616
  30
0.0
  11
 390.723
  21
 981.500
  31
0.0
   0
LINE
   8
LEVEL001
   6
CONTINUOUS
  62
7
  10
 390.723
  20
 981.500
  30
0.0
  11
 390.707
  21
 982.009
  31
0.0
   0
LINE
   8
LEVEL001
   6
CONTINUOUS
  62
7
  10
 378.394
  20
 980.616
  30
0.0
  11
 379.277
  21
 981.500
  31
0.0
   0
LINE
   8
LEVEL001
   6
CONTINUOUS
  62
7
  10
 379.277
  20
 981.500
  30
0.0
  11
 379.289
  21
 981.866
  31
0.0
   0
LINE
   8
LEVEL001
   6
CONTINUOUS
  62
7
  10
 386.658
  20
 963.478
  30
0.0
  11
 387.001
  21
 963.690
  31
0.0
   0
LINE
   8
LEVEL001
   6
CONTINUOUS
  62
7
  10
 387.001
  20
 963.690
  30
0.0
  11
 387.312
  21
 963.939
  31
0.0
   0
LINE
   8
LEVEL001
   6
CONTINUOUS
  62
7
  10
 387.312
  20
 963.939
  30
0.0
  11
 387.588
  21
 964.222
  31
0.0
   0
LINE
   8
LEVEL001
   6
CONTINUOUS
  62
7
  10
 387.588
  20
 964.222
  30
0.0
  11
 387.823
  21
 964.535
  31
0.0
   0
LINE
   8
LEVEL001
   6
CONTINUOUS
  62
7
  10
 387.823
  20
 964.535
  30
0.0
  11
 388.014
  21
 964.872
  31
0.0
   0
LINE
   8
LEVEL001
   6
CONTINUOUS
  62
7
  10
 388.014
  20
 964.872
  30
0.0
  11
 388.158
  21
 965.229
  31
0.0
   0
LINE
   8
LEVEL001
   6
CONTINUOUS
  62
7
  10
 388.158
  20
 965.229
  30
0.0
  11
 388.253
  21
 965.600
  31
0.0
   0
LINE
   8
LEVEL001
   6
CONTINUOUS
  62
7
  10
 388.253
  20
 965.600
  30
0.0
  11
 388.297
  21
 965.979
  31
0.0
   0
LINE
   8
LEVEL001
   6
CONTINUOUS
  62
7
  10
 388.297
  20
 965.979
  30
0.0
  11
 388.289
  21
 966.359
  31
0.0
   0
LINE
   8
LEVEL001
   6
CONTINUOUS
  62
7
  10
 388.289
  20
 966.359
  30
0.0
  11
 388.231
  21
 966.736
  31
0.0
   0
LINE
   8
LEVEL001
   6
CONTINUOUS
  62
7
  10
 388.231
  20
 966.736
  30
0.0
  11
 388.121
  21
 967.104
  31
0.0
   0
LINE
   8
LEVEL001
   6
CONTINUOUS
  62
7
  10
 388.121
  20
 967.104
  30
0.0
  11
 387.964
  21
 967.455
  31
0.0
   0
LINE
   8
LEVEL001
   6
CONTINUOUS
  62
7
  10
 387.964
  20
 967.455
  30
0.0
  11
 387.759
  21
 967.786
  31
0.0
   0
LINE
   8
LEVEL001
   6
CONTINUOUS
  62
7
  10
 387.759
  20
 967.786
  30
0.0
  11
 387.512
  21
 968.091
  31
0.0
   0
LINE
   8
LEVEL001
   6
CONTINUOUS
  62
7
  10
 387.512
  20
 968.091
  30
0.0
  11
 387.226
  21
 968.365
  31
0.0
   0
LINE
   8
LEVEL001
   6
CONTINUOUS
  62
7
  10
 387.226
  20
 968.365
  30
0.0
  11
 386.905
  21
 968.604
  31
0.0
   0
LINE
   8
LEVEL001
   6
CONTINUOUS
  62
7
  10
 386.905
  20
 968.604
  30
0.0
  11
 386.554
  21
 968.804
  31
0.0
   0
LINE
   8
LEVEL001
   6
CONTINUOUS
  62
7
  10
 386.554
  20
 968.804
  30
0.0
  11
 386.179
  21
 968.962
  31
0.0
   0
LINE
   8
LEVEL001
   6
CONTINUOUS
  62
7
  10
 386.179
  20
 968.962
  30
0.0
  11
 385.785
  21
 969.075
  31
0.0
   0
LINE
   8
LEVEL001
   6
CONTINUOUS
  62
7
  10
 385.785
  20
 969.075
  30
0.0
  11
 385.380
  21
 969.143
  31
0.0
   0
LINE
   8
LEVEL001
   6
CONTINUOUS
  62
7
  10
 385.380
  20
 969.143
  30
0.0
  11
 384.968
  21
 969.163
  31
0.0
   0
LINE
   8
LEVEL001
   6
CONTINUOUS
  62
7
  10
 384.968
  20
 969.163
  30
0.0
  11
 384.557
  21
 969.135
  31
0.0
   0
LINE
   8
LEVEL001
   6
CONTINUOUS
  62
7
  10
 384.557
  20
 969.135
  30
0.0
  11
 384.153
  21
 969.061
  31
0.0
   0
LINE
   8
LEVEL001
   6
CONTINUOUS
  62
7
  10
 384.153
  20
 969.061
  30
0.0
  11
 383.762
  21
 968.940
  31
0.0
   0
LINE
   8
LEVEL001
   6
CONTINUOUS
  62
7
  10
 383.762
  20
 968.940
  30
0.0
  11
 383.390
  21
 968.776
  31
0.0
   0
LINE
   8
LEVEL001
   6
CONTINUOUS
  62
7
  10
 383.390
  20
 968.776
  30
0.0
  11
 383.043
  21
 968.569
  31
0.0
   0
LINE
   8
LEVEL001
   6
CONTINUOUS
  62
7
  10
 383.043
  20
 968.569
  30
0.0
  11
 382.727
  21
 968.325
  31
0.0
   0
LINE
   8
LEVEL001
   6
CONTINUOUS
  62
7
  10
 382.727
  20
 968.325
  30
0.0
  11
 382.447
  21
 968.046
  31
0.0
   0
LINE
   8
LEVEL001
   6
CONTINUOUS
  62
7
  10
 382.447
  20
 968.046
  30
0.0
  11
 382.206
  21
 967.737
  31
0.0
   0
LINE
   8
LEVEL001
   6
CONTINUOUS
  62
7
  10
 382.206
  20
 967.737
  30
0.0
  11
 382.009
  21
 967.402
  31
0.0
   0
LINE
   8
LEVEL001
   6
CONTINUOUS
  62
7
  10
 382.009
  20
 967.402
  30
0.0
  11
 381.858
  21
 967.048
  31
0.0
   0
LINE
   8
LEVEL001
   6
CONTINUOUS
  62
7
  10
 381.858
  20
 967.048
  30
0.0
  11
 381.757
  21
 966.678
  31
0.0
   0
LINE
   8
LEVEL001
   6
CONTINUOUS
  62
7
  10
 381.757
  20
 966.678
  30
0.0
  11
 381.706
  21
 966.300
  31
0.0
   0
LINE
   8
LEVEL001
   6
CONTINUOUS
  62
7
  10
 381.706
  20
 966.300
  30
0.0
  11
 381.707
  21
 965.920
  31
0.0
   0
LINE
   8
LEVEL001
   6
CONTINUOUS
  62
7
  10
 381.707
  20
 965.920
  30
0.0
  11
 381.759
  21
 965.542
  31
0.0
   0
LINE
   8
LEVEL001
   6
CONTINUOUS
  62
7
  10
 381.759
  20
 965.542
  30
0.0
  11
 381.861
  21
 965.173
  31
0.0
   0
LINE
   8
LEVEL001
   6
CONTINUOUS
  62
7
  10
 381.861
  20
 965.173
  30
0.0
  11
 382.013
  21
 964.819
  31
0.0
   0
LINE
   8
LEVEL001
   6
CONTINUOUS
  62
7
  10
 382.013
  20
 964.819
  30
0.0
  11
 382.211
  21
 964.485
  31
0.0
   0
LINE
   8
LEVEL001
   6
CONTINUOUS
  62
7
  10
 382.211
  20
 964.485
  30
0.0
  11
 382.453
  21
 964.176
  31
0.0
   0
LINE
   8
LEVEL001
   6
CONTINUOUS
  62
7
  10
 382.453
  20
 964.176
  30
0.0
  11
 382.734
  21
 963.898
  31
0.0
   0
LINE
   8
LEVEL001
   6
CONTINUOUS
  62
7
  10
 382.734
  20
 963.898
  30
0.0
  11
 383.051
  21
 963.654
  31
0.0
   0
LINE
   8
LEVEL001
   6
CONTINUOUS
  62
7
  10
 383.051
  20
 963.654
  30
0.0
  11
 383.342
  21
 963.478
  31
0.0
   0
LINE
   8
LEVEL001
   6
CONTINUOUS
  62
7
  10
 388.151
  20
 965.209
  30
0.0
  11
 388.500
  21
 965.395
  31
0.0
   0
LINE
   8
LEVEL001
   6
CONTINUOUS
  62
7
  10
 388.500
  20
 965.395
  30
0.0
  11
 388.500
  21
 969.129
  31
0.0
   0
LINE
   8
LEVEL001
   6
CONTINUOUS
  62
7
  10
 388.500
  20
 969.129
  30
0.0
  11
 385.000
  21
 970.996
  31
0.0
   0
LINE
   8
LEVEL001
   6
CONTINUOUS
  62
7
  10
 385.000
  20
 970.996
  30
0.0
  11
 381.500
  21
 969.129
  31
0.0
   0
LINE
   8
LEVEL001
   6
CONTINUOUS
  62
7
  10
 381.500
  20
 969.129
  30
0.0
  11
 381.500
  21
 965.395
  31
0.0
   0
LINE
   8
LEVEL001
   6
CONTINUOUS
  62
7
  10
 381.500
  20
 965.395
  30
0.0
  11
 381.849
  21
 965.209
  31
0.0
   0
LINE
   8
LEVEL001
   6
CONTINUOUS
  62
7
  10
 382.600
  20
 965.081
  30
0.0
  11
 382.619
  21
 964.804
  31
0.0
   0
LINE
   8
LEVEL001
   6
CONTINUOUS
  62
7
  10
 382.619
  20
 964.804
  30
0.0
  11
 382.675
  21
 964.532
  31
0.0
   0
LINE
   8
LEVEL001
   6
CONTINUOUS
  62
7
  10
 382.675
  20
 964.532
  30
0.0
  11
 382.767
  21
 964.269
  31
0.0
   0
LINE
   8
LEVEL001
   6
CONTINUOUS
  62
7
  10
 382.767
  20
 964.269
  30
0.0
  11
 382.894
  21
 964.018
  31
0.0
   0
LINE
   8
LEVEL001
   6
CONTINUOUS
  62
7
  10
 382.894
  20
 964.018
  30
0.0
  11
 383.054
  21
 963.784
  31
0.0
   0
LINE
   8
LEVEL001
   6
CONTINUOUS
  62
7
  10
 383.054
  20
 963.784
  30
0.0
  11
 383.244
  21
 963.570
  31
0.0
   0
LINE
   8
LEVEL001
   6
CONTINUOUS
  62
7
  10
 383.244
  20
 963.570
  30
0.0
  11
 383.462
  21
 963.379
  31
0.0
   0
LINE
   8
LEVEL001
   6
CONTINUOUS
  62
7
  10
 383.462
  20
 963.379
  30
0.0
  11
 383.703
  21
 963.215
  31
0.0
   0
LINE
   8
LEVEL001
   6
CONTINUOUS
  62
7
  10
 383.703
  20
 963.215
  30
0.0
  11
 383.965
  21
 963.080
  31
0.0
   0
LINE
   8
LEVEL001
   6
CONTINUOUS
  62
7
  10
 383.965
  20
 963.080
  30
0.0
  11
 384.243
  21
 962.977
  31
0.0
   0
LINE
   8
LEVEL001
   6
CONTINUOUS
  62
7
  10
 384.243
  20
 962.977
  30
0.0
  11
 384.533
  21
 962.906
  31
0.0
   0
LINE
   8
LEVEL001
   6
CONTINUOUS
  62
7
  10
 384.533
  20
 962.906
  30
0.0
  11
 384.830
  21
 962.869
  31
0.0
   0
LINE
   8
LEVEL001
   6
CONTINUOUS
  62
7
  10
 384.830
  20
 962.869
  30
0.0
  11
 385.130
  21
 962.867
  31
0.0
   0
LINE
   8
LEVEL001
   6
CONTINUOUS
  62
7
  10
 385.130
  20
 962.867
  30
0.0
  11
 385.428
  21
 962.899
  31
0.0
   0
LINE
   8
LEVEL001
   6
CONTINUOUS
  62
7
  10
 385.428
  20
 962.899
  30
0.0
  11
 385.719
  21
 962.965
  31
0.0
   0
LINE
   8
LEVEL001
   6
CONTINUOUS
  62
7
  10
 385.719
  20
 962.965
  30
0.0
  11
 385.999
  21
 963.065
  31
0.0
   0
LINE
   8
LEVEL001
   6
CONTINUOUS
  62
7
  10
 385.999
  20
 963.065
  30
0.0
  11
 386.263
  21
 963.196
  31
0.0
   0
LINE
   8
LEVEL001
   6
CONTINUOUS
  62
7
  10
 386.263
  20
 963.196
  30
0.0
  11
 386.508
  21
 963.356
  31
0.0
   0
LINE
   8
LEVEL001
   6
CONTINUOUS
  62
7
  10
 386.508
  20
 963.356
  30
0.0
  11
 386.729
  21
 963.543
  31
0.0
   0
LINE
   8
LEVEL001
   6
CONTINUOUS
  62
7
  10
 386.729
  20
 963.543
  30
0.0
  11
 386.923
  21
 963.754
  31
0.0
   0
LINE
   8
LEVEL001
   6
CONTINUOUS
  62
7
  10
 386.923
  20
 963.754
  30
0.0
  11
 387.087
  21
 963.986
  31
0.0
   0
LINE
   8
LEVEL001
   6
CONTINUOUS
  62
7
  10
 387.087
  20
 963.986
  30
0.0
  11
 387.218
  21
 964.235
  31
0.0
   0
LINE
   8
LEVEL001
   6
CONTINUOUS
  62
7
  10
 387.218
  20
 964.235
  30
0.0
  11
 387.315
  21
 964.497
  31
0.0
   0
LINE
   8
LEVEL001
   6
CONTINUOUS
  62
7
  10
 387.315
  20
 964.497
  30
0.0
  11
 387.376
  21
 964.768
  31
0.0
   0
LINE
   8
LEVEL001
   6
CONTINUOUS
  62
7
  10
 387.376
  20
 964.768
  30
0.0
  11
 387.400
  21
 965.044
  31
0.0
   0
LINE
   8
LEVEL001
   6
CONTINUOUS
  62
7
  10
 387.400
  20
 965.044
  30
0.0
  11
 387.386
  21
 965.321
  31
0.0
   0
LINE
   8
LEVEL001
   6
CONTINUOUS
  62
7
  10
 387.386
  20
 965.321
  30
0.0
  11
 387.335
  21
 965.594
  31
0.0
   0
LINE
   8
LEVEL001
   6
CONTINUOUS
  62
7
  10
 387.335
  20
 965.594
  30
0.0
  11
 387.247
  21
 965.859
  31
0.0
   0
LINE
   8
LEVEL001
   6
CONTINUOUS
  62
7
  10
 387.247
  20
 965.859
  30
0.0
  11
 387.125
  21
 966.112
  31
0.0
   0
LINE
   8
LEVEL001
   6
CONTINUOUS
  62
7
  10
 387.125
  20
 966.112
  30
0.0
  11
 386.969
  21
 966.348
  31
0.0
   0
LINE
   8
LEVEL001
   6
CONTINUOUS
  62
7
  10
 386.969
  20
 966.348
  30
0.0
  11
 386.783
  21
 966.565
  31
0.0
   0
LINE
   8
LEVEL001
   6
CONTINUOUS
  62
7
  10
 386.783
  20
 966.565
  30
0.0
  11
 386.569
  21
 966.759
  31
0.0
   0
LINE
   8
LEVEL001
   6
CONTINUOUS
  62
7
  10
 386.569
  20
 966.759
  30
0.0
  11
 386.330
  21
 966.927
  31
0.0
   0
LINE
   8
LEVEL001
   6
CONTINUOUS
  62
7
  10
 386.330
  20
 966.927
  30
0.0
  11
 386.071
  21
 967.065
  31
0.0
   0
LINE
   8
LEVEL001
   6
CONTINUOUS
  62
7
  10
 386.071
  20
 967.065
  30
0.0
  11
 385.794
  21
 967.173
  31
0.0
   0
LINE
   8
LEVEL001
   6
CONTINUOUS
  62
7
  10
 385.794
  20
 967.173
  30
0.0
  11
 385.506
  21
 967.248
  31
0.0
   0
LINE
   8
LEVEL001
   6
CONTINUOUS
  62
7
  10
 385.506
  20
 967.248
  30
0.0
  11
 385.209
  21
 967.290
  31
0.0
   0
LINE
   8
LEVEL001
   6
CONTINUOUS
  62
7
  10
 385.209
  20
 967.290
  30
0.0
  11
 384.910
  21
 967.297
  31
0.0
   0
LINE
   8
LEVEL001
   6
CONTINUOUS
  62
7
  10
 384.910
  20
 967.297
  30
0.0
  11
 384.611
  21
 967.269
  31
0.0
   0
LINE
   8
LEVEL001
   6
CONTINUOUS
  62
7
  10
 384.611
  20
 967.269
  30
0.0
  11
 384.319
  21
 967.207
  31
0.0
   0
LINE
   8
LEVEL001
   6
CONTINUOUS
  62
7
  10
 384.319
  20
 967.207
  30
0.0
  11
 384.038
  21
 967.112
  31
0.0
   0
LINE
   8
LEVEL001
   6
CONTINUOUS
  62
7
  10
 384.038
  20
 967.112
  30
0.0
  11
 383.771
  21
 966.985
  31
0.0
   0
LINE
   8
LEVEL001
   6
CONTINUOUS
  62
7
  10
 383.771
  20
 966.985
  30
0.0
  11
 383.524
  21
 966.829
  31
0.0
   0
LINE
   8
LEVEL001
   6
CONTINUOUS
  62
7
  10
 383.524
  20
 966.829
  30
0.0
  11
 383.299
  21
 966.645
  31
0.0
   0
LINE
   8
LEVEL001
   6
CONTINUOUS
  62
7
  10
 383.299
  20
 966.645
  30
0.0
  11
 383.101
  21
 966.437
  31
0.0
   0
LINE
   8
LEVEL001
   6
CONTINUOUS
  62
7
  10
 383.101
  20
 966.437
  30
0.0
  11
 382.933
  21
 966.208
  31
0.0
   0
LINE
   8
LEVEL001
   6
CONTINUOUS
  62
7
  10
 382.933
  20
 966.208
  30
0.0
  11
 382.797
  21
 965.961
  31
0.0
   0
LINE
   8
LEVEL001
   6
CONTINUOUS
  62
7
  10
 382.797
  20
 965.961
  30
0.0
  11
 382.696
  21
 965.700
  31
0.0
   0
LINE
   8
LEVEL001
   6
CONTINUOUS
  62
7
  10
 382.696
  20
 965.700
  30
0.0
  11
 382.630
  21
 965.430
  31
0.0
   0
LINE
   8
LEVEL001
   6
CONTINUOUS
  62
7
  10
 382.630
  20
 965.430
  30
0.0
  11
 382.601
  21
 965.155
  31
0.0
   0
LINE
   8
LEVEL001
   6
CONTINUOUS
  62
7
  10
 382.601
  20
 965.155
  30
0.0
  11
 382.600
  21
 965.081
  31
0.0
   0
LINE
   8
LEVEL001
   6
CONTINUOUS
  62
7
  10
 388.500
  20
 969.129
  30
0.0
  11
 388.500
  21
 970.048
  31
0.0
   0
LINE
   8
LEVEL001
   6
CONTINUOUS
  62
7
  10
 388.500
  20
 970.048
  30
0.0
  11
 385.000
  21
 971.915
  31
0.0
   0
LINE
   8
LEVEL001
   6
CONTINUOUS
  62
7
  10
 385.000
  20
 971.915
  30
0.0
  11
 381.500
  21
 970.048
  31
0.0
   0
LINE
   8
LEVEL001
   6
CONTINUOUS
  62
7
  10
 381.500
  20
 970.048
  30
0.0
  11
 381.500
  21
 969.129
  31
0.0
   0
LINE
   8
LEVEL001
   6
CONTINUOUS
  62
7
  10
 378.000
  20
 980.616
  30
0.0
  11
 376.900
  21
 979.516
  31
0.0
   0
LINE
   8
LEVEL001
   6
CONTINUOUS
  62
7
  10
 376.900
  20
 979.516
  30
0.0
  11
 376.900
  21
 976.885
  31
0.0
   0
LINE
   8
LEVEL001
   6
CONTINUOUS
  62
7
  10
 376.900
  20
 976.885
  30
0.0
  11
 378.000
  21
 976.250
  31
0.0
   0
LINE
   8
LEVEL001
   6
CONTINUOUS
  62
7
  10
 392.000
  20
 976.250
  30
0.0
  11
 393.100
  21
 976.885
  31
0.0
   0
LINE
   8
LEVEL001
   6
CONTINUOUS
  62
7
  10
 393.100
  20
 976.885
  30
0.0
  11
 393.100
  21
 979.516
  31
0.0
   0
LINE
   8
LEVEL001
   6
CONTINUOUS
  62
7
  10
 393.100
  20
 979.516
  30
0.0
  11
 392.000
  21
 980.616
  31
0.0
   0
LINE
   8
LEVEL001
   6
CONTINUOUS
  62
7
  10
 383.823
  20
 1141.00
  30
0.0
  11
 394.500
  21
 1141.00
  31
0.0
   0
LINE
   8
LEVEL001
   6
CONTINUOUS
  62
7
  10
 394.500
  20
 1141.00
  30
0.0
  11
 394.500
  21
 1159.00
  31
0.0
   0
ARC
   8
LEVEL001
   6
CONTINUOUS
  62
7
  10
 350.000
  20
 1150.00
  30
0.0
  40
 37.5000
  50
 13.8865
  51
 346.113
   0
ARC
   8
LEVEL001
   6
CONTINUOUS
  62
7
  10
 350.000
  20
 1150.00
  30
0.0
  40
 133.500
  50
 272.146
  51
 87.8536
   0
ARC
   8
LEVEL001
   6
CONTINUOUS
  62
7
  10
 350.000
  20
 1150.00
  30
0.0
  40
 133.500
  50
 92.1464
  51
 267.854
   0
LINE
   8
LEVEL001
   6
CONTINUOUS
  62
7
  10
 410.500
  20
 1157.13
  30
0.0
  11
 410.000
  21
 1158.00
  31
0.0
   0
LINE
   8
LEVEL001
   6
CONTINUOUS
  62
7
  10
 410.500
  20
 1142.87
  30
0.0
  11
 410.500
  21
 1157.13
  31
0.0
   0
LINE
   8
LEVEL001
   6
CONTINUOUS
  62
7
  10
 410.000
  20
 1142.00
  30
0.0
  11
 410.500
  21
 1142.87
  31
0.0
   0
LINE
   8
LEVEL001
   6
CONTINUOUS
  62
7
  10
 410.000
  20
 1158.00
  30
0.0
  11
 410.000
  21
 1142.00
  31
0.0
   0
CIRCLE
   8
LEVEL001
   6
CONTINUOUS
  62
7
  10
 350.000
  20
 1150.00
  30
0.0
  40
 57.5000
   0
LINE
   8
LEVEL001
   6
CONTINUOUS
  62
7
  10
 407.870
  20
 1142.00
  30
0.0
  11
 410.000
  21
 1142.00
  31
0.0
   0
LINE
   8
LEVEL001
   6
CONTINUOUS
  62
7
  10
 410.000
  20
 1158.00
  30
0.0
  11
 407.870
  21
 1158.00
  31
0.0
   0
LINE
   8
LEVEL001
   6
CONTINUOUS
  62
7
  10
 408.098
  20
 1158.00
  30
0.0
  11
 408.084
  21
 1158.18
  31
0.0
   0
LINE
   8
LEVEL001
   6
CONTINUOUS
  62
7
  10
 408.084
  20
 1158.18
  30
0.0
  11
 408.069
  21
 1158.34
  31
0.0
   0
LINE
   8
LEVEL001
   6
CONTINUOUS
  62
7
  10
 408.069
  20
 1158.34
  30
0.0
  11
 408.054
  21
 1158.47
  31
0.0
   0
LINE
   8
LEVEL001
   6
CONTINUOUS
  62
7
  10
 408.054
  20
 1158.47
  30
0.0
  11
 408.039
  21
 1158.58
  31
0.0
   0
LINE
   8
LEVEL001
   6
CONTINUOUS
  62
7
  10
 408.039
  20
 1158.58
  30
0.0
  11
 408.024
  21
 1158.66
  31
0.0
   0
LINE
   8
LEVEL001
   6
CONTINUOUS
  62
7
  10
 408.024
  20
 1158.66
  30
0.0
  11
 408.008
  21
 1158.72
  31
0.0
   0
LINE
   8
LEVEL001
   6
CONTINUOUS
  62
7
  10
 408.008
  20
 1158.72
  30
0.0
  11
 407.993
  21
 1158.75
  31
0.0
   0
LINE
   8
LEVEL001
   6
CONTINUOUS
  62
7
  10
 407.993
  20
 1158.75
  30
0.0
  11
 407.977
  21
 1158.75
  31
0.0
   0
LINE
   8
LEVEL001
   6
CONTINUOUS
  62
7
  10
 407.977
  20
 1158.75
  30
0.0
  11
 407.962
  21
 1158.72
  31
0.0
   0
LINE
   8
LEVEL001
   6
CONTINUOUS
  62
7
  10
 407.962
  20
 1158.72
  30
0.0
  11
 407.946
  21
 1158.67
  31
0.0
   0
LINE
   8
LEVEL001
   6
CONTINUOUS
  62
7
  10
 407.946
  20
 1158.67
  30
0.0
  11
 407.931
  21
 1158.59
  31
0.0
   0
LINE
   8
LEVEL001
   6
CONTINUOUS
  62
7
  10
 407.931
  20
 1158.59
  30
0.0
  11
 407.915
  21
 1158.49
  31
0.0
   0
LINE
   8
LEVEL001
   6
CONTINUOUS
  62
7
  10
 407.915
  20
 1158.49
  30
0.0
  11
 407.900
  21
 1158.36
  31
0.0
   0
LINE
   8
LEVEL001
   6
CONTINUOUS
  62
7
  10
 407.900
  20
 1158.36
  30
0.0
  11
 407.886
  21
 1158.20
  31
0.0
   0
LINE
   8
LEVEL001
   6
CONTINUOUS
  62
7
  10
 407.886
  20
 1158.20
  30
0.0
  11
 407.871
  21
 1158.02
  31
0.0
   0
LINE
   8
LEVEL001
   6
CONTINUOUS
  62
7
  10
 407.871
  20
 1158.02
  30
0.0
  11
 407.857
  21
 1157.82
  31
0.0
   0
LINE
   8
LEVEL001
   6
CONTINUOUS
  62
7
  10
 407.857
  20
 1157.82
  30
0.0
  11
 407.843
  21
 1157.59
  31
0.0
   0
LINE
   8
LEVEL001
   6
CONTINUOUS
  62
7
  10
 407.843
  20
 1157.59
  30
0.0
  11
 407.830
  21
 1157.33
  31
0.0
   0
LINE
   8
LEVEL001
   6
CONTINUOUS
  62
7
  10
 407.830
  20
 1157.33
  30
0.0
  11
 407.817
  21
 1157.06
  31
0.0
   0
LINE
   8
LEVEL001
   6
CONTINUOUS
  62
7
  10
 407.817
  20
 1157.06
  30
0.0
  11
 407.805
  21
 1156.76
  31
0.0
   0
LINE
   8
LEVEL001
   6
CONTINUOUS
  62
7
  10
 407.805
  20
 1156.76
  30
0.0
  11
 407.793
  21
 1156.45
  31
0.0
   0
LINE
   8
LEVEL001
   6
CONTINUOUS
  62
7
  10
 407.793
  20
 1156.45
  30
0.0
  11
 407.782
  21
 1156.11
  31
0.0
   0
LINE
   8
LEVEL001
   6
CONTINUOUS
  62
7
  10
 407.782
  20
 1156.11
  30
0.0
  11
 407.772
  21
 1155.76
  31
0.0
   0
LINE
   8
LEVEL001
   6
CONTINUOUS
  62
7
  10
 407.772
  20
 1155.76
  30
0.0
  11
 407.762
  21
 1155.38
  31
0.0
   0
LINE
   8
LEVEL001
   6
CONTINUOUS
  62
7
  10
 407.762
  20
 1155.38
  30
0.0
  11
 407.752
  21
 1154.99
  31
0.0
   0
LINE
   8
LEVEL001
   6
CONTINUOUS
  62
7
  10
 407.752
  20
 1154.99
  30
0.0
  11
 407.744
  21
 1154.59
  31
0.0
   0
LINE
   8
LEVEL001
   6
CONTINUOUS
  62
7
  10
 407.744
  20
 1154.59
  30
0.0
  11
 407.736
  21
 1154.17
  31
0.0
   0
LINE
   8
LEVEL001
   6
CONTINUOUS
  62
7
  10
 407.736
  20
 1154.17
  30
0.0
  11
 407.729
  21
 1153.74
  31
0.0
   0
LINE
   8
LEVEL001
   6
CONTINUOUS
  62
7
  10
 407.729
  20
 1153.74
  30
0.0
  11
 407.723
  21
 1153.30
  31
0.0
   0
LINE
   8
LEVEL001
   6
CONTINUOUS
  62
7
  10
 407.723
  20
 1153.30
  30
0.0
  11
 407.717
  21
 1152.85
  31
0.0
   0
LINE
   8
LEVEL001
   6
CONTINUOUS
  62
7
  10
 407.717
  20
 1152.85
  30
0.0
  11
 407.713
  21
 1152.39
  31
0.0
   0
LINE
   8
LEVEL001
   6
CONTINUOUS
  62
7
  10
 407.713
  20
 1152.39
  30
0.0
  11
 407.709
  21
 1151.92
  31
0.0
   0
LINE
   8
LEVEL001
   6
CONTINUOUS
  62
7
  10
 407.709
  20
 1151.92
  30
0.0
  11
 407.706
  21
 1151.44
  31
0.0
   0
LINE
   8
LEVEL001
   6
CONTINUOUS
  62
7
  10
 407.706
  20
 1151.44
  30
0.0
  11
 407.704
  21
 1150.97
  31
0.0
   0
LINE
   8
LEVEL001
   6
CONTINUOUS
  62
7
  10
 407.704
  20
 1150.97
  30
0.0
  11
 407.702
  21
 1150.48
  31
0.0
   0
LINE
   8
LEVEL001
   6
CONTINUOUS
  62
7
  10
 407.702
  20
 1150.48
  30
0.0
  11
 407.702
  21
 1150.00
  31
0.0
   0
LINE
   8
LEVEL001
   6
CONTINUOUS
  62
7
  10
 407.702
  20
 1150.00
  30
0.0
  11
 407.702
  21
 1149.52
  31
0.0
   0
LINE
   8
LEVEL001
   6
CONTINUOUS
  62
7
  10
 407.702
  20
 1149.52
  30
0.0
  11
 407.704
  21
 1149.04
  31
0.0
   0
LINE
   8
LEVEL001
   6
CONTINUOUS
  62
7
  10
 407.704
  20
 1149.04
  30
0.0
  11
 407.706
  21
 1148.56
  31
0.0
   0
LINE
   8
LEVEL001
   6
CONTINUOUS
  62
7
  10
 407.706
  20
 1148.56
  30
0.0
  11
 407.709
  21
 1148.08
  31
0.0
   0
LINE
   8
LEVEL001
   6
CONTINUOUS
  62
7
  10
 407.709
  20
 1148.08
  30
0.0
  11
 407.713
  21
 1147.62
  31
0.0
   0
LINE
   8
LEVEL001
   6
CONTINUOUS
  62
7
  10
 407.713
  20
 1147.62
  30
0.0
  11
 407.717
  21
 1147.15
  31
0.0
   0
LINE
   8
LEVEL001
   6
CONTINUOUS
  62
7
  10
 407.717
  20
 1147.15
  30
0.0
  11
 407.723
  21
 1146.70
  31
0.0
   0
LINE
   8
LEVEL001
   6
CONTINUOUS
  62
7
  10
 407.723
  20
 1146.70
  30
0.0
  11
 407.729
  21
 1146.26
  31
0.0
   0
LINE
   8
LEVEL001
   6
CONTINUOUS
  62
7
  10
 407.729
  20
 1146.26
  30
0.0
  11
 407.736
  21
 1145.83
  31
0.0
   0
LINE
   8
LEVEL001
   6
CONTINUOUS
  62
7
  10
 407.736
  20
 1145.83
  30
0.0
  11
 407.744
  21
 1145.41
  31
0.0
   0
LINE
   8
LEVEL001
   6
CONTINUOUS
  62
7
  10
 407.744
  20
 1145.41
  30
0.0
  11
 407.752
  21
 1145.01
  31
0.0
   0
LINE
   8
LEVEL001
   6
CONTINUOUS
  62
7
  10
 407.752
  20
 1145.01
  30
0.0
  11
 407.762
  21
 1144.62
  31
0.0
   0
LINE
   8
LEVEL001
   6
CONTINUOUS
  62
7
  10
 407.762
  20
 1144.62
  30
0.0
  11
 407.772
  21
 1144.25
  31
0.0
   0
LINE
   8
LEVEL001
   6
CONTINUOUS
  62
7
  10
 407.772
  20
 1144.25
  30
0.0
  11
 407.782
  21
 1143.89
  31
0.0
   0
LINE
   8
LEVEL001
   6
CONTINUOUS
  62
7
  10
 407.782
  20
 1143.89
  30
0.0
  11
 407.793
  21
 1143.55
  31
0.0
   0
LINE
   8
LEVEL001
   6
CONTINUOUS
  62
7
  10
 407.793
  20
 1143.55
  30
0.0
  11
 407.805
  21
 1143.24
  31
0.0
   0
LINE
   8
LEVEL001
   6
CONTINUOUS
  62
7
  10
 407.805
  20
 1143.24
  30
0.0
  11
 407.817
  21
 1142.94
  31
0.0
   0
LINE
   8
LEVEL001
   6
CONTINUOUS
  62
7
  10
 407.817
  20
 1142.94
  30
0.0
  11
 407.830
  21
 1142.67
  31
0.0
   0
LINE
   8
LEVEL001
   6
CONTINUOUS
  62
7
  10
 407.830
  20
 1142.67
  30
0.0
  11
 407.843
  21
 1142.41
  31
0.0
   0
LINE
   8
LEVEL001
   6
CONTINUOUS
  62
7
  10
 407.843
  20
 1142.41
  30
0.0
  11
 407.857
  21
 1142.19
  31
0.0
   0
LINE
   8
LEVEL001
   6
CONTINUOUS
  62
7
  10
 407.857
  20
 1142.19
  30
0.0
  11
 407.871
  21
 1141.98
  31
0.0
   0
LINE
   8
LEVEL001
   6
CONTINUOUS
  62
7
  10
 407.871
  20
 1141.98
  30
0.0
  11
 407.886
  21
 1141.80
  31
0.0
   0
LINE
   8
LEVEL001
   6
CONTINUOUS
  62
7
  10
 407.886
  20
 1141.80
  30
0.0
  11
 407.900
  21
 1141.64
  31
0.0
   0
LINE
   8
LEVEL001
   6
CONTINUOUS
  62
7
  10
 407.900
  20
 1141.64
  30
0.0
  11
 407.915
  21
 1141.51
  31
0.0
   0
LINE
   8
LEVEL001
   6
CONTINUOUS
  62
7
  10
 407.915
  20
 1141.51
  30
0.0
  11
 407.931
  21
 1141.41
  31
0.0
   0
LINE
   8
LEVEL001
   6
CONTINUOUS
  62
7
  10
 407.931
  20
 1141.41
  30
0.0
  11
 407.946
  21
 1141.33
  31
0.0
   0
LINE
   8
LEVEL001
   6
CONTINUOUS
  62
7
  10
 407.946
  20
 1141.33
  30
0.0
  11
 407.961
  21
 1141.28
  31
0.0
   0
LINE
   8
LEVEL001
   6
CONTINUOUS
  62
7
  10
 407.961
  20
 1141.28
  30
0.0
  11
 407.977
  21
 1141.25
  31
0.0
   0
LINE
   8
LEVEL001
   6
CONTINUOUS
  62
7
  10
 407.977
  20
 1141.25
  30
0.0
  11
 407.993
  21
 1141.25
  31
0.0
   0
LINE
   8
LEVEL001
   6
CONTINUOUS
  62
7
  10
 407.993
  20
 1141.25
  30
0.0
  11
 408.008
  21
 1141.28
  31
0.0
   0
LINE
   8
LEVEL001
   6
CONTINUOUS
  62
7
  10
 408.008
  20
 1141.28
  30
0.0
  11
 408.024
  21
 1141.34
  31
0.0
   0
LINE
   8
LEVEL001
   6
CONTINUOUS
  62
7
  10
 408.024
  20
 1141.34
  30
0.0
  11
 408.039
  21
 1141.42
  31
0.0
   0
LINE
   8
LEVEL001
   6
CONTINUOUS
  62
7
  10
 408.039
  20
 1141.42
  30
0.0
  11
 408.054
  21
 1141.52
  31
0.0
   0
LINE
   8
LEVEL001
   6
CONTINUOUS
  62
7
  10
 408.054
  20
 1141.52
  30
0.0
  11
 408.069
  21
 1141.66
  31
0.0
   0
LINE
   8
LEVEL001
   6
CONTINUOUS
  62
7
  10
 408.069
  20
 1141.66
  30
0.0
  11
 408.084
  21
 1141.82
  31
0.0
   0
LINE
   8
LEVEL001
   6
CONTINUOUS
  62
7
  10
 408.084
  20
 1141.82
  30
0.0
  11
 408.098
  21
 1142.00
  31
0.0
   0
ARC
   8
LEVEL001
   6
CONTINUOUS
  62
7
  10
 408.718
  20
 1150.00
  30
0.0
  40
 4.87256
  50
 331.088
  51
 27.6434
   0
ARC
   8
LEVEL001
   6
CONTINUOUS
  62
7
  10
 360.871
  20
 1177.65
  30
0.0
  40
 60.1304
  50
 323.362
  51
 323.643
   0
ARC
   8
LEVEL001
   6
CONTINUOUS
  62
7
  10
 360.871
  20
 1177.65
  30
0.0
  40
 60.1304
  50
 325.625
  51
 330.073
   0
LINE
   8
LEVEL001
   6
CONTINUOUS
  62
7
  10
 408.674
  20
 1141.25
  30
0.0
  11
 408.680
  21
 1141.25
  31
0.0
   0
LINE
   8
LEVEL001
   6
CONTINUOUS
  62
7
  10
 408.680
  20
 1141.25
  30
0.0
  11
 408.686
  21
 1141.25
  31
0.0
   0
LINE
   8
LEVEL001
   6
CONTINUOUS
  62
7
  10
 408.686
  20
 1141.25
  30
0.0
  11
 408.693
  21
 1141.25
  31
0.0
   0
LINE
   8
LEVEL001
   6
CONTINUOUS
  62
7
  10
 408.693
  20
 1141.25
  30
0.0
  11
 408.699
  21
 1141.25
  31
0.0
   0
LINE
   8
LEVEL001
   6
CONTINUOUS
  62
7
  10
 408.699
  20
 1141.25
  30
0.0
  11
 408.705
  21
 1141.25
  31
0.0
   0
LINE
   8
LEVEL001
   6
CONTINUOUS
  62
7
  10
 408.705
  20
 1141.25
  30
0.0
  11
 408.712
  21
 1141.25
  31
0.0
   0
LINE
   8
LEVEL001
   6
CONTINUOUS
  62
7
  10
 408.712
  20
 1141.25
  30
0.0
  11
 408.718
  21
 1141.25
  31
0.0
   0
LINE
   8
LEVEL001
   6
CONTINUOUS
  62
7
  10
 408.718
  20
 1141.25
  30
0.0
  11
 408.724
  21
 1141.26
  31
0.0
   0
LINE
   8
LEVEL001
   6
CONTINUOUS
  62
7
  10
 408.724
  20
 1141.26
  30
0.0
  11
 408.731
  21
 1141.26
  31
0.0
   0
LINE
   8
LEVEL001
   6
CONTINUOUS
  62
7
  10
 408.731
  20
 1141.26
  30
0.0
  11
 408.737
  21
 1141.26
  31
0.0
   0
LINE
   8
LEVEL001
   6
CONTINUOUS
  62
7
  10
 408.737
  20
 1141.26
  30
0.0
  11
 408.743
  21
 1141.26
  31
0.0
   0
LINE
   8
LEVEL001
   6
CONTINUOUS
  62
7
  10
 408.743
  20
 1141.26
  30
0.0
  11
 408.750
  21
 1141.26
  31
0.0
   0
LINE
   8
LEVEL001
   6
CONTINUOUS
  62
7
  10
 408.750
  20
 1141.26
  30
0.0
  11
 408.756
  21
 1141.27
  31
0.0
   0
LINE
   8
LEVEL001
   6
CONTINUOUS
  62
7
  10
 408.756
  20
 1141.27
  30
0.0
  11
 408.762
  21
 1141.27
  31
0.0
   0
LINE
   8
LEVEL001
   6
CONTINUOUS
  62
7
  10
 408.762
  20
 1141.27
  30
0.0
  11
 408.769
  21
 1141.27
  31
0.0
   0
LINE
   8
LEVEL001
   6
CONTINUOUS
  62
7
  10
 408.769
  20
 1141.27
  30
0.0
  11
 408.775
  21
 1141.28
  31
0.0
   0
LINE
   8
LEVEL001
   6
CONTINUOUS
  62
7
  10
 408.775
  20
 1141.28
  30
0.0
  11
 408.781
  21
 1141.28
  31
0.0
   0
LINE
   8
LEVEL001
   6
CONTINUOUS
  62
7
  10
 408.781
  20
 1141.28
  30
0.0
  11
 408.788
  21
 1141.28
  31
0.0
   0
LINE
   8
LEVEL001
   6
CONTINUOUS
  62
7
  10
 408.788
  20
 1141.28
  30
0.0
  11
 408.794
  21
 1141.29
  31
0.0
   0
LINE
   8
LEVEL001
   6
CONTINUOUS
  62
7
  10
 408.794
  20
 1141.29
  30
0.0
  11
 408.800
  21
 1141.29
  31
0.0
   0
LINE
   8
LEVEL001
   6
CONTINUOUS
  62
7
  10
 408.800
  20
 1141.29
  30
0.0
  11
 408.807
  21
 1141.29
  31
0.0
   0
LINE
   8
LEVEL001
   6
CONTINUOUS
  62
7
  10
 408.807
  20
 1141.29
  30
0.0
  11
 408.813
  21
 1141.30
  31
0.0
   0
LINE
   8
LEVEL001
   6
CONTINUOUS
  62
7
  10
 408.813
  20
 1141.30
  30
0.0
  11
 408.819
  21
 1141.30
  31
0.0
   0
LINE
   8
LEVEL001
   6
CONTINUOUS
  62
7
  10
 408.819
  20
 1141.30
  30
0.0
  11
 408.825
  21
 1141.31
  31
0.0
   0
LINE
   8
LEVEL001
   6
CONTINUOUS
  62
7
  10
 408.825
  20
 1141.31
  30
0.0
  11
 408.832
  21
 1141.31
  31
0.0
   0
LINE
   8
LEVEL001
   6
CONTINUOUS
  62
7
  10
 408.832
  20
 1141.31
  30
0.0
  11
 408.838
  21
 1141.32
  31
0.0
   0
LINE
   8
LEVEL001
   6
CONTINUOUS
  62
7
  10
 408.838
  20
 1141.32
  30
0.0
  11
 408.844
  21
 1141.32
  31
0.0
   0
LINE
   8
LEVEL001
   6
CONTINUOUS
  62
7
  10
 408.844
  20
 1141.32
  30
0.0
  11
 408.851
  21
 1141.33
  31
0.0
   0
LINE
   8
LEVEL001
   6
CONTINUOUS
  62
7
  10
 408.851
  20
 1141.33
  30
0.0
  11
 408.857
  21
 1141.33
  31
0.0
   0
LINE
   8
LEVEL001
   6
CONTINUOUS
  62
7
  10
 408.857
  20
 1141.33
  30
0.0
  11
 408.863
  21
 1141.34
  31
0.0
   0
LINE
   8
LEVEL001
   6
CONTINUOUS
  62
7
  10
 408.863
  20
 1141.34
  30
0.0
  11
 408.869
  21
 1141.35
  31
0.0
   0
LINE
   8
LEVEL001
   6
CONTINUOUS
  62
7
  10
 408.869
  20
 1141.35
  30
0.0
  11
 408.876
  21
 1141.35
  31
0.0
   0
LINE
   8
LEVEL001
   6
CONTINUOUS
  62
7
  10
 408.876
  20
 1141.35
  30
0.0
  11
 408.882
  21
 1141.36
  31
0.0
   0
LINE
   8
LEVEL001
   6
CONTINUOUS
  62
7
  10
 408.882
  20
 1141.36
  30
0.0
  11
 408.888
  21
 1141.37
  31
0.0
   0
LINE
   8
LEVEL001
   6
CONTINUOUS
  62
7
  10
 408.888
  20
 1141.37
  30
0.0
  11
 408.894
  21
 1141.37
  31
0.0
   0
LINE
   8
LEVEL001
   6
CONTINUOUS
  62
7
  10
 408.894
  20
 1141.37
  30
0.0
  11
 408.901
  21
 1141.38
  31
0.0
   0
LINE
   8
LEVEL001
   6
CONTINUOUS
  62
7
  10
 408.901
  20
 1141.38
  30
0.0
  11
 408.907
  21
 1141.39
  31
0.0
   0
LINE
   8
LEVEL001
   6
CONTINUOUS
  62
7
  10
 408.907
  20
 1141.39
  30
0.0
  11
 408.913
  21
 1141.39
  31
0.0
   0
LINE
   8
LEVEL001
   6
CONTINUOUS
  62
7
  10
 408.913
  20
 1141.39
  30
0.0
  11
 408.919
  21
 1141.40
  31
0.0
   0
LINE
   8
LEVEL001
   6
CONTINUOUS
  62
7
  10
 408.919
  20
 1141.40
  30
0.0
  11
 408.926
  21
 1141.41
  31
0.0
   0
LINE
   8
LEVEL001
   6
CONTINUOUS
  62
7
  10
 408.926
  20
 1141.41
  30
0.0
  11
 408.932
  21
 1141.42
  31
0.0
   0
LINE
   8
LEVEL001
   6
CONTINUOUS
  62
7
  10
 408.932
  20
 1141.42
  30
0.0
  11
 408.938
  21
 1141.43
  31
0.0
   0
LINE
   8
LEVEL001
   6
CONTINUOUS
  62
7
  10
 408.938
  20
 1141.43
  30
0.0
  11
 408.944
  21
 1141.43
  31
0.0
   0
LINE
   8
LEVEL001
   6
CONTINUOUS
  62
7
  10
 408.944
  20
 1141.43
  30
0.0
  11
 408.950
  21
 1141.44
  31
0.0
   0
LINE
   8
LEVEL001
   6
CONTINUOUS
  62
7
  10
 408.950
  20
 1141.44
  30
0.0
  11
 408.957
  21
 1141.45
  31
0.0
   0
LINE
   8
LEVEL001
   6
CONTINUOUS
  62
7
  10
 408.957
  20
 1141.45
  30
0.0
  11
 408.963
  21
 1141.46
  31
0.0
   0
LINE
   8
LEVEL001
   6
CONTINUOUS
  62
7
  10
 408.963
  20
 1141.46
  30
0.0
  11
 408.969
  21
 1141.47
  31
0.0
   0
LINE
   8
LEVEL001
   6
CONTINUOUS
  62
7
  10
 408.969
  20
 1141.47
  30
0.0
  11
 408.975
  21
 1141.48
  31
0.0
   0
LINE
   8
LEVEL001
   6
CONTINUOUS
  62
7
  10
 408.975
  20
 1141.48
  30
0.0
  11
 408.981
  21
 1141.49
  31
0.0
   0
LINE
   8
LEVEL001
   6
CONTINUOUS
  62
7
  10
 408.981
  20
 1141.49
  30
0.0
  11
 408.987
  21
 1141.50
  31
0.0
   0
LINE
   8
LEVEL001
   6
CONTINUOUS
  62
7
  10
 408.987
  20
 1141.50
  30
0.0
  11
 408.994
  21
 1141.51
  31
0.0
   0
LINE
   8
LEVEL001
   6
CONTINUOUS
  62
7
  10
 408.994
  20
 1141.51
  30
0.0
  11
 409.000
  21
 1141.52
  31
0.0
   0
LINE
   8
LEVEL001
   6
CONTINUOUS
  62
7
  10
 409.000
  20
 1141.52
  30
0.0
  11
 409.006
  21
 1141.53
  31
0.0
   0
LINE
   8
LEVEL001
   6
CONTINUOUS
  62
7
  10
 409.006
  20
 1141.53
  30
0.0
  11
 409.012
  21
 1141.54
  31
0.0
   0
LINE
   8
LEVEL001
   6
CONTINUOUS
  62
7
  10
 409.012
  20
 1141.54
  30
0.0
  11
 409.018
  21
 1141.55
  31
0.0
   0
LINE
   8
LEVEL001
   6
CONTINUOUS
  62
7
  10
 409.018
  20
 1141.55
  30
0.0
  11
 409.024
  21
 1141.56
  31
0.0
   0
LINE
   8
LEVEL001
   6
CONTINUOUS
  62
7
  10
 409.024
  20
 1141.56
  30
0.0
  11
 409.030
  21
 1141.57
  31
0.0
   0
LINE
   8
LEVEL001
   6
CONTINUOUS
  62
7
  10
 409.030
  20
 1141.57
  30
0.0
  11
 409.036
  21
 1141.58
  31
0.0
   0
LINE
   8
LEVEL001
   6
CONTINUOUS
  62
7
  10
 409.036
  20
 1141.58
  30
0.0
  11
 409.043
  21
 1141.59
  31
0.0
   0
LINE
   8
LEVEL001
   6
CONTINUOUS
  62
7
  10
 409.043
  20
 1141.59
  30
0.0
  11
 409.049
  21
 1141.61
  31
0.0
   0
LINE
   8
LEVEL001
   6
CONTINUOUS
  62
7
  10
 409.049
  20
 1141.61
  30
0.0
  11
 409.055
  21
 1141.62
  31
0.0
   0
LINE
   8
LEVEL001
   6
CONTINUOUS
  62
7
  10
 409.055
  20
 1141.62
  30
0.0
  11
 409.061
  21
 1141.63
  31
0.0
   0
LINE
   8
LEVEL001
   6
CONTINUOUS
  62
7
  10
 409.061
  20
 1141.63
  30
0.0
  11
 409.067
  21
 1141.64
  31
0.0
   0
LINE
   8
LEVEL001
   6
CONTINUOUS
  62
7
  10
 409.067
  20
 1141.64
  30
0.0
  11
 409.073
  21
 1141.66
  31
0.0
   0
LINE
   8
LEVEL001
   6
CONTINUOUS
  62
7
  10
 409.073
  20
 1141.66
  30
0.0
  11
 409.079
  21
 1141.67
  31
0.0
   0
LINE
   8
LEVEL001
   6
CONTINUOUS
  62
7
  10
 409.079
  20
 1141.67
  30
0.0
  11
 409.085
  21
 1141.68
  31
0.0
   0
LINE
   8
LEVEL001
   6
CONTINUOUS
  62
7
  10
 409.085
  20
 1141.68
  30
0.0
  11
 409.091
  21
 1141.69
  31
0.0
   0
LINE
   8
LEVEL001
   6
CONTINUOUS
  62
7
  10
 409.091
  20
 1141.69
  30
0.0
  11
 409.097
  21
 1141.71
  31
0.0
   0
LINE
   8
LEVEL001
   6
CONTINUOUS
  62
7
  10
 409.097
  20
 1141.71
  30
0.0
  11
 409.103
  21
 1141.72
  31
0.0
   0
LINE
   8
LEVEL001
   6
CONTINUOUS
  62
7
  10
 409.103
  20
 1141.72
  30
0.0
  11
 409.109
  21
 1141.73
  31
0.0
   0
LINE
   8
LEVEL001
   6
CONTINUOUS
  62
7
  10
 409.109
  20
 1141.73
  30
0.0
  11
 409.115
  21
 1141.75
  31
0.0
   0
LINE
   8
LEVEL001
   6
CONTINUOUS
  62
7
  10
 409.115
  20
 1141.75
  30
0.0
  11
 409.121
  21
 1141.76
  31
0.0
   0
LINE
   8
LEVEL001
   6
CONTINUOUS
  62
7
  10
 409.121
  20
 1158.24
  30
0.0
  11
 409.115
  21
 1158.25
  31
0.0
   0
LINE
   8
LEVEL001
   6
CONTINUOUS
  62
7
  10
 409.115
  20
 1158.25
  30
0.0
  11
 409.109
  21
 1158.27
  31
0.0
   0
LINE
   8
LEVEL001
   6
CONTINUOUS
  62
7
  10
 409.109
  20
 1158.27
  30
0.0
  11
 409.103
  21
 1158.28
  31
0.0
   0
LINE
   8
LEVEL001
   6
CONTINUOUS
  62
7
  10
 409.103
  20
 1158.28
  30
0.0
  11
 409.097
  21
 1158.29
  31
0.0
   0
LINE
   8
LEVEL001
   6
CONTINUOUS
  62
7
  10
 409.097
  20
 1158.29
  30
0.0
  11
 409.091
  21
 1158.31
  31
0.0
   0
LINE
   8
LEVEL001
   6
CONTINUOUS
  62
7
  10
 409.091
  20
 1158.31
  30
0.0
  11
 409.085
  21
 1158.32
  31
0.0
   0
LINE
   8
LEVEL001
   6
CONTINUOUS
  62
7
  10
 409.085
  20
 1158.32
  30
0.0
  11
 409.079
  21
 1158.33
  31
0.0
   0
LINE
   8
LEVEL001
   6
CONTINUOUS
  62
7
  10
 409.079
  20
 1158.33
  30
0.0
  11
 409.073
  21
 1158.34
  31
0.0
   0
LINE
   8
LEVEL001
   6
CONTINUOUS
  62
7
  10
 409.073
  20
 1158.34
  30
0.0
  11
 409.067
  21
 1158.36
  31
0.0
   0
LINE
   8
LEVEL001
   6
CONTINUOUS
  62
7
  10
 409.067
  20
 1158.36
  30
0.0
  11
 409.061
  21
 1158.37
  31
0.0
   0
LINE
   8
LEVEL001
   6
CONTINUOUS
  62
7
  10
 409.061
  20
 1158.37
  30
0.0
  11
 409.055
  21
 1158.38
  31
0.0
   0
LINE
   8
LEVEL001
   6
CONTINUOUS
  62
7
  10
 409.055
  20
 1158.38
  30
0.0
  11
 409.049
  21
 1158.39
  31
0.0
   0
LINE
   8
LEVEL001
   6
CONTINUOUS
  62
7
  10
 409.049
  20
 1158.39
  30
0.0
  11
 409.043
  21
 1158.41
  31
0.0
   0
LINE
   8
LEVEL001
   6
CONTINUOUS
  62
7
  10
 409.043
  20
 1158.41
  30
0.0
  11
 409.036
  21
 1158.42
  31
0.0
   0
LINE
   8
LEVEL001
   6
CONTINUOUS
  62
7
  10
 409.036
  20
 1158.42
  30
0.0
  11
 409.030
  21
 1158.43
  31
0.0
   0
LINE
   8
LEVEL001
   6
CONTINUOUS
  62
7
  10
 409.030
  20
 1158.43
  30
0.0
  11
 409.024
  21
 1158.44
  31
0.0
   0
LINE
   8
LEVEL001
   6
CONTINUOUS
  62
7
  10
 409.024
  20
 1158.44
  30
0.0
  11
 409.018
  21
 1158.45
  31
0.0
   0
LINE
   8
LEVEL001
   6
CONTINUOUS
  62
7
  10
 409.018
  20
 1158.45
  30
0.0
  11
 409.012
  21
 1158.46
  31
0.0
   0
LINE
   8
LEVEL001
   6
CONTINUOUS
  62
7
  10
 409.012
  20
 1158.46
  30
0.0
  11
 409.006
  21
 1158.47
  31
0.0
   0
LINE
   8
LEVEL001
   6
CONTINUOUS
  62
7
  10
 409.006
  20
 1158.47
  30
0.0
  11
 409.000
  21
 1158.48
  31
0.0
   0
LINE
   8
LEVEL001
   6
CONTINUOUS
  62
7
  10
 409.000
  20
 1158.48
  30
0.0
  11
 408.994
  21
 1158.49
  31
0.0
   0
LINE
   8
LEVEL001
   6
CONTINUOUS
  62
7
  10
 408.994
  20
 1158.49
  30
0.0
  11
 408.987
  21
 1158.50
  31
0.0
   0
LINE
   8
LEVEL001
   6
CONTINUOUS
  62
7
  10
 408.987
  20
 1158.50
  30
0.0
  11
 408.981
  21
 1158.51
  31
0.0
   0
LINE
   8
LEVEL001
   6
CONTINUOUS
  62
7
  10
 408.981
  20
 1158.51
  30
0.0
  11
 408.975
  21
 1158.52
  31
0.0
   0
LINE
   8
LEVEL001
   6
CONTINUOUS
  62
7
  10
 408.975
  20
 1158.52
  30
0.0
  11
 408.969
  21
 1158.53
  31
0.0
   0
LINE
   8
LEVEL001
   6
CONTINUOUS
  62
7
  10
 408.969
  20
 1158.53
  30
0.0
  11
 408.963
  21
 1158.54
  31
0.0
   0
LINE
   8
LEVEL001
   6
CONTINUOUS
  62
7
  10
 408.963
  20
 1158.54
  30
0.0
  11
 408.957
  21
 1158.55
  31
0.0
   0
LINE
   8
LEVEL001
   6
CONTINUOUS
  62
7
  10
 408.957
  20
 1158.55
  30
0.0
  11
 408.950
  21
 1158.56
  31
0.0
   0
LINE
   8
LEVEL001
   6
CONTINUOUS
  62
7
  10
 408.950
  20
 1158.56
  30
0.0
  11
 408.944
  21
 1158.57
  31
0.0
   0
LINE
   8
LEVEL001
   6
CONTINUOUS
  62
7
  10
 408.944
  20
 1158.57
  30
0.0
  11
 408.938
  21
 1158.57
  31
0.0
   0
LINE
   8
LEVEL001
   6
CONTINUOUS
  62
7
  10
 408.938
  20
 1158.57
  30
0.0
  11
 408.932
  21
 1158.58
  31
0.0
   0
LINE
   8
LEVEL001
   6
CONTINUOUS
  62
7
  10
 408.932
  20
 1158.58
  30
0.0
  11
 408.926
  21
 1158.59
  31
0.0
   0
LINE
   8
LEVEL001
   6
CONTINUOUS
  62
7
  10
 408.926
  20
 1158.59
  30
0.0
  11
 408.919
  21
 1158.60
  31
0.0
   0
LINE
   8
LEVEL001
   6
CONTINUOUS
  62
7
  10
 408.919
  20
 1158.60
  30
0.0
  11
 408.913
  21
 1158.61
  31
0.0
   0
LINE
   8
LEVEL001
   6
CONTINUOUS
  62
7
  10
 408.913
  20
 1158.61
  30
0.0
  11
 408.907
  21
 1158.61
  31
0.0
   0
LINE
   8
LEVEL001
   6
CONTINUOUS
  62
7
  10
 408.907
  20
 1158.61
  30
0.0
  11
 408.901
  21
 1158.62
  31
0.0
   0
LINE
   8
LEVEL001
   6
CONTINUOUS
  62
7
  10
 408.901
  20
 1158.62
  30
0.0
  11
 408.894
  21
 1158.63
  31
0.0
   0
LINE
   8
LEVEL001
   6
CONTINUOUS
  62
7
  10
 408.894
  20
 1158.63
  30
0.0
  11
 408.888
  21
 1158.63
  31
0.0
   0
LINE
   8
LEVEL001
   6
CONTINUOUS
  62
7
  10
 408.888
  20
 1158.63
  30
0.0
  11
 408.882
  21
 1158.64
  31
0.0
   0
LINE
   8
LEVEL001
   6
CONTINUOUS
  62
7
  10
 408.882
  20
 1158.64
  30
0.0
  11
 408.876
  21
 1158.65
  31
0.0
   0
LINE
   8
LEVEL001
   6
CONTINUOUS
  62
7
  10
 408.876
  20
 1158.65
  30
0.0
  11
 408.869
  21
 1158.65
  31
0.0
   0
LINE
   8
LEVEL001
   6
CONTINUOUS
  62
7
  10
 408.869
  20
 1158.65
  30
0.0
  11
 408.863
  21
 1158.66
  31
0.0
   0
LINE
   8
LEVEL001
   6
CONTINUOUS
  62
7
  10
 408.863
  20
 1158.66
  30
0.0
  11
 408.857
  21
 1158.67
  31
0.0
   0
LINE
   8
LEVEL001
   6
CONTINUOUS
  62
7
  10
 408.857
  20
 1158.67
  30
0.0
  11
 408.851
  21
 1158.67
  31
0.0
   0
LINE
   8
LEVEL001
   6
CONTINUOUS
  62
7
  10
 408.851
  20
 1158.67
  30
0.0
  11
 408.844
  21
 1158.68
  31
0.0
   0
LINE
   8
LEVEL001
   6
CONTINUOUS
  62
7
  10
 408.844
  20
 1158.68
  30
0.0
  11
 408.838
  21
 1158.68
  31
0.0
   0
LINE
   8
LEVEL001
   6
CONTINUOUS
  62
7
  10
 408.838
  20
 1158.68
  30
0.0
  11
 408.832
  21
 1158.69
  31
0.0
   0
LINE
   8
LEVEL001
   6
CONTINUOUS
  62
7
  10
 408.832
  20
 1158.69
  30
0.0
  11
 408.825
  21
 1158.69
  31
0.0
   0
LINE
   8
LEVEL001
   6
CONTINUOUS
  62
7
  10
 408.825
  20
 1158.69
  30
0.0
  11
 408.819
  21
 1158.70
  31
0.0
   0
LINE
   8
LEVEL001
   6
CONTINUOUS
  62
7
  10
 408.819
  20
 1158.70
  30
0.0
  11
 408.813
  21
 1158.70
  31
0.0
   0
LINE
   8
LEVEL001
   6
CONTINUOUS
  62
7
  10
 408.813
  20
 1158.70
  30
0.0
  11
 408.807
  21
 1158.71
  31
0.0
   0
LINE
   8
LEVEL001
   6
CONTINUOUS
  62
7
  10
 408.807
  20
 1158.71
  30
0.0
  11
 408.800
  21
 1158.71
  31
0.0
   0
LINE
   8
LEVEL001
   6
CONTINUOUS
  62
7
  10
 408.800
  20
 1158.71
  30
0.0
  11
 408.794
  21
 1158.71
  31
0.0
   0
LINE
   8
LEVEL001
   6
CONTINUOUS
  62
7
  10
 408.794
  20
 1158.71
  30
0.0
  11
 408.788
  21
 1158.72
  31
0.0
   0
LINE
   8
LEVEL001
   6
CONTINUOUS
  62
7
  10
 408.788
  20
 1158.72
  30
0.0
  11
 408.781
  21
 1158.72
  31
0.0
   0
LINE
   8
LEVEL001
   6
CONTINUOUS
  62
7
  10
 408.781
  20
 1158.72
  30
0.0
  11
 408.775
  21
 1158.72
  31
0.0
   0
LINE
   8
LEVEL001
   6
CONTINUOUS
  62
7
  10
 408.775
  20
 1158.72
  30
0.0
  11
 408.769
  21
 1158.73
  31
0.0
   0
LINE
   8
LEVEL001
   6
CONTINUOUS
  62
7
  10
 408.769
  20
 1158.73
  30
0.0
  11
 408.762
  21
 1158.73
  31
0.0
   0
LINE
   8
LEVEL001
   6
CONTINUOUS
  62
7
  10
 408.762
  20
 1158.73
  30
0.0
  11
 408.756
  21
 1158.73
  31
0.0
   0
LINE
   8
LEVEL001
   6
CONTINUOUS
  62
7
  10
 408.756
  20
 1158.73
  30
0.0
  11
 408.750
  21
 1158.74
  31
0.0
   0
LINE
   8
LEVEL001
   6
CONTINUOUS
  62
7
  10
 408.750
  20
 1158.74
  30
0.0
  11
 408.743
  21
 1158.74
  31
0.0
   0
LINE
   8
LEVEL001
   6
CONTINUOUS
  62
7
  10
 408.743
  20
 1158.74
  30
0.0
  11
 408.737
  21
 1158.74
  31
0.0
   0
LINE
   8
LEVEL001
   6
CONTINUOUS
  62
7
  10
 408.737
  20
 1158.74
  30
0.0
  11
 408.731
  21
 1158.74
  31
0.0
   0
LINE
   8
LEVEL001
   6
CONTINUOUS
  62
7
  10
 408.731
  20
 1158.74
  30
0.0
  11
 408.724
  21
 1158.74
  31
0.0
   0
LINE
   8
LEVEL001
   6
CONTINUOUS
  62
7
  10
 408.724
  20
 1158.74
  30
0.0
  11
 408.718
  21
 1158.75
  31
0.0
   0
LINE
   8
LEVEL001
   6
CONTINUOUS
  62
7
  10
 408.718
  20
 1158.75
  30
0.0
  11
 408.712
  21
 1158.75
  31
0.0
   0
LINE
   8
LEVEL001
   6
CONTINUOUS
  62
7
  10
 408.712
  20
 1158.75
  30
0.0
  11
 408.705
  21
 1158.75
  31
0.0
   0
LINE
   8
LEVEL001
   6
CONTINUOUS
  62
7
  10
 408.705
  20
 1158.75
  30
0.0
  11
 408.699
  21
 1158.75
  31
0.0
   0
LINE
   8
LEVEL001
   6
CONTINUOUS
  62
7
  10
 408.699
  20
 1158.75
  30
0.0
  11
 408.693
  21
 1158.75
  31
0.0
   0
LINE
   8
LEVEL001
   6
CONTINUOUS
  62
7
  10
 408.693
  20
 1158.75
  30
0.0
  11
 408.686
  21
 1158.75
  31
0.0
   0
LINE
   8
LEVEL001
   6
CONTINUOUS
  62
7
  10
 408.686
  20
 1158.75
  30
0.0
  11
 408.680
  21
 1158.75
  31
0.0
   0
LINE
   8
LEVEL001
   6
CONTINUOUS
  62
7
  10
 408.680
  20
 1158.75
  30
0.0
  11
 408.674
  21
 1158.75
  31
0.0
   0
ARC
   8
LEVEL001
   6
CONTINUOUS
  62
7
  10
 360.871
  20
 1122.35
  30
0.0
  40
 60.1304
  50
 29.8296
  51
 34.3755
   0
ARC
   8
LEVEL001
   6
CONTINUOUS
  62
7
  10
 360.871
  20
 1122.35
  30
0.0
  40
 60.1304
  50
 36.3573
  51
 36.6383
   0
LINE
   8
LEVEL001
   6
CONTINUOUS
  62
7
  10
 408.674
  20
 1158.75
  30
0.0
  11
 408.672
  21
 1158.75
  31
0.0
   0
LINE
   8
LEVEL001
   6
CONTINUOUS
  62
7
  10
 408.672
  20
 1158.75
  30
0.0
  11
 408.670
  21
 1158.75
  31
0.0
   0
LINE
   8
LEVEL001
   6
CONTINUOUS
  62
7
  10
 408.670
  20
 1158.75
  30
0.0
  11
 408.668
  21
 1158.75
  31
0.0
   0
LINE
   8
LEVEL001
   6
CONTINUOUS
  62
7
  10
 408.668
  20
 1158.75
  30
0.0
  11
 408.666
  21
 1158.75
  31
0.0
   0
LINE
   8
LEVEL001
   6
CONTINUOUS
  62
7
  10
 408.666
  20
 1158.75
  30
0.0
  11
 408.664
  21
 1158.75
  31
0.0
   0
LINE
   8
LEVEL001
   6
CONTINUOUS
  62
7
  10
 408.664
  20
 1158.75
  30
0.0
  11
 408.662
  21
 1158.74
  31
0.0
   0
LINE
   8
LEVEL001
   6
CONTINUOUS
  62
7
  10
 408.662
  20
 1158.74
  30
0.0
  11
 408.661
  21
 1158.74
  31
0.0
   0
LINE
   8
LEVEL001
   6
CONTINUOUS
  62
7
  10
 408.661
  20
 1158.74
  30
0.0
  11
 408.659
  21
 1158.74
  31
0.0
   0
LINE
   8
LEVEL001
   6
CONTINUOUS
  62
7
  10
 408.659
  20
 1158.74
  30
0.0
  11
 408.657
  21
 1158.74
  31
0.0
   0
LINE
   8
LEVEL001
   6
CONTINUOUS
  62
7
  10
 408.657
  20
 1158.74
  30
0.0
  11
 408.655
  21
 1158.74
  31
0.0
   0
LINE
   8
LEVEL001
   6
CONTINUOUS
  62
7
  10
 408.655
  20
 1158.74
  30
0.0
  11
 408.653
  21
 1158.73
  31
0.0
   0
LINE
   8
LEVEL001
   6
CONTINUOUS
  62
7
  10
 408.653
  20
 1158.73
  30
0.0
  11
 408.651
  21
 1158.73
  31
0.0
   0
LINE
   8
LEVEL001
   6
CONTINUOUS
  62
7
  10
 408.651
  20
 1158.73
  30
0.0
  11
 408.649
  21
 1158.73
  31
0.0
   0
LINE
   8
LEVEL001
   6
CONTINUOUS
  62
7
  10
 408.649
  20
 1158.73
  30
0.0
  11
 408.647
  21
 1158.72
  31
0.0
   0
LINE
   8
LEVEL001
   6
CONTINUOUS
  62
7
  10
 408.647
  20
 1158.72
  30
0.0
  11
 408.645
  21
 1158.72
  31
0.0
   0
LINE
   8
LEVEL001
   6
CONTINUOUS
  62
7
  10
 408.645
  20
 1158.72
  30
0.0
  11
 408.644
  21
 1158.71
  31
0.0
   0
LINE
   8
LEVEL001
   6
CONTINUOUS
  62
7
  10
 408.644
  20
 1158.71
  30
0.0
  11
 408.642
  21
 1158.71
  31
0.0
   0
LINE
   8
LEVEL001
   6
CONTINUOUS
  62
7
  10
 408.642
  20
 1158.71
  30
0.0
  11
 408.640
  21
 1158.70
  31
0.0
   0
LINE
   8
LEVEL001
   6
CONTINUOUS
  62
7
  10
 408.640
  20
 1158.70
  30
0.0
  11
 408.638
  21
 1158.70
  31
0.0
   0
LINE
   8
LEVEL001
   6
CONTINUOUS
  62
7
  10
 408.638
  20
 1158.70
  30
0.0
  11
 408.636
  21
 1158.69
  31
0.0
   0
LINE
   8
LEVEL001
   6
CONTINUOUS
  62
7
  10
 408.636
  20
 1158.69
  30
0.0
  11
 408.634
  21
 1158.69
  31
0.0
   0
LINE
   8
LEVEL001
   6
CONTINUOUS
  62
7
  10
 408.634
  20
 1158.69
  30
0.0
  11
 408.632
  21
 1158.68
  31
0.0
   0
LINE
   8
LEVEL001
   6
CONTINUOUS
  62
7
  10
 408.632
  20
 1158.68
  30
0.0
  11
 408.630
  21
 1158.67
  31
0.0
   0
LINE
   8
LEVEL001
   6
CONTINUOUS
  62
7
  10
 408.630
  20
 1158.67
  30
0.0
  11
 408.629
  21
 1158.67
  31
0.0
   0
LINE
   8
LEVEL001
   6
CONTINUOUS
  62
7
  10
 408.629
  20
 1158.67
  30
0.0
  11
 408.627
  21
 1158.66
  31
0.0
   0
LINE
   8
LEVEL001
   6
CONTINUOUS
  62
7
  10
 408.627
  20
 1158.66
  30
0.0
  11
 408.625
  21
 1158.65
  31
0.0
   0
LINE
   8
LEVEL001
   6
CONTINUOUS
  62
7
  10
 408.625
  20
 1158.65
  30
0.0
  11
 408.623
  21
 1158.64
  31
0.0
   0
LINE
   8
LEVEL001
   6
CONTINUOUS
  62
7
  10
 408.623
  20
 1158.64
  30
0.0
  11
 408.621
  21
 1158.64
  31
0.0
   0
LINE
   8
LEVEL001
   6
CONTINUOUS
  62
7
  10
 408.621
  20
 1158.64
  30
0.0
  11
 408.619
  21
 1158.63
  31
0.0
   0
LINE
   8
LEVEL001
   6
CONTINUOUS
  62
7
  10
 408.619
  20
 1158.63
  30
0.0
  11
 408.617
  21
 1158.62
  31
0.0
   0
LINE
   8
LEVEL001
   6
CONTINUOUS
  62
7
  10
 408.617
  20
 1158.62
  30
0.0
  11
 408.615
  21
 1158.61
  31
0.0
   0
LINE
   8
LEVEL001
   6
CONTINUOUS
  62
7
  10
 408.615
  20
 1158.61
  30
0.0
  11
 408.614
  21
 1158.60
  31
0.0
   0
LINE
   8
LEVEL001
   6
CONTINUOUS
  62
7
  10
 408.614
  20
 1158.60
  30
0.0
  11
 408.612
  21
 1158.59
  31
0.0
   0
LINE
   8
LEVEL001
   6
CONTINUOUS
  62
7
  10
 408.612
  20
 1158.59
  30
0.0
  11
 408.610
  21
 1158.58
  31
0.0
   0
LINE
   8
LEVEL001
   6
CONTINUOUS
  62
7
  10
 408.610
  20
 1158.58
  30
0.0
  11
 408.608
  21
 1158.57
  31
0.0
   0
LINE
   8
LEVEL001
   6
CONTINUOUS
  62
7
  10
 408.608
  20
 1158.57
  30
0.0
  11
 408.606
  21
 1158.56
  31
0.0
   0
LINE
   8
LEVEL001
   6
CONTINUOUS
  62
7
  10
 408.606
  20
 1158.56
  30
0.0
  11
 408.604
  21
 1158.55
  31
0.0
   0
LINE
   8
LEVEL001
   6
CONTINUOUS
  62
7
  10
 408.604
  20
 1158.55
  30
0.0
  11
 408.603
  21
 1158.54
  31
0.0
   0
LINE
   8
LEVEL001
   6
CONTINUOUS
  62
7
  10
 408.603
  20
 1158.54
  30
0.0
  11
 408.601
  21
 1158.53
  31
0.0
   0
LINE
   8
LEVEL001
   6
CONTINUOUS
  62
7
  10
 408.601
  20
 1158.53
  30
0.0
  11
 408.599
  21
 1158.52
  31
0.0
   0
LINE
   8
LEVEL001
   6
CONTINUOUS
  62
7
  10
 408.599
  20
 1158.52
  30
0.0
  11
 408.597
  21
 1158.51
  31
0.0
   0
LINE
   8
LEVEL001
   6
CONTINUOUS
  62
7
  10
 408.597
  20
 1158.51
  30
0.0
  11
 408.595
  21
 1158.49
  31
0.0
   0
LINE
   8
LEVEL001
   6
CONTINUOUS
  62
7
  10
 408.595
  20
 1158.49
  30
0.0
  11
 408.593
  21
 1158.48
  31
0.0
   0
LINE
   8
LEVEL001
   6
CONTINUOUS
  62
7
  10
 408.593
  20
 1158.48
  30
0.0
  11
 408.591
  21
 1158.47
  31
0.0
   0
LINE
   8
LEVEL001
   6
CONTINUOUS
  62
7
  10
 408.591
  20
 1158.47
  30
0.0
  11
 408.590
  21
 1158.46
  31
0.0
   0
LINE
   8
LEVEL001
   6
CONTINUOUS
  62
7
  10
 408.590
  20
 1158.46
  30
0.0
  11
 408.588
  21
 1158.44
  31
0.0
   0
LINE
   8
LEVEL001
   6
CONTINUOUS
  62
7
  10
 408.588
  20
 1158.44
  30
0.0
  11
 408.586
  21
 1158.43
  31
0.0
   0
LINE
   8
LEVEL001
   6
CONTINUOUS
  62
7
  10
 408.586
  20
 1158.43
  30
0.0
  11
 408.584
  21
 1158.41
  31
0.0
   0
LINE
   8
LEVEL001
   6
CONTINUOUS
  62
7
  10
 408.584
  20
 1158.41
  30
0.0
  11
 408.582
  21
 1158.40
  31
0.0
   0
LINE
   8
LEVEL001
   6
CONTINUOUS
  62
7
  10
 408.582
  20
 1158.40
  30
0.0
  11
 408.581
  21
 1158.39
  31
0.0
   0
LINE
   8
LEVEL001
   6
CONTINUOUS
  62
7
  10
 408.581
  20
 1158.39
  30
0.0
  11
 408.579
  21
 1158.37
  31
0.0
   0
LINE
   8
LEVEL001
   6
CONTINUOUS
  62
7
  10
 408.579
  20
 1158.37
  30
0.0
  11
 408.577
  21
 1158.36
  31
0.0
   0
LINE
   8
LEVEL001
   6
CONTINUOUS
  62
7
  10
 408.577
  20
 1158.36
  30
0.0
  11
 408.575
  21
 1158.34
  31
0.0
   0
LINE
   8
LEVEL001
   6
CONTINUOUS
  62
7
  10
 408.575
  20
 1158.34
  30
0.0
  11
 408.573
  21
 1158.33
  31
0.0
   0
LINE
   8
LEVEL001
   6
CONTINUOUS
  62
7
  10
 408.573
  20
 1158.33
  30
0.0
  11
 408.572
  21
 1158.31
  31
0.0
   0
LINE
   8
LEVEL001
   6
CONTINUOUS
  62
7
  10
 408.572
  20
 1158.31
  30
0.0
  11
 408.570
  21
 1158.29
  31
0.0
   0
LINE
   8
LEVEL001
   6
CONTINUOUS
  62
7
  10
 408.570
  20
 1158.29
  30
0.0
  11
 408.568
  21
 1158.28
  31
0.0
   0
LINE
   8
LEVEL001
   6
CONTINUOUS
  62
7
  10
 408.568
  20
 1158.28
  30
0.0
  11
 408.566
  21
 1158.26
  31
0.0
   0
LINE
   8
LEVEL001
   6
CONTINUOUS
  62
7
  10
 408.566
  20
 1158.26
  30
0.0
  11
 408.564
  21
 1158.25
  31
0.0
   0
LINE
   8
LEVEL001
   6
CONTINUOUS
  62
7
  10
 408.564
  20
 1158.25
  30
0.0
  11
 408.563
  21
 1158.23
  31
0.0
   0
LINE
   8
LEVEL001
   6
CONTINUOUS
  62
7
  10
 408.563
  20
 1158.23
  30
0.0
  11
 408.561
  21
 1158.21
  31
0.0
   0
LINE
   8
LEVEL001
   6
CONTINUOUS
  62
7
  10
 408.561
  20
 1158.21
  30
0.0
  11
 408.559
  21
 1158.19
  31
0.0
   0
LINE
   8
LEVEL001
   6
CONTINUOUS
  62
7
  10
 408.559
  20
 1158.19
  30
0.0
  11
 408.557
  21
 1158.18
  31
0.0
   0
LINE
   8
LEVEL001
   6
CONTINUOUS
  62
7
  10
 408.557
  20
 1158.18
  30
0.0
  11
 408.555
  21
 1158.16
  31
0.0
   0
LINE
   8
LEVEL001
   6
CONTINUOUS
  62
7
  10
 408.555
  20
 1158.16
  30
0.0
  11
 408.554
  21
 1158.14
  31
0.0
   0
LINE
   8
LEVEL001
   6
CONTINUOUS
  62
7
  10
 408.554
  20
 1158.14
  30
0.0
  11
 408.552
  21
 1158.12
  31
0.0
   0
LINE
   8
LEVEL001
   6
CONTINUOUS
  62
7
  10
 408.552
  20
 1158.12
  30
0.0
  11
 408.550
  21
 1158.10
  31
0.0
   0
LINE
   8
LEVEL001
   6
CONTINUOUS
  62
7
  10
 408.550
  20
 1158.10
  30
0.0
  11
 408.548
  21
 1158.08
  31
0.0
   0
LINE
   8
LEVEL001
   6
CONTINUOUS
  62
7
  10
 408.548
  20
 1158.08
  30
0.0
  11
 408.547
  21
 1158.06
  31
0.0
   0
LINE
   8
LEVEL001
   6
CONTINUOUS
  62
7
  10
 408.547
  20
 1158.06
  30
0.0
  11
 408.545
  21
 1158.04
  31
0.0
   0
LINE
   8
LEVEL001
   6
CONTINUOUS
  62
7
  10
 408.545
  20
 1158.04
  30
0.0
  11
 408.543
  21
 1158.02
  31
0.0
   0
LINE
   8
LEVEL001
   6
CONTINUOUS
  62
7
  10
 408.543
  20
 1158.02
  30
0.0
  11
 408.541
  21
 1158.00
  31
0.0
   0
LINE
   8
LEVEL001
   6
CONTINUOUS
  62
7
  10
 408.541
  20
 1142.00
  30
0.0
  11
 408.543
  21
 1141.98
  31
0.0
   0
LINE
   8
LEVEL001
   6
CONTINUOUS
  62
7
  10
 408.543
  20
 1141.98
  30
0.0
  11
 408.545
  21
 1141.96
  31
0.0
   0
LINE
   8
LEVEL001
   6
CONTINUOUS
  62
7
  10
 408.545
  20
 1141.96
  30
0.0
  11
 408.547
  21
 1141.94
  31
0.0
   0
LINE
   8
LEVEL001
   6
CONTINUOUS
  62
7
  10
 408.547
  20
 1141.94
  30
0.0
  11
 408.548
  21
 1141.92
  31
0.0
   0
LINE
   8
LEVEL001
   6
CONTINUOUS
  62
7
  10
 408.548
  20
 1141.92
  30
0.0
  11
 408.550
  21
 1141.90
  31
0.0
   0
LINE
   8
LEVEL001
   6
CONTINUOUS
  62
7
  10
 408.550
  20
 1141.90
  30
0.0
  11
 408.552
  21
 1141.88
  31
0.0
   0
LINE
   8
LEVEL001
   6
CONTINUOUS
  62
7
  10
 408.552
  20
 1141.88
  30
0.0
  11
 408.554
  21
 1141.86
  31
0.0
   0
LINE
   8
LEVEL001
   6
CONTINUOUS
  62
7
  10
 408.554
  20
 1141.86
  30
0.0
  11
 408.555
  21
 1141.84
  31
0.0
   0
LINE
   8
LEVEL001
   6
CONTINUOUS
  62
7
  10
 408.555
  20
 1141.84
  30
0.0
  11
 408.557
  21
 1141.82
  31
0.0
   0
LINE
   8
LEVEL001
   6
CONTINUOUS
  62
7
  10
 408.557
  20
 1141.82
  30
0.0
  11
 408.559
  21
 1141.81
  31
0.0
   0
LINE
   8
LEVEL001
   6
CONTINUOUS
  62
7
  10
 408.559
  20
 1141.81
  30
0.0
  11
 408.561
  21
 1141.79
  31
0.0
   0
LINE
   8
LEVEL001
   6
CONTINUOUS
  62
7
  10
 408.561
  20
 1141.79
  30
0.0
  11
 408.563
  21
 1141.77
  31
0.0
   0
LINE
   8
LEVEL001
   6
CONTINUOUS
  62
7
  10
 408.563
  20
 1141.77
  30
0.0
  11
 408.564
  21
 1141.75
  31
0.0
   0
LINE
   8
LEVEL001
   6
CONTINUOUS
  62
7
  10
 408.564
  20
 1141.75
  30
0.0
  11
 408.566
  21
 1141.74
  31
0.0
   0
LINE
   8
LEVEL001
   6
CONTINUOUS
  62
7
  10
 408.566
  20
 1141.74
  30
0.0
  11
 408.568
  21
 1141.72
  31
0.0
   0
LINE
   8
LEVEL001
   6
CONTINUOUS
  62
7
  10
 408.568
  20
 1141.72
  30
0.0
  11
 408.570
  21
 1141.71
  31
0.0
   0
LINE
   8
LEVEL001
   6
CONTINUOUS
  62
7
  10
 408.570
  20
 1141.71
  30
0.0
  11
 408.572
  21
 1141.69
  31
0.0
   0
LINE
   8
LEVEL001
   6
CONTINUOUS
  62
7
  10
 408.572
  20
 1141.69
  30
0.0
  11
 408.573
  21
 1141.67
  31
0.0
   0
LINE
   8
LEVEL001
   6
CONTINUOUS
  62
7
  10
 408.573
  20
 1141.67
  30
0.0
  11
 408.575
  21
 1141.66
  31
0.0
   0
LINE
   8
LEVEL001
   6
CONTINUOUS
  62
7
  10
 408.575
  20
 1141.66
  30
0.0
  11
 408.577
  21
 1141.64
  31
0.0
   0
LINE
   8
LEVEL001
   6
CONTINUOUS
  62
7
  10
 408.577
  20
 1141.64
  30
0.0
  11
 408.579
  21
 1141.63
  31
0.0
   0
LINE
   8
LEVEL001
   6
CONTINUOUS
  62
7
  10
 408.579
  20
 1141.63
  30
0.0
  11
 408.581
  21
 1141.61
  31
0.0
   0
LINE
   8
LEVEL001
   6
CONTINUOUS
  62
7
  10
 408.581
  20
 1141.61
  30
0.0
  11
 408.582
  21
 1141.60
  31
0.0
   0
LINE
   8
LEVEL001
   6
CONTINUOUS
  62
7
  10
 408.582
  20
 1141.60
  30
0.0
  11
 408.584
  21
 1141.59
  31
0.0
   0
LINE
   8
LEVEL001
   6
CONTINUOUS
  62
7
  10
 408.584
  20
 1141.59
  30
0.0
  11
 408.586
  21
 1141.57
  31
0.0
   0
LINE
   8
LEVEL001
   6
CONTINUOUS
  62
7
  10
 408.586
  20
 1141.57
  30
0.0
  11
 408.588
  21
 1141.56
  31
0.0
   0
LINE
   8
LEVEL001
   6
CONTINUOUS
  62
7
  10
 408.588
  20
 1141.56
  30
0.0
  11
 408.590
  21
 1141.54
  31
0.0
   0
LINE
   8
LEVEL001
   6
CONTINUOUS
  62
7
  10
 408.590
  20
 1141.54
  30
0.0
  11
 408.591
  21
 1141.53
  31
0.0
   0
LINE
   8
LEVEL001
   6
CONTINUOUS
  62
7
  10
 408.591
  20
 1141.53
  30
0.0
  11
 408.593
  21
 1141.52
  31
0.0
   0
LINE
   8
LEVEL001
   6
CONTINUOUS
  62
7
  10
 408.593
  20
 1141.52
  30
0.0
  11
 408.595
  21
 1141.51
  31
0.0
   0
LINE
   8
LEVEL001
   6
CONTINUOUS
  62
7
  10
 408.595
  20
 1141.51
  30
0.0
  11
 408.597
  21
 1141.49
  31
0.0
   0
LINE
   8
LEVEL001
   6
CONTINUOUS
  62
7
  10
 408.597
  20
 1141.49
  30
0.0
  11
 408.599
  21
 1141.48
  31
0.0
   0
LINE
   8
LEVEL001
   6
CONTINUOUS
  62
7
  10
 408.599
  20
 1141.48
  30
0.0
  11
 408.601
  21
 1141.47
  31
0.0
   0
LINE
   8
LEVEL001
   6
CONTINUOUS
  62
7
  10
 408.601
  20
 1141.47
  30
0.0
  11
 408.603
  21
 1141.46
  31
0.0
   0
LINE
   8
LEVEL001
   6
CONTINUOUS
  62
7
  10
 408.603
  20
 1141.46
  30
0.0
  11
 408.604
  21
 1141.45
  31
0.0
   0
LINE
   8
LEVEL001
   6
CONTINUOUS
  62
7
  10
 408.604
  20
 1141.45
  30
0.0
  11
 408.606
  21
 1141.44
  31
0.0
   0
LINE
   8
LEVEL001
   6
CONTINUOUS
  62
7
  10
 408.606
  20
 1141.44
  30
0.0
  11
 408.608
  21
 1141.43
  31
0.0
   0
LINE
   8
LEVEL001
   6
CONTINUOUS
  62
7
  10
 408.608
  20
 1141.43
  30
0.0
  11
 408.610
  21
 1141.42
  31
0.0
   0
LINE
   8
LEVEL001
   6
CONTINUOUS
  62
7
  10
 408.610
  20
 1141.42
  30
0.0
  11
 408.612
  21
 1141.41
  31
0.0
   0
LINE
   8
LEVEL001
   6
CONTINUOUS
  62
7
  10
 408.612
  20
 1141.41
  30
0.0
  11
 408.614
  21
 1141.40
  31
0.0
   0
LINE
   8
LEVEL001
   6
CONTINUOUS
  62
7
  10
 408.614
  20
 1141.40
  30
0.0
  11
 408.615
  21
 1141.39
  31
0.0
   0
LINE
   8
LEVEL001
   6
CONTINUOUS
  62
7
  10
 408.615
  20
 1141.39
  30
0.0
  11
 408.617
  21
 1141.38
  31
0.0
   0
LINE
   8
LEVEL001
   6
CONTINUOUS
  62
7
  10
 408.617
  20
 1141.38
  30
0.0
  11
 408.619
  21
 1141.37
  31
0.0
   0
LINE
   8
LEVEL001
   6
CONTINUOUS
  62
7
  10
 408.619
  20
 1141.37
  30
0.0
  11
 408.621
  21
 1141.36
  31
0.0
   0
LINE
   8
LEVEL001
   6
CONTINUOUS
  62
7
  10
 408.621
  20
 1141.36
  30
0.0
  11
 408.623
  21
 1141.36
  31
0.0
   0
LINE
   8
LEVEL001
   6
CONTINUOUS
  62
7
  10
 408.623
  20
 1141.36
  30
0.0
  11
 408.625
  21
 1141.35
  31
0.0
   0
LINE
   8
LEVEL001
   6
CONTINUOUS
  62
7
  10
 408.625
  20
 1141.35
  30
0.0
  11
 408.627
  21
 1141.34
  31
0.0
   0
LINE
   8
LEVEL001
   6
CONTINUOUS
  62
7
  10
 408.627
  20
 1141.34
  30
0.0
  11
 408.629
  21
 1141.33
  31
0.0
   0
LINE
   8
LEVEL001
   6
CONTINUOUS
  62
7
  10
 408.629
  20
 1141.33
  30
0.0
  11
 408.630
  21
 1141.33
  31
0.0
   0
LINE
   8
LEVEL001
   6
CONTINUOUS
  62
7
  10
 408.630
  20
 1141.33
  30
0.0
  11
 408.632
  21
 1141.32
  31
0.0
   0
LINE
   8
LEVEL001
   6
CONTINUOUS
  62
7
  10
 408.632
  20
 1141.32
  30
0.0
  11
 408.634
  21
 1141.31
  31
0.0
   0
LINE
   8
LEVEL001
   6
CONTINUOUS
  62
7
  10
 408.634
  20
 1141.31
  30
0.0
  11
 408.636
  21
 1141.31
  31
0.0
   0
LINE
   8
LEVEL001
   6
CONTINUOUS
  62
7
  10
 408.636
  20
 1141.31
  30
0.0
  11
 408.638
  21
 1141.30
  31
0.0
   0
LINE
   8
LEVEL001
   6
CONTINUOUS
  62
7
  10
 408.638
  20
 1141.30
  30
0.0
  11
 408.640
  21
 1141.30
  31
0.0
   0
LINE
   8
LEVEL001
   6
CONTINUOUS
  62
7
  10
 408.640
  20
 1141.30
  30
0.0
  11
 408.642
  21
 1141.29
  31
0.0
   0
LINE
   8
LEVEL001
   6
CONTINUOUS
  62
7
  10
 408.642
  20
 1141.29
  30
0.0
  11
 408.644
  21
 1141.29
  31
0.0
   0
LINE
   8
LEVEL001
   6
CONTINUOUS
  62
7
  10
 408.644
  20
 1141.29
  30
0.0
  11
 408.645
  21
 1141.28
  31
0.0
   0
LINE
   8
LEVEL001
   6
CONTINUOUS
  62
7
  10
 408.645
  20
 1141.28
  30
0.0
  11
 408.647
  21
 1141.28
  31
0.0
   0
LINE
   8
LEVEL001
   6
CONTINUOUS
  62
7
  10
 408.647
  20
 1141.28
  30
0.0
  11
 408.649
  21
 1141.27
  31
0.0
   0
LINE
   8
LEVEL001
   6
CONTINUOUS
  62
7
  10
 408.649
  20
 1141.27
  30
0.0
  11
 408.651
  21
 1141.27
  31
0.0
   0
LINE
   8
LEVEL001
   6
CONTINUOUS
  62
7
  10
 408.651
  20
 1141.27
  30
0.0
  11
 408.653
  21
 1141.27
  31
0.0
   0
LINE
   8
LEVEL001
   6
CONTINUOUS
  62
7
  10
 408.653
  20
 1141.27
  30
0.0
  11
 408.655
  21
 1141.26
  31
0.0
   0
LINE
   8
LEVEL001
   6
CONTINUOUS
  62
7
  10
 408.655
  20
 1141.26
  30
0.0
  11
 408.657
  21
 1141.26
  31
0.0
   0
LINE
   8
LEVEL001
   6
CONTINUOUS
  62
7
  10
 408.657
  20
 1141.26
  30
0.0
  11
 408.659
  21
 1141.26
  31
0.0
   0
LINE
   8
LEVEL001
   6
CONTINUOUS
  62
7
  10
 408.659
  20
 1141.26
  30
0.0
  11
 408.661
  21
 1141.26
  31
0.0
   0
LINE
   8
LEVEL001
   6
CONTINUOUS
  62
7
  10
 408.661
  20
 1141.26
  30
0.0
  11
 408.662
  21
 1141.26
  31
0.0
   0
LINE
   8
LEVEL001
   6
CONTINUOUS
  62
7
  10
 408.662
  20
 1141.26
  30
0.0
  11
 408.664
  21
 1141.25
  31
0.0
   0
LINE
   8
LEVEL001
   6
CONTINUOUS
  62
7
  10
 408.664
  20
 1141.25
  30
0.0
  11
 408.666
  21
 1141.25
  31
0.0
   0
LINE
   8
LEVEL001
   6
CONTINUOUS
  62
7
  10
 408.666
  20
 1141.25
  30
0.0
  11
 408.668
  21
 1141.25
  31
0.0
   0
LINE
   8
LEVEL001
   6
CONTINUOUS
  62
7
  10
 408.668
  20
 1141.25
  30
0.0
  11
 408.670
  21
 1141.25
  31
0.0
   0
LINE
   8
LEVEL001
   6
CONTINUOUS
  62
7
  10
 408.670
  20
 1141.25
  30
0.0
  11
 408.672
  21
 1141.25
  31
0.0
   0
LINE
   8
LEVEL001
   6
CONTINUOUS
  62
7
  10
 408.672
  20
 1141.25
  30
0.0
  11
 408.674
  21
 1141.25
  31
0.0
   0
ARC
   8
LEVEL001
   6
CONTINUOUS
  62
7
  10
 385.001
  20
 965.082
  30
0.0
  40
 1.00000
  50
 180.000
  51
0.0
   0
LINE
   8
LEVEL001
   6
CONTINUOUS
  62
7
  10
 386.001
  20
 965.082
  30
0.0
  11
 386.000
  21
 965.122
  31
0.0
   0
LINE
   8
LEVEL001
   6
CONTINUOUS
  62
7
  10
 386.000
  20
 965.122
  30
0.0
  11
 385.997
  21
 965.162
  31
0.0
   0
LINE
   8
LEVEL001
   6
CONTINUOUS
  62
7
  10
 385.997
  20
 965.162
  30
0.0
  11
 385.992
  21
 965.202
  31
0.0
   0
LINE
   8
LEVEL001
   6
CONTINUOUS
  62
7
  10
 385.992
  20
 965.202
  30
0.0
  11
 385.986
  21
 965.242
  31
0.0
   0
LINE
   8
LEVEL001
   6
CONTINUOUS
  62
7
  10
 385.986
  20
 965.242
  30
0.0
  11
 385.977
  21
 965.281
  31
0.0
   0
LINE
   8
LEVEL001
   6
CONTINUOUS
  62
7
  10
 385.977
  20
 965.281
  30
0.0
  11
 385.967
  21
 965.321
  31
0.0
   0
LINE
   8
LEVEL001
   6
CONTINUOUS
  62
7
  10
 385.967
  20
 965.321
  30
0.0
  11
 385.955
  21
 965.359
  31
0.0
   0
LINE
   8
LEVEL001
   6
CONTINUOUS
  62
7
  10
 385.955
  20
 965.359
  30
0.0
  11
 385.940
  21
 965.397
  31
0.0
   0
LINE
   8
LEVEL001
   6
CONTINUOUS
  62
7
  10
 385.940
  20
 965.397
  30
0.0
  11
 385.925
  21
 965.435
  31
0.0
   0
LINE
   8
LEVEL001
   6
CONTINUOUS
  62
7
  10
 385.925
  20
 965.435
  30
0.0
  11
 385.907
  21
 965.471
  31
0.0
   0
LINE
   8
LEVEL001
   6
CONTINUOUS
  62
7
  10
 385.907
  20
 965.471
  30
0.0
  11
 385.888
  21
 965.508
  31
0.0
   0
LINE
   8
LEVEL001
   6
CONTINUOUS
  62
7
  10
 385.888
  20
 965.508
  30
0.0
  11
 385.867
  21
 965.543
  31
0.0
   0
LINE
   8
LEVEL001
   6
CONTINUOUS
  62
7
  10
 385.867
  20
 965.543
  30
0.0
  11
 385.844
  21
 965.577
  31
0.0
   0
LINE
   8
LEVEL001
   6
CONTINUOUS
  62
7
  10
 385.844
  20
 965.577
  30
0.0
  11
 385.820
  21
 965.611
  31
0.0
   0
LINE
   8
LEVEL001
   6
CONTINUOUS
  62
7
  10
 385.820
  20
 965.611
  30
0.0
  11
 385.794
  21
 965.643
  31
0.0
   0
LINE
   8
LEVEL001
   6
CONTINUOUS
  62
7
  10
 385.794
  20
 965.643
  30
0.0
  11
 385.767
  21
 965.674
  31
0.0
   0
LINE
   8
LEVEL001
   6
CONTINUOUS
  62
7
  10
 385.767
  20
 965.674
  30
0.0
  11
 385.738
  21
 965.705
  31
0.0
   0
LINE
   8
LEVEL001
   6
CONTINUOUS
  62
7
  10
 385.738
  20
 965.705
  30
0.0
  11
 385.708
  21
 965.734
  31
0.0
   0
LINE
   8
LEVEL001
   6
CONTINUOUS
  62
7
  10
 385.708
  20
 965.734
  30
0.0
  11
 385.676
  21
 965.761
  31
0.0
   0
LINE
   8
LEVEL001
   6
CONTINUOUS
  62
7
  10
 385.676
  20
 965.761
  30
0.0
  11
 385.644
  21
 965.788
  31
0.0
   0
LINE
   8
LEVEL001
   6
CONTINUOUS
  62
7
  10
 385.644
  20
 965.788
  30
0.0
  11
 385.610
  21
 965.813
  31
0.0
   0
LINE
   8
LEVEL001
   6
CONTINUOUS
  62
7
  10
 385.610
  20
 965.813
  30
0.0
  11
 385.574
  21
 965.837
  31
0.0
   0
LINE
   8
LEVEL001
   6
CONTINUOUS
  62
7
  10
 385.574
  20
 965.837
  30
0.0
  11
 385.538
  21
 965.859
  31
0.0
   0
LINE
   8
LEVEL001
   6
CONTINUOUS
  62
7
  10
 385.538
  20
 965.859
  30
0.0
  11
 385.501
  21
 965.880
  31
0.0
   0
LINE
   8
LEVEL001
   6
CONTINUOUS
  62
7
  10
 385.501
  20
 965.880
  30
0.0
  11
 385.463
  21
 965.899
  31
0.0
   0
LINE
   8
LEVEL001
   6
CONTINUOUS
  62
7
  10
 385.463
  20
 965.899
  30
0.0
  11
 385.423
  21
 965.917
  31
0.0
   0
LINE
   8
LEVEL001
   6
CONTINUOUS
  62
7
  10
 385.423
  20
 965.917
  30
0.0
  11
 385.383
  21
 965.933
  31
0.0
   0
LINE
   8
LEVEL001
   6
CONTINUOUS
  62
7
  10
 385.383
  20
 965.933
  30
0.0
  11
 385.343
  21
 965.948
  31
0.0
   0
LINE
   8
LEVEL001
   6
CONTINUOUS
  62
7
  10
 385.343
  20
 965.948
  30
0.0
  11
 385.301
  21
 965.961
  31
0.0
   0
LINE
   8
LEVEL001
   6
CONTINUOUS
  62
7
  10
 385.301
  20
 965.961
  30
0.0
  11
 385.260
  21
 965.972
  31
0.0
   0
LINE
   8
LEVEL001
   6
CONTINUOUS
  62
7
  10
 385.260
  20
 965.972
  30
0.0
  11
 385.217
  21
 965.982
  31
0.0
   0
LINE
   8
LEVEL001
   6
CONTINUOUS
  62
7
  10
 385.217
  20
 965.982
  30
0.0
  11
 385.174
  21
 965.990
  31
0.0
   0
LINE
   8
LEVEL001
   6
CONTINUOUS
  62
7
  10
 385.174
  20
 965.990
  30
0.0
  11
 385.131
  21
 965.996
  31
0.0
   0
LINE
   8
LEVEL001
   6
CONTINUOUS
  62
7
  10
 385.131
  20
 965.996
  30
0.0
  11
 385.088
  21
 966.000
  31
0.0
   0
LINE
   8
LEVEL001
   6
CONTINUOUS
  62
7
  10
 385.088
  20
 966.000
  30
0.0
  11
 385.044
  21
 966.003
  31
0.0
   0
LINE
   8
LEVEL001
   6
CONTINUOUS
  62
7
  10
 385.044
  20
 966.003
  30
0.0
  11
 385.001
  21
 966.004
  31
0.0
   0
LINE
   8
LEVEL001
   6
CONTINUOUS
  62
7
  10
 385.001
  20
 966.004
  30
0.0
  11
 384.957
  21
 966.003
  31
0.0
   0
LINE
   8
LEVEL001
   6
CONTINUOUS
  62
7
  10
 384.957
  20
 966.003
  30
0.0
  11
 384.914
  21
 966.000
  31
0.0
   0
LINE
   8
LEVEL001
   6
CONTINUOUS
  62
7
  10
 384.914
  20
 966.000
  30
0.0
  11
 384.870
  21
 965.996
  31
0.0
   0
LINE
   8
LEVEL001
   6
CONTINUOUS
  62
7
  10
 384.870
  20
 965.996
  30
0.0
  11
 384.827
  21
 965.990
  31
0.0
   0
LINE
   8
LEVEL001
   6
CONTINUOUS
  62
7
  10
 384.827
  20
 965.990
  30
0.0
  11
 384.784
  21
 965.982
  31
0.0
   0
LINE
   8
LEVEL001
   6
CONTINUOUS
  62
7
  10
 384.784
  20
 965.982
  30
0.0
  11
 384.742
  21
 965.972
  31
0.0
   0
LINE
   8
LEVEL001
   6
CONTINUOUS
  62
7
  10
 384.742
  20
 965.972
  30
0.0
  11
 384.700
  21
 965.961
  31
0.0
   0
LINE
   8
LEVEL001
   6
CONTINUOUS
  62
7
  10
 384.700
  20
 965.961
  30
0.0
  11
 384.659
  21
 965.948
  31
0.0
   0
LINE
   8
LEVEL001
   6
CONTINUOUS
  62
7
  10
 384.659
  20
 965.948
  30
0.0
  11
 384.618
  21
 965.933
  31
0.0
   0
LINE
   8
LEVEL001
   6
CONTINUOUS
  62
7
  10
 384.618
  20
 965.933
  30
0.0
  11
 384.578
  21
 965.917
  31
0.0
   0
LINE
   8
LEVEL001
   6
CONTINUOUS
  62
7
  10
 384.578
  20
 965.917
  30
0.0
  11
 384.539
  21
 965.899
  31
0.0
   0
LINE
   8
LEVEL001
   6
CONTINUOUS
  62
7
  10
 384.539
  20
 965.899
  30
0.0
  11
 384.501
  21
 965.880
  31
0.0
   0
LINE
   8
LEVEL001
   6
CONTINUOUS
  62
7
  10
 384.501
  20
 965.880
  30
0.0
  11
 384.463
  21
 965.859
  31
0.0
   0
LINE
   8
LEVEL001
   6
CONTINUOUS
  62
7
  10
 384.463
  20
 965.859
  30
0.0
  11
 384.427
  21
 965.837
  31
0.0
   0
LINE
   8
LEVEL001
   6
CONTINUOUS
  62
7
  10
 384.427
  20
 965.837
  30
0.0
  11
 384.392
  21
 965.813
  31
0.0
   0
LINE
   8
LEVEL001
   6
CONTINUOUS
  62
7
  10
 384.392
  20
 965.813
  30
0.0
  11
 384.358
  21
 965.788
  31
0.0
   0
LINE
   8
LEVEL001
   6
CONTINUOUS
  62
7
  10
 384.358
  20
 965.788
  30
0.0
  11
 384.325
  21
 965.761
  31
0.0
   0
LINE
   8
LEVEL001
   6
CONTINUOUS
  62
7
  10
 384.325
  20
 965.761
  30
0.0
  11
 384.294
  21
 965.734
  31
0.0
   0
LINE
   8
LEVEL001
   6
CONTINUOUS
  62
7
  10
 384.294
  20
 965.734
  30
0.0
  11
 384.264
  21
 965.705
  31
0.0
   0
LINE
   8
LEVEL001
   6
CONTINUOUS
  62
7
  10
 384.264
  20
 965.705
  30
0.0
  11
 384.235
  21
 965.674
  31
0.0
   0
LINE
   8
LEVEL001
   6
CONTINUOUS
  62
7
  10
 384.235
  20
 965.674
  30
0.0
  11
 384.207
  21
 965.643
  31
0.0
   0
LINE
   8
LEVEL001
   6
CONTINUOUS
  62
7
  10
 384.207
  20
 965.643
  30
0.0
  11
 384.182
  21
 965.611
  31
0.0
   0
LINE
   8
LEVEL001
   6
CONTINUOUS
  62
7
  10
 384.182
  20
 965.611
  30
0.0
  11
 384.157
  21
 965.577
  31
0.0
   0
LINE
   8
LEVEL001
   6
CONTINUOUS
  62
7
  10
 384.157
  20
 965.577
  30
0.0
  11
 384.135
  21
 965.543
  31
0.0
   0
LINE
   8
LEVEL001
   6
CONTINUOUS
  62
7
  10
 384.135
  20
 965.543
  30
0.0
  11
 384.114
  21
 965.508
  31
0.0
   0
LINE
   8
LEVEL001
   6
CONTINUOUS
  62
7
  10
 384.114
  20
 965.508
  30
0.0
  11
 384.094
  21
 965.471
  31
0.0
   0
LINE
   8
LEVEL001
   6
CONTINUOUS
  62
7
  10
 384.094
  20
 965.471
  30
0.0
  11
 384.077
  21
 965.435
  31
0.0
   0
LINE
   8
LEVEL001
   6
CONTINUOUS
  62
7
  10
 384.077
  20
 965.435
  30
0.0
  11
 384.061
  21
 965.397
  31
0.0
   0
LINE
   8
LEVEL001
   6
CONTINUOUS
  62
7
  10
 384.061
  20
 965.397
  30
0.0
  11
 384.047
  21
 965.359
  31
0.0
   0
LINE
   8
LEVEL001
   6
CONTINUOUS
  62
7
  10
 384.047
  20
 965.359
  30
0.0
  11
 384.035
  21
 965.321
  31
0.0
   0
LINE
   8
LEVEL001
   6
CONTINUOUS
  62
7
  10
 384.035
  20
 965.321
  30
0.0
  11
 384.024
  21
 965.281
  31
0.0
   0
LINE
   8
LEVEL001
   6
CONTINUOUS
  62
7
  10
 384.024
  20
 965.281
  30
0.0
  11
 384.016
  21
 965.242
  31
0.0
   0
LINE
   8
LEVEL001
   6
CONTINUOUS
  62
7
  10
 384.016
  20
 965.242
  30
0.0
  11
 384.009
  21
 965.202
  31
0.0
   0
LINE
   8
LEVEL001
   6
CONTINUOUS
  62
7
  10
 384.009
  20
 965.202
  30
0.0
  11
 384.005
  21
 965.162
  31
0.0
   0
LINE
   8
LEVEL001
   6
CONTINUOUS
  62
7
  10
 384.005
  20
 965.162
  30
0.0
  11
 384.002
  21
 965.122
  31
0.0
   0
LINE
   8
LEVEL001
   6
CONTINUOUS
  62
7
  10
 384.002
  20
 965.122
  30
0.0
  11
 384.001
  21
 965.082
  31
0.0
   0
LINE
   8
LEVEL001
   6
DASHDOT
  62
1
  10
 207.500
  20
 1150.00
  30
0.0
  11
 495.000
  21
 1150.00
  31
0.0
   0
LINE
   8
LEVEL001
   6
DASHDOT
  62
1
  10
 275.000
  20
 1320.00
  30
0.0
  11
 275.000
  21
 1240.00
  31
0.0
   0
LINE
   8
LEVEL001
   6
DASHDOT
  62
1
  10
 235.000
  20
 1280.00
  30
0.0
  11
 315.000
  21
 1280.00
  31
0.0
   0
LINE
   8
LEVEL001
   6
DASHDOT
  62
1
  10
 385.000
  20
 1280.00
  30
0.0
  11
 465.000
  21
 1280.00
  31
0.0
   0
LINE
   8
LEVEL001
   6
DASHDOT
  62
1
  10
 425.000
  20
 1320.00
  30
0.0
  11
 425.000
  21
 1240.00
  31
0.0
   0
LINE
   8
LEVEL001
   6
DASHDOT
  62
1
  10
 132.500
  20
 1038.00
  30
0.0
  11
 570.000
  21
 1038.00
  31
0.0
   0
LINE
   8
LEVEL001
   6
DASHDOT
  62
1
  10
 425.000
  20
 995.000
  30
0.0
  11
 425.000
  21
 915.000
  31
0.0
   0
LINE
   8
LEVEL001
   6
DASHDOT
  62
1
  10
 385.000
  20
 955.000
  30
0.0
  11
 465.000
  21
 955.000
  31
0.0
   0
LINE
   8
LEVEL001
   6
DASHDOT
  62
1
  10
 235.000
  20
 955.000
  30
0.0
  11
 315.000
  21
 955.000
  31
0.0
   0
LINE
   8
LEVEL001
   6
DASHDOT
  62
1
  10
 275.000
  20
 915.000
  30
0.0
  11
 275.000
  21
 995.000
  31
0.0
   0
LINE
   8
LEVEL001
   6
DASHDOT
  62
1
  10
 350.000
  20
 895.000
  30
0.0
  11
 350.000
  21
 1332.50
  31
0.0
   0
LINE
   8
LEVEL003
   6
CONTINUOUS
  62
3
  10
 502.500
  20
 622.500
  30
0.0
  11
 502.500
  21
 652.000
  31
0.0
   0
LINE
   8
LEVEL003
   6
CONTINUOUS
  62
3
  10
 552.500
  20
 622.500
  30
0.0
  11
 552.500
  21
 652.000
  31
0.0
   0
LINE
   8
LEVEL003
   6
CONTINUOUS
  62
3
  10
 502.500
  20
 650.000
  30
0.0
  11
 552.500
  21
 650.000
  31
0.0
   0
LINE
   8
LEVEL003
   6
CONTINUOUS
  62
3
  10
 502.500
  20
 650.000
  30
0.0
  11
 505.500
  21
 649.196
  31
0.0
   0
LINE
   8
LEVEL003
   6
CONTINUOUS
  62
3
  10
 502.500
  20
 650.000
  30
0.0
  11
 505.500
  21
 650.804
  31
0.0
   0
LINE
   8
LEVEL003
   6
CONTINUOUS
  62
3
  10
 552.500
  20
 650.000
  30
0.0
  11
 549.500
  21
 650.804
  31
0.0
   0
LINE
   8
LEVEL003
   6
CONTINUOUS
  62
3
  10
 552.500
  20
 650.000
  30
0.0
  11
 549.500
  21
 649.196
  31
0.0
   0
TEXT
   8
LEVEL003
  62
3
  10
 525.500
  20
 651.714
  30
0.0
  40
 4.00000
   1
50
  41
 0.500000
   7
STANDARD
  72
1
  11
 527.500
  21
 651.714
  31
0.0
   0
LINE
   8
LEVEL003
   6
CONTINUOUS
  62
3
  10
 494.500
  20
 617.771
  30
0.0
  11
 494.500
  21
 682.000
  31
0.0
   0
LINE
   8
LEVEL003
   6
CONTINUOUS
  62
3
  10
 552.500
  20
 622.500
  30
0.0
  11
 552.500
  21
 682.000
  31
0.0
   0
LINE
   8
LEVEL003
   6
CONTINUOUS
  62
3
  10
 494.500
  20
 680.000
  30
0.0
  11
 552.500
  21
 680.000
  31
0.0
   0
LINE
   8
LEVEL003
   6
CONTINUOUS
  62
3
  10
 494.500
  20
 680.000
  30
0.0
  11
 497.500
  21
 679.196
  31
0.0
   0
LINE
   8
LEVEL003
   6
CONTINUOUS
  62
3
  10
 494.500
  20
 680.000
  30
0.0
  11
 497.500
  21
 680.804
  31
0.0
   0
LINE
   8
LEVEL003
   6
CONTINUOUS
  62
3
  10
 552.500
  20
 680.000
  30
0.0
  11
 549.500
  21
 680.804
  31
0.0
   0
LINE
   8
LEVEL003
   6
CONTINUOUS
  62
3
  10
 552.500
  20
 680.000
  30
0.0
  11
 549.500
  21
 679.196
  31
0.0
   0
TEXT
   8
LEVEL003
  62
3
  10
 521.500
  20
 681.714
  30
0.0
  40
 4.00000
   1
58
  41
 0.500000
   7
STANDARD
  72
1
  11
 523.500
  21
 681.714
  31
0.0
   0
LINE
   8
LEVEL003
   6
CONTINUOUS
  62
3
  10
 1060.00
  20
 529.000
  30
0.0
  11
 1102.00
  21
 529.000
  31
0.0
   0
LINE
   8
LEVEL003
   6
CONTINUOUS
  62
3
  10
 1066.00
  20
 505.000
  30
0.0
  11
 1102.00
  21
 505.000
  31
0.0
   0
LINE
   8
LEVEL003
   6
CONTINUOUS
  62
3
  10
 1100.00
  20
 529.000
  30
0.0
  11
 1100.00
  21
 505.000
  31
0.0
   0
LINE
   8
LEVEL003
   6
CONTINUOUS
  62
3
  10
 1100.00
  20
 529.000
  30
0.0
  11
 1099.20
  21
 526.000
  31
0.0
   0
LINE
   8
LEVEL003
   6
CONTINUOUS
  62
3
  10
 1100.00
  20
 529.000
  30
0.0
  11
 1100.80
  21
 526.000
  31
0.0
   0
LINE
   8
LEVEL003
   6
CONTINUOUS
  62
3
  10
 1100.00
  20
 505.000
  30
0.0
  11
 1100.80
  21
 508.000
  31
0.0
   0
LINE
   8
LEVEL003
   6
CONTINUOUS
  62
3
  10
 1100.00
  20
 505.000
  30
0.0
  11
 1099.20
  21
 508.000
  31
0.0
   0
TEXT
   8
LEVEL003
  62
3
  10
 1098.29
  20
 515.000
  30
0.0
  40
 4.00000
   1
24
  50
 90.0000
  41
 0.500000
   7
STANDARD
  72
1
  11
 1098.29
  21
 517.000
  31
0.0
   0
LINE
   8
LEVEL003
   6
CONTINUOUS
  62
3
  10
 1066.00
  20
 505.000
  30
0.0
  11
 1132.00
  21
 505.000
  31
0.0
   0
LINE
   8
LEVEL003
   6
CONTINUOUS
  62
3
  10
 862.054
  20
 600.000
  30
0.0
  11
 1132.00
  21
 600.000
  31
0.0
   0
LINE
   8
LEVEL003
   6
CONTINUOUS
  62
3
  10
 1130.00
  20
 505.000
  30
0.0
  11
 1130.00
  21
 600.000
  31
0.0
   0
LINE
   8
LEVEL003
   6
CONTINUOUS
  62
3
  10
 1130.00
  20
 505.000
  30
0.0
  11
 1130.80
  21
 508.000
  31
0.0
   0
LINE
   8
LEVEL003
   6
CONTINUOUS
  62
3
  10
 1130.00
  20
 505.000
  30
0.0
  11
 1129.20
  21
 508.000
  31
0.0
   0
LINE
   8
LEVEL003
   6
CONTINUOUS
  62
3
  10
 1130.00
  20
 600.000
  30
0.0
  11
 1129.20
  21
 597.000
  31
0.0
   0
LINE
   8
LEVEL003
   6
CONTINUOUS
  62
3
  10
 1130.00
  20
 600.000
  30
0.0
  11
 1130.80
  21
 597.000
  31
0.0
   0
TEXT
   8
LEVEL003
  62
3
  10
 1128.29
  20
 550.500
  30
0.0
  40
 4.00000
   1
95
  50
 90.0000
  41
 0.500000
   7
STANDARD
  72
1
  11
 1128.29
  21
 552.500
  31
0.0
   0
LINE
   8
LEVEL003
   6
CONTINUOUS
  62
3
  10
 935.000
  20
 855.000
  30
0.0
  11
 1162.00
  21
 855.000
  31
0.0
   0
LINE
   8
LEVEL003
   6
CONTINUOUS
  62
3
  10
 1066.00
  20
 505.000
  30
0.0
  11
 1162.00
  21
 505.000
  31
0.0
   0
LINE
   8
LEVEL003
   6
CONTINUOUS
  62
3
  10
 1160.00
  20
 855.000
  30
0.0
  11
 1160.00
  21
 505.000
  31
0.0
   0
LINE
   8
LEVEL003
   6
CONTINUOUS
  62
3
  10
 1160.00
  20
 855.000
  30
0.0
  11
 1159.20
  21
 852.000
  31
0.0
   0
LINE
   8
LEVEL003
   6
CONTINUOUS
  62
3
  10
 1160.00
  20
 855.000
  30
0.0
  11
 1160.80
  21
 852.000
  31
0.0
   0
LINE
   8
LEVEL003
   6
CONTINUOUS
  62
3
  10
 1160.00
  20
 505.000
  30
0.0
  11
 1160.80
  21
 508.000
  31
0.0
   0
LINE
   8
LEVEL003
   6
CONTINUOUS
  62
3
  10
 1160.00
  20
 505.000
  30
0.0
  11
 1159.20
  21
 508.000
  31
0.0
   0
TEXT
   8
LEVEL003
  62
3
  10
 1158.29
  20
 677.000
  30
0.0
  40
 4.00000
   1
350
  50
 90.0000
  41
 0.500000
   7
STANDARD
  72
1
  11
 1158.29
  21
 680.000
  31
0.0
   0
LINE
   8
LEVEL003
   6
CONTINUOUS
  62
3
  10
 935.000
  20
 855.000
  30
0.0
  11
 935.000
  21
 892.000
  31
0.0
   0
LINE
   8
LEVEL003
   6
CONTINUOUS
  62
3
  10
 865.000
  20
 855.000
  30
0.0
  11
 865.000
  21
 892.000
  31
0.0
   0
LINE
   8
LEVEL003
   6
CONTINUOUS
  62
3
  10
 935.000
  20
 890.000
  30
0.0
  11
 865.000
  21
 890.000
  31
0.0
   0
LINE
   8
LEVEL003
   6
CONTINUOUS
  62
3
  10
 935.000
  20
 890.000
  30
0.0
  11
 932.000
  21
 890.804
  31
0.0
   0
LINE
   8
LEVEL003
   6
CONTINUOUS
  62
3
  10
 935.000
  20
 890.000
  30
0.0
  11
 932.000
  21
 889.196
  31
0.0
   0
LINE
   8
LEVEL003
   6
CONTINUOUS
  62
3
  10
 865.000
  20
 890.000
  30
0.0
  11
 868.000
  21
 889.196
  31
0.0
   0
LINE
   8
LEVEL003
   6
CONTINUOUS
  62
3
  10
 865.000
  20
 890.000
  30
0.0
  11
 868.000
  21
 890.804
  31
0.0
   0
TEXT
   8
LEVEL003
  62
3
  10
 894.000
  20
 891.714
  30
0.0
  40
 4.00000
   1
M70×2
   7
STANDARD
  72
1
  11
 900.000
  21
 891.714
  31
0.0
   0
LINE
   8
LEVEL003
   6
CONTINUOUS
  62
3
  10
 935.000
  20
 855.000
  30
0.0
  11
 1002.00
  21
 855.000
  31
0.0
   0
LINE
   8
LEVEL003
   6
CONTINUOUS
  62
3
  10
 937.500
  20
 785.000
  30
0.0
  11
 1002.00
  21
 785.000
  31
0.0
   0
LINE
   8
LEVEL003
   6
CONTINUOUS
  62
3
  10
 1000.00
  20
 855.000
  30
0.0
  11
 1000.00
  21
 785.000
  31
0.0
   0
LINE
   8
LEVEL003
   6
CONTINUOUS
  62
3
  10
 1000.00
  20
 855.000
  30
0.0
  11
 999.196
  21
 852.000
  31
0.0
   0
LINE
   8
LEVEL003
   6
CONTINUOUS
  62
3
  10
 1000.00
  20
 855.000
  30
0.0
  11
 1000.80
  21
 852.000
  31
0.0
   0
LINE
   8
LEVEL003
   6
CONTINUOUS
  62
3
  10
 1000.00
  20
 785.000
  30
0.0
  11
 1000.80
  21
 788.000
  31
0.0
   0
LINE
   8
LEVEL003
   6
CONTINUOUS
  62
3
  10
 1000.00
  20
 785.000
  30
0.0
  11
 999.196
  21
 788.000
  31
0.0
   0
TEXT
   8
LEVEL003
  62
3
  10
 998.286
  20
 818.000
  30
0.0
  40
 4.00000
   1
70
  50
 90.0000
  41
 0.500000
   7
STANDARD
  72
1
  11
 998.286
  21
 820.000
  31
0.0
   0
LINE
   8
LEVEL003
   6
CONTINUOUS
  62
3
  10
 461.000
  20
 505.000
  30
0.0
  11
 562.000
  21
 505.000
  31
0.0
   0
LINE
   8
LEVEL003
   6
CONTINUOUS
  62
3
  10
 399.500
  20
 90.0000
  30
0.0
  11
 562.000
  21
 90.0000
  31
0.0
   0
LINE
   8
LEVEL003
   6
CONTINUOUS
  62
3
  10
 560.000
  20
 505.000
  30
0.0
  11
 560.000
  21
 90.0000
  31
0.0
   0
LINE
   8
LEVEL003
   6
CONTINUOUS
  62
3
  10
 560.000
  20
 505.000
  30
0.0
  11
 559.196
  21
 502.000
  31
0.0
   0
LINE
   8
LEVEL003
   6
CONTINUOUS
  62
3
  10
 560.000
  20
 505.000
  30
0.0
  11
 560.804
  21
 502.000
  31
0.0
   0
LINE
   8
LEVEL003
   6
CONTINUOUS
  62
3
  10
 560.000
  20
 90.0000
  30
0.0
  11
 560.804
  21
 93.0000
  31
0.0
   0
LINE
   8
LEVEL003
   6
CONTINUOUS
  62
3
  10
 560.000
  20
 90.0000
  30
0.0
  11
 559.196
  21
 93.0000
  31
0.0
   0
TEXT
   8
LEVEL003
  62
3
  10
 558.286
  20
 284.500
  30
0.0
  40
 4.00000
   1
65+ストローク
  50
 90.0000
   7
STANDARD
  72
1
  11
 558.286
  21
 297.500
  31
0.0
   0
LINE
   8
LEVEL003
   6
CONTINUOUS
  62
3
  10
 275.000
  20
 1321.00
  30
0.0
  11
 275.000
  21
 1362.00
  31
0.0
   0
LINE
   8
LEVEL003
   6
CONTINUOUS
  62
3
  10
 425.000
  20
 1321.00
  30
0.0
  11
 425.000
  21
 1362.00
  31
0.0
   0
LINE
   8
LEVEL003
   6
CONTINUOUS
  62
3
  10
 275.000
  20
 1360.00
  30
0.0
  11
 425.000
  21
 1360.00
  31
0.0
   0
LINE
   8
LEVEL003
   6
CONTINUOUS
  62
3
  10
 275.000
  20
 1360.00
  30
0.0
  11
 278.000
  21
 1359.20
  31
0.0
   0
LINE
   8
LEVEL003
   6
CONTINUOUS
  62
3
  10
 275.000
  20
 1360.00
  30
0.0
  11
 278.000
  21
 1360.80
  31
0.0
   0
LINE
   8
LEVEL003
   6
CONTINUOUS
  62
3
  10
 425.000
  20
 1360.00
  30
0.0
  11
 422.000
  21
 1360.80
  31
0.0
   0
LINE
   8
LEVEL003
   6
CONTINUOUS
  62
3
  10
 425.000
  20
 1360.00
  30
0.0
  11
 422.000
  21
 1359.20
  31
0.0
   0
TEXT
   8
LEVEL003
  62
3
  10
 347.000
  20
 1361.71
  30
0.0
  40
 4.00000
   1
150
  41
 0.500000
   7
STANDARD
  72
1
  11
 350.000
  21
 1361.71
  31
0.0
   0
LINE
   8
LEVEL003
   6
CONTINUOUS
  62
3
  10
 466.000
  20
 955.000
  30
0.0
  11
 602.000
  21
 955.000
  31
0.0
   0
LINE
   8
LEVEL003
   6
CONTINUOUS
  62
3
  10
 496.000
  20
 1150.00
  30
0.0
  11
 602.000
  21
 1150.00
  31
0.0
   0
LINE
   8
LEVEL003
   6
CONTINUOUS
  62
3
  10
 600.000
  20
 955.000
  30
0.0
  11
 600.000
  21
 1150.00
  31
0.0
   0
LINE
   8
LEVEL003
   6
CONTINUOUS
  62
3
  10
 600.000
  20
 955.000
  30
0.0
  11
 600.804
  21
 958.000
  31
0.0
   0
LINE
   8
LEVEL003
   6
CONTINUOUS
  62
3
  10
 600.000
  20
 955.000
  30
0.0
  11
 599.196
  21
 958.000
  31
0.0
   0
LINE
   8
LEVEL003
   6
CONTINUOUS
  62
3
  10
 600.000
  20
 1150.00
  30
0.0
  11
 599.196
  21
 1147.00
  31
0.0
   0
LINE
   8
LEVEL003
   6
CONTINUOUS
  62
3
  10
 600.000
  20
 1150.00
  30
0.0
  11
 600.804
  21
 1147.00
  31
0.0
   0
TEXT
   8
LEVEL003
  62
3
  10
 598.286
  20
 1049.50
  30
0.0
  40
 4.00000
   1
195
  50
 90.0000
  41
 0.500000
   7
STANDARD
  72
1
  11
 598.286
  21
 1052.50
  31
0.0
   0
LINE
   8
LEVEL003
   6
CONTINUOUS
  62
3
  10
 496.000
  20
 1150.00
  30
0.0
  11
 602.000
  21
 1150.00
  31
0.0
   0
LINE
   8
LEVEL003
   6
CONTINUOUS
  62
3
  10
 466.000
  20
 1280.00
  30
0.0
  11
 602.000
  21
 1280.00
  31
0.0
   0
LINE
   8
LEVEL003
   6
CONTINUOUS
  62
3
  10
 600.000
  20
 1150.00
  30
0.0
  11
 600.000
  21
 1280.00
  31
0.0
   0
LINE
   8
LEVEL003
   6
CONTINUOUS
  62
3
  10
 600.000
  20
 1150.00
  30
0.0
  11
 600.804
  21
 1153.00
  31
0.0
   0
LINE
   8
LEVEL003
   6
CONTINUOUS
  62
3
  10
 600.000
  20
 1150.00
  30
0.0
  11
 599.196
  21
 1153.00
  31
0.0
   0
LINE
   8
LEVEL003
   6
CONTINUOUS
  62
3
  10
 600.000
  20
 1280.00
  30
0.0
  11
 599.196
  21
 1277.00
  31
0.0
   0
LINE
   8
LEVEL003
   6
CONTINUOUS
  62
3
  10
 600.000
  20
 1280.00
  30
0.0
  11
 600.804
  21
 1277.00
  31
0.0
   0
TEXT
   8
LEVEL003
  62
3
  10
 598.286
  20
 1212.00
  30
0.0
  40
 4.00000
   1
130
  50
 90.0000
  41
 0.500000
   7
STANDARD
  72
1
  11
 598.286
  21
 1215.00
  31
0.0
   0
LINE
   8
LEVEL003
   6
CONTINUOUS
  62
3
  10
 552.500
  20
 1020.50
  30
0.0
  11
 552.500
  21
 878.000
  31
0.0
   0
LINE
   8
LEVEL003
   6
CONTINUOUS
  62
3
  10
 147.500
  20
 1020.50
  30
0.0
  11
 147.500
  21
 878.000
  31
0.0
   0
LINE
   8
LEVEL003
   6
CONTINUOUS
  62
3
  10
 552.500
  20
 880.000
  30
0.0
  11
 147.500
  21
 880.000
  31
0.0
   0
LINE
   8
LEVEL003
   6
CONTINUOUS
  62
3
  10
 552.500
  20
 880.000
  30
0.0
  11
 549.500
  21
 880.804
  31
0.0
   0
LINE
   8
LEVEL003
   6
CONTINUOUS
  62
3
  10
 552.500
  20
 880.000
  30
0.0
  11
 549.500
  21
 879.196
  31
0.0
   0
LINE
   8
LEVEL003
   6
CONTINUOUS
  62
3
  10
 147.500
  20
 880.000
  30
0.0
  11
 150.500
  21
 879.196
  31
0.0
   0
LINE
   8
LEVEL003
   6
CONTINUOUS
  62
3
  10
 147.500
  20
 880.000
  30
0.0
  11
 150.500
  21
 880.804
  31
0.0
   0
TEXT
   8
LEVEL003
  62
3
  10
 347.000
  20
 881.714
  30
0.0
  40
 4.00000
   1
405
  41
 0.500000
   7
STANDARD
  72
1
  11
 350.000
  21
 881.714
  31
0.0
   0
TEXT
   8
LEVEL003
  62
7
  10
 1180.18
  20
 76.5921
  30
0.0
  40
 20.0000
   1
ＯＳＡＫＡ ＪＡＣＫ
   7
STANDARD
   0
CIRCLE
   8
LEVEL003
   6
CONTINUOUS
  62
7
  10
 1156.24
  20
 90.6935
  30
0.0
  40
 6.00000
   0
LINE
   8
LEVEL003
   6
CONTINUOUS
  62
7
  10
 1168.01
  20
 96.6935
  30
0.0
  11
 1160.39
  21
 83.4935
  31
0.0
   0
LINE
   8
LEVEL003
   6
CONTINUOUS
  62
7
  10
 1160.39
  20
 83.4935
  30
0.0
  11
 1145.15
  21
 83.4935
  31
0.0
   0
LINE
   8
LEVEL003
   6
CONTINUOUS
  62
7
  10
 1143.42
  20
 80.4935
  30
0.0
  11
 1170.66
  21
 80.4935
  31
0.0
   0
LINE
   8
LEVEL003
   6
CONTINUOUS
  62
7
  10
 1170.66
  20
 80.4935
  30
0.0
  11
 1180.01
  21
 96.6935
  31
0.0
   0
LINE
   8
LEVEL003
   6
CONTINUOUS
  62
7
  10
 1180.01
  20
 96.6935
  30
0.0
  11
 1168.01
  21
 96.6935
  31
0.0
   0
LINE
   8
LEVEL003
   6
CONTINUOUS
  62
7
  10
 1145.15
  20
 83.4935
  30
0.0
  11
 1143.42
  21
 80.4935
  31
0.0
   0
TEXT
   8
LEVEL003
  62
7
  10
 1186.00
  20
 110.379
  30
0.0
  40
 12.0000
   1
Model : ＷＪ２５Ｕ
   7
STANDARD
   0
LINE
   8
LEVEL004
   6
DOT
  62
3
  10
 1001.00
  20
 530.000
  30
0.0
  11
 1001.00
  21
 529.000
  31
0.0
   0
LINE
   8
LEVEL004
   6
DOT
  62
3
  10
 1059.00
  20
 529.000
  30
0.0
  11
 1001.00
  21
 529.000
  31
0.0
   0
LINE
   8
LEVEL004
   6
DOT
  62
3
  10
 1059.00
  20
 530.000
  30
0.0
  11
 1059.00
  21
 529.000
  31
0.0
   0
ENDSEC
   0
EOF
