   0
SECTION
   2
HEADER
   9
$LIMMIN
  10
0.0
  20
0.0
   9
$LIMMAX
  10
 1782.00
  20
 1496.00
   9
$EXTMIN
  10
0.0
  20
0.0
   9
$EXTMAX
  10
 1782.00
  20
 1496.00
   9
$LTSCALE
  40
 35.6400
   0
ENDSEC
   0
SECTION
   2
TABLES
  0
TABLE
  2
LTYPE
 70
    25
  0
LTYPE
  2
CONTINUOUS
 70
    64
  3
Solid line
 72
    65
 73
     0
 40
0.0
  0
LTYPE
  2
BORDER
 70
    64
  3
__ __ . __ __ . __ __ . __ __ . __ __ . __ __ .
 72
    65
 73
     6
 40
1.75
 49
0.5
 49
-0.25
 49
0.5
 49
-0.25
 49
0.0
 49
-0.25
  0
LTYPE
  2
BORDER2
 70
    64
  3
__.__.__.__.__.__.__.__.__.__.__.__.__.__.__.__
 72
    65
 73
     6
 40
0.875
 49
0.25
 49
-0.125
 49
0.25
 49
-0.125
 49
0.0
 49
-0.125
  0
LTYPE
  2
BORDERX2
 70
    64
  3
____  ____  .  ____  ____  .  ____  ____  .  __
 72
    65
 73
     6
 40
3.5
 49
1.0
 49
-0.5
 49
1.0
 49
-0.5
 49
0.0
 49
-0.5
  0
LTYPE
  2
CENTER
 70
    64
  3
____ _ ____ _ ____ _ ____ _ ____ _ ____ _ ____ 
 72
    65
 73
     4
 40
2.0
 49
1.25
 49
-0.25
 49
0.25
 49
-0.25
  0
LTYPE
  2
CENTER2
 70
    64
  3
___ _ ___ _ ___ _ ___ _ ___ _ ___ _ ___ _ ___ _
 72
    65
 73
     4
 40
1.125
 49
0.75
 49
-0.125
 49
0.125
 49
-0.125
  0
LTYPE
  2
CENTERX2
 70
    64
  3
________  __  ________  __  ________  __  _____
 72
    65
 73
     4
 40
4.0
 49
2.5
 49
-0.5
 49
0.5
 49
-0.5
  0
LTYPE
  2
DASHDOT
 70
    64
  3
__ . __ . __ . __ . __ . __ . __ . __ . __ . __
 72
    65
 73
     4
 40
1.0
 49
0.5
 49
-0.25
 49
0.0
 49
-0.25
  0
LTYPE
  2
DASHDOT2
 70
    64
  3
_._._._._._._._._._._._._._._._._._._._._._._._
 72
    65
 73
     4
 40
0.5
 49
0.25
 49
-0.125
 49
0.0
 49
-0.125
  0
LTYPE
  2
DASHDOTX2
 70
    64
  3
____  .  ____  .  ____  .  ____  .  ____  .  __
 72
    65
 73
     4
 40
2.0
 49
1.0
 49
-0.5
 49
0.0
 49
-0.5
  0
LTYPE
  2
DASHED
 70
    64
  3
__ __ __ __ __ __ __ __ __ __ __ __ __ __ __ __
 72
    65
 73
     2
 40
0.75
 49
0.5
 49
-0.25
  0
LTYPE
  2
DASHED2
 70
    64
  3
_ _ _ _ _ _ _ _ _ _ _ _ _ _ _ _ _ _ _ _ _ _ _ _
 72
    65
 73
     2
 40
0.375
 49
0.25
 49
-0.125
  0
LTYPE
  2
DASHEDX2
 70
    64
  3
____  ____  ____  ____  ____  ____  ____  ____ 
 72
    65
 73
     2
 40
1.5
 49
1.0
 49
-0.5
  0
LTYPE
  2
DIVIDE
 70
    64
  3
____ . . ____ . . ____ . . ____ . . ____ . . __
 72
    65
 73
     6
 40
1.25
 49
0.5
 49
-0.25
 49
0.0
 49
-0.25
 49
0.0
 49
-0.25
  0
LTYPE
  2
DIVIDE2
 70
    64
  3
__..__..__..__..__..__..__..__..__..__..__..__.
 72
    65
 73
     6
 40
0.625
 49
0.25
 49
-0.125
 49
0.0
 49
-0.125
 49
0.0
 49
-0.125
  0
LTYPE
  2
DIVIDEX2
 70
    64
  3
________  .  .  ________  .  .  ________  .  . 
 72
    65
 73
     6
 40
2.5
 49
1.0
 49
-0.5
 49
0.0
 49
-0.5
 49
0.0
 49
-0.5
  0
LTYPE
  2
DOT
 70
    64
  3
. . . . . . . . . . . . . . . . . . . . . . . .
 72
    65
 73
     2
 40
0.25
 49
0.0
 49
-0.25
  0
LTYPE
  2
DOT2
 70
    64
  3
...............................................
 72
    65
 73
     2
 40
0.125
 49
0.0
 49
-0.125
  0
LTYPE
  2
DOTX2
 70
    64
  3
.  .  .  .  .  .  .  .  .  .  .  .  .  .  .  . 
 72
    65
 73
     2
 40
0.5
 49
0.0
 49
-0.5
  0
LTYPE
  2
HIDDEN
 70
    64
  3
__ __ __ __ __ __ __ __ __ __ __ __ __ __ __ __
 72
    65
 73
     2
 40
0.375
 49
0.25
 49
-0.125
  0
LTYPE
  2
HIDDEN2
 70
    64
  3
_ _ _ _ _ _ _ _ _ _ _ _ _ _ _ _ _ _ _ _ _ _ _ _
 72
    65
 73
     2
 40
0.1875
 49
0.125
 49
-0.0625
  0
LTYPE
  2
HIDDENX2
 70
    64
  3
____ ____ ____ ____ ____ ____ ____ ____ ____ __
 72
    65
 73
     2
 40
0.75
 49
0.5
 49
-0.25
  0
LTYPE
  2
PHANTOM
 70
    64
  3
______  __  __  ______  __  __  ______  __  __ 
 72
    65
 73
     6
 40
2.5
 49
1.25
 49
-0.25
 49
0.25
 49
-0.25
 49
0.25
 49
-0.25
  0
LTYPE
  2
PHANTOM2
 70
    64
  3
___ _ _ ___ _ _ ___ _ _ ___ _ _ ___ _ _ ___ _ _
 72
    65
 73
     6
 40
1.25
 49
0.625
 49
-0.125
 49
0.125
 49
-0.125
 49
0.125
 49
-0.125
  0
LTYPE
  2
PHANTOMX2
 70
    64
  3
____________    ____    ____    ____________   
 72
    65
 73
     6
 40
5.0
 49
2.5
 49
-0.5
 49
0.5
 49
-0.5
 49
0.5
 49
-0.5
  0
ENDTAB
  0
TABLE
  2
STYLE
 70
     2
  0
STYLE
  2
STANDARD
 70
0
 40
0.0
 41
1.0
 50
0.0
 71
0
 42
0.2
  3
TXT
  4
BIGFONT
  0
STYLE
  2
STANDARD1
 70
     4
 40
0.0
 41
1.0
 50
0.0
 71
     0
 42
0.2
  3
TXT
  4
BIGFONT
  0
ENDTAB
   0
TABLE
   2
LAYER
  70
4
   0
LAYER
   2
0
  70
0
  62
7
   6
CONTINUOUS
   0
LAYER
   2
LEVEL001
  70
0
  62
7
   6
CONTINUOUS
   0
LAYER
   2
LEVEL003
  70
0
  62
7
   6
CONTINUOUS
   0
LAYER
   2
LEVEL004
  70
0
  62
7
   6
CONTINUOUS
   0
ENDTAB
   0
ENDSEC
   0
SECTION
   2
ENTITIES
   0
LINE
   8
LEVEL001
   6
CONTINUOUS
  62
7
  10
 336.536
  20
 627.000
  30
0.0
  11
 335.959
  21
 627.000
  31
0.0
   0
LINE
   8
LEVEL001
   6
CONTINUOUS
  62
7
  10
 344.041
  20
 627.000
  30
0.0
  11
 343.464
  21
 627.000
  31
0.0
   0
LINE
   8
LEVEL001
   6
CONTINUOUS
  62
7
  10
 344.041
  20
 613.000
  30
0.0
  11
 348.083
  21
 620.000
  31
0.0
   0
LINE
   8
LEVEL001
   6
CONTINUOUS
  62
7
  10
 335.959
  20
 613.000
  30
0.0
  11
 344.041
  21
 613.000
  31
0.0
   0
LINE
   8
LEVEL001
   6
CONTINUOUS
  62
7
  10
 331.917
  20
 620.000
  30
0.0
  11
 335.959
  21
 613.000
  31
0.0
   0
LINE
   8
LEVEL001
   6
CONTINUOUS
  62
7
  10
 335.959
  20
 627.000
  30
0.0
  11
 331.917
  21
 620.000
  31
0.0
   0
LINE
   8
LEVEL001
   6
CONTINUOUS
  62
7
  10
 348.083
  20
 620.000
  30
0.0
  11
 344.041
  21
 627.000
  31
0.0
   0
LINE
   8
LEVEL001
   6
CONTINUOUS
  62
7
  10
 854.000
  20
 757.309
  30
0.0
  11
 850.000
  21
 759.619
  31
0.0
   0
LINE
   8
LEVEL001
   6
CONTINUOUS
  62
7
  10
 854.000
  20
 752.691
  30
0.0
  11
 854.000
  21
 757.309
  31
0.0
   0
LINE
   8
LEVEL001
   6
CONTINUOUS
  62
7
  10
 850.000
  20
 750.381
  30
0.0
  11
 854.000
  21
 752.691
  31
0.0
   0
LINE
   8
LEVEL001
   6
CONTINUOUS
  62
7
  10
 846.000
  20
 752.691
  30
0.0
  11
 850.000
  21
 750.381
  31
0.0
   0
LINE
   8
LEVEL001
   6
CONTINUOUS
  62
7
  10
 846.000
  20
 757.309
  30
0.0
  11
 846.000
  21
 752.691
  31
0.0
   0
LINE
   8
LEVEL001
   6
CONTINUOUS
  62
7
  10
 850.000
  20
 759.619
  30
0.0
  11
 846.000
  21
 757.309
  31
0.0
   0
LINE
   8
LEVEL001
   6
CONTINUOUS
  62
7
  10
 854.000
  20
 777.309
  30
0.0
  11
 850.000
  21
 779.619
  31
0.0
   0
LINE
   8
LEVEL001
   6
CONTINUOUS
  62
7
  10
 854.000
  20
 772.691
  30
0.0
  11
 854.000
  21
 777.309
  31
0.0
   0
LINE
   8
LEVEL001
   6
CONTINUOUS
  62
7
  10
 850.000
  20
 770.381
  30
0.0
  11
 854.000
  21
 772.691
  31
0.0
   0
LINE
   8
LEVEL001
   6
CONTINUOUS
  62
7
  10
 846.000
  20
 772.691
  30
0.0
  11
 850.000
  21
 770.381
  31
0.0
   0
LINE
   8
LEVEL001
   6
CONTINUOUS
  62
7
  10
 846.000
  20
 777.309
  30
0.0
  11
 846.000
  21
 772.691
  31
0.0
   0
LINE
   8
LEVEL001
   6
CONTINUOUS
  62
7
  10
 850.000
  20
 779.619
  30
0.0
  11
 846.000
  21
 777.309
  31
0.0
   0
LINE
   8
LEVEL001
   6
CONTINUOUS
  62
7
  10
 260.000
  20
 903.500
  30
0.0
  11
 260.000
  21
 830.000
  31
0.0
   0
LINE
   8
LEVEL001
   6
CONTINUOUS
  62
7
  10
 261.500
  20
 905.000
  30
0.0
  11
 260.000
  21
 903.500
  31
0.0
   0
LINE
   8
LEVEL001
   6
CONTINUOUS
  62
7
  10
 340.000
  20
 903.500
  30
0.0
  11
 340.000
  21
 830.000
  31
0.0
   0
LINE
   8
LEVEL001
   6
CONTINUOUS
  62
7
  10
 338.500
  20
 905.000
  30
0.0
  11
 340.000
  21
 903.500
  31
0.0
   0
LINE
   8
LEVEL001
   6
CONTINUOUS
  62
7
  10
 762.662
  20
 658.319
  30
0.0
  11
 763.857
  21
 653.857
  31
0.0
   0
LINE
   8
LEVEL001
   6
CONTINUOUS
  62
7
  10
 765.928
  20
 661.585
  30
0.0
  11
 762.662
  21
 658.319
  31
0.0
   0
LINE
   8
LEVEL001
   6
CONTINUOUS
  62
7
  10
 770.389
  20
 660.389
  30
0.0
  11
 765.928
  21
 661.585
  31
0.0
   0
LINE
   8
LEVEL001
   6
CONTINUOUS
  62
7
  10
 771.585
  20
 655.928
  30
0.0
  11
 770.389
  21
 660.389
  31
0.0
   0
LINE
   8
LEVEL001
   6
CONTINUOUS
  62
7
  10
 768.319
  20
 652.662
  30
0.0
  11
 771.585
  21
 655.928
  31
0.0
   0
LINE
   8
LEVEL001
   6
CONTINUOUS
  62
7
  10
 763.857
  20
 653.857
  30
0.0
  11
 768.319
  21
 652.662
  31
0.0
   0
LINE
   8
LEVEL001
   6
CONTINUOUS
  62
7
  10
 768.319
  20
 587.338
  30
0.0
  11
 763.857
  21
 586.143
  31
0.0
   0
LINE
   8
LEVEL001
   6
CONTINUOUS
  62
7
  10
 771.585
  20
 584.072
  30
0.0
  11
 768.319
  21
 587.338
  31
0.0
   0
LINE
   8
LEVEL001
   6
CONTINUOUS
  62
7
  10
 770.389
  20
 579.611
  30
0.0
  11
 771.585
  21
 584.072
  31
0.0
   0
LINE
   8
LEVEL001
   6
CONTINUOUS
  62
7
  10
 765.928
  20
 578.415
  30
0.0
  11
 770.389
  21
 579.611
  31
0.0
   0
LINE
   8
LEVEL001
   6
CONTINUOUS
  62
7
  10
 762.662
  20
 581.681
  30
0.0
  11
 765.928
  21
 578.415
  31
0.0
   0
LINE
   8
LEVEL001
   6
CONTINUOUS
  62
7
  10
 763.857
  20
 586.143
  30
0.0
  11
 762.662
  21
 581.681
  31
0.0
   0
LINE
   8
LEVEL001
   6
CONTINUOUS
  62
7
  10
 697.338
  20
 581.681
  30
0.0
  11
 696.143
  21
 586.143
  31
0.0
   0
LINE
   8
LEVEL001
   6
CONTINUOUS
  62
7
  10
 694.072
  20
 578.415
  30
0.0
  11
 697.338
  21
 581.681
  31
0.0
   0
LINE
   8
LEVEL001
   6
CONTINUOUS
  62
7
  10
 689.611
  20
 579.611
  30
0.0
  11
 694.072
  21
 578.415
  31
0.0
   0
LINE
   8
LEVEL001
   6
CONTINUOUS
  62
7
  10
 688.415
  20
 584.072
  30
0.0
  11
 689.611
  21
 579.611
  31
0.0
   0
LINE
   8
LEVEL001
   6
CONTINUOUS
  62
7
  10
 691.681
  20
 587.338
  30
0.0
  11
 688.415
  21
 584.072
  31
0.0
   0
LINE
   8
LEVEL001
   6
CONTINUOUS
  62
7
  10
 696.143
  20
 586.143
  30
0.0
  11
 691.681
  21
 587.338
  31
0.0
   0
LINE
   8
LEVEL001
   6
CONTINUOUS
  62
7
  10
 691.681
  20
 652.662
  30
0.0
  11
 696.143
  21
 653.857
  31
0.0
   0
LINE
   8
LEVEL001
   6
CONTINUOUS
  62
7
  10
 688.415
  20
 655.928
  30
0.0
  11
 691.681
  21
 652.662
  31
0.0
   0
LINE
   8
LEVEL001
   6
CONTINUOUS
  62
7
  10
 689.611
  20
 660.389
  30
0.0
  11
 688.415
  21
 655.928
  31
0.0
   0
LINE
   8
LEVEL001
   6
CONTINUOUS
  62
7
  10
 694.072
  20
 661.585
  30
0.0
  11
 689.611
  21
 660.389
  31
0.0
   0
LINE
   8
LEVEL001
   6
CONTINUOUS
  62
7
  10
 697.338
  20
 658.319
  30
0.0
  11
 694.072
  21
 661.585
  31
0.0
   0
LINE
   8
LEVEL001
   6
CONTINUOUS
  62
7
  10
 696.143
  20
 653.857
  30
0.0
  11
 697.338
  21
 658.319
  31
0.0
   0
LINE
   8
LEVEL001
   6
CONTINUOUS
  62
7
  10
 810.000
  20
 903.500
  30
0.0
  11
 810.000
  21
 830.000
  31
0.0
   0
LINE
   8
LEVEL001
   6
CONTINUOUS
  62
7
  10
 811.500
  20
 905.000
  30
0.0
  11
 810.000
  21
 903.500
  31
0.0
   0
LINE
   8
LEVEL001
   6
CONTINUOUS
  62
7
  10
 890.000
  20
 903.500
  30
0.0
  11
 890.000
  21
 830.000
  31
0.0
   0
LINE
   8
LEVEL001
   6
CONTINUOUS
  62
7
  10
 888.500
  20
 905.000
  30
0.0
  11
 890.000
  21
 903.500
  31
0.0
   0
LINE
   8
LEVEL001
   6
CONTINUOUS
  62
7
  10
 345.467
  20
 684.155
  30
0.0
  11
 434.500
  21
 682.500
  31
0.0
   0
LINE
   8
LEVEL001
   6
CONTINUOUS
  62
7
  10
 345.467
  20
 684.155
  30
0.0
  11
 331.000
  21
 683.000
  31
0.0
   0
LINE
   8
LEVEL001
   6
CONTINUOUS
  62
7
  10
 254.533
  20
 684.155
  30
0.0
  11
 165.500
  21
 682.500
  31
0.0
   0
LINE
   8
LEVEL001
   6
CONTINUOUS
  62
7
  10
 254.533
  20
 684.155
  30
0.0
  11
 269.000
  21
 683.000
  31
0.0
   0
LINE
   8
LEVEL001
   6
CONTINUOUS
  62
7
  10
 282.000
  20
 678.000
  30
0.0
  11
 293.000
  21
 676.000
  31
0.0
   0
LINE
   8
LEVEL001
   6
CONTINUOUS
  62
7
  10
 269.000
  20
 683.000
  30
0.0
  11
 282.000
  21
 678.000
  31
0.0
   0
LINE
   8
LEVEL001
   6
CONTINUOUS
  62
7
  10
 318.000
  20
 678.000
  30
0.0
  11
 307.000
  21
 676.000
  31
0.0
   0
LINE
   8
LEVEL001
   6
CONTINUOUS
  62
7
  10
 331.000
  20
 683.000
  30
0.0
  11
 318.000
  21
 678.000
  31
0.0
   0
ARC
   8
LEVEL001
   6
CONTINUOUS
  62
7
  10
 340.000
  20
 620.000
  30
0.0
  40
 6.33000
  50
 123.179
  51
 56.8213
   0
LINE
   8
LEVEL001
   6
CONTINUOUS
  62
7
  10
 340.000
  20
 623.448
  30
0.0
  11
 343.464
  21
 624.221
  31
0.0
   0
LINE
   8
LEVEL001
   6
CONTINUOUS
  62
7
  10
 336.536
  20
 624.221
  30
0.0
  11
 340.000
  21
 623.448
  31
0.0
   0
LINE
   8
LEVEL001
   6
CONTINUOUS
  62
7
  10
 343.464
  20
 624.221
  30
0.0
  11
 343.464
  21
 627.985
  31
0.0
   0
LINE
   8
LEVEL001
   6
CONTINUOUS
  62
7
  10
 336.536
  20
 627.985
  30
0.0
  11
 336.536
  21
 624.221
  31
0.0
   0
LINE
   8
LEVEL001
   6
CONTINUOUS
  62
7
  10
 342.877
  20
 628.116
  30
0.0
  11
 343.464
  21
 627.985
  31
0.0
   0
LINE
   8
LEVEL001
   6
CONTINUOUS
  62
7
  10
 336.536
  20
 627.985
  30
0.0
  11
 337.123
  21
 628.116
  31
0.0
   0
LINE
   8
LEVEL001
   6
CONTINUOUS
  62
7
  10
 340.000
  20
 625.665
  30
0.0
  11
 336.536
  21
 626.438
  31
0.0
   0
LINE
   8
LEVEL001
   6
CONTINUOUS
  62
7
  10
 343.464
  20
 626.438
  30
0.0
  11
 340.000
  21
 625.665
  31
0.0
   0
ARC
   8
LEVEL001
   6
CONTINUOUS
  62
7
  10
 335.987
  20
 628.209
  30
0.0
  40
 1.13965
  50
 299.014
  51
 6.30441
   0
ARC
   8
LEVEL001
   6
CONTINUOUS
  62
7
  10
 342.939
  20
 630.697
  30
0.0
  40
 6.28019
  50
 187.536
  51
 202.107
   0
ARC
   8
LEVEL001
   6
CONTINUOUS
  62
7
  10
 344.013
  20
 628.209
  30
0.0
  40
 1.13965
  50
 173.696
  51
 240.986
   0
ARC
   8
LEVEL001
   6
CONTINUOUS
  62
7
  10
 337.061
  20
 630.697
  30
0.0
  40
 6.28019
  50
 337.893
  51
 352.464
   0
LINE
   8
LEVEL001
   6
CONTINUOUS
  62
7
  10
 336.540
  20
 627.212
  30
0.0
  11
 336.543
  21
 627.154
  31
0.0
   0
LINE
   8
LEVEL001
   6
CONTINUOUS
  62
7
  10
 336.543
  20
 627.154
  30
0.0
  11
 336.553
  21
 627.096
  31
0.0
   0
LINE
   8
LEVEL001
   6
CONTINUOUS
  62
7
  10
 336.553
  20
 627.096
  30
0.0
  11
 336.570
  21
 627.039
  31
0.0
   0
LINE
   8
LEVEL001
   6
CONTINUOUS
  62
7
  10
 336.570
  20
 627.039
  30
0.0
  11
 336.593
  21
 626.982
  31
0.0
   0
LINE
   8
LEVEL001
   6
CONTINUOUS
  62
7
  10
 336.593
  20
 626.982
  30
0.0
  11
 336.622
  21
 626.925
  31
0.0
   0
LINE
   8
LEVEL001
   6
CONTINUOUS
  62
7
  10
 336.622
  20
 626.925
  30
0.0
  11
 336.658
  21
 626.869
  31
0.0
   0
LINE
   8
LEVEL001
   6
CONTINUOUS
  62
7
  10
 336.658
  20
 626.869
  30
0.0
  11
 336.700
  21
 626.814
  31
0.0
   0
LINE
   8
LEVEL001
   6
CONTINUOUS
  62
7
  10
 336.700
  20
 626.814
  30
0.0
  11
 336.749
  21
 626.759
  31
0.0
   0
LINE
   8
LEVEL001
   6
CONTINUOUS
  62
7
  10
 336.749
  20
 626.759
  30
0.0
  11
 336.803
  21
 626.705
  31
0.0
   0
LINE
   8
LEVEL001
   6
CONTINUOUS
  62
7
  10
 336.803
  20
 626.705
  30
0.0
  11
 336.864
  21
 626.652
  31
0.0
   0
LINE
   8
LEVEL001
   6
CONTINUOUS
  62
7
  10
 336.864
  20
 626.652
  30
0.0
  11
 336.931
  21
 626.600
  31
0.0
   0
LINE
   8
LEVEL001
   6
CONTINUOUS
  62
7
  10
 336.931
  20
 626.600
  30
0.0
  11
 337.004
  21
 626.550
  31
0.0
   0
LINE
   8
LEVEL001
   6
CONTINUOUS
  62
7
  10
 337.004
  20
 626.550
  30
0.0
  11
 337.082
  21
 626.500
  31
0.0
   0
LINE
   8
LEVEL001
   6
CONTINUOUS
  62
7
  10
 337.082
  20
 626.500
  30
0.0
  11
 337.166
  21
 626.452
  31
0.0
   0
LINE
   8
LEVEL001
   6
CONTINUOUS
  62
7
  10
 337.166
  20
 626.452
  30
0.0
  11
 337.255
  21
 626.406
  31
0.0
   0
LINE
   8
LEVEL001
   6
CONTINUOUS
  62
7
  10
 337.255
  20
 626.406
  30
0.0
  11
 337.349
  21
 626.361
  31
0.0
   0
LINE
   8
LEVEL001
   6
CONTINUOUS
  62
7
  10
 337.349
  20
 626.361
  30
0.0
  11
 337.449
  21
 626.317
  31
0.0
   0
LINE
   8
LEVEL001
   6
CONTINUOUS
  62
7
  10
 337.449
  20
 626.317
  30
0.0
  11
 337.553
  21
 626.276
  31
0.0
   0
LINE
   8
LEVEL001
   6
CONTINUOUS
  62
7
  10
 337.553
  20
 626.276
  30
0.0
  11
 337.662
  21
 626.236
  31
0.0
   0
LINE
   8
LEVEL001
   6
CONTINUOUS
  62
7
  10
 337.662
  20
 626.236
  30
0.0
  11
 337.776
  21
 626.198
  31
0.0
   0
LINE
   8
LEVEL001
   6
CONTINUOUS
  62
7
  10
 337.776
  20
 626.198
  30
0.0
  11
 337.894
  21
 626.161
  31
0.0
   0
LINE
   8
LEVEL001
   6
CONTINUOUS
  62
7
  10
 337.894
  20
 626.161
  30
0.0
  11
 338.015
  21
 626.127
  31
0.0
   0
LINE
   8
LEVEL001
   6
CONTINUOUS
  62
7
  10
 338.015
  20
 626.127
  30
0.0
  11
 338.141
  21
 626.095
  31
0.0
   0
LINE
   8
LEVEL001
   6
CONTINUOUS
  62
7
  10
 338.141
  20
 626.095
  30
0.0
  11
 338.270
  21
 626.065
  31
0.0
   0
LINE
   8
LEVEL001
   6
CONTINUOUS
  62
7
  10
 338.270
  20
 626.065
  30
0.0
  11
 338.402
  21
 626.037
  31
0.0
   0
LINE
   8
LEVEL001
   6
CONTINUOUS
  62
7
  10
 338.402
  20
 626.037
  30
0.0
  11
 338.538
  21
 626.012
  31
0.0
   0
LINE
   8
LEVEL001
   6
CONTINUOUS
  62
7
  10
 338.538
  20
 626.012
  30
0.0
  11
 338.676
  21
 625.989
  31
0.0
   0
LINE
   8
LEVEL001
   6
CONTINUOUS
  62
7
  10
 338.676
  20
 625.989
  30
0.0
  11
 338.817
  21
 625.968
  31
0.0
   0
LINE
   8
LEVEL001
   6
CONTINUOUS
  62
7
  10
 338.817
  20
 625.968
  30
0.0
  11
 338.960
  21
 625.949
  31
0.0
   0
LINE
   8
LEVEL001
   6
CONTINUOUS
  62
7
  10
 338.960
  20
 625.949
  30
0.0
  11
 339.104
  21
 625.933
  31
0.0
   0
LINE
   8
LEVEL001
   6
CONTINUOUS
  62
7
  10
 339.104
  20
 625.933
  30
0.0
  11
 339.251
  21
 625.919
  31
0.0
   0
LINE
   8
LEVEL001
   6
CONTINUOUS
  62
7
  10
 339.251
  20
 625.919
  30
0.0
  11
 339.399
  21
 625.908
  31
0.0
   0
LINE
   8
LEVEL001
   6
CONTINUOUS
  62
7
  10
 339.399
  20
 625.908
  30
0.0
  11
 339.548
  21
 625.899
  31
0.0
   0
LINE
   8
LEVEL001
   6
CONTINUOUS
  62
7
  10
 339.548
  20
 625.899
  30
0.0
  11
 339.698
  21
 625.893
  31
0.0
   0
LINE
   8
LEVEL001
   6
CONTINUOUS
  62
7
  10
 339.698
  20
 625.893
  30
0.0
  11
 339.849
  21
 625.889
  31
0.0
   0
LINE
   8
LEVEL001
   6
CONTINUOUS
  62
7
  10
 339.849
  20
 625.889
  30
0.0
  11
 340.000
  21
 625.888
  31
0.0
   0
LINE
   8
LEVEL001
   6
CONTINUOUS
  62
7
  10
 340.000
  20
 625.888
  30
0.0
  11
 340.151
  21
 625.889
  31
0.0
   0
LINE
   8
LEVEL001
   6
CONTINUOUS
  62
7
  10
 340.151
  20
 625.889
  30
0.0
  11
 340.302
  21
 625.893
  31
0.0
   0
LINE
   8
LEVEL001
   6
CONTINUOUS
  62
7
  10
 340.302
  20
 625.893
  30
0.0
  11
 340.452
  21
 625.899
  31
0.0
   0
LINE
   8
LEVEL001
   6
CONTINUOUS
  62
7
  10
 340.452
  20
 625.899
  30
0.0
  11
 340.601
  21
 625.908
  31
0.0
   0
LINE
   8
LEVEL001
   6
CONTINUOUS
  62
7
  10
 340.601
  20
 625.908
  30
0.0
  11
 340.749
  21
 625.919
  31
0.0
   0
LINE
   8
LEVEL001
   6
CONTINUOUS
  62
7
  10
 340.749
  20
 625.919
  30
0.0
  11
 340.896
  21
 625.933
  31
0.0
   0
LINE
   8
LEVEL001
   6
CONTINUOUS
  62
7
  10
 340.896
  20
 625.933
  30
0.0
  11
 341.040
  21
 625.949
  31
0.0
   0
LINE
   8
LEVEL001
   6
CONTINUOUS
  62
7
  10
 341.040
  20
 625.949
  30
0.0
  11
 341.183
  21
 625.968
  31
0.0
   0
LINE
   8
LEVEL001
   6
CONTINUOUS
  62
7
  10
 341.183
  20
 625.968
  30
0.0
  11
 341.324
  21
 625.989
  31
0.0
   0
LINE
   8
LEVEL001
   6
CONTINUOUS
  62
7
  10
 341.324
  20
 625.989
  30
0.0
  11
 341.462
  21
 626.012
  31
0.0
   0
LINE
   8
LEVEL001
   6
CONTINUOUS
  62
7
  10
 341.462
  20
 626.012
  30
0.0
  11
 341.598
  21
 626.037
  31
0.0
   0
LINE
   8
LEVEL001
   6
CONTINUOUS
  62
7
  10
 341.598
  20
 626.037
  30
0.0
  11
 341.730
  21
 626.065
  31
0.0
   0
LINE
   8
LEVEL001
   6
CONTINUOUS
  62
7
  10
 341.730
  20
 626.065
  30
0.0
  11
 341.859
  21
 626.095
  31
0.0
   0
LINE
   8
LEVEL001
   6
CONTINUOUS
  62
7
  10
 341.859
  20
 626.095
  30
0.0
  11
 341.985
  21
 626.127
  31
0.0
   0
LINE
   8
LEVEL001
   6
CONTINUOUS
  62
7
  10
 341.985
  20
 626.127
  30
0.0
  11
 342.106
  21
 626.161
  31
0.0
   0
LINE
   8
LEVEL001
   6
CONTINUOUS
  62
7
  10
 342.106
  20
 626.161
  30
0.0
  11
 342.224
  21
 626.198
  31
0.0
   0
LINE
   8
LEVEL001
   6
CONTINUOUS
  62
7
  10
 342.224
  20
 626.198
  30
0.0
  11
 342.338
  21
 626.236
  31
0.0
   0
LINE
   8
LEVEL001
   6
CONTINUOUS
  62
7
  10
 342.338
  20
 626.236
  30
0.0
  11
 342.447
  21
 626.276
  31
0.0
   0
LINE
   8
LEVEL001
   6
CONTINUOUS
  62
7
  10
 342.447
  20
 626.276
  30
0.0
  11
 342.551
  21
 626.317
  31
0.0
   0
LINE
   8
LEVEL001
   6
CONTINUOUS
  62
7
  10
 342.551
  20
 626.317
  30
0.0
  11
 342.651
  21
 626.361
  31
0.0
   0
LINE
   8
LEVEL001
   6
CONTINUOUS
  62
7
  10
 342.651
  20
 626.361
  30
0.0
  11
 342.745
  21
 626.406
  31
0.0
   0
LINE
   8
LEVEL001
   6
CONTINUOUS
  62
7
  10
 342.745
  20
 626.406
  30
0.0
  11
 342.834
  21
 626.452
  31
0.0
   0
LINE
   8
LEVEL001
   6
CONTINUOUS
  62
7
  10
 342.834
  20
 626.452
  30
0.0
  11
 342.918
  21
 626.500
  31
0.0
   0
LINE
   8
LEVEL001
   6
CONTINUOUS
  62
7
  10
 342.918
  20
 626.500
  30
0.0
  11
 342.996
  21
 626.550
  31
0.0
   0
LINE
   8
LEVEL001
   6
CONTINUOUS
  62
7
  10
 342.996
  20
 626.550
  30
0.0
  11
 343.069
  21
 626.600
  31
0.0
   0
LINE
   8
LEVEL001
   6
CONTINUOUS
  62
7
  10
 343.069
  20
 626.600
  30
0.0
  11
 343.136
  21
 626.652
  31
0.0
   0
LINE
   8
LEVEL001
   6
CONTINUOUS
  62
7
  10
 343.136
  20
 626.652
  30
0.0
  11
 343.197
  21
 626.705
  31
0.0
   0
LINE
   8
LEVEL001
   6
CONTINUOUS
  62
7
  10
 343.197
  20
 626.705
  30
0.0
  11
 343.251
  21
 626.759
  31
0.0
   0
LINE
   8
LEVEL001
   6
CONTINUOUS
  62
7
  10
 343.251
  20
 626.759
  30
0.0
  11
 343.300
  21
 626.814
  31
0.0
   0
LINE
   8
LEVEL001
   6
CONTINUOUS
  62
7
  10
 343.300
  20
 626.814
  30
0.0
  11
 343.342
  21
 626.869
  31
0.0
   0
LINE
   8
LEVEL001
   6
CONTINUOUS
  62
7
  10
 343.342
  20
 626.869
  30
0.0
  11
 343.378
  21
 626.925
  31
0.0
   0
LINE
   8
LEVEL001
   6
CONTINUOUS
  62
7
  10
 343.378
  20
 626.925
  30
0.0
  11
 343.407
  21
 626.982
  31
0.0
   0
LINE
   8
LEVEL001
   6
CONTINUOUS
  62
7
  10
 343.407
  20
 626.982
  30
0.0
  11
 343.430
  21
 627.039
  31
0.0
   0
LINE
   8
LEVEL001
   6
CONTINUOUS
  62
7
  10
 343.430
  20
 627.039
  30
0.0
  11
 343.447
  21
 627.096
  31
0.0
   0
LINE
   8
LEVEL001
   6
CONTINUOUS
  62
7
  10
 343.447
  20
 627.096
  30
0.0
  11
 343.457
  21
 627.154
  31
0.0
   0
LINE
   8
LEVEL001
   6
CONTINUOUS
  62
7
  10
 343.457
  20
 627.154
  30
0.0
  11
 343.460
  21
 627.212
  31
0.0
   0
LINE
   8
LEVEL001
   6
CONTINUOUS
  62
7
  10
 337.120
  20
 628.334
  30
0.0
  11
 337.123
  21
 628.286
  31
0.0
   0
LINE
   8
LEVEL001
   6
CONTINUOUS
  62
7
  10
 337.123
  20
 628.286
  30
0.0
  11
 337.131
  21
 628.238
  31
0.0
   0
LINE
   8
LEVEL001
   6
CONTINUOUS
  62
7
  10
 337.131
  20
 628.238
  30
0.0
  11
 337.145
  21
 628.190
  31
0.0
   0
LINE
   8
LEVEL001
   6
CONTINUOUS
  62
7
  10
 337.145
  20
 628.190
  30
0.0
  11
 337.164
  21
 628.142
  31
0.0
   0
LINE
   8
LEVEL001
   6
CONTINUOUS
  62
7
  10
 337.164
  20
 628.142
  30
0.0
  11
 337.188
  21
 628.095
  31
0.0
   0
LINE
   8
LEVEL001
   6
CONTINUOUS
  62
7
  10
 337.188
  20
 628.095
  30
0.0
  11
 337.218
  21
 628.048
  31
0.0
   0
LINE
   8
LEVEL001
   6
CONTINUOUS
  62
7
  10
 337.218
  20
 628.048
  30
0.0
  11
 337.253
  21
 628.002
  31
0.0
   0
LINE
   8
LEVEL001
   6
CONTINUOUS
  62
7
  10
 337.253
  20
 628.002
  30
0.0
  11
 337.294
  21
 627.957
  31
0.0
   0
LINE
   8
LEVEL001
   6
CONTINUOUS
  62
7
  10
 337.294
  20
 627.957
  30
0.0
  11
 337.339
  21
 627.912
  31
0.0
   0
LINE
   8
LEVEL001
   6
CONTINUOUS
  62
7
  10
 337.339
  20
 627.912
  30
0.0
  11
 337.390
  21
 627.868
  31
0.0
   0
LINE
   8
LEVEL001
   6
CONTINUOUS
  62
7
  10
 337.390
  20
 627.868
  30
0.0
  11
 337.445
  21
 627.825
  31
0.0
   0
LINE
   8
LEVEL001
   6
CONTINUOUS
  62
7
  10
 337.445
  20
 627.825
  30
0.0
  11
 337.506
  21
 627.783
  31
0.0
   0
LINE
   8
LEVEL001
   6
CONTINUOUS
  62
7
  10
 337.506
  20
 627.783
  30
0.0
  11
 337.571
  21
 627.741
  31
0.0
   0
LINE
   8
LEVEL001
   6
CONTINUOUS
  62
7
  10
 337.571
  20
 627.741
  30
0.0
  11
 337.641
  21
 627.701
  31
0.0
   0
LINE
   8
LEVEL001
   6
CONTINUOUS
  62
7
  10
 337.641
  20
 627.701
  30
0.0
  11
 337.715
  21
 627.663
  31
0.0
   0
LINE
   8
LEVEL001
   6
CONTINUOUS
  62
7
  10
 337.715
  20
 627.663
  30
0.0
  11
 337.794
  21
 627.625
  31
0.0
   0
LINE
   8
LEVEL001
   6
CONTINUOUS
  62
7
  10
 337.794
  20
 627.625
  30
0.0
  11
 337.877
  21
 627.589
  31
0.0
   0
LINE
   8
LEVEL001
   6
CONTINUOUS
  62
7
  10
 337.877
  20
 627.589
  30
0.0
  11
 337.964
  21
 627.554
  31
0.0
   0
LINE
   8
LEVEL001
   6
CONTINUOUS
  62
7
  10
 337.964
  20
 627.554
  30
0.0
  11
 338.054
  21
 627.521
  31
0.0
   0
LINE
   8
LEVEL001
   6
CONTINUOUS
  62
7
  10
 338.054
  20
 627.521
  30
0.0
  11
 338.149
  21
 627.489
  31
0.0
   0
LINE
   8
LEVEL001
   6
CONTINUOUS
  62
7
  10
 338.149
  20
 627.489
  30
0.0
  11
 338.247
  21
 627.459
  31
0.0
   0
LINE
   8
LEVEL001
   6
CONTINUOUS
  62
7
  10
 338.247
  20
 627.459
  30
0.0
  11
 338.348
  21
 627.431
  31
0.0
   0
LINE
   8
LEVEL001
   6
CONTINUOUS
  62
7
  10
 338.348
  20
 627.431
  30
0.0
  11
 338.453
  21
 627.404
  31
0.0
   0
LINE
   8
LEVEL001
   6
CONTINUOUS
  62
7
  10
 338.453
  20
 627.404
  30
0.0
  11
 338.560
  21
 627.379
  31
0.0
   0
LINE
   8
LEVEL001
   6
CONTINUOUS
  62
7
  10
 338.560
  20
 627.379
  30
0.0
  11
 338.670
  21
 627.356
  31
0.0
   0
LINE
   8
LEVEL001
   6
CONTINUOUS
  62
7
  10
 338.670
  20
 627.356
  30
0.0
  11
 338.783
  21
 627.335
  31
0.0
   0
LINE
   8
LEVEL001
   6
CONTINUOUS
  62
7
  10
 338.783
  20
 627.335
  30
0.0
  11
 338.898
  21
 627.315
  31
0.0
   0
LINE
   8
LEVEL001
   6
CONTINUOUS
  62
7
  10
 338.898
  20
 627.315
  30
0.0
  11
 339.015
  21
 627.298
  31
0.0
   0
LINE
   8
LEVEL001
   6
CONTINUOUS
  62
7
  10
 339.015
  20
 627.298
  30
0.0
  11
 339.134
  21
 627.283
  31
0.0
   0
LINE
   8
LEVEL001
   6
CONTINUOUS
  62
7
  10
 339.134
  20
 627.283
  30
0.0
  11
 339.255
  21
 627.269
  31
0.0
   0
LINE
   8
LEVEL001
   6
CONTINUOUS
  62
7
  10
 339.255
  20
 627.269
  30
0.0
  11
 339.377
  21
 627.258
  31
0.0
   0
LINE
   8
LEVEL001
   6
CONTINUOUS
  62
7
  10
 339.377
  20
 627.258
  30
0.0
  11
 339.500
  21
 627.248
  31
0.0
   0
LINE
   8
LEVEL001
   6
CONTINUOUS
  62
7
  10
 339.500
  20
 627.248
  30
0.0
  11
 339.624
  21
 627.241
  31
0.0
   0
LINE
   8
LEVEL001
   6
CONTINUOUS
  62
7
  10
 339.624
  20
 627.241
  30
0.0
  11
 339.749
  21
 627.236
  31
0.0
   0
LINE
   8
LEVEL001
   6
CONTINUOUS
  62
7
  10
 339.749
  20
 627.236
  30
0.0
  11
 339.874
  21
 627.233
  31
0.0
   0
LINE
   8
LEVEL001
   6
CONTINUOUS
  62
7
  10
 339.874
  20
 627.233
  30
0.0
  11
 340.000
  21
 627.232
  31
0.0
   0
LINE
   8
LEVEL001
   6
CONTINUOUS
  62
7
  10
 340.000
  20
 627.232
  30
0.0
  11
 340.126
  21
 627.233
  31
0.0
   0
LINE
   8
LEVEL001
   6
CONTINUOUS
  62
7
  10
 340.126
  20
 627.233
  30
0.0
  11
 340.251
  21
 627.236
  31
0.0
   0
LINE
   8
LEVEL001
   6
CONTINUOUS
  62
7
  10
 340.251
  20
 627.236
  30
0.0
  11
 340.376
  21
 627.241
  31
0.0
   0
LINE
   8
LEVEL001
   6
CONTINUOUS
  62
7
  10
 340.376
  20
 627.241
  30
0.0
  11
 340.500
  21
 627.248
  31
0.0
   0
LINE
   8
LEVEL001
   6
CONTINUOUS
  62
7
  10
 340.500
  20
 627.248
  30
0.0
  11
 340.623
  21
 627.258
  31
0.0
   0
LINE
   8
LEVEL001
   6
CONTINUOUS
  62
7
  10
 340.623
  20
 627.258
  30
0.0
  11
 340.745
  21
 627.269
  31
0.0
   0
LINE
   8
LEVEL001
   6
CONTINUOUS
  62
7
  10
 340.745
  20
 627.269
  30
0.0
  11
 340.866
  21
 627.283
  31
0.0
   0
LINE
   8
LEVEL001
   6
CONTINUOUS
  62
7
  10
 340.866
  20
 627.283
  30
0.0
  11
 340.985
  21
 627.298
  31
0.0
   0
LINE
   8
LEVEL001
   6
CONTINUOUS
  62
7
  10
 340.985
  20
 627.298
  30
0.0
  11
 341.102
  21
 627.315
  31
0.0
   0
LINE
   8
LEVEL001
   6
CONTINUOUS
  62
7
  10
 341.102
  20
 627.315
  30
0.0
  11
 341.217
  21
 627.335
  31
0.0
   0
LINE
   8
LEVEL001
   6
CONTINUOUS
  62
7
  10
 341.217
  20
 627.335
  30
0.0
  11
 341.330
  21
 627.356
  31
0.0
   0
LINE
   8
LEVEL001
   6
CONTINUOUS
  62
7
  10
 341.330
  20
 627.356
  30
0.0
  11
 341.440
  21
 627.379
  31
0.0
   0
LINE
   8
LEVEL001
   6
CONTINUOUS
  62
7
  10
 341.440
  20
 627.379
  30
0.0
  11
 341.547
  21
 627.404
  31
0.0
   0
LINE
   8
LEVEL001
   6
CONTINUOUS
  62
7
  10
 341.547
  20
 627.404
  30
0.0
  11
 341.652
  21
 627.431
  31
0.0
   0
LINE
   8
LEVEL001
   6
CONTINUOUS
  62
7
  10
 341.652
  20
 627.431
  30
0.0
  11
 341.753
  21
 627.459
  31
0.0
   0
LINE
   8
LEVEL001
   6
CONTINUOUS
  62
7
  10
 341.753
  20
 627.459
  30
0.0
  11
 341.851
  21
 627.489
  31
0.0
   0
LINE
   8
LEVEL001
   6
CONTINUOUS
  62
7
  10
 341.851
  20
 627.489
  30
0.0
  11
 341.946
  21
 627.521
  31
0.0
   0
LINE
   8
LEVEL001
   6
CONTINUOUS
  62
7
  10
 341.946
  20
 627.521
  30
0.0
  11
 342.036
  21
 627.554
  31
0.0
   0
LINE
   8
LEVEL001
   6
CONTINUOUS
  62
7
  10
 342.036
  20
 627.554
  30
0.0
  11
 342.123
  21
 627.589
  31
0.0
   0
LINE
   8
LEVEL001
   6
CONTINUOUS
  62
7
  10
 342.123
  20
 627.589
  30
0.0
  11
 342.206
  21
 627.625
  31
0.0
   0
LINE
   8
LEVEL001
   6
CONTINUOUS
  62
7
  10
 342.206
  20
 627.625
  30
0.0
  11
 342.285
  21
 627.663
  31
0.0
   0
LINE
   8
LEVEL001
   6
CONTINUOUS
  62
7
  10
 342.285
  20
 627.663
  30
0.0
  11
 342.359
  21
 627.701
  31
0.0
   0
LINE
   8
LEVEL001
   6
CONTINUOUS
  62
7
  10
 342.359
  20
 627.701
  30
0.0
  11
 342.429
  21
 627.741
  31
0.0
   0
LINE
   8
LEVEL001
   6
CONTINUOUS
  62
7
  10
 342.429
  20
 627.741
  30
0.0
  11
 342.494
  21
 627.783
  31
0.0
   0
LINE
   8
LEVEL001
   6
CONTINUOUS
  62
7
  10
 342.494
  20
 627.783
  30
0.0
  11
 342.555
  21
 627.825
  31
0.0
   0
LINE
   8
LEVEL001
   6
CONTINUOUS
  62
7
  10
 342.555
  20
 627.825
  30
0.0
  11
 342.610
  21
 627.868
  31
0.0
   0
LINE
   8
LEVEL001
   6
CONTINUOUS
  62
7
  10
 342.610
  20
 627.868
  30
0.0
  11
 342.661
  21
 627.912
  31
0.0
   0
LINE
   8
LEVEL001
   6
CONTINUOUS
  62
7
  10
 342.661
  20
 627.912
  30
0.0
  11
 342.706
  21
 627.957
  31
0.0
   0
LINE
   8
LEVEL001
   6
CONTINUOUS
  62
7
  10
 342.706
  20
 627.957
  30
0.0
  11
 342.747
  21
 628.002
  31
0.0
   0
LINE
   8
LEVEL001
   6
CONTINUOUS
  62
7
  10
 342.747
  20
 628.002
  30
0.0
  11
 342.782
  21
 628.048
  31
0.0
   0
LINE
   8
LEVEL001
   6
CONTINUOUS
  62
7
  10
 342.782
  20
 628.048
  30
0.0
  11
 342.812
  21
 628.095
  31
0.0
   0
LINE
   8
LEVEL001
   6
CONTINUOUS
  62
7
  10
 342.812
  20
 628.095
  30
0.0
  11
 342.836
  21
 628.142
  31
0.0
   0
LINE
   8
LEVEL001
   6
CONTINUOUS
  62
7
  10
 342.836
  20
 628.142
  30
0.0
  11
 342.855
  21
 628.190
  31
0.0
   0
LINE
   8
LEVEL001
   6
CONTINUOUS
  62
7
  10
 342.855
  20
 628.190
  30
0.0
  11
 342.869
  21
 628.238
  31
0.0
   0
LINE
   8
LEVEL001
   6
CONTINUOUS
  62
7
  10
 342.869
  20
 628.238
  30
0.0
  11
 342.877
  21
 628.286
  31
0.0
   0
LINE
   8
LEVEL001
   6
CONTINUOUS
  62
7
  10
 342.877
  20
 628.286
  30
0.0
  11
 342.880
  21
 628.334
  31
0.0
   0
LINE
   8
LEVEL001
   6
CONTINUOUS
  62
7
  10
 343.297
  20
 629.928
  30
0.0
  11
 342.391
  21
 632.557
  31
0.0
   0
LINE
   8
LEVEL001
   6
CONTINUOUS
  62
7
  10
 336.700
  20
 629.983
  30
0.0
  11
 337.602
  21
 632.517
  31
0.0
   0
LINE
   8
LEVEL001
   6
CONTINUOUS
  62
7
  10
 336.700
  20
 629.983
  30
0.0
  11
 336.703
  21
 629.928
  31
0.0
   0
LINE
   8
LEVEL001
   6
CONTINUOUS
  62
7
  10
 336.703
  20
 629.928
  30
0.0
  11
 336.713
  21
 629.873
  31
0.0
   0
LINE
   8
LEVEL001
   6
CONTINUOUS
  62
7
  10
 336.713
  20
 629.873
  30
0.0
  11
 336.728
  21
 629.819
  31
0.0
   0
LINE
   8
LEVEL001
   6
CONTINUOUS
  62
7
  10
 336.728
  20
 629.819
  30
0.0
  11
 336.750
  21
 629.764
  31
0.0
   0
LINE
   8
LEVEL001
   6
CONTINUOUS
  62
7
  10
 336.750
  20
 629.764
  30
0.0
  11
 336.778
  21
 629.710
  31
0.0
   0
LINE
   8
LEVEL001
   6
CONTINUOUS
  62
7
  10
 336.778
  20
 629.710
  30
0.0
  11
 336.812
  21
 629.657
  31
0.0
   0
LINE
   8
LEVEL001
   6
CONTINUOUS
  62
7
  10
 336.812
  20
 629.657
  30
0.0
  11
 336.853
  21
 629.604
  31
0.0
   0
LINE
   8
LEVEL001
   6
CONTINUOUS
  62
7
  10
 336.853
  20
 629.604
  30
0.0
  11
 336.899
  21
 629.552
  31
0.0
   0
LINE
   8
LEVEL001
   6
CONTINUOUS
  62
7
  10
 336.899
  20
 629.552
  30
0.0
  11
 336.951
  21
 629.500
  31
0.0
   0
LINE
   8
LEVEL001
   6
CONTINUOUS
  62
7
  10
 336.951
  20
 629.500
  30
0.0
  11
 337.009
  21
 629.450
  31
0.0
   0
LINE
   8
LEVEL001
   6
CONTINUOUS
  62
7
  10
 337.009
  20
 629.450
  30
0.0
  11
 337.073
  21
 629.400
  31
0.0
   0
LINE
   8
LEVEL001
   6
CONTINUOUS
  62
7
  10
 337.073
  20
 629.400
  30
0.0
  11
 337.142
  21
 629.352
  31
0.0
   0
LINE
   8
LEVEL001
   6
CONTINUOUS
  62
7
  10
 337.142
  20
 629.352
  30
0.0
  11
 337.217
  21
 629.305
  31
0.0
   0
LINE
   8
LEVEL001
   6
CONTINUOUS
  62
7
  10
 337.217
  20
 629.305
  30
0.0
  11
 337.297
  21
 629.259
  31
0.0
   0
LINE
   8
LEVEL001
   6
CONTINUOUS
  62
7
  10
 337.297
  20
 629.259
  30
0.0
  11
 337.382
  21
 629.215
  31
0.0
   0
LINE
   8
LEVEL001
   6
CONTINUOUS
  62
7
  10
 337.382
  20
 629.215
  30
0.0
  11
 337.472
  21
 629.172
  31
0.0
   0
LINE
   8
LEVEL001
   6
CONTINUOUS
  62
7
  10
 337.472
  20
 629.172
  30
0.0
  11
 337.567
  21
 629.130
  31
0.0
   0
LINE
   8
LEVEL001
   6
CONTINUOUS
  62
7
  10
 337.567
  20
 629.130
  30
0.0
  11
 337.667
  21
 629.091
  31
0.0
   0
LINE
   8
LEVEL001
   6
CONTINUOUS
  62
7
  10
 337.667
  20
 629.091
  30
0.0
  11
 337.771
  21
 629.052
  31
0.0
   0
LINE
   8
LEVEL001
   6
CONTINUOUS
  62
7
  10
 337.771
  20
 629.052
  30
0.0
  11
 337.879
  21
 629.016
  31
0.0
   0
LINE
   8
LEVEL001
   6
CONTINUOUS
  62
7
  10
 337.879
  20
 629.016
  30
0.0
  11
 337.991
  21
 628.982
  31
0.0
   0
LINE
   8
LEVEL001
   6
CONTINUOUS
  62
7
  10
 337.991
  20
 628.982
  30
0.0
  11
 338.107
  21
 628.949
  31
0.0
   0
LINE
   8
LEVEL001
   6
CONTINUOUS
  62
7
  10
 338.107
  20
 628.949
  30
0.0
  11
 338.227
  21
 628.918
  31
0.0
   0
LINE
   8
LEVEL001
   6
CONTINUOUS
  62
7
  10
 338.227
  20
 628.918
  30
0.0
  11
 338.350
  21
 628.890
  31
0.0
   0
LINE
   8
LEVEL001
   6
CONTINUOUS
  62
7
  10
 338.350
  20
 628.890
  30
0.0
  11
 338.476
  21
 628.863
  31
0.0
   0
LINE
   8
LEVEL001
   6
CONTINUOUS
  62
7
  10
 338.476
  20
 628.863
  30
0.0
  11
 338.605
  21
 628.839
  31
0.0
   0
LINE
   8
LEVEL001
   6
CONTINUOUS
  62
7
  10
 338.605
  20
 628.839
  30
0.0
  11
 338.737
  21
 628.817
  31
0.0
   0
LINE
   8
LEVEL001
   6
CONTINUOUS
  62
7
  10
 338.737
  20
 628.817
  30
0.0
  11
 338.871
  21
 628.797
  31
0.0
   0
LINE
   8
LEVEL001
   6
CONTINUOUS
  62
7
  10
 338.871
  20
 628.797
  30
0.0
  11
 339.008
  21
 628.779
  31
0.0
   0
LINE
   8
LEVEL001
   6
CONTINUOUS
  62
7
  10
 339.008
  20
 628.779
  30
0.0
  11
 339.146
  21
 628.764
  31
0.0
   0
LINE
   8
LEVEL001
   6
CONTINUOUS
  62
7
  10
 339.146
  20
 628.764
  30
0.0
  11
 339.286
  21
 628.751
  31
0.0
   0
LINE
   8
LEVEL001
   6
CONTINUOUS
  62
7
  10
 339.286
  20
 628.751
  30
0.0
  11
 339.427
  21
 628.740
  31
0.0
   0
LINE
   8
LEVEL001
   6
CONTINUOUS
  62
7
  10
 339.427
  20
 628.740
  30
0.0
  11
 339.569
  21
 628.731
  31
0.0
   0
LINE
   8
LEVEL001
   6
CONTINUOUS
  62
7
  10
 339.569
  20
 628.731
  30
0.0
  11
 339.712
  21
 628.725
  31
0.0
   0
LINE
   8
LEVEL001
   6
CONTINUOUS
  62
7
  10
 339.712
  20
 628.725
  30
0.0
  11
 339.856
  21
 628.722
  31
0.0
   0
LINE
   8
LEVEL001
   6
CONTINUOUS
  62
7
  10
 339.856
  20
 628.722
  30
0.0
  11
 340.000
  21
 628.721
  31
0.0
   0
LINE
   8
LEVEL001
   6
CONTINUOUS
  62
7
  10
 340.000
  20
 628.721
  30
0.0
  11
 340.144
  21
 628.722
  31
0.0
   0
LINE
   8
LEVEL001
   6
CONTINUOUS
  62
7
  10
 340.144
  20
 628.722
  30
0.0
  11
 340.288
  21
 628.725
  31
0.0
   0
LINE
   8
LEVEL001
   6
CONTINUOUS
  62
7
  10
 340.288
  20
 628.725
  30
0.0
  11
 340.431
  21
 628.731
  31
0.0
   0
LINE
   8
LEVEL001
   6
CONTINUOUS
  62
7
  10
 340.431
  20
 628.731
  30
0.0
  11
 340.573
  21
 628.740
  31
0.0
   0
LINE
   8
LEVEL001
   6
CONTINUOUS
  62
7
  10
 340.573
  20
 628.740
  30
0.0
  11
 340.714
  21
 628.751
  31
0.0
   0
LINE
   8
LEVEL001
   6
CONTINUOUS
  62
7
  10
 340.714
  20
 628.751
  30
0.0
  11
 340.854
  21
 628.764
  31
0.0
   0
LINE
   8
LEVEL001
   6
CONTINUOUS
  62
7
  10
 340.854
  20
 628.764
  30
0.0
  11
 340.992
  21
 628.779
  31
0.0
   0
LINE
   8
LEVEL001
   6
CONTINUOUS
  62
7
  10
 340.992
  20
 628.779
  30
0.0
  11
 341.129
  21
 628.797
  31
0.0
   0
LINE
   8
LEVEL001
   6
CONTINUOUS
  62
7
  10
 341.129
  20
 628.797
  30
0.0
  11
 341.263
  21
 628.817
  31
0.0
   0
LINE
   8
LEVEL001
   6
CONTINUOUS
  62
7
  10
 341.263
  20
 628.817
  30
0.0
  11
 341.395
  21
 628.839
  31
0.0
   0
LINE
   8
LEVEL001
   6
CONTINUOUS
  62
7
  10
 341.395
  20
 628.839
  30
0.0
  11
 341.524
  21
 628.863
  31
0.0
   0
LINE
   8
LEVEL001
   6
CONTINUOUS
  62
7
  10
 341.524
  20
 628.863
  30
0.0
  11
 341.650
  21
 628.890
  31
0.0
   0
LINE
   8
LEVEL001
   6
CONTINUOUS
  62
7
  10
 341.650
  20
 628.890
  30
0.0
  11
 341.773
  21
 628.918
  31
0.0
   0
LINE
   8
LEVEL001
   6
CONTINUOUS
  62
7
  10
 341.773
  20
 628.918
  30
0.0
  11
 341.893
  21
 628.949
  31
0.0
   0
LINE
   8
LEVEL001
   6
CONTINUOUS
  62
7
  10
 341.893
  20
 628.949
  30
0.0
  11
 342.009
  21
 628.982
  31
0.0
   0
LINE
   8
LEVEL001
   6
CONTINUOUS
  62
7
  10
 342.009
  20
 628.982
  30
0.0
  11
 342.121
  21
 629.016
  31
0.0
   0
LINE
   8
LEVEL001
   6
CONTINUOUS
  62
7
  10
 342.121
  20
 629.016
  30
0.0
  11
 342.229
  21
 629.052
  31
0.0
   0
LINE
   8
LEVEL001
   6
CONTINUOUS
  62
7
  10
 342.229
  20
 629.052
  30
0.0
  11
 342.333
  21
 629.091
  31
0.0
   0
LINE
   8
LEVEL001
   6
CONTINUOUS
  62
7
  10
 342.333
  20
 629.091
  30
0.0
  11
 342.433
  21
 629.130
  31
0.0
   0
LINE
   8
LEVEL001
   6
CONTINUOUS
  62
7
  10
 342.433
  20
 629.130
  30
0.0
  11
 342.528
  21
 629.172
  31
0.0
   0
LINE
   8
LEVEL001
   6
CONTINUOUS
  62
7
  10
 342.528
  20
 629.172
  30
0.0
  11
 342.618
  21
 629.215
  31
0.0
   0
LINE
   8
LEVEL001
   6
CONTINUOUS
  62
7
  10
 342.618
  20
 629.215
  30
0.0
  11
 342.703
  21
 629.259
  31
0.0
   0
LINE
   8
LEVEL001
   6
CONTINUOUS
  62
7
  10
 342.703
  20
 629.259
  30
0.0
  11
 342.783
  21
 629.305
  31
0.0
   0
LINE
   8
LEVEL001
   6
CONTINUOUS
  62
7
  10
 342.783
  20
 629.305
  30
0.0
  11
 342.858
  21
 629.352
  31
0.0
   0
LINE
   8
LEVEL001
   6
CONTINUOUS
  62
7
  10
 342.858
  20
 629.352
  30
0.0
  11
 342.927
  21
 629.400
  31
0.0
   0
LINE
   8
LEVEL001
   6
CONTINUOUS
  62
7
  10
 342.927
  20
 629.400
  30
0.0
  11
 342.991
  21
 629.450
  31
0.0
   0
LINE
   8
LEVEL001
   6
CONTINUOUS
  62
7
  10
 342.991
  20
 629.450
  30
0.0
  11
 343.049
  21
 629.500
  31
0.0
   0
LINE
   8
LEVEL001
   6
CONTINUOUS
  62
7
  10
 343.049
  20
 629.500
  30
0.0
  11
 343.101
  21
 629.552
  31
0.0
   0
LINE
   8
LEVEL001
   6
CONTINUOUS
  62
7
  10
 343.101
  20
 629.552
  30
0.0
  11
 343.147
  21
 629.604
  31
0.0
   0
LINE
   8
LEVEL001
   6
CONTINUOUS
  62
7
  10
 343.147
  20
 629.604
  30
0.0
  11
 343.188
  21
 629.657
  31
0.0
   0
LINE
   8
LEVEL001
   6
CONTINUOUS
  62
7
  10
 343.188
  20
 629.657
  30
0.0
  11
 343.222
  21
 629.710
  31
0.0
   0
LINE
   8
LEVEL001
   6
CONTINUOUS
  62
7
  10
 343.222
  20
 629.710
  30
0.0
  11
 343.250
  21
 629.764
  31
0.0
   0
LINE
   8
LEVEL001
   6
CONTINUOUS
  62
7
  10
 343.250
  20
 629.764
  30
0.0
  11
 343.272
  21
 629.819
  31
0.0
   0
LINE
   8
LEVEL001
   6
CONTINUOUS
  62
7
  10
 343.272
  20
 629.819
  30
0.0
  11
 343.287
  21
 629.873
  31
0.0
   0
LINE
   8
LEVEL001
   6
CONTINUOUS
  62
7
  10
 343.287
  20
 629.873
  30
0.0
  11
 343.297
  21
 629.928
  31
0.0
   0
LINE
   8
LEVEL001
   6
CONTINUOUS
  62
7
  10
 343.297
  20
 629.928
  30
0.0
  11
 343.300
  21
 629.983
  31
0.0
   0
ARC
   8
LEVEL001
   6
CONTINUOUS
  62
7
  10
 340.000
  20
 632.249
  30
0.0
  40
 1.00000
  50
 11.9426
  51
 167.156
   0
LINE
   8
LEVEL001
   6
CONTINUOUS
  62
7
  10
 339.000
  20
 632.477
  30
0.0
  11
 339.001
  21
 632.461
  31
0.0
   0
LINE
   8
LEVEL001
   6
CONTINUOUS
  62
7
  10
 339.001
  20
 632.461
  30
0.0
  11
 339.004
  21
 632.444
  31
0.0
   0
LINE
   8
LEVEL001
   6
CONTINUOUS
  62
7
  10
 339.004
  20
 632.444
  30
0.0
  11
 339.009
  21
 632.427
  31
0.0
   0
LINE
   8
LEVEL001
   6
CONTINUOUS
  62
7
  10
 339.009
  20
 632.427
  30
0.0
  11
 339.015
  21
 632.411
  31
0.0
   0
LINE
   8
LEVEL001
   6
CONTINUOUS
  62
7
  10
 339.015
  20
 632.411
  30
0.0
  11
 339.024
  21
 632.395
  31
0.0
   0
LINE
   8
LEVEL001
   6
CONTINUOUS
  62
7
  10
 339.024
  20
 632.395
  30
0.0
  11
 339.034
  21
 632.378
  31
0.0
   0
LINE
   8
LEVEL001
   6
CONTINUOUS
  62
7
  10
 339.034
  20
 632.378
  30
0.0
  11
 339.046
  21
 632.362
  31
0.0
   0
LINE
   8
LEVEL001
   6
CONTINUOUS
  62
7
  10
 339.046
  20
 632.362
  30
0.0
  11
 339.060
  21
 632.347
  31
0.0
   0
LINE
   8
LEVEL001
   6
CONTINUOUS
  62
7
  10
 339.060
  20
 632.347
  30
0.0
  11
 339.076
  21
 632.331
  31
0.0
   0
LINE
   8
LEVEL001
   6
CONTINUOUS
  62
7
  10
 339.076
  20
 632.331
  30
0.0
  11
 339.094
  21
 632.316
  31
0.0
   0
LINE
   8
LEVEL001
   6
CONTINUOUS
  62
7
  10
 339.094
  20
 632.316
  30
0.0
  11
 339.113
  21
 632.301
  31
0.0
   0
LINE
   8
LEVEL001
   6
CONTINUOUS
  62
7
  10
 339.113
  20
 632.301
  30
0.0
  11
 339.134
  21
 632.286
  31
0.0
   0
LINE
   8
LEVEL001
   6
CONTINUOUS
  62
7
  10
 339.134
  20
 632.286
  30
0.0
  11
 339.157
  21
 632.272
  31
0.0
   0
LINE
   8
LEVEL001
   6
CONTINUOUS
  62
7
  10
 339.157
  20
 632.272
  30
0.0
  11
 339.181
  21
 632.258
  31
0.0
   0
LINE
   8
LEVEL001
   6
CONTINUOUS
  62
7
  10
 339.181
  20
 632.258
  30
0.0
  11
 339.207
  21
 632.244
  31
0.0
   0
LINE
   8
LEVEL001
   6
CONTINUOUS
  62
7
  10
 339.207
  20
 632.244
  30
0.0
  11
 339.234
  21
 632.231
  31
0.0
   0
LINE
   8
LEVEL001
   6
CONTINUOUS
  62
7
  10
 339.234
  20
 632.231
  30
0.0
  11
 339.263
  21
 632.219
  31
0.0
   0
LINE
   8
LEVEL001
   6
CONTINUOUS
  62
7
  10
 339.263
  20
 632.219
  30
0.0
  11
 339.293
  21
 632.207
  31
0.0
   0
LINE
   8
LEVEL001
   6
CONTINUOUS
  62
7
  10
 339.293
  20
 632.207
  30
0.0
  11
 339.324
  21
 632.195
  31
0.0
   0
LINE
   8
LEVEL001
   6
CONTINUOUS
  62
7
  10
 339.324
  20
 632.195
  30
0.0
  11
 339.357
  21
 632.184
  31
0.0
   0
LINE
   8
LEVEL001
   6
CONTINUOUS
  62
7
  10
 339.357
  20
 632.184
  30
0.0
  11
 339.391
  21
 632.174
  31
0.0
   0
LINE
   8
LEVEL001
   6
CONTINUOUS
  62
7
  10
 339.391
  20
 632.174
  30
0.0
  11
 339.426
  21
 632.164
  31
0.0
   0
LINE
   8
LEVEL001
   6
CONTINUOUS
  62
7
  10
 339.426
  20
 632.164
  30
0.0
  11
 339.463
  21
 632.155
  31
0.0
   0
LINE
   8
LEVEL001
   6
CONTINUOUS
  62
7
  10
 339.463
  20
 632.155
  30
0.0
  11
 339.500
  21
 632.146
  31
0.0
   0
LINE
   8
LEVEL001
   6
CONTINUOUS
  62
7
  10
 339.500
  20
 632.146
  30
0.0
  11
 339.538
  21
 632.138
  31
0.0
   0
LINE
   8
LEVEL001
   6
CONTINUOUS
  62
7
  10
 339.538
  20
 632.138
  30
0.0
  11
 339.577
  21
 632.131
  31
0.0
   0
LINE
   8
LEVEL001
   6
CONTINUOUS
  62
7
  10
 339.577
  20
 632.131
  30
0.0
  11
 339.617
  21
 632.124
  31
0.0
   0
LINE
   8
LEVEL001
   6
CONTINUOUS
  62
7
  10
 339.617
  20
 632.124
  30
0.0
  11
 339.658
  21
 632.118
  31
0.0
   0
LINE
   8
LEVEL001
   6
CONTINUOUS
  62
7
  10
 339.658
  20
 632.118
  30
0.0
  11
 339.699
  21
 632.112
  31
0.0
   0
LINE
   8
LEVEL001
   6
CONTINUOUS
  62
7
  10
 339.699
  20
 632.112
  30
0.0
  11
 339.741
  21
 632.108
  31
0.0
   0
LINE
   8
LEVEL001
   6
CONTINUOUS
  62
7
  10
 339.741
  20
 632.108
  30
0.0
  11
 339.784
  21
 632.104
  31
0.0
   0
LINE
   8
LEVEL001
   6
CONTINUOUS
  62
7
  10
 339.784
  20
 632.104
  30
0.0
  11
 339.826
  21
 632.101
  31
0.0
   0
LINE
   8
LEVEL001
   6
CONTINUOUS
  62
7
  10
 339.826
  20
 632.101
  30
0.0
  11
 339.869
  21
 632.098
  31
0.0
   0
LINE
   8
LEVEL001
   6
CONTINUOUS
  62
7
  10
 339.869
  20
 632.098
  30
0.0
  11
 339.913
  21
 632.096
  31
0.0
   0
LINE
   8
LEVEL001
   6
CONTINUOUS
  62
7
  10
 339.913
  20
 632.096
  30
0.0
  11
 339.956
  21
 632.095
  31
0.0
   0
LINE
   8
LEVEL001
   6
CONTINUOUS
  62
7
  10
 339.956
  20
 632.095
  30
0.0
  11
 340.000
  21
 632.095
  31
0.0
   0
LINE
   8
LEVEL001
   6
CONTINUOUS
  62
7
  10
 340.000
  20
 632.095
  30
0.0
  11
 340.044
  21
 632.095
  31
0.0
   0
LINE
   8
LEVEL001
   6
CONTINUOUS
  62
7
  10
 340.044
  20
 632.095
  30
0.0
  11
 340.087
  21
 632.096
  31
0.0
   0
LINE
   8
LEVEL001
   6
CONTINUOUS
  62
7
  10
 340.087
  20
 632.096
  30
0.0
  11
 340.131
  21
 632.098
  31
0.0
   0
LINE
   8
LEVEL001
   6
CONTINUOUS
  62
7
  10
 340.131
  20
 632.098
  30
0.0
  11
 340.174
  21
 632.101
  31
0.0
   0
LINE
   8
LEVEL001
   6
CONTINUOUS
  62
7
  10
 340.174
  20
 632.101
  30
0.0
  11
 340.216
  21
 632.104
  31
0.0
   0
LINE
   8
LEVEL001
   6
CONTINUOUS
  62
7
  10
 340.216
  20
 632.104
  30
0.0
  11
 340.259
  21
 632.108
  31
0.0
   0
LINE
   8
LEVEL001
   6
CONTINUOUS
  62
7
  10
 340.259
  20
 632.108
  30
0.0
  11
 340.301
  21
 632.112
  31
0.0
   0
LINE
   8
LEVEL001
   6
CONTINUOUS
  62
7
  10
 340.301
  20
 632.112
  30
0.0
  11
 340.342
  21
 632.118
  31
0.0
   0
LINE
   8
LEVEL001
   6
CONTINUOUS
  62
7
  10
 340.342
  20
 632.118
  30
0.0
  11
 340.383
  21
 632.124
  31
0.0
   0
LINE
   8
LEVEL001
   6
CONTINUOUS
  62
7
  10
 340.383
  20
 632.124
  30
0.0
  11
 340.423
  21
 632.131
  31
0.0
   0
LINE
   8
LEVEL001
   6
CONTINUOUS
  62
7
  10
 340.423
  20
 632.131
  30
0.0
  11
 340.462
  21
 632.138
  31
0.0
   0
LINE
   8
LEVEL001
   6
CONTINUOUS
  62
7
  10
 340.462
  20
 632.138
  30
0.0
  11
 340.500
  21
 632.146
  31
0.0
   0
LINE
   8
LEVEL001
   6
CONTINUOUS
  62
7
  10
 340.500
  20
 632.146
  30
0.0
  11
 340.537
  21
 632.155
  31
0.0
   0
LINE
   8
LEVEL001
   6
CONTINUOUS
  62
7
  10
 340.537
  20
 632.155
  30
0.0
  11
 340.574
  21
 632.164
  31
0.0
   0
LINE
   8
LEVEL001
   6
CONTINUOUS
  62
7
  10
 340.574
  20
 632.164
  30
0.0
  11
 340.609
  21
 632.174
  31
0.0
   0
LINE
   8
LEVEL001
   6
CONTINUOUS
  62
7
  10
 340.609
  20
 632.174
  30
0.0
  11
 340.643
  21
 632.184
  31
0.0
   0
LINE
   8
LEVEL001
   6
CONTINUOUS
  62
7
  10
 340.643
  20
 632.184
  30
0.0
  11
 340.676
  21
 632.195
  31
0.0
   0
LINE
   8
LEVEL001
   6
CONTINUOUS
  62
7
  10
 340.676
  20
 632.195
  30
0.0
  11
 340.707
  21
 632.207
  31
0.0
   0
LINE
   8
LEVEL001
   6
CONTINUOUS
  62
7
  10
 340.707
  20
 632.207
  30
0.0
  11
 340.737
  21
 632.219
  31
0.0
   0
LINE
   8
LEVEL001
   6
CONTINUOUS
  62
7
  10
 340.737
  20
 632.219
  30
0.0
  11
 340.766
  21
 632.231
  31
0.0
   0
LINE
   8
LEVEL001
   6
CONTINUOUS
  62
7
  10
 340.766
  20
 632.231
  30
0.0
  11
 340.793
  21
 632.244
  31
0.0
   0
LINE
   8
LEVEL001
   6
CONTINUOUS
  62
7
  10
 340.793
  20
 632.244
  30
0.0
  11
 340.819
  21
 632.258
  31
0.0
   0
LINE
   8
LEVEL001
   6
CONTINUOUS
  62
7
  10
 340.819
  20
 632.258
  30
0.0
  11
 340.843
  21
 632.272
  31
0.0
   0
LINE
   8
LEVEL001
   6
CONTINUOUS
  62
7
  10
 340.843
  20
 632.272
  30
0.0
  11
 340.866
  21
 632.286
  31
0.0
   0
LINE
   8
LEVEL001
   6
CONTINUOUS
  62
7
  10
 340.866
  20
 632.286
  30
0.0
  11
 340.887
  21
 632.301
  31
0.0
   0
LINE
   8
LEVEL001
   6
CONTINUOUS
  62
7
  10
 340.887
  20
 632.301
  30
0.0
  11
 340.906
  21
 632.316
  31
0.0
   0
LINE
   8
LEVEL001
   6
CONTINUOUS
  62
7
  10
 340.906
  20
 632.316
  30
0.0
  11
 340.924
  21
 632.331
  31
0.0
   0
LINE
   8
LEVEL001
   6
CONTINUOUS
  62
7
  10
 340.924
  20
 632.331
  30
0.0
  11
 340.940
  21
 632.347
  31
0.0
   0
LINE
   8
LEVEL001
   6
CONTINUOUS
  62
7
  10
 340.940
  20
 632.347
  30
0.0
  11
 340.954
  21
 632.362
  31
0.0
   0
LINE
   8
LEVEL001
   6
CONTINUOUS
  62
7
  10
 340.954
  20
 632.362
  30
0.0
  11
 340.966
  21
 632.378
  31
0.0
   0
LINE
   8
LEVEL001
   6
CONTINUOUS
  62
7
  10
 340.966
  20
 632.378
  30
0.0
  11
 340.976
  21
 632.395
  31
0.0
   0
LINE
   8
LEVEL001
   6
CONTINUOUS
  62
7
  10
 340.976
  20
 632.395
  30
0.0
  11
 340.985
  21
 632.411
  31
0.0
   0
LINE
   8
LEVEL001
   6
CONTINUOUS
  62
7
  10
 340.985
  20
 632.411
  30
0.0
  11
 340.991
  21
 632.427
  31
0.0
   0
LINE
   8
LEVEL001
   6
CONTINUOUS
  62
7
  10
 340.991
  20
 632.427
  30
0.0
  11
 340.996
  21
 632.444
  31
0.0
   0
LINE
   8
LEVEL001
   6
CONTINUOUS
  62
7
  10
 340.996
  20
 632.444
  30
0.0
  11
 340.999
  21
 632.461
  31
0.0
   0
LINE
   8
LEVEL001
   6
CONTINUOUS
  62
7
  10
 340.999
  20
 632.461
  30
0.0
  11
 341.000
  21
 632.477
  31
0.0
   0
LINE
   8
LEVEL001
   6
CONTINUOUS
  62
7
  10
 342.400
  20
 632.477
  30
0.0
  11
 342.391
  21
 632.557
  31
0.0
   0
LINE
   8
LEVEL001
   6
CONTINUOUS
  62
7
  10
 342.391
  20
 632.557
  30
0.0
  11
 342.364
  21
 632.637
  31
0.0
   0
LINE
   8
LEVEL001
   6
CONTINUOUS
  62
7
  10
 342.364
  20
 632.637
  30
0.0
  11
 342.318
  21
 632.715
  31
0.0
   0
LINE
   8
LEVEL001
   6
CONTINUOUS
  62
7
  10
 342.318
  20
 632.715
  30
0.0
  11
 342.255
  21
 632.792
  31
0.0
   0
LINE
   8
LEVEL001
   6
CONTINUOUS
  62
7
  10
 342.255
  20
 632.792
  30
0.0
  11
 342.175
  21
 632.866
  31
0.0
   0
LINE
   8
LEVEL001
   6
CONTINUOUS
  62
7
  10
 342.175
  20
 632.866
  30
0.0
  11
 342.078
  21
 632.937
  31
0.0
   0
LINE
   8
LEVEL001
   6
CONTINUOUS
  62
7
  10
 342.078
  20
 632.937
  30
0.0
  11
 341.966
  21
 633.004
  31
0.0
   0
LINE
   8
LEVEL001
   6
CONTINUOUS
  62
7
  10
 341.966
  20
 633.004
  30
0.0
  11
 341.839
  21
 633.068
  31
0.0
   0
LINE
   8
LEVEL001
   6
CONTINUOUS
  62
7
  10
 341.839
  20
 633.068
  30
0.0
  11
 341.697
  21
 633.127
  31
0.0
   0
LINE
   8
LEVEL001
   6
CONTINUOUS
  62
7
  10
 341.697
  20
 633.127
  30
0.0
  11
 341.543
  21
 633.181
  31
0.0
   0
LINE
   8
LEVEL001
   6
CONTINUOUS
  62
7
  10
 341.543
  20
 633.181
  30
0.0
  11
 341.377
  21
 633.230
  31
0.0
   0
LINE
   8
LEVEL001
   6
CONTINUOUS
  62
7
  10
 341.377
  20
 633.230
  30
0.0
  11
 341.200
  21
 633.273
  31
0.0
   0
LINE
   8
LEVEL001
   6
CONTINUOUS
  62
7
  10
 341.200
  20
 633.273
  30
0.0
  11
 341.014
  21
 633.310
  31
0.0
   0
LINE
   8
LEVEL001
   6
CONTINUOUS
  62
7
  10
 341.014
  20
 633.310
  30
0.0
  11
 340.821
  21
 633.340
  31
0.0
   0
LINE
   8
LEVEL001
   6
CONTINUOUS
  62
7
  10
 340.821
  20
 633.340
  30
0.0
  11
 340.621
  21
 633.365
  31
0.0
   0
LINE
   8
LEVEL001
   6
CONTINUOUS
  62
7
  10
 340.621
  20
 633.365
  30
0.0
  11
 340.417
  21
 633.382
  31
0.0
   0
LINE
   8
LEVEL001
   6
CONTINUOUS
  62
7
  10
 340.417
  20
 633.382
  30
0.0
  11
 340.209
  21
 633.392
  31
0.0
   0
LINE
   8
LEVEL001
   6
CONTINUOUS
  62
7
  10
 340.209
  20
 633.392
  30
0.0
  11
 340.000
  21
 633.396
  31
0.0
   0
LINE
   8
LEVEL001
   6
CONTINUOUS
  62
7
  10
 340.000
  20
 633.396
  30
0.0
  11
 339.791
  21
 633.392
  31
0.0
   0
LINE
   8
LEVEL001
   6
CONTINUOUS
  62
7
  10
 339.791
  20
 633.392
  30
0.0
  11
 339.583
  21
 633.382
  31
0.0
   0
LINE
   8
LEVEL001
   6
CONTINUOUS
  62
7
  10
 339.583
  20
 633.382
  30
0.0
  11
 339.379
  21
 633.365
  31
0.0
   0
LINE
   8
LEVEL001
   6
CONTINUOUS
  62
7
  10
 339.379
  20
 633.365
  30
0.0
  11
 339.179
  21
 633.340
  31
0.0
   0
LINE
   8
LEVEL001
   6
CONTINUOUS
  62
7
  10
 339.179
  20
 633.340
  30
0.0
  11
 338.986
  21
 633.310
  31
0.0
   0
LINE
   8
LEVEL001
   6
CONTINUOUS
  62
7
  10
 338.986
  20
 633.310
  30
0.0
  11
 338.800
  21
 633.273
  31
0.0
   0
LINE
   8
LEVEL001
   6
CONTINUOUS
  62
7
  10
 338.800
  20
 633.273
  30
0.0
  11
 338.623
  21
 633.230
  31
0.0
   0
LINE
   8
LEVEL001
   6
CONTINUOUS
  62
7
  10
 338.623
  20
 633.230
  30
0.0
  11
 338.457
  21
 633.181
  31
0.0
   0
LINE
   8
LEVEL001
   6
CONTINUOUS
  62
7
  10
 338.457
  20
 633.181
  30
0.0
  11
 338.303
  21
 633.127
  31
0.0
   0
LINE
   8
LEVEL001
   6
CONTINUOUS
  62
7
  10
 338.303
  20
 633.127
  30
0.0
  11
 338.161
  21
 633.068
  31
0.0
   0
LINE
   8
LEVEL001
   6
CONTINUOUS
  62
7
  10
 338.161
  20
 633.068
  30
0.0
  11
 338.034
  21
 633.004
  31
0.0
   0
LINE
   8
LEVEL001
   6
CONTINUOUS
  62
7
  10
 338.034
  20
 633.004
  30
0.0
  11
 337.922
  21
 632.937
  31
0.0
   0
LINE
   8
LEVEL001
   6
CONTINUOUS
  62
7
  10
 337.922
  20
 632.937
  30
0.0
  11
 337.825
  21
 632.866
  31
0.0
   0
LINE
   8
LEVEL001
   6
CONTINUOUS
  62
7
  10
 337.825
  20
 632.866
  30
0.0
  11
 337.745
  21
 632.792
  31
0.0
   0
LINE
   8
LEVEL001
   6
CONTINUOUS
  62
7
  10
 337.745
  20
 632.792
  30
0.0
  11
 337.682
  21
 632.715
  31
0.0
   0
LINE
   8
LEVEL001
   6
CONTINUOUS
  62
7
  10
 337.682
  20
 632.715
  30
0.0
  11
 337.636
  21
 632.637
  31
0.0
   0
LINE
   8
LEVEL001
   6
CONTINUOUS
  62
7
  10
 337.636
  20
 632.637
  30
0.0
  11
 337.609
  21
 632.557
  31
0.0
   0
LINE
   8
LEVEL001
   6
CONTINUOUS
  62
7
  10
 337.609
  20
 632.557
  30
0.0
  11
 337.600
  21
 632.477
  31
0.0
   0
LINE
   8
LEVEL001
   6
CONTINUOUS
  62
7
  10
 337.600
  20
 632.477
  30
0.0
  11
 337.609
  21
 632.397
  31
0.0
   0
LINE
   8
LEVEL001
   6
CONTINUOUS
  62
7
  10
 337.609
  20
 632.397
  30
0.0
  11
 337.636
  21
 632.318
  31
0.0
   0
LINE
   8
LEVEL001
   6
CONTINUOUS
  62
7
  10
 337.636
  20
 632.318
  30
0.0
  11
 337.682
  21
 632.240
  31
0.0
   0
LINE
   8
LEVEL001
   6
CONTINUOUS
  62
7
  10
 337.682
  20
 632.240
  30
0.0
  11
 337.745
  21
 632.163
  31
0.0
   0
LINE
   8
LEVEL001
   6
CONTINUOUS
  62
7
  10
 337.745
  20
 632.163
  30
0.0
  11
 337.825
  21
 632.089
  31
0.0
   0
LINE
   8
LEVEL001
   6
CONTINUOUS
  62
7
  10
 337.825
  20
 632.089
  30
0.0
  11
 337.922
  21
 632.018
  31
0.0
   0
LINE
   8
LEVEL001
   6
CONTINUOUS
  62
7
  10
 337.922
  20
 632.018
  30
0.0
  11
 338.034
  21
 631.951
  31
0.0
   0
LINE
   8
LEVEL001
   6
CONTINUOUS
  62
7
  10
 338.034
  20
 631.951
  30
0.0
  11
 338.161
  21
 631.887
  31
0.0
   0
LINE
   8
LEVEL001
   6
CONTINUOUS
  62
7
  10
 338.161
  20
 631.887
  30
0.0
  11
 338.303
  21
 631.828
  31
0.0
   0
LINE
   8
LEVEL001
   6
CONTINUOUS
  62
7
  10
 338.303
  20
 631.828
  30
0.0
  11
 338.457
  21
 631.774
  31
0.0
   0
LINE
   8
LEVEL001
   6
CONTINUOUS
  62
7
  10
 338.457
  20
 631.774
  30
0.0
  11
 338.623
  21
 631.725
  31
0.0
   0
LINE
   8
LEVEL001
   6
CONTINUOUS
  62
7
  10
 338.623
  20
 631.725
  30
0.0
  11
 338.800
  21
 631.682
  31
0.0
   0
LINE
   8
LEVEL001
   6
CONTINUOUS
  62
7
  10
 338.800
  20
 631.682
  30
0.0
  11
 338.986
  21
 631.645
  31
0.0
   0
LINE
   8
LEVEL001
   6
CONTINUOUS
  62
7
  10
 338.986
  20
 631.645
  30
0.0
  11
 339.179
  21
 631.614
  31
0.0
   0
LINE
   8
LEVEL001
   6
CONTINUOUS
  62
7
  10
 339.179
  20
 631.614
  30
0.0
  11
 339.379
  21
 631.590
  31
0.0
   0
LINE
   8
LEVEL001
   6
CONTINUOUS
  62
7
  10
 339.379
  20
 631.590
  30
0.0
  11
 339.583
  21
 631.573
  31
0.0
   0
LINE
   8
LEVEL001
   6
CONTINUOUS
  62
7
  10
 339.583
  20
 631.573
  30
0.0
  11
 339.791
  21
 631.562
  31
0.0
   0
LINE
   8
LEVEL001
   6
CONTINUOUS
  62
7
  10
 339.791
  20
 631.562
  30
0.0
  11
 340.000
  21
 631.559
  31
0.0
   0
LINE
   8
LEVEL001
   6
CONTINUOUS
  62
7
  10
 340.000
  20
 631.559
  30
0.0
  11
 340.209
  21
 631.562
  31
0.0
   0
LINE
   8
LEVEL001
   6
CONTINUOUS
  62
7
  10
 340.209
  20
 631.562
  30
0.0
  11
 340.417
  21
 631.573
  31
0.0
   0
LINE
   8
LEVEL001
   6
CONTINUOUS
  62
7
  10
 340.417
  20
 631.573
  30
0.0
  11
 340.621
  21
 631.590
  31
0.0
   0
LINE
   8
LEVEL001
   6
CONTINUOUS
  62
7
  10
 340.621
  20
 631.590
  30
0.0
  11
 340.821
  21
 631.614
  31
0.0
   0
LINE
   8
LEVEL001
   6
CONTINUOUS
  62
7
  10
 340.821
  20
 631.614
  30
0.0
  11
 341.014
  21
 631.645
  31
0.0
   0
LINE
   8
LEVEL001
   6
CONTINUOUS
  62
7
  10
 341.014
  20
 631.645
  30
0.0
  11
 341.200
  21
 631.682
  31
0.0
   0
LINE
   8
LEVEL001
   6
CONTINUOUS
  62
7
  10
 341.200
  20
 631.682
  30
0.0
  11
 341.377
  21
 631.725
  31
0.0
   0
LINE
   8
LEVEL001
   6
CONTINUOUS
  62
7
  10
 341.377
  20
 631.725
  30
0.0
  11
 341.543
  21
 631.774
  31
0.0
   0
LINE
   8
LEVEL001
   6
CONTINUOUS
  62
7
  10
 341.543
  20
 631.774
  30
0.0
  11
 341.697
  21
 631.828
  31
0.0
   0
LINE
   8
LEVEL001
   6
CONTINUOUS
  62
7
  10
 341.697
  20
 631.828
  30
0.0
  11
 341.839
  21
 631.887
  31
0.0
   0
LINE
   8
LEVEL001
   6
CONTINUOUS
  62
7
  10
 341.839
  20
 631.887
  30
0.0
  11
 341.966
  21
 631.951
  31
0.0
   0
LINE
   8
LEVEL001
   6
CONTINUOUS
  62
7
  10
 341.966
  20
 631.951
  30
0.0
  11
 342.078
  21
 632.018
  31
0.0
   0
LINE
   8
LEVEL001
   6
CONTINUOUS
  62
7
  10
 342.078
  20
 632.018
  30
0.0
  11
 342.175
  21
 632.089
  31
0.0
   0
LINE
   8
LEVEL001
   6
CONTINUOUS
  62
7
  10
 342.175
  20
 632.089
  30
0.0
  11
 342.255
  21
 632.163
  31
0.0
   0
LINE
   8
LEVEL001
   6
CONTINUOUS
  62
7
  10
 342.255
  20
 632.163
  30
0.0
  11
 342.318
  21
 632.240
  31
0.0
   0
LINE
   8
LEVEL001
   6
CONTINUOUS
  62
7
  10
 342.318
  20
 632.240
  30
0.0
  11
 342.364
  21
 632.318
  31
0.0
   0
LINE
   8
LEVEL001
   6
CONTINUOUS
  62
7
  10
 342.364
  20
 632.318
  30
0.0
  11
 342.391
  21
 632.397
  31
0.0
   0
LINE
   8
LEVEL001
   6
CONTINUOUS
  62
7
  10
 342.391
  20
 632.397
  30
0.0
  11
 342.400
  21
 632.477
  31
0.0
   0
LINE
   8
LEVEL001
   6
CONTINUOUS
  62
7
  10
 819.191
  20
 535.000
  30
0.0
  11
 793.803
  21
 535.000
  31
0.0
   0
LINE
   8
LEVEL001
   6
CONTINUOUS
  62
7
  10
 1042.00
  20
 535.000
  30
0.0
  11
 879.320
  21
 535.000
  31
0.0
   0
ARC
   8
LEVEL001
   6
CONTINUOUS
  62
7
  10
 793.803
  20
 555.000
  30
0.0
  40
 20.0000
  50
 155.523
  51
 270.000
   0
LINE
   8
LEVEL001
   6
CONTINUOUS
  62
7
  10
 801.560
  20
 656.000
  30
0.0
  11
 963.861
  21
 656.000
  31
0.0
   0
LINE
   8
LEVEL001
   6
CONTINUOUS
  62
7
  10
 777.147
  20
 688.000
  30
0.0
  11
 979.233
  21
 688.000
  31
0.0
   0
LINE
   8
LEVEL001
   6
CONTINUOUS
  62
7
  10
 401.985
  20
 756.600
  30
0.0
  11
 428.985
  21
 756.600
  31
0.0
   0
LINE
   8
LEVEL001
   6
CONTINUOUS
  62
7
  10
 428.985
  20
 756.600
  30
0.0
  11
 427.426
  21
 757.500
  31
0.0
   0
LINE
   8
LEVEL001
   6
CONTINUOUS
  62
7
  10
 427.426
  20
 757.500
  30
0.0
  11
 403.544
  21
 757.500
  31
0.0
   0
LINE
   8
LEVEL001
   6
CONTINUOUS
  62
7
  10
 403.544
  20
 757.500
  30
0.0
  11
 401.985
  21
 756.600
  31
0.0
   0
LINE
   8
LEVEL001
   6
CONTINUOUS
  62
7
  10
 401.985
  20
 756.600
  30
0.0
  11
 401.985
  21
 741.500
  31
0.0
   0
LINE
   8
LEVEL001
   6
CONTINUOUS
  62
7
  10
 428.985
  20
 741.500
  30
0.0
  11
 428.985
  21
 756.600
  31
0.0
   0
LINE
   8
LEVEL001
   6
CONTINUOUS
  62
7
  10
 334.336
  20
 756.600
  30
0.0
  11
 361.336
  21
 756.600
  31
0.0
   0
LINE
   8
LEVEL001
   6
CONTINUOUS
  62
7
  10
 361.336
  20
 756.600
  30
0.0
  11
 359.777
  21
 757.500
  31
0.0
   0
LINE
   8
LEVEL001
   6
CONTINUOUS
  62
7
  10
 359.777
  20
 757.500
  30
0.0
  11
 335.895
  21
 757.500
  31
0.0
   0
LINE
   8
LEVEL001
   6
CONTINUOUS
  62
7
  10
 335.895
  20
 757.500
  30
0.0
  11
 334.336
  21
 756.600
  31
0.0
   0
LINE
   8
LEVEL001
   6
CONTINUOUS
  62
7
  10
 334.336
  20
 756.600
  30
0.0
  11
 334.336
  21
 741.500
  31
0.0
   0
LINE
   8
LEVEL001
   6
CONTINUOUS
  62
7
  10
 361.336
  20
 741.500
  30
0.0
  11
 361.336
  21
 756.600
  31
0.0
   0
LINE
   8
LEVEL001
   6
CONTINUOUS
  62
7
  10
 238.664
  20
 756.600
  30
0.0
  11
 265.664
  21
 756.600
  31
0.0
   0
LINE
   8
LEVEL001
   6
CONTINUOUS
  62
7
  10
 265.664
  20
 756.600
  30
0.0
  11
 264.105
  21
 757.500
  31
0.0
   0
LINE
   8
LEVEL001
   6
CONTINUOUS
  62
7
  10
 264.105
  20
 757.500
  30
0.0
  11
 240.223
  21
 757.500
  31
0.0
   0
LINE
   8
LEVEL001
   6
CONTINUOUS
  62
7
  10
 240.223
  20
 757.500
  30
0.0
  11
 238.664
  21
 756.600
  31
0.0
   0
LINE
   8
LEVEL001
   6
CONTINUOUS
  62
7
  10
 238.664
  20
 756.600
  30
0.0
  11
 238.664
  21
 741.500
  31
0.0
   0
LINE
   8
LEVEL001
   6
CONTINUOUS
  62
7
  10
 265.664
  20
 741.500
  30
0.0
  11
 265.664
  21
 756.600
  31
0.0
   0
LINE
   8
LEVEL001
   6
CONTINUOUS
  62
7
  10
 171.015
  20
 756.600
  30
0.0
  11
 198.015
  21
 756.600
  31
0.0
   0
LINE
   8
LEVEL001
   6
CONTINUOUS
  62
7
  10
 198.015
  20
 756.600
  30
0.0
  11
 196.456
  21
 757.500
  31
0.0
   0
LINE
   8
LEVEL001
   6
CONTINUOUS
  62
7
  10
 196.456
  20
 757.500
  30
0.0
  11
 172.574
  21
 757.500
  31
0.0
   0
LINE
   8
LEVEL001
   6
CONTINUOUS
  62
7
  10
 172.574
  20
 757.500
  30
0.0
  11
 171.015
  21
 756.600
  31
0.0
   0
LINE
   8
LEVEL001
   6
CONTINUOUS
  62
7
  10
 171.015
  20
 756.600
  30
0.0
  11
 171.015
  21
 741.500
  31
0.0
   0
LINE
   8
LEVEL001
   6
CONTINUOUS
  62
7
  10
 198.015
  20
 741.500
  30
0.0
  11
 198.015
  21
 756.600
  31
0.0
   0
LINE
   8
LEVEL001
   6
CONTINUOUS
  62
7
  10
 295.000
  20
 790.000
  30
0.0
  11
 232.849
  21
 790.000
  31
0.0
   0
LINE
   8
LEVEL001
   6
CONTINUOUS
  62
7
  10
 367.151
  20
 790.000
  30
0.0
  11
 305.000
  21
 790.000
  31
0.0
   0
LINE
   8
LEVEL001
   6
CONTINUOUS
  62
7
  10
 295.025
  20
 793.000
  30
0.0
  11
 255.000
  21
 793.000
  31
0.0
   0
LINE
   8
LEVEL001
   6
CONTINUOUS
  62
7
  10
 345.000
  20
 793.000
  30
0.0
  11
 304.975
  21
 793.000
  31
0.0
   0
ARC
   8
LEVEL001
   6
CONTINUOUS
  62
7
  10
 290.765
  20
 753.500
  30
0.0
  40
 2.00000
  50
 90.0000
  51
 170.000
   0
LINE
   8
LEVEL001
   6
CONTINUOUS
  62
7
  10
 287.500
  20
 746.500
  30
0.0
  11
 288.796
  21
 753.847
  31
0.0
   0
ARC
   8
LEVEL001
   6
CONTINUOUS
  62
7
  10
 309.235
  20
 753.500
  30
0.0
  40
 2.00000
  50
 9.99980
  51
 90.0030
   0
LINE
   8
LEVEL001
   6
CONTINUOUS
  62
7
  10
 312.500
  20
 746.500
  30
0.0
  11
 311.205
  21
 753.847
  31
0.0
   0
ARC
   8
LEVEL001
   6
CONTINUOUS
  62
7
  10
 300.000
  20
 792.500
  30
0.0
  40
 5.00000
  50
0.0
  51
 180.000
   0
LINE
   8
LEVEL001
   6
CONTINUOUS
  62
7
  10
 295.000
  20
 792.500
  30
0.0
  11
 295.000
  21
 754.046
  31
0.0
   0
LINE
   8
LEVEL001
   6
CONTINUOUS
  62
7
  10
 305.000
  20
 792.500
  30
0.0
  11
 305.000
  21
 753.944
  31
0.0
   0
LINE
   8
LEVEL001
   6
CONTINUOUS
  62
7
  10
 295.001
  20
 754.046
  30
0.0
  11
 295.002
  21
 753.766
  31
0.0
   0
LINE
   8
LEVEL001
   6
CONTINUOUS
  62
7
  10
 295.002
  20
 753.766
  30
0.0
  11
 295.013
  21
 753.486
  31
0.0
   0
LINE
   8
LEVEL001
   6
CONTINUOUS
  62
7
  10
 295.013
  20
 753.486
  30
0.0
  11
 295.033
  21
 753.207
  31
0.0
   0
LINE
   8
LEVEL001
   6
CONTINUOUS
  62
7
  10
 295.033
  20
 753.207
  30
0.0
  11
 295.063
  21
 752.930
  31
0.0
   0
LINE
   8
LEVEL001
   6
CONTINUOUS
  62
7
  10
 295.063
  20
 752.930
  30
0.0
  11
 295.103
  21
 752.654
  31
0.0
   0
LINE
   8
LEVEL001
   6
CONTINUOUS
  62
7
  10
 295.103
  20
 752.654
  30
0.0
  11
 295.152
  21
 752.381
  31
0.0
   0
LINE
   8
LEVEL001
   6
CONTINUOUS
  62
7
  10
 295.152
  20
 752.381
  30
0.0
  11
 295.210
  21
 752.111
  31
0.0
   0
LINE
   8
LEVEL001
   6
CONTINUOUS
  62
7
  10
 295.210
  20
 752.111
  30
0.0
  11
 295.278
  21
 751.845
  31
0.0
   0
LINE
   8
LEVEL001
   6
CONTINUOUS
  62
7
  10
 295.278
  20
 751.845
  30
0.0
  11
 295.354
  21
 751.582
  31
0.0
   0
LINE
   8
LEVEL001
   6
CONTINUOUS
  62
7
  10
 295.354
  20
 751.582
  30
0.0
  11
 295.440
  21
 751.324
  31
0.0
   0
LINE
   8
LEVEL001
   6
CONTINUOUS
  62
7
  10
 295.440
  20
 751.324
  30
0.0
  11
 295.534
  21
 751.071
  31
0.0
   0
LINE
   8
LEVEL001
   6
CONTINUOUS
  62
7
  10
 295.534
  20
 751.071
  30
0.0
  11
 295.637
  21
 750.824
  31
0.0
   0
LINE
   8
LEVEL001
   6
CONTINUOUS
  62
7
  10
 295.637
  20
 750.824
  30
0.0
  11
 295.748
  21
 750.583
  31
0.0
   0
LINE
   8
LEVEL001
   6
CONTINUOUS
  62
7
  10
 295.748
  20
 750.583
  30
0.0
  11
 295.868
  21
 750.348
  31
0.0
   0
LINE
   8
LEVEL001
   6
CONTINUOUS
  62
7
  10
 295.868
  20
 750.348
  30
0.0
  11
 295.995
  21
 750.120
  31
0.0
   0
LINE
   8
LEVEL001
   6
CONTINUOUS
  62
7
  10
 295.995
  20
 750.120
  30
0.0
  11
 296.130
  21
 749.899
  31
0.0
   0
LINE
   8
LEVEL001
   6
CONTINUOUS
  62
7
  10
 296.130
  20
 749.899
  30
0.0
  11
 296.273
  21
 749.686
  31
0.0
   0
LINE
   8
LEVEL001
   6
CONTINUOUS
  62
7
  10
 296.273
  20
 749.686
  30
0.0
  11
 296.422
  21
 749.481
  31
0.0
   0
LINE
   8
LEVEL001
   6
CONTINUOUS
  62
7
  10
 296.422
  20
 749.481
  30
0.0
  11
 296.579
  21
 749.285
  31
0.0
   0
LINE
   8
LEVEL001
   6
CONTINUOUS
  62
7
  10
 296.579
  20
 749.285
  30
0.0
  11
 296.742
  21
 749.098
  31
0.0
   0
LINE
   8
LEVEL001
   6
CONTINUOUS
  62
7
  10
 296.742
  20
 749.098
  30
0.0
  11
 296.912
  21
 748.920
  31
0.0
   0
LINE
   8
LEVEL001
   6
CONTINUOUS
  62
7
  10
 296.912
  20
 748.920
  30
0.0
  11
 297.087
  21
 748.752
  31
0.0
   0
LINE
   8
LEVEL001
   6
CONTINUOUS
  62
7
  10
 297.087
  20
 748.752
  30
0.0
  11
 297.268
  21
 748.594
  31
0.0
   0
LINE
   8
LEVEL001
   6
CONTINUOUS
  62
7
  10
 297.268
  20
 748.594
  30
0.0
  11
 297.454
  21
 748.446
  31
0.0
   0
LINE
   8
LEVEL001
   6
CONTINUOUS
  62
7
  10
 297.454
  20
 748.446
  30
0.0
  11
 297.645
  21
 748.309
  31
0.0
   0
LINE
   8
LEVEL001
   6
CONTINUOUS
  62
7
  10
 297.645
  20
 748.309
  30
0.0
  11
 297.841
  21
 748.182
  31
0.0
   0
LINE
   8
LEVEL001
   6
CONTINUOUS
  62
7
  10
 297.841
  20
 748.182
  30
0.0
  11
 298.041
  21
 748.067
  31
0.0
   0
LINE
   8
LEVEL001
   6
CONTINUOUS
  62
7
  10
 298.041
  20
 748.067
  30
0.0
  11
 298.244
  21
 747.963
  31
0.0
   0
LINE
   8
LEVEL001
   6
CONTINUOUS
  62
7
  10
 298.244
  20
 747.963
  30
0.0
  11
 298.451
  21
 747.870
  31
0.0
   0
LINE
   8
LEVEL001
   6
CONTINUOUS
  62
7
  10
 298.451
  20
 747.870
  30
0.0
  11
 298.661
  21
 747.789
  31
0.0
   0
LINE
   8
LEVEL001
   6
CONTINUOUS
  62
7
  10
 298.661
  20
 747.789
  30
0.0
  11
 298.873
  21
 747.720
  31
0.0
   0
LINE
   8
LEVEL001
   6
CONTINUOUS
  62
7
  10
 298.873
  20
 747.720
  30
0.0
  11
 299.088
  21
 747.663
  31
0.0
   0
LINE
   8
LEVEL001
   6
CONTINUOUS
  62
7
  10
 299.088
  20
 747.663
  30
0.0
  11
 299.304
  21
 747.618
  31
0.0
   0
LINE
   8
LEVEL001
   6
CONTINUOUS
  62
7
  10
 299.304
  20
 747.618
  30
0.0
  11
 299.522
  21
 747.585
  31
0.0
   0
LINE
   8
LEVEL001
   6
CONTINUOUS
  62
7
  10
 299.522
  20
 747.585
  30
0.0
  11
 299.741
  21
 747.565
  31
0.0
   0
LINE
   8
LEVEL001
   6
CONTINUOUS
  62
7
  10
 299.741
  20
 747.565
  30
0.0
  11
 299.960
  21
 747.556
  31
0.0
   0
LINE
   8
LEVEL001
   6
CONTINUOUS
  62
7
  10
 299.960
  20
 747.556
  30
0.0
  11
 300.179
  21
 747.560
  31
0.0
   0
LINE
   8
LEVEL001
   6
CONTINUOUS
  62
7
  10
 300.179
  20
 747.560
  30
0.0
  11
 300.398
  21
 747.576
  31
0.0
   0
LINE
   8
LEVEL001
   6
CONTINUOUS
  62
7
  10
 300.398
  20
 747.576
  30
0.0
  11
 300.616
  21
 747.605
  31
0.0
   0
LINE
   8
LEVEL001
   6
CONTINUOUS
  62
7
  10
 300.616
  20
 747.605
  30
0.0
  11
 300.833
  21
 747.645
  31
0.0
   0
LINE
   8
LEVEL001
   6
CONTINUOUS
  62
7
  10
 300.833
  20
 747.645
  30
0.0
  11
 301.049
  21
 747.698
  31
0.0
   0
LINE
   8
LEVEL001
   6
CONTINUOUS
  62
7
  10
 301.049
  20
 747.698
  30
0.0
  11
 301.262
  21
 747.763
  31
0.0
   0
LINE
   8
LEVEL001
   6
CONTINUOUS
  62
7
  10
 301.262
  20
 747.763
  30
0.0
  11
 301.473
  21
 747.839
  31
0.0
   0
LINE
   8
LEVEL001
   6
CONTINUOUS
  62
7
  10
 301.473
  20
 747.839
  30
0.0
  11
 301.681
  21
 747.928
  31
0.0
   0
LINE
   8
LEVEL001
   6
CONTINUOUS
  62
7
  10
 301.681
  20
 747.928
  30
0.0
  11
 301.886
  21
 748.028
  31
0.0
   0
LINE
   8
LEVEL001
   6
CONTINUOUS
  62
7
  10
 301.886
  20
 748.028
  30
0.0
  11
 302.087
  21
 748.139
  31
0.0
   0
LINE
   8
LEVEL001
   6
CONTINUOUS
  62
7
  10
 302.087
  20
 748.139
  30
0.0
  11
 302.284
  21
 748.262
  31
0.0
   0
LINE
   8
LEVEL001
   6
CONTINUOUS
  62
7
  10
 302.284
  20
 748.262
  30
0.0
  11
 302.477
  21
 748.395
  31
0.0
   0
LINE
   8
LEVEL001
   6
CONTINUOUS
  62
7
  10
 302.477
  20
 748.395
  30
0.0
  11
 302.665
  21
 748.539
  31
0.0
   0
LINE
   8
LEVEL001
   6
CONTINUOUS
  62
7
  10
 302.665
  20
 748.539
  30
0.0
  11
 302.848
  21
 748.693
  31
0.0
   0
LINE
   8
LEVEL001
   6
CONTINUOUS
  62
7
  10
 302.848
  20
 748.693
  30
0.0
  11
 303.025
  21
 748.858
  31
0.0
   0
LINE
   8
LEVEL001
   6
CONTINUOUS
  62
7
  10
 303.025
  20
 748.858
  30
0.0
  11
 303.197
  21
 749.032
  31
0.0
   0
LINE
   8
LEVEL001
   6
CONTINUOUS
  62
7
  10
 303.197
  20
 749.032
  30
0.0
  11
 303.362
  21
 749.216
  31
0.0
   0
LINE
   8
LEVEL001
   6
CONTINUOUS
  62
7
  10
 303.362
  20
 749.216
  30
0.0
  11
 303.521
  21
 749.409
  31
0.0
   0
LINE
   8
LEVEL001
   6
CONTINUOUS
  62
7
  10
 303.521
  20
 749.409
  30
0.0
  11
 303.674
  21
 749.611
  31
0.0
   0
LINE
   8
LEVEL001
   6
CONTINUOUS
  62
7
  10
 303.674
  20
 749.611
  30
0.0
  11
 303.819
  21
 749.821
  31
0.0
   0
LINE
   8
LEVEL001
   6
CONTINUOUS
  62
7
  10
 303.819
  20
 749.821
  30
0.0
  11
 303.957
  21
 750.038
  31
0.0
   0
LINE
   8
LEVEL001
   6
CONTINUOUS
  62
7
  10
 303.957
  20
 750.038
  30
0.0
  11
 304.087
  21
 750.264
  31
0.0
   0
LINE
   8
LEVEL001
   6
CONTINUOUS
  62
7
  10
 304.087
  20
 750.264
  30
0.0
  11
 304.209
  21
 750.496
  31
0.0
   0
LINE
   8
LEVEL001
   6
CONTINUOUS
  62
7
  10
 304.209
  20
 750.496
  30
0.0
  11
 304.323
  21
 750.735
  31
0.0
   0
LINE
   8
LEVEL001
   6
CONTINUOUS
  62
7
  10
 304.323
  20
 750.735
  30
0.0
  11
 304.429
  21
 750.981
  31
0.0
   0
LINE
   8
LEVEL001
   6
CONTINUOUS
  62
7
  10
 304.429
  20
 750.981
  30
0.0
  11
 304.527
  21
 751.232
  31
0.0
   0
LINE
   8
LEVEL001
   6
CONTINUOUS
  62
7
  10
 304.527
  20
 751.232
  30
0.0
  11
 304.616
  21
 751.488
  31
0.0
   0
LINE
   8
LEVEL001
   6
CONTINUOUS
  62
7
  10
 304.616
  20
 751.488
  30
0.0
  11
 304.695
  21
 751.749
  31
0.0
   0
LINE
   8
LEVEL001
   6
CONTINUOUS
  62
7
  10
 304.695
  20
 751.749
  30
0.0
  11
 304.766
  21
 752.014
  31
0.0
   0
LINE
   8
LEVEL001
   6
CONTINUOUS
  62
7
  10
 304.766
  20
 752.014
  30
0.0
  11
 304.828
  21
 752.282
  31
0.0
   0
LINE
   8
LEVEL001
   6
CONTINUOUS
  62
7
  10
 304.828
  20
 752.282
  30
0.0
  11
 304.880
  21
 752.554
  31
0.0
   0
LINE
   8
LEVEL001
   6
CONTINUOUS
  62
7
  10
 304.880
  20
 752.554
  30
0.0
  11
 304.923
  21
 752.829
  31
0.0
   0
LINE
   8
LEVEL001
   6
CONTINUOUS
  62
7
  10
 304.923
  20
 752.829
  30
0.0
  11
 304.957
  21
 753.106
  31
0.0
   0
LINE
   8
LEVEL001
   6
CONTINUOUS
  62
7
  10
 304.957
  20
 753.106
  30
0.0
  11
 304.981
  21
 753.384
  31
0.0
   0
LINE
   8
LEVEL001
   6
CONTINUOUS
  62
7
  10
 304.981
  20
 753.384
  30
0.0
  11
 304.995
  21
 753.664
  31
0.0
   0
LINE
   8
LEVEL001
   6
CONTINUOUS
  62
7
  10
 304.995
  20
 753.664
  30
0.0
  11
 305.000
  21
 753.944
  31
0.0
   0
LINE
   8
LEVEL001
   6
CONTINUOUS
  62
7
  10
 305.000
  20
 756.441
  30
0.0
  11
 309.649
  21
 755.457
  31
0.0
   0
LINE
   8
LEVEL001
   6
CONTINUOUS
  62
7
  10
 295.000
  20
 756.441
  30
0.0
  11
 290.351
  21
 755.457
  31
0.0
   0
LINE
   8
LEVEL001
   6
CONTINUOUS
  62
7
  10
 290.765
  20
 755.500
  30
0.0
  11
 295.000
  21
 755.500
  31
0.0
   0
LINE
   8
LEVEL001
   6
CONTINUOUS
  62
7
  10
 305.000
  20
 755.500
  30
0.0
  11
 309.235
  21
 755.500
  31
0.0
   0
LINE
   8
LEVEL001
   6
CONTINUOUS
  62
7
  10
 287.500
  20
 746.500
  30
0.0
  11
 312.500
  21
 746.500
  31
0.0
   0
LINE
   8
LEVEL001
   6
CONTINUOUS
  62
7
  10
 285.000
  20
 746.500
  30
0.0
  11
 285.000
  21
 744.500
  31
0.0
   0
ARC
   8
LEVEL001
   6
CONTINUOUS
  62
7
  10
 282.000
  20
 744.500
  30
0.0
  40
 3.00000
  50
 270.000
  51
0.0
   0
LINE
   8
LEVEL001
   6
CONTINUOUS
  62
7
  10
 315.000
  20
 746.500
  30
0.0
  11
 315.000
  21
 744.270
  31
0.0
   0
ARC
   8
LEVEL001
   6
CONTINUOUS
  62
7
  10
 318.000
  20
 744.270
  30
0.0
  40
 3.00000
  50
 180.000
  51
 252.543
   0
LINE
   8
LEVEL001
   6
CONTINUOUS
  62
7
  10
 315.000
  20
 746.500
  30
0.0
  11
 285.000
  21
 746.500
  31
0.0
   0
LINE
   8
LEVEL001
   6
CONTINUOUS
  62
7
  10
 344.500
  20
 793.000
  30
0.0
  11
 344.500
  21
 790.000
  31
0.0
   0
LINE
   8
LEVEL001
   6
CONTINUOUS
  62
7
  10
 345.000
  20
 824.000
  30
0.0
  11
 345.000
  21
 793.000
  31
0.0
   0
LINE
   8
LEVEL001
   6
CONTINUOUS
  62
7
  10
 255.000
  20
 824.000
  30
0.0
  11
 255.000
  21
 793.000
  31
0.0
   0
LINE
   8
LEVEL001
   6
CONTINUOUS
  62
7
  10
 255.500
  20
 793.000
  30
0.0
  11
 255.500
  21
 790.000
  31
0.0
   0
LINE
   8
LEVEL001
   6
CONTINUOUS
  62
7
  10
 894.500
  20
 793.000
  30
0.0
  11
 894.500
  21
 790.000
  31
0.0
   0
LINE
   8
LEVEL001
   6
CONTINUOUS
  62
7
  10
 895.000
  20
 824.000
  30
0.0
  11
 895.000
  21
 793.000
  31
0.0
   0
LINE
   8
LEVEL001
   6
CONTINUOUS
  62
7
  10
 805.000
  20
 824.000
  30
0.0
  11
 805.000
  21
 793.000
  31
0.0
   0
LINE
   8
LEVEL001
   6
CONTINUOUS
  62
7
  10
 805.500
  20
 793.000
  30
0.0
  11
 805.500
  21
 790.000
  31
0.0
   0
LINE
   8
LEVEL001
   6
CONTINUOUS
  62
7
  10
 344.107
  20
 825.000
  30
0.0
  11
 256.000
  21
 825.000
  31
0.0
   0
LINE
   8
LEVEL001
   6
CONTINUOUS
  62
7
  10
 990.000
  20
 746.500
  30
0.0
  11
 978.984
  21
 746.500
  31
0.0
   0
LINE
   8
LEVEL001
   6
CONTINUOUS
  62
7
  10
 978.984
  20
 755.500
  30
0.0
  11
 984.235
  21
 755.500
  31
0.0
   0
LINE
   8
LEVEL001
   6
CONTINUOUS
  62
7
  10
 978.996
  20
 756.655
  30
0.0
  11
 984.649
  21
 755.460
  31
0.0
   0
ARC
   8
LEVEL001
   6
CONTINUOUS
  62
7
  10
 975.000
  20
 772.500
  30
0.0
  40
 25.0000
  50
 306.424
  51
 216.870
   0
ARC
   8
LEVEL001
   6
CONTINUOUS
  62
7
  10
 725.000
  20
 772.500
  30
0.0
  40
 25.0000
  50
 323.130
  51
 233.576
   0
LINE
   8
LEVEL001
   6
CONTINUOUS
  62
7
  10
 710.000
  20
 746.500
  30
0.0
  11
 721.015
  21
 746.500
  31
0.0
   0
LINE
   8
LEVEL001
   6
CONTINUOUS
  62
7
  10
 721.015
  20
 755.500
  30
0.0
  11
 715.765
  21
 755.500
  31
0.0
   0
LINE
   8
LEVEL001
   6
CONTINUOUS
  62
7
  10
 721.172
  20
 756.691
  30
0.0
  11
 715.351
  21
 755.460
  31
0.0
   0
LINE
   8
LEVEL001
   6
CONTINUOUS
  62
7
  10
 712.500
  20
 746.500
  30
0.0
  11
 713.795
  21
 753.850
  31
0.0
   0
ARC
   8
LEVEL001
   6
CONTINUOUS
  62
7
  10
 715.765
  20
 753.500
  30
0.0
  40
 2.00000
  50
 89.9990
  51
 170.000
   0
ARC
   8
LEVEL001
   6
CONTINUOUS
  62
7
  10
 706.594
  20
 747.560
  30
0.0
  40
 6.00000
  50
 350.001
  51
 53.5770
   0
CIRCLE
   8
LEVEL001
   6
CONTINUOUS
  62
7
  10
 725.000
  20
 772.500
  30
0.0
  40
 15.0000
   0
LINE
   8
LEVEL001
   6
CONTINUOUS
  62
7
  10
 710.000
  20
 746.500
  30
0.0
  11
 710.000
  21
 744.270
  31
0.0
   0
ARC
   8
LEVEL001
   6
CONTINUOUS
  62
7
  10
 707.000
  20
 744.270
  30
0.0
  40
 3.00000
  50
 287.457
  51
 0.369114E-10
   0
LINE
   8
LEVEL001
   6
CONTINUOUS
  62
7
  10
 951.984
  20
 756.600
  30
0.0
  11
 978.984
  21
 756.600
  31
0.0
   0
LINE
   8
LEVEL001
   6
CONTINUOUS
  62
7
  10
 978.984
  20
 756.600
  30
0.0
  11
 977.425
  21
 757.500
  31
0.0
   0
LINE
   8
LEVEL001
   6
CONTINUOUS
  62
7
  10
 977.425
  20
 757.500
  30
0.0
  11
 953.543
  21
 757.500
  31
0.0
   0
LINE
   8
LEVEL001
   6
CONTINUOUS
  62
7
  10
 953.543
  20
 757.500
  30
0.0
  11
 951.984
  21
 756.600
  31
0.0
   0
LINE
   8
LEVEL001
   6
CONTINUOUS
  62
7
  10
 951.984
  20
 756.600
  30
0.0
  11
 951.984
  21
 741.500
  31
0.0
   0
LINE
   8
LEVEL001
   6
CONTINUOUS
  62
7
  10
 978.984
  20
 741.500
  30
0.0
  11
 978.984
  21
 756.600
  31
0.0
   0
LINE
   8
LEVEL001
   6
CONTINUOUS
  62
7
  10
 884.335
  20
 756.600
  30
0.0
  11
 911.335
  21
 756.600
  31
0.0
   0
LINE
   8
LEVEL001
   6
CONTINUOUS
  62
7
  10
 911.335
  20
 756.600
  30
0.0
  11
 909.776
  21
 757.500
  31
0.0
   0
LINE
   8
LEVEL001
   6
CONTINUOUS
  62
7
  10
 909.776
  20
 757.500
  30
0.0
  11
 885.894
  21
 757.500
  31
0.0
   0
LINE
   8
LEVEL001
   6
CONTINUOUS
  62
7
  10
 885.894
  20
 757.500
  30
0.0
  11
 884.335
  21
 756.600
  31
0.0
   0
LINE
   8
LEVEL001
   6
CONTINUOUS
  62
7
  10
 884.335
  20
 756.600
  30
0.0
  11
 884.335
  21
 741.500
  31
0.0
   0
LINE
   8
LEVEL001
   6
CONTINUOUS
  62
7
  10
 911.335
  20
 741.500
  30
0.0
  11
 911.335
  21
 756.600
  31
0.0
   0
LINE
   8
LEVEL001
   6
CONTINUOUS
  62
7
  10
 788.665
  20
 756.600
  30
0.0
  11
 815.665
  21
 756.600
  31
0.0
   0
LINE
   8
LEVEL001
   6
CONTINUOUS
  62
7
  10
 815.665
  20
 756.600
  30
0.0
  11
 814.106
  21
 757.500
  31
0.0
   0
LINE
   8
LEVEL001
   6
CONTINUOUS
  62
7
  10
 814.106
  20
 757.500
  30
0.0
  11
 790.224
  21
 757.500
  31
0.0
   0
LINE
   8
LEVEL001
   6
CONTINUOUS
  62
7
  10
 790.224
  20
 757.500
  30
0.0
  11
 788.665
  21
 756.600
  31
0.0
   0
LINE
   8
LEVEL001
   6
CONTINUOUS
  62
7
  10
 788.665
  20
 756.600
  30
0.0
  11
 788.665
  21
 741.500
  31
0.0
   0
LINE
   8
LEVEL001
   6
CONTINUOUS
  62
7
  10
 815.665
  20
 741.500
  30
0.0
  11
 815.665
  21
 756.600
  31
0.0
   0
LINE
   8
LEVEL001
   6
CONTINUOUS
  62
7
  10
 721.015
  20
 756.600
  30
0.0
  11
 748.015
  21
 756.600
  31
0.0
   0
LINE
   8
LEVEL001
   6
CONTINUOUS
  62
7
  10
 748.015
  20
 756.600
  30
0.0
  11
 746.456
  21
 757.500
  31
0.0
   0
LINE
   8
LEVEL001
   6
CONTINUOUS
  62
7
  10
 746.456
  20
 757.500
  30
0.0
  11
 722.574
  21
 757.500
  31
0.0
   0
LINE
   8
LEVEL001
   6
CONTINUOUS
  62
7
  10
 722.574
  20
 757.500
  30
0.0
  11
 721.015
  21
 756.600
  31
0.0
   0
LINE
   8
LEVEL001
   6
CONTINUOUS
  62
7
  10
 721.015
  20
 756.600
  30
0.0
  11
 721.015
  21
 741.500
  31
0.0
   0
LINE
   8
LEVEL001
   6
CONTINUOUS
  62
7
  10
 748.015
  20
 741.500
  30
0.0
  11
 748.015
  21
 756.600
  31
0.0
   0
LINE
   8
LEVEL001
   6
CONTINUOUS
  62
7
  10
 991.846
  20
 741.500
  30
0.0
  11
 708.500
  21
 741.500
  31
0.0
   0
CIRCLE
   8
LEVEL001
   6
CONTINUOUS
  62
7
  10
 850.000
  20
 755.000
  30
0.0
  40
 8.75000
   0
CIRCLE
   8
LEVEL001
   6
CONTINUOUS
  62
7
  10
 850.000
  20
 755.000
  30
0.0
  40
 8.00000
   0
CIRCLE
   8
LEVEL001
   6
CONTINUOUS
  62
7
  10
 850.000
  20
 775.000
  30
0.0
  40
 8.75000
   0
CIRCLE
   8
LEVEL001
   6
CONTINUOUS
  62
7
  10
 850.000
  20
 775.000
  30
0.0
  40
 8.00000
   0
ARC
   8
LEVEL001
   6
CONTINUOUS
  62
7
  10
 177.500
  20
 691.540
  30
0.0
  40
 20.0000
  50
 180.000
  51
 203.703
   0
LINE
   8
LEVEL001
   6
CONTINUOUS
  62
7
  10
 157.500
  20
 721.000
  30
0.0
  11
 157.500
  21
 691.000
  31
0.0
   0
LINE
   8
LEVEL001
   6
CONTINUOUS
  62
7
  10
 175.000
  20
 547.637
  30
0.0
  11
 175.000
  21
 535.000
  31
0.0
   0
ARC
   8
LEVEL001
   6
CONTINUOUS
  62
7
  10
 165.000
  20
 547.513
  30
0.0
  40
 10.0000
  50
 0.713731
  51
 87.1340
   0
LINE
   8
LEVEL001
   6
CONTINUOUS
  62
7
  10
 425.000
  20
 547.637
  30
0.0
  11
 425.000
  21
 535.000
  31
0.0
   0
ARC
   8
LEVEL001
   6
CONTINUOUS
  62
7
  10
 435.000
  20
 547.513
  30
0.0
  40
 10.0000
  50
 92.8660
  51
 179.286
   0
LINE
   8
LEVEL001
   6
CONTINUOUS
  62
7
  10
 434.500
  20
 557.500
  30
0.0
  11
 434.500
  21
 682.500
  31
0.0
   0
ARC
   8
LEVEL001
   6
CONTINUOUS
  62
7
  10
 422.500
  20
 691.540
  30
0.0
  40
 20.0000
  50
 336.297
  51
 0.136789E-10
   0
LINE
   8
LEVEL001
   6
CONTINUOUS
  62
7
  10
 442.500
  20
 721.000
  30
0.0
  11
 442.500
  21
 691.000
  31
0.0
   0
LINE
   8
LEVEL001
   6
CONTINUOUS
  62
7
  10
 132.000
  20
 600.000
  30
0.0
  11
 132.000
  21
 639.079
  31
0.0
   0
LINE
   8
LEVEL001
   6
CONTINUOUS
  62
7
  10
 132.000
  20
 639.079
  30
0.0
  11
 51.0000
  21
 639.079
  31
0.0
   0
LINE
   8
LEVEL001
   6
CONTINUOUS
  62
7
  10
 51.0000
  20
 600.000
  30
0.0
  11
 51.0000
  21
 639.079
  31
0.0
   0
LINE
   8
LEVEL001
   6
CONTINUOUS
  62
7
  10
 132.000
  20
 639.079
  30
0.0
  11
 138.837
  21
 642.442
  31
0.0
   0
LINE
   8
LEVEL001
   6
CONTINUOUS
  62
7
  10
 120.000
  20
 643.000
  30
0.0
  11
 50.0000
  21
 643.000
  31
0.0
   0
LINE
   8
LEVEL001
   6
CONTINUOUS
  62
7
  10
 50.0000
  20
 643.000
  30
0.0
  11
 50.0000
  21
 638.028
  31
0.0
   0
LINE
   8
LEVEL001
   6
CONTINUOUS
  62
7
  10
 50.0000
  20
 601.000
  30
0.0
  11
 50.0000
  21
 638.028
  31
0.0
   0
LINE
   8
LEVEL001
   6
CONTINUOUS
  62
7
  10
 51.0000
  20
 639.079
  30
0.0
  11
 50.0000
  21
 638.028
  31
0.0
   0
LINE
   8
LEVEL001
   6
CONTINUOUS
  62
7
  10
 120.000
  20
 639.079
  30
0.0
  11
 120.000
  21
 643.000
  31
0.0
   0
LINE
   8
LEVEL001
   6
CONTINUOUS
  62
7
  10
 139.173
  20
 642.500
  30
0.0
  11
 147.250
  21
 642.500
  31
0.0
   0
LINE
   8
LEVEL001
   6
CONTINUOUS
  62
7
  10
 139.173
  20
 597.500
  30
0.0
  11
 147.250
  21
 597.500
  31
0.0
   0
ARC
   8
LEVEL001
   6
CONTINUOUS
  62
7
  10
 139.173
  20
 641.500
  30
0.0
  40
 1.00000
  50
 90.0000
  51
 109.654
   0
LINE
   8
LEVEL001
   6
CONTINUOUS
  62
7
  10
 139.000
  20
 597.558
  30
0.0
  11
 139.000
  21
 642.442
  31
0.0
   0
LINE
   8
LEVEL001
   6
CONTINUOUS
  62
7
  10
 131.827
  20
 600.000
  30
0.0
  11
 51.0000
  21
 600.000
  31
0.0
   0
ARC
   8
LEVEL001
   6
CONTINUOUS
  62
7
  10
 131.827
  20
 599.000
  30
0.0
  40
 1.00000
  50
 70.3460
  51
 90.0000
   0
LINE
   8
LEVEL001
   6
CONTINUOUS
  62
7
  10
 138.837
  20
 597.558
  30
0.0
  11
 132.163
  21
 599.942
  31
0.0
   0
ARC
   8
LEVEL001
   6
CONTINUOUS
  62
7
  10
 139.173
  20
 598.500
  30
0.0
  40
 1.00000
  50
 250.346
  51
 270.000
   0
LINE
   8
LEVEL001
   6
CONTINUOUS
  62
7
  10
 51.0000
  20
 600.000
  30
0.0
  11
 50.0000
  21
 601.000
  31
0.0
   0
LINE
   8
LEVEL001
   6
CONTINUOUS
  62
7
  10
 468.000
  20
 600.000
  30
0.0
  11
 468.000
  21
 639.079
  31
0.0
   0
LINE
   8
LEVEL001
   6
CONTINUOUS
  62
7
  10
 468.000
  20
 639.079
  30
0.0
  11
 549.000
  21
 639.079
  31
0.0
   0
LINE
   8
LEVEL001
   6
CONTINUOUS
  62
7
  10
 549.000
  20
 600.000
  30
0.0
  11
 549.000
  21
 639.079
  31
0.0
   0
LINE
   8
LEVEL001
   6
CONTINUOUS
  62
7
  10
 468.000
  20
 639.079
  30
0.0
  11
 461.163
  21
 642.442
  31
0.0
   0
LINE
   8
LEVEL001
   6
CONTINUOUS
  62
7
  10
 480.000
  20
 643.000
  30
0.0
  11
 550.000
  21
 643.000
  31
0.0
   0
LINE
   8
LEVEL001
   6
CONTINUOUS
  62
7
  10
 550.000
  20
 643.000
  30
0.0
  11
 550.000
  21
 638.028
  31
0.0
   0
LINE
   8
LEVEL001
   6
CONTINUOUS
  62
7
  10
 550.000
  20
 601.000
  30
0.0
  11
 550.000
  21
 638.028
  31
0.0
   0
LINE
   8
LEVEL001
   6
CONTINUOUS
  62
7
  10
 549.000
  20
 639.079
  30
0.0
  11
 550.000
  21
 638.028
  31
0.0
   0
LINE
   8
LEVEL001
   6
CONTINUOUS
  62
7
  10
 480.000
  20
 639.079
  30
0.0
  11
 480.000
  21
 643.000
  31
0.0
   0
LINE
   8
LEVEL001
   6
CONTINUOUS
  62
7
  10
 147.250
  20
 682.500
  30
0.0
  11
 147.250
  21
 557.397
  31
0.0
   0
ARC
   8
LEVEL001
   6
CONTINUOUS
  62
7
  10
 148.250
  20
 682.500
  30
0.0
  40
 1.00000
  50
 90.0000
  51
 180.000
   0
LINE
   8
LEVEL001
   6
CONTINUOUS
  62
7
  10
 165.250
  20
 683.500
  30
0.0
  11
 148.250
  21
 683.500
  31
0.0
   0
LINE
   8
LEVEL001
   6
CONTINUOUS
  62
7
  10
 165.500
  20
 682.500
  30
0.0
  11
 165.500
  21
 557.500
  31
0.0
   0
LINE
   8
LEVEL001
   6
CONTINUOUS
  62
7
  10
 165.250
  20
 556.500
  30
0.0
  11
 148.250
  21
 556.500
  31
0.0
   0
LINE
   8
LEVEL001
   6
CONTINUOUS
  62
7
  10
 165.250
  20
 683.500
  30
0.0
  11
 165.250
  21
 556.500
  31
0.0
   0
LINE
   8
LEVEL001
   6
CONTINUOUS
  62
7
  10
 434.750
  20
 556.500
  30
0.0
  11
 434.750
  21
 683.500
  31
0.0
   0
LINE
   8
LEVEL001
   6
CONTINUOUS
  62
7
  10
 460.827
  20
 642.500
  30
0.0
  11
 452.750
  21
 642.500
  31
0.0
   0
LINE
   8
LEVEL001
   6
CONTINUOUS
  62
7
  10
 460.827
  20
 597.500
  30
0.0
  11
 452.750
  21
 597.500
  31
0.0
   0
LINE
   8
LEVEL001
   6
CONTINUOUS
  62
7
  10
 452.750
  20
 682.500
  30
0.0
  11
 452.750
  21
 557.500
  31
0.0
   0
ARC
   8
LEVEL001
   6
CONTINUOUS
  62
7
  10
 451.750
  20
 557.500
  30
0.0
  40
 1.00000
  50
 270.000
  51
0.0
   0
LINE
   8
LEVEL001
   6
CONTINUOUS
  62
7
  10
 434.750
  20
 556.500
  30
0.0
  11
 451.750
  21
 556.500
  31
0.0
   0
ARC
   8
LEVEL001
   6
CONTINUOUS
  62
7
  10
 451.750
  20
 682.500
  30
0.0
  40
 1.00000
  50
0.0
  51
 90.0000
   0
LINE
   8
LEVEL001
   6
CONTINUOUS
  62
7
  10
 434.750
  20
 683.500
  30
0.0
  11
 451.750
  21
 683.500
  31
0.0
   0
ARC
   8
LEVEL001
   6
CONTINUOUS
  62
7
  10
 148.250
  20
 557.500
  30
0.0
  40
 1.00000
  50
 180.000
  51
 270.000
   0
ARC
   8
LEVEL001
   6
CONTINUOUS
  62
7
  10
 460.827
  20
 641.500
  30
0.0
  40
 1.00000
  50
 70.3460
  51
 90.0000
   0
LINE
   8
LEVEL001
   6
CONTINUOUS
  62
7
  10
 461.000
  20
 597.558
  30
0.0
  11
 461.000
  21
 642.442
  31
0.0
   0
LINE
   8
LEVEL001
   6
CONTINUOUS
  62
7
  10
 468.173
  20
 600.000
  30
0.0
  11
 549.000
  21
 600.000
  31
0.0
   0
ARC
   8
LEVEL001
   6
CONTINUOUS
  62
7
  10
 468.173
  20
 599.000
  30
0.0
  40
 1.00000
  50
 90.0000
  51
 109.654
   0
LINE
   8
LEVEL001
   6
CONTINUOUS
  62
7
  10
 461.163
  20
 597.558
  30
0.0
  11
 467.837
  21
 599.942
  31
0.0
   0
ARC
   8
LEVEL001
   6
CONTINUOUS
  62
7
  10
 460.827
  20
 598.500
  30
0.0
  40
 1.00000
  50
 270.000
  51
 289.654
   0
LINE
   8
LEVEL001
   6
CONTINUOUS
  62
7
  10
 549.000
  20
 600.000
  30
0.0
  11
 550.000
  21
 601.000
  31
0.0
   0
LINE
   8
LEVEL001
   6
CONTINUOUS
  62
7
  10
 425.000
  20
 505.000
  30
0.0
  11
 175.000
  21
 505.000
  31
0.0
   0
LINE
   8
LEVEL001
   6
CONTINUOUS
  62
7
  10
 425.000
  20
 535.000
  30
0.0
  11
 425.000
  21
 505.000
  31
0.0
   0
LINE
   8
LEVEL001
   6
CONTINUOUS
  62
7
  10
 175.000
  20
 535.000
  30
0.0
  11
 175.000
  21
 505.000
  31
0.0
   0
ARC
   8
LEVEL001
   6
CONTINUOUS
  62
7
  10
 441.500
  20
 739.500
  30
0.0
  40
 2.00000
  50
 0.146560E-9
  51
 72.5400
   0
LINE
   8
LEVEL001
   6
CONTINUOUS
  62
7
  10
 441.846
  20
 741.500
  30
0.0
  11
 158.500
  21
 741.500
  31
0.0
   0
LINE
   8
LEVEL001
   6
CONTINUOUS
  62
7
  10
 442.500
  20
 721.000
  30
0.0
  11
 157.500
  21
 721.000
  31
0.0
   0
LINE
   8
LEVEL001
   6
CONTINUOUS
  62
7
  10
 443.500
  20
 721.500
  30
0.0
  11
 443.500
  21
 739.500
  31
0.0
   0
LINE
   8
LEVEL001
   6
CONTINUOUS
  62
7
  10
 443.500
  20
 721.500
  30
0.0
  11
 157.500
  21
 721.500
  31
0.0
   0
LINE
   8
LEVEL001
   6
CONTINUOUS
  62
7
  10
 359.000
  20
 464.000
  30
0.0
  11
 241.000
  21
 464.000
  31
0.0
   0
LINE
   8
LEVEL001
   6
CONTINUOUS
  62
7
  10
 358.000
  20
 464.000
  30
0.0
  11
 360.000
  21
 459.000
  31
0.0
   0
LINE
   8
LEVEL001
   6
CONTINUOUS
  62
7
  10
 242.000
  20
 464.000
  30
0.0
  11
 240.000
  21
 459.000
  31
0.0
   0
LINE
   8
LEVEL001
   6
CONTINUOUS
  62
7
  10
 360.000
  20
 459.000
  30
0.0
  11
 360.000
  21
 79.5000
  31
0.0
   0
LINE
   8
LEVEL001
   6
CONTINUOUS
  62
7
  10
 240.000
  20
 459.000
  30
0.0
  11
 240.000
  21
 79.5000
  31
0.0
   0
LINE
   8
LEVEL001
   6
CONTINUOUS
  62
7
  10
 229.500
  20
 465.000
  30
0.0
  11
 370.500
  21
 465.000
  31
0.0
   0
LINE
   8
LEVEL001
   6
CONTINUOUS
  62
7
  10
 372.500
  20
 467.000
  30
0.0
  11
 227.500
  21
 467.000
  31
0.0
   0
LINE
   8
LEVEL001
   6
CONTINUOUS
  62
7
  10
 359.000
  20
 465.000
  30
0.0
  11
 359.000
  21
 461.500
  31
0.0
   0
LINE
   8
LEVEL001
   6
CONTINUOUS
  62
7
  10
 358.000
  20
 464.000
  30
0.0
  11
 358.000
  21
 465.000
  31
0.0
   0
LINE
   8
LEVEL001
   6
CONTINUOUS
  62
7
  10
 360.000
  20
 459.000
  30
0.0
  11
 240.000
  21
 459.000
  31
0.0
   0
LINE
   8
LEVEL001
   6
CONTINUOUS
  62
7
  10
 241.000
  20
 461.500
  30
0.0
  11
 359.000
  21
 461.500
  31
0.0
   0
LINE
   8
LEVEL001
   6
CONTINUOUS
  62
7
  10
 242.000
  20
 464.000
  30
0.0
  11
 242.000
  21
 465.000
  31
0.0
   0
LINE
   8
LEVEL001
   6
CONTINUOUS
  62
7
  10
 241.000
  20
 465.000
  30
0.0
  11
 241.000
  21
 461.500
  31
0.0
   0
LINE
   8
LEVEL001
   6
CONTINUOUS
  62
7
  10
 227.500
  20
 500.000
  30
0.0
  11
 227.500
  21
 467.000
  31
0.0
   0
ARC
   8
LEVEL001
   6
CONTINUOUS
  62
7
  10
 222.500
  20
 500.000
  30
0.0
  40
 5.00000
  50
 0.400000E-3
  51
 90.0000
   0
LINE
   8
LEVEL001
   6
CONTINUOUS
  62
7
  10
 372.500
  20
 500.000
  30
0.0
  11
 372.500
  21
 467.000
  31
0.0
   0
ARC
   8
LEVEL001
   6
CONTINUOUS
  62
7
  10
 377.500
  20
 500.000
  30
0.0
  40
 5.00000
  50
 90.0000
  51
 180.000
   0
LINE
   8
LEVEL001
   6
CONTINUOUS
  62
7
  10
 227.500
  20
 467.000
  30
0.0
  11
 229.500
  21
 465.000
  31
0.0
   0
LINE
   8
LEVEL001
   6
CONTINUOUS
  62
7
  10
 372.500
  20
 467.000
  30
0.0
  11
 370.500
  21
 465.000
  31
0.0
   0
LINE
   8
LEVEL001
   6
CONTINUOUS
  62
7
  10
 340.000
  20
 903.500
  30
0.0
  11
 260.000
  21
 903.500
  31
0.0
   0
ARC
   8
LEVEL001
   6
CONTINUOUS
  62
7
  10
 256.000
  20
 824.000
  30
0.0
  40
 1.00000
  50
 89.9980
  51
 180.002
   0
LINE
   8
LEVEL001
   6
CONTINUOUS
  62
7
  10
 340.000
  20
 830.000
  30
0.0
  11
 260.000
  21
 830.000
  31
0.0
   0
LINE
   8
LEVEL001
   6
CONTINUOUS
  62
7
  10
 338.500
  20
 905.000
  30
0.0
  11
 261.500
  21
 905.000
  31
0.0
   0
LINE
   8
LEVEL001
   6
CONTINUOUS
  62
7
  10
 261.500
  20
 905.000
  30
0.0
  11
 261.500
  21
 828.500
  31
0.0
   0
LINE
   8
LEVEL001
   6
CONTINUOUS
  62
7
  10
 261.500
  20
 828.500
  30
0.0
  11
 261.500
  21
 826.500
  31
0.0
   0
ARC
   8
LEVEL001
   6
CONTINUOUS
  62
7
  10
 260.000
  20
 826.500
  30
0.0
  40
 1.50000
  50
 270.000
  51
0.0
   0
ARC
   8
LEVEL001
   6
CONTINUOUS
  62
7
  10
 260.000
  20
 828.500
  30
0.0
  40
 1.50000
  50
0.0
  51
 90.0000
   0
ARC
   8
LEVEL001
   6
CONTINUOUS
  62
7
  10
 344.000
  20
 824.000
  30
0.0
  40
 1.00000
  50
 359.998
  51
 90.0020
   0
LINE
   8
LEVEL001
   6
CONTINUOUS
  62
7
  10
 338.500
  20
 905.000
  30
0.0
  11
 338.500
  21
 828.500
  31
0.0
   0
LINE
   8
LEVEL001
   6
CONTINUOUS
  62
7
  10
 338.500
  20
 828.500
  30
0.0
  11
 338.500
  21
 826.500
  31
0.0
   0
ARC
   8
LEVEL001
   6
CONTINUOUS
  62
7
  10
 340.000
  20
 826.500
  30
0.0
  40
 1.50000
  50
 180.000
  51
 270.000
   0
ARC
   8
LEVEL001
   6
CONTINUOUS
  62
7
  10
 340.000
  20
 828.500
  30
0.0
  40
 1.50000
  50
 90.0000
  51
 180.000
   0
LINE
   8
LEVEL001
   6
CONTINUOUS
  62
7
  10
 229.853
  20
 787.150
  30
0.0
  11
 228.233
  21
 755.730
  31
0.0
   0
ARC
   8
LEVEL001
   6
CONTINUOUS
  62
7
  10
 213.253
  20
 756.500
  30
0.0
  40
 15.0000
  50
 270.000
  51
 357.049
   0
ARC
   8
LEVEL001
   6
CONTINUOUS
  62
7
  10
 232.849
  20
 787.000
  30
0.0
  40
 3.00000
  50
 90.0010
  51
 177.049
   0
LINE
   8
LEVEL001
   6
CONTINUOUS
  62
7
  10
 370.147
  20
 787.150
  30
0.0
  11
 371.767
  21
 755.730
  31
0.0
   0
ARC
   8
LEVEL001
   6
CONTINUOUS
  62
7
  10
 386.747
  20
 756.500
  30
0.0
  40
 15.0000
  50
 182.951
  51
 270.000
   0
ARC
   8
LEVEL001
   6
CONTINUOUS
  62
7
  10
 367.151
  20
 787.000
  30
0.0
  40
 3.00000
  50
 2.95110
  51
 89.9990
   0
LINE
   8
LEVEL001
   6
CONTINUOUS
  62
7
  10
 156.500
  20
 739.500
  30
0.0
  11
 156.500
  21
 721.500
  31
0.0
   0
ARC
   8
LEVEL001
   6
CONTINUOUS
  62
7
  10
 158.500
  20
 739.500
  30
0.0
  40
 2.00000
  50
 90.0000
  51
 179.999
   0
ARC
   8
LEVEL001
   6
CONTINUOUS
  62
7
  10
 991.500
  20
 739.500
  30
0.0
  40
 2.00000
  50
 0.149817E-9
  51
 72.5400
   0
LINE
   8
LEVEL001
   6
CONTINUOUS
  62
7
  10
 992.500
  20
 721.000
  30
0.0
  11
 992.500
  21
 691.540
  31
0.0
   0
LINE
   8
LEVEL001
   6
CONTINUOUS
  62
7
  10
 992.500
  20
 721.000
  30
0.0
  11
 707.500
  21
 721.000
  31
0.0
   0
LINE
   8
LEVEL001
   6
CONTINUOUS
  62
7
  10
 993.500
  20
 721.500
  30
0.0
  11
 993.500
  21
 739.500
  31
0.0
   0
LINE
   8
LEVEL001
   6
CONTINUOUS
  62
7
  10
 993.500
  20
 721.500
  30
0.0
  11
 707.500
  21
 721.500
  31
0.0
   0
CIRCLE
   8
LEVEL001
   6
CONTINUOUS
  62
7
  10
 782.500
  20
 620.000
  30
0.0
  40
 4.30000
   0
CIRCLE
   8
LEVEL001
   6
CONTINUOUS
  62
7
  10
 782.500
  20
 620.000
  30
0.0
  40
 5.00000
   0
CIRCLE
   8
LEVEL001
   6
CONTINUOUS
  62
7
  10
 767.123
  20
 657.123
  30
0.0
  40
 8.75000
   0
CIRCLE
   8
LEVEL001
   6
CONTINUOUS
  62
7
  10
 767.123
  20
 657.123
  30
0.0
  40
 8.00000
   0
CIRCLE
   8
LEVEL001
   6
CONTINUOUS
  62
7
  10
 767.123
  20
 582.877
  30
0.0
  40
 8.75000
   0
CIRCLE
   8
LEVEL001
   6
CONTINUOUS
  62
7
  10
 767.123
  20
 582.877
  30
0.0
  40
 8.00000
   0
CIRCLE
   8
LEVEL001
   6
CONTINUOUS
  62
7
  10
 692.877
  20
 582.877
  30
0.0
  40
 8.75000
   0
CIRCLE
   8
LEVEL001
   6
CONTINUOUS
  62
7
  10
 692.877
  20
 582.877
  30
0.0
  40
 8.00000
   0
CIRCLE
   8
LEVEL001
   6
CONTINUOUS
  62
7
  10
 677.500
  20
 620.000
  30
0.0
  40
 4.30000
   0
CIRCLE
   8
LEVEL001
   6
CONTINUOUS
  62
7
  10
 677.500
  20
 620.000
  30
0.0
  40
 5.00000
   0
CIRCLE
   8
LEVEL001
   6
CONTINUOUS
  62
7
  10
 692.877
  20
 657.123
  30
0.0
  40
 8.75000
   0
CIRCLE
   8
LEVEL001
   6
CONTINUOUS
  62
7
  10
 692.877
  20
 657.123
  30
0.0
  40
 8.00000
   0
LINE
   8
LEVEL001
   6
CONTINUOUS
  62
7
  10
 663.216
  20
 627.000
  30
0.0
  11
 667.434
  21
 638.266
  31
0.0
   0
LINE
   8
LEVEL001
   6
CONTINUOUS
  62
7
  10
 643.270
  20
 573.730
  30
0.0
  11
 658.221
  21
 613.660
  31
0.0
   0
ARC
   8
LEVEL001
   6
CONTINUOUS
  62
7
  10
 730.000
  20
 620.000
  30
0.0
  40
 65.0003
  50
 123.548
  51
 204.476
   0
LINE
   8
LEVEL001
   6
CONTINUOUS
  62
7
  10
 665.000
  20
 625.720
  30
0.0
  11
 665.251
  21
 625.712
  31
0.0
   0
LINE
   8
LEVEL001
   6
CONTINUOUS
  62
7
  10
 665.333
  20
 626.572
  30
0.0
  11
 664.116
  21
 626.610
  31
0.0
   0
LINE
   8
LEVEL001
   6
CONTINUOUS
  62
7
  10
 665.000
  20
 614.280
  30
0.0
  11
 665.251
  21
 614.288
  31
0.0
   0
LINE
   8
LEVEL001
   6
CONTINUOUS
  62
7
  10
 664.116
  20
 613.390
  30
0.0
  11
 665.333
  21
 613.428
  31
0.0
   0
LINE
   8
LEVEL001
   6
CONTINUOUS
  62
7
  10
 664.116
  20
 627.000
  30
0.0
  11
 659.750
  21
 627.000
  31
0.0
   0
LINE
   8
LEVEL001
   6
CONTINUOUS
  62
7
  10
 664.116
  20
 613.000
  30
0.0
  11
 664.116
  21
 627.000
  31
0.0
   0
LINE
   8
LEVEL001
   6
CONTINUOUS
  62
7
  10
 659.750
  20
 613.000
  30
0.0
  11
 664.116
  21
 613.000
  31
0.0
   0
LINE
   8
LEVEL001
   6
CONTINUOUS
  62
7
  10
 646.363
  20
 631.560
  30
0.0
  11
 648.581
  21
 632.480
  31
0.0
   0
LINE
   8
LEVEL001
   6
CONTINUOUS
  62
7
  10
 646.565
  20
 628.720
  30
0.0
  11
 646.363
  21
 631.560
  31
0.0
   0
LINE
   8
LEVEL001
   6
CONTINUOUS
  62
7
  10
 649.614
  20
 629.980
  30
0.0
  11
 646.565
  21
 628.720
  31
0.0
   0
LINE
   8
LEVEL001
   6
CONTINUOUS
  62
7
  10
 652.663
  20
 631.250
  30
0.0
  11
 649.614
  21
 629.980
  31
0.0
   0
LINE
   8
LEVEL001
   6
CONTINUOUS
  62
7
  10
 650.798
  20
 633.400
  30
0.0
  11
 652.663
  21
 631.250
  31
0.0
   0
LINE
   8
LEVEL001
   6
CONTINUOUS
  62
7
  10
 648.581
  20
 632.480
  30
0.0
  11
 650.798
  21
 633.400
  31
0.0
   0
LINE
   8
LEVEL001
   6
CONTINUOUS
  62
7
  10
 654.615
  20
 628.470
  30
0.0
  11
 655.295
  21
 626.830
  31
0.0
   0
LINE
   8
LEVEL001
   6
CONTINUOUS
  62
7
  10
 653.996
  20
 628.550
  30
0.0
  11
 654.615
  21
 628.470
  31
0.0
   0
LINE
   8
LEVEL001
   6
CONTINUOUS
  62
7
  10
 647.528
  20
 625.870
  30
0.0
  11
 653.996
  21
 628.550
  31
0.0
   0
LINE
   8
LEVEL001
   6
CONTINUOUS
  62
7
  10
 647.148
  20
 625.380
  30
0.0
  11
 647.528
  21
 625.870
  31
0.0
   0
LINE
   8
LEVEL001
   6
CONTINUOUS
  62
7
  10
 647.827
  20
 623.740
  30
0.0
  11
 647.148
  21
 625.380
  31
0.0
   0
LINE
   8
LEVEL001
   6
CONTINUOUS
  62
7
  10
 648.447
  20
 623.660
  30
0.0
  11
 647.827
  21
 623.740
  31
0.0
   0
LINE
   8
LEVEL001
   6
CONTINUOUS
  62
7
  10
 654.914
  20
 626.340
  30
0.0
  11
 648.447
  21
 623.660
  31
0.0
   0
LINE
   8
LEVEL001
   6
CONTINUOUS
  62
7
  10
 655.295
  20
 626.830
  30
0.0
  11
 654.914
  21
 626.340
  31
0.0
   0
LINE
   8
LEVEL001
   6
CONTINUOUS
  62
7
  10
 664.116
  20
 626.610
  30
0.0
  11
 665.000
  21
 625.720
  31
0.0
   0
LINE
   8
LEVEL001
   6
CONTINUOUS
  62
7
  10
 664.116
  20
 613.390
  30
0.0
  11
 665.000
  21
 614.280
  31
0.0
   0
ARC
   8
LEVEL001
   6
CONTINUOUS
  62
7
  10
 730.000
  20
 620.000
  30
0.0
  40
 22.5000
  50
 105.466
  51
 74.5340
   0
ARC
   8
LEVEL001
   6
CONTINUOUS
  62
7
  10
 730.000
  20
 620.000
  30
0.0
  40
 19.0000
  50
 108.408
  51
 71.5915
   0
CIRCLE
   8
LEVEL001
   6
CONTINUOUS
  62
7
  10
 730.000
  20
 620.000
  30
0.0
  40
 30.0000
   0
CIRCLE
   8
LEVEL001
   6
CONTINUOUS
  62
7
  10
 730.000
  20
 620.000
  30
0.0
  40
 63.5000
   0
ARC
   8
LEVEL001
   6
CONTINUOUS
  62
7
  10
 730.000
  20
 620.000
  30
0.0
  40
 20.0000
  50
 107.458
  51
 72.5420
   0
LINE
   8
LEVEL001
   6
CONTINUOUS
  62
7
  10
 724.000
  20
 643.000
  30
0.0
  11
 736.000
  21
 643.000
  31
0.0
   0
LINE
   8
LEVEL001
   6
CONTINUOUS
  62
7
  10
 724.000
  20
 635.000
  30
0.0
  11
 736.000
  21
 635.000
  31
0.0
   0
LINE
   8
LEVEL001
   6
CONTINUOUS
  62
7
  10
 736.000
  20
 635.000
  30
0.0
  11
 736.000
  21
 643.000
  31
0.0
   0
LINE
   8
LEVEL001
   6
CONTINUOUS
  62
7
  10
 724.000
  20
 635.000
  30
0.0
  11
 724.000
  21
 643.000
  31
0.0
   0
LINE
   8
LEVEL001
   6
CONTINUOUS
  62
7
  10
 1045.00
  20
 505.000
  30
0.0
  11
 595.000
  21
 505.000
  31
0.0
   0
LINE
   8
LEVEL001
   6
CONTINUOUS
  62
7
  10
 909.000
  20
 464.000
  30
0.0
  11
 791.000
  21
 464.000
  31
0.0
   0
LINE
   8
LEVEL001
   6
CONTINUOUS
  62
7
  10
 908.000
  20
 464.000
  30
0.0
  11
 910.000
  21
 459.000
  31
0.0
   0
LINE
   8
LEVEL001
   6
CONTINUOUS
  62
7
  10
 792.000
  20
 464.000
  30
0.0
  11
 790.000
  21
 459.000
  31
0.0
   0
LINE
   8
LEVEL001
   6
CONTINUOUS
  62
7
  10
 910.000
  20
 459.000
  30
0.0
  11
 910.000
  21
 79.5000
  31
0.0
   0
LINE
   8
LEVEL001
   6
CONTINUOUS
  62
7
  10
 790.000
  20
 459.000
  30
0.0
  11
 790.000
  21
 79.5000
  31
0.0
   0
LINE
   8
LEVEL001
   6
CONTINUOUS
  62
7
  10
 779.500
  20
 465.000
  30
0.0
  11
 920.500
  21
 465.000
  31
0.0
   0
LINE
   8
LEVEL001
   6
CONTINUOUS
  62
7
  10
 922.500
  20
 467.000
  30
0.0
  11
 777.500
  21
 467.000
  31
0.0
   0
LINE
   8
LEVEL001
   6
CONTINUOUS
  62
7
  10
 909.000
  20
 465.000
  30
0.0
  11
 909.000
  21
 461.500
  31
0.0
   0
LINE
   8
LEVEL001
   6
CONTINUOUS
  62
7
  10
 908.000
  20
 464.000
  30
0.0
  11
 908.000
  21
 465.000
  31
0.0
   0
LINE
   8
LEVEL001
   6
CONTINUOUS
  62
7
  10
 910.000
  20
 459.000
  30
0.0
  11
 790.000
  21
 459.000
  31
0.0
   0
LINE
   8
LEVEL001
   6
CONTINUOUS
  62
7
  10
 791.000
  20
 461.500
  30
0.0
  11
 909.000
  21
 461.500
  31
0.0
   0
LINE
   8
LEVEL001
   6
CONTINUOUS
  62
7
  10
 792.000
  20
 464.000
  30
0.0
  11
 792.000
  21
 465.000
  31
0.0
   0
LINE
   8
LEVEL001
   6
CONTINUOUS
  62
7
  10
 791.000
  20
 465.000
  30
0.0
  11
 791.000
  21
 461.500
  31
0.0
   0
LINE
   8
LEVEL001
   6
CONTINUOUS
  62
7
  10
 917.151
  20
 790.000
  30
0.0
  11
 782.849
  21
 790.000
  31
0.0
   0
LINE
   8
LEVEL001
   6
CONTINUOUS
  62
7
  10
 839.000
  20
 826.500
  30
0.0
  11
 839.000
  21
 790.000
  31
0.0
   0
LINE
   8
LEVEL001
   6
CONTINUOUS
  62
7
  10
 861.000
  20
 826.500
  30
0.0
  11
 861.000
  21
 790.000
  31
0.0
   0
LINE
   8
LEVEL001
   6
CONTINUOUS
  62
7
  10
 659.750
  20
 627.000
  30
0.0
  11
 659.750
  21
 613.000
  31
0.0
   0
ARC
   8
LEVEL001
   6
CONTINUOUS
  62
7
  10
 654.007
  20
 616.500
  30
0.0
  40
 10.1093
  50
 339.744
  51
 20.2560
   0
LINE
   8
LEVEL001
   6
CONTINUOUS
  62
7
  10
 659.750
  20
 613.000
  30
0.0
  11
 659.366
  21
 613.660
  31
0.0
   0
ARC
   8
LEVEL001
   6
CONTINUOUS
  62
7
  10
 669.825
  20
 616.500
  30
0.0
  40
 10.1093
  50
 159.744
  51
 200.256
   0
LINE
   8
LEVEL001
   6
CONTINUOUS
  62
7
  10
 651.604
  20
 613.660
  30
0.0
  11
 659.366
  21
 613.660
  31
0.0
   0
ARC
   8
LEVEL001
   6
CONTINUOUS
  62
7
  10
 651.604
  20
 616.660
  30
0.0
  40
 3.00000
  50
 208.732
  51
 270.000
   0
ARC
   8
LEVEL001
   6
CONTINUOUS
  62
7
  10
 649.121
  20
 631.170
  30
0.0
  40
 6.68738
  50
 274.911
  51
 310.087
   0
LINE
   8
LEVEL001
   6
CONTINUOUS
  62
7
  10
 649.694
  20
 624.510
  30
0.0
  11
 649.015
  21
 626.150
  31
0.0
   0
ARC
   8
LEVEL001
   6
CONTINUOUS
  62
7
  10
 647.312
  20
 626.650
  30
0.0
  40
 3.20000
  50
 290.768
  51
 318.098
   0
LINE
   8
LEVEL001
   6
CONTINUOUS
  62
7
  10
 652.965
  20
 629.440
  30
0.0
  11
 647.641
  21
 627.230
  31
0.0
   0
ARC
   8
LEVEL001
   6
CONTINUOUS
  62
7
  10
 654.007
  20
 623.500
  30
0.0
  40
 10.1093
  50
 339.744
  51
 20.2560
   0
LINE
   8
LEVEL001
   6
CONTINUOUS
  62
7
  10
 654.914
  20
 626.340
  30
0.0
  11
 659.366
  21
 626.340
  31
0.0
   0
ARC
   8
LEVEL001
   6
CONTINUOUS
  62
7
  10
 657.224
  20
 633.570
  30
0.0
  40
 6.00000
  50
 227.435
  51
 237.020
   0
ARC
   8
LEVEL001
   6
CONTINUOUS
  62
7
  10
 649.614
  20
 629.980
  30
0.0
  40
 3.30000
  50
 356.583
  51
 22.4990
   0
ARC
   8
LEVEL001
   6
CONTINUOUS
  62
7
  10
 653.321
  20
 621.030
  30
0.0
  40
 6.68738
  50
 94.9110
  51
 130.087
   0
ARC
   8
LEVEL001
   6
CONTINUOUS
  62
7
  10
 655.130
  20
 625.560
  30
0.0
  40
 3.20000
  50
 110.768
  51
 138.098
   0
ARC
   8
LEVEL001
   6
CONTINUOUS
  62
7
  10
 653.707
  20
 629.740
  30
0.0
  40
 0.800000
  50
 176.569
  51
 227.428
   0
LINE
   8
LEVEL001
   6
CONTINUOUS
  62
7
  10
 653.428
  20
 626.060
  30
0.0
  11
 652.749
  21
 627.700
  31
0.0
   0
ARC
   8
LEVEL001
   6
CONTINUOUS
  62
7
  10
 649.614
  20
 629.980
  30
0.0
  40
 6.43506
  50
 259.551
  51
 325.449
   0
ARC
   8
LEVEL001
   6
CONTINUOUS
  62
7
  10
 653.601
  20
 629.250
  30
0.0
  40
 3.20000
  50
 266.904
  51
 294.234
   0
LINE
   8
LEVEL001
   6
CONTINUOUS
  62
7
  10
 659.750
  20
 627.000
  30
0.0
  11
 659.366
  21
 626.340
  31
0.0
   0
LINE
   8
LEVEL001
   6
CONTINUOUS
  62
7
  10
 659.366
  20
 613.660
  30
0.0
  11
 659.366
  21
 626.340
  31
0.0
   0
ARC
   8
LEVEL001
   6
CONTINUOUS
  62
7
  10
 669.825
  20
 623.500
  30
0.0
  40
 10.1093
  50
 159.744
  51
 200.256
   0
ARC
   8
LEVEL001
   6
CONTINUOUS
  62
7
  10
 649.614
  20
 629.980
  30
0.0
  40
 3.30000
  50
 202.499
  51
 228.417
   0
ARC
   8
LEVEL001
   6
CONTINUOUS
  62
7
  10
 646.893
  20
 626.920
  30
0.0
  40
 0.800000
  50
 357.581
  51
 48.4270
   0
ARC
   8
LEVEL001
   6
CONTINUOUS
  62
7
  10
 648.676
  20
 632.250
  30
0.0
  40
 1.00000
  50
 36.9790
  51
 188.019
   0
ARC
   8
LEVEL001
   6
CONTINUOUS
  62
7
  10
 641.698
  20
 627.140
  30
0.0
  40
 6.00000
  50
 347.981
  51
 357.568
   0
ARC
   8
LEVEL001
   6
CONTINUOUS
  62
7
  10
 657.688
  20
 620.000
  30
0.0
  40
 9.93811
  50
 158.413
  51
 208.732
   0
ARC
   8
LEVEL001
   6
CONTINUOUS
  62
7
  10
 648.842
  20
 622.960
  30
0.0
  40
 3.20000
  50
 86.9040
  51
 114.234
   0
LINE
   8
LEVEL001
   6
CONTINUOUS
  62
7
  10
 665.000
  20
 614.280
  30
0.0
  11
 665.000
  21
 625.720
  31
0.0
   0
LINE
   8
LEVEL001
   6
CONTINUOUS
  62
7
  10
 1015.39
  20
 568.540
  30
0.0
  11
 1044.30
  21
 533.920
  31
0.0
   0
LINE
   8
LEVEL001
   6
CONTINUOUS
  62
7
  10
 992.500
  20
 691.540
  30
0.0
  11
 1008.75
  21
 583.320
  31
0.0
   0
ARC
   8
LEVEL001
   6
CONTINUOUS
  62
7
  10
 1038.42
  20
 587.770
  30
0.0
  40
 30.0000
  50
 188.540
  51
 219.864
   0
LINE
   8
LEVEL001
   6
CONTINUOUS
  62
7
  10
 1045.00
  20
 532.000
  30
0.0
  11
 1045.00
  21
 505.000
  31
0.0
   0
ARC
   8
LEVEL001
   6
CONTINUOUS
  62
7
  10
 1042.00
  20
 532.000
  30
0.0
  40
 3.00000
  50
0.0
  51
 90.0000
   0
LINE
   8
LEVEL001
   6
CONTINUOUS
  62
7
  10
 632.355
  20
 559.660
  30
0.0
  11
 596.282
  21
 534.460
  31
0.0
   0
ARC
   8
LEVEL001
   6
CONTINUOUS
  62
7
  10
 615.175
  20
 584.250
  30
0.0
  40
 30.0000
  50
 304.937
  51
 339.473
   0
LINE
   8
LEVEL001
   6
CONTINUOUS
  62
7
  10
 595.000
  20
 532.000
  30
0.0
  11
 595.000
  21
 505.000
  31
0.0
   0
LINE
   8
LEVEL001
   6
CONTINUOUS
  62
7
  10
 666.197
  20
 535.000
  30
0.0
  11
 598.000
  21
 535.000
  31
0.0
   0
ARC
   8
LEVEL001
   6
CONTINUOUS
  62
7
  10
 598.000
  20
 532.000
  30
0.0
  40
 3.00000
  50
 90.0000
  51
 180.000
   0
LINE
   8
LEVEL001
   6
CONTINUOUS
  62
7
  10
 777.500
  20
 500.000
  30
0.0
  11
 777.500
  21
 467.000
  31
0.0
   0
ARC
   8
LEVEL001
   6
CONTINUOUS
  62
7
  10
 772.500
  20
 500.000
  30
0.0
  40
 5.00000
  50
 0.400000E-3
  51
 90.0000
   0
LINE
   8
LEVEL001
   6
CONTINUOUS
  62
7
  10
 922.500
  20
 500.000
  30
0.0
  11
 922.500
  21
 467.000
  31
0.0
   0
ARC
   8
LEVEL001
   6
CONTINUOUS
  62
7
  10
 927.500
  20
 500.000
  30
0.0
  40
 5.00000
  50
 90.0000
  51
 180.000
   0
LINE
   8
LEVEL001
   6
CONTINUOUS
  62
7
  10
 777.500
  20
 467.000
  30
0.0
  11
 779.500
  21
 465.000
  31
0.0
   0
LINE
   8
LEVEL001
   6
CONTINUOUS
  62
7
  10
 922.500
  20
 467.000
  30
0.0
  11
 920.500
  21
 465.000
  31
0.0
   0
LINE
   8
LEVEL001
   6
CONTINUOUS
  62
7
  10
 890.000
  20
 903.500
  30
0.0
  11
 810.000
  21
 903.500
  31
0.0
   0
LINE
   8
LEVEL001
   6
CONTINUOUS
  62
7
  10
 839.000
  20
 793.000
  30
0.0
  11
 805.000
  21
 793.000
  31
0.0
   0
LINE
   8
LEVEL001
   6
CONTINUOUS
  62
7
  10
 895.000
  20
 793.000
  30
0.0
  11
 861.000
  21
 793.000
  31
0.0
   0
LINE
   8
LEVEL001
   6
CONTINUOUS
  62
7
  10
 839.000
  20
 825.000
  30
0.0
  11
 806.000
  21
 825.000
  31
0.0
   0
ARC
   8
LEVEL001
   6
CONTINUOUS
  62
7
  10
 806.000
  20
 824.000
  30
0.0
  40
 1.00000
  50
 89.9980
  51
 180.002
   0
LINE
   8
LEVEL001
   6
CONTINUOUS
  62
7
  10
 890.000
  20
 830.000
  30
0.0
  11
 810.000
  21
 830.000
  31
0.0
   0
LINE
   8
LEVEL001
   6
CONTINUOUS
  62
7
  10
 888.500
  20
 905.000
  30
0.0
  11
 811.500
  21
 905.000
  31
0.0
   0
LINE
   8
LEVEL001
   6
CONTINUOUS
  62
7
  10
 811.500
  20
 905.000
  30
0.0
  11
 811.500
  21
 828.500
  31
0.0
   0
LINE
   8
LEVEL001
   6
CONTINUOUS
  62
7
  10
 811.500
  20
 828.500
  30
0.0
  11
 811.500
  21
 826.500
  31
0.0
   0
ARC
   8
LEVEL001
   6
CONTINUOUS
  62
7
  10
 810.000
  20
 826.500
  30
0.0
  40
 1.50000
  50
 270.000
  51
0.0
   0
ARC
   8
LEVEL001
   6
CONTINUOUS
  62
7
  10
 810.000
  20
 828.500
  30
0.0
  40
 1.50000
  50
0.0
  51
 90.0000
   0
LINE
   8
LEVEL001
   6
CONTINUOUS
  62
7
  10
 894.000
  20
 825.000
  30
0.0
  11
 861.000
  21
 825.000
  31
0.0
   0
ARC
   8
LEVEL001
   6
CONTINUOUS
  62
7
  10
 894.000
  20
 824.000
  30
0.0
  40
 1.00000
  50
 359.998
  51
 90.0020
   0
LINE
   8
LEVEL001
   6
CONTINUOUS
  62
7
  10
 861.000
  20
 826.500
  30
0.0
  11
 839.000
  21
 826.500
  31
0.0
   0
LINE
   8
LEVEL001
   6
CONTINUOUS
  62
7
  10
 888.500
  20
 905.000
  30
0.0
  11
 888.500
  21
 828.500
  31
0.0
   0
LINE
   8
LEVEL001
   6
CONTINUOUS
  62
7
  10
 888.500
  20
 828.500
  30
0.0
  11
 888.500
  21
 826.500
  31
0.0
   0
ARC
   8
LEVEL001
   6
CONTINUOUS
  62
7
  10
 890.000
  20
 826.500
  30
0.0
  40
 1.50000
  50
 180.000
  51
 270.000
   0
ARC
   8
LEVEL001
   6
CONTINUOUS
  62
7
  10
 890.000
  20
 828.500
  30
0.0
  40
 1.50000
  50
 90.0000
  51
 180.000
   0
LINE
   8
LEVEL001
   6
CONTINUOUS
  62
7
  10
 861.000
  20
 797.000
  30
0.0
  11
 839.000
  21
 797.000
  31
0.0
   0
LINE
   8
LEVEL001
   6
CONTINUOUS
  62
7
  10
 707.500
  20
 721.500
  30
0.0
  11
 707.500
  21
 699.180
  31
0.0
   0
ARC
   8
LEVEL001
   6
CONTINUOUS
  62
7
  10
 677.500
  20
 699.180
  30
0.0
  40
 30.0000
  50
 303.548
  51
 0.868503E-12
   0
LINE
   8
LEVEL001
   6
CONTINUOUS
  62
7
  10
 779.853
  20
 787.150
  30
0.0
  11
 778.233
  21
 755.730
  31
0.0
   0
ARC
   8
LEVEL001
   6
CONTINUOUS
  62
7
  10
 763.253
  20
 756.500
  30
0.0
  40
 15.0000
  50
 270.000
  51
 357.049
   0
ARC
   8
LEVEL001
   6
CONTINUOUS
  62
7
  10
 782.849
  20
 787.000
  30
0.0
  40
 3.00000
  50
 90.0010
  51
 177.049
   0
LINE
   8
LEVEL001
   6
CONTINUOUS
  62
7
  10
 920.147
  20
 787.150
  30
0.0
  11
 921.767
  21
 755.730
  31
0.0
   0
ARC
   8
LEVEL001
   6
CONTINUOUS
  62
7
  10
 936.747
  20
 756.500
  30
0.0
  40
 15.0000
  50
 182.951
  51
 270.000
   0
ARC
   8
LEVEL001
   6
CONTINUOUS
  62
7
  10
 917.151
  20
 787.000
  30
0.0
  40
 3.00000
  50
 2.95110
  51
 89.9990
   0
LINE
   8
LEVEL001
   6
CONTINUOUS
  62
7
  10
 706.500
  20
 739.500
  30
0.0
  11
 706.500
  21
 721.500
  31
0.0
   0
ARC
   8
LEVEL001
   6
CONTINUOUS
  62
7
  10
 708.500
  20
 739.500
  30
0.0
  40
 2.00000
  50
 90.0000
  51
 179.999
   0
LINE
   8
LEVEL001
   6
CONTINUOUS
  62
7
  10
 987.500
  20
 746.500
  30
0.0
  11
 986.205
  21
 753.850
  31
0.0
   0
ARC
   8
LEVEL001
   6
CONTINUOUS
  62
7
  10
 984.235
  20
 753.500
  30
0.0
  40
 2.00000
  50
 9.99980
  51
 90.0010
   0
ARC
   8
LEVEL001
   6
CONTINUOUS
  62
7
  10
 993.406
  20
 747.560
  30
0.0
  40
 6.00000
  50
 126.423
  51
 189.999
   0
CIRCLE
   8
LEVEL001
   6
CONTINUOUS
  62
7
  10
 975.000
  20
 772.500
  30
0.0
  40
 15.0000
   0
LINE
   8
LEVEL001
   6
CONTINUOUS
  62
7
  10
 990.000
  20
 746.500
  30
0.0
  11
 990.000
  21
 744.270
  31
0.0
   0
ARC
   8
LEVEL001
   6
CONTINUOUS
  62
7
  10
 993.000
  20
 744.270
  30
0.0
  40
 3.00000
  50
 180.000
  51
 252.543
   0
LINE
   8
LEVEL001
   6
CONTINUOUS
  62
7
  10
 975.000
  20
 648.520
  30
0.0
  11
 975.000
  21
 550.000
  31
0.0
   0
LINE
   8
LEVEL001
   6
CONTINUOUS
  62
7
  10
 989.650
  20
 681.250
  30
0.0
  11
 979.275
  21
 663.960
  31
0.0
   0
ARC
   8
LEVEL001
   6
CONTINUOUS
  62
7
  10
 1005.00
  20
 648.520
  30
0.0
  40
 30.0000
  50
 149.036
  51
 180.000
   0
ARC
   8
LEVEL001
   6
CONTINUOUS
  62
7
  10
 972.500
  20
 691.540
  30
0.0
  40
 20.0000
  50
 329.036
  51
 0.488533E-11
   0
ARC
   8
LEVEL001
   6
CONTINUOUS
  62
7
  10
 990.000
  20
 550.000
  30
0.0
  40
 15.0000
  50
 180.000
  51
 270.000
   0
LINE
   8
LEVEL001
   6
CONTINUOUS
  62
7
  10
 684.399
  20
 563.290
  30
0.0
  11
 670.841
  21
 593.070
  31
0.0
   0
ARC
   8
LEVEL001
   6
CONTINUOUS
  62
7
  10
 666.197
  20
 555.000
  30
0.0
  40
 20.0000
  50
 270.000
  51
 24.4770
   0
LINE
   8
LEVEL001
   6
CONTINUOUS
  62
7
  10
 721.015
  20
 746.500
  30
0.0
  11
 712.500
  21
 746.500
  31
0.0
   0
ARC
   8
LEVEL001
   6
CONTINUOUS
  62
7
  10
 282.500
  20
 545.000
  30
0.0
  40
 10.0000
  50
 270.000
  51
0.0
   0
ARC
   8
LEVEL001
   6
CONTINUOUS
  62
7
  10
 317.500
  20
 545.000
  30
0.0
  40
 10.0000
  50
 180.000
  51
 270.000
   0
LINE
   8
LEVEL001
   6
CONTINUOUS
  62
7
  10
 307.500
  20
 627.834
  30
0.0
  11
 307.500
  21
 545.000
  31
0.0
   0
ARC
   8
LEVEL001
   6
CONTINUOUS
  62
7
  10
 317.500
  20
 627.834
  30
0.0
  40
 10.0000
  50
 90.0000
  51
 180.000
   0
LINE
   8
LEVEL001
   6
CONTINUOUS
  62
7
  10
 292.500
  20
 627.834
  30
0.0
  11
 292.500
  21
 545.000
  31
0.0
   0
ARC
   8
LEVEL001
   6
CONTINUOUS
  62
7
  10
 282.500
  20
 627.834
  30
0.0
  40
 10.0000
  50
0.0
  51
 90.0000
   0
LINE
   8
LEVEL001
   6
CONTINUOUS
  62
7
  10
 175.000
  20
 535.000
  30
0.0
  11
 282.500
  21
 535.000
  31
0.0
   0
LINE
   8
LEVEL001
   6
CONTINUOUS
  62
7
  10
 317.500
  20
 535.000
  30
0.0
  11
 425.000
  21
 535.000
  31
0.0
   0
LINE
   8
LEVEL001
   6
CONTINUOUS
  62
7
  10
 329.817
  20
 557.000
  30
0.0
  11
 417.678
  21
 557.000
  31
0.0
   0
LINE
   8
LEVEL001
   6
CONTINUOUS
  62
7
  10
 270.183
  20
 557.000
  30
0.0
  11
 182.322
  21
 557.000
  31
0.0
   0
LINE
   8
LEVEL001
   6
DASHDOT
  62
1
  10
 1008.00
  20
 545.000
  30
0.0
  11
 1008.00
  21
 495.000
  31
0.0
   0
LINE
   8
LEVEL001
   6
DASHDOT
  62
1
  10
 632.000
  20
 545.000
  30
0.0
  11
 632.000
  21
 495.000
  31
0.0
   0
LINE
   8
LEVEL001
   6
DASHDOT
  62
1
  10
 555.000
  20
 620.000
  30
0.0
  11
 45.0000
  21
 620.000
  31
0.0
   0
LINE
   8
LEVEL001
   6
DASHDOT
  62
1
  10
 385.000
  20
 545.000
  30
0.0
  11
 385.000
  21
 495.000
  31
0.0
   0
LINE
   8
LEVEL001
   6
DASHDOT
  62
1
  10
 215.000
  20
 545.000
  30
0.0
  11
 215.000
  21
 495.000
  31
0.0
   0
LINE
   8
LEVEL001
   6
DASHDOT
  62
1
  10
 1020.00
  20
 620.000
  30
0.0
  11
 640.000
  21
 620.000
  31
0.0
   0
LINE
   8
LEVEL001
   6
DASHDOT
  62
1
  10
 730.000
  20
 690.000
  30
0.0
  11
 730.000
  21
 550.000
  31
0.0
   0
LINE
   8
LEVEL001
   6
CONTINUOUS
  62
7
  10
 416.540
  20
 1184.15
  30
0.0
  11
 422.952
  21
 1189.07
  31
0.0
   0
LINE
   8
LEVEL001
   6
CONTINUOUS
  62
7
  10
 409.072
  20
 1187.24
  30
0.0
  11
 416.540
  21
 1184.15
  31
0.0
   0
LINE
   8
LEVEL001
   6
CONTINUOUS
  62
7
  10
 408.017
  20
 1195.26
  30
0.0
  11
 409.072
  21
 1187.24
  31
0.0
   0
LINE
   8
LEVEL001
   6
CONTINUOUS
  62
7
  10
 414.430
  20
 1200.18
  30
0.0
  11
 408.017
  21
 1195.26
  31
0.0
   0
LINE
   8
LEVEL001
   6
CONTINUOUS
  62
7
  10
 421.897
  20
 1197.09
  30
0.0
  11
 414.430
  21
 1200.18
  31
0.0
   0
LINE
   8
LEVEL001
   6
CONTINUOUS
  62
7
  10
 422.952
  20
 1189.07
  30
0.0
  11
 421.897
  21
 1197.09
  31
0.0
   0
LINE
   8
LEVEL001
   6
CONTINUOUS
  62
7
  10
 342.915
  20
 1118.10
  30
0.0
  11
 350.928
  21
 1117.05
  31
0.0
   0
LINE
   8
LEVEL001
   6
CONTINUOUS
  62
7
  10
 339.822
  20
 1125.57
  30
0.0
  11
 342.915
  21
 1118.10
  31
0.0
   0
LINE
   8
LEVEL001
   6
CONTINUOUS
  62
7
  10
 344.742
  20
 1131.98
  30
0.0
  11
 339.822
  21
 1125.57
  31
0.0
   0
LINE
   8
LEVEL001
   6
CONTINUOUS
  62
7
  10
 352.756
  20
 1130.93
  30
0.0
  11
 344.742
  21
 1131.98
  31
0.0
   0
LINE
   8
LEVEL001
   6
CONTINUOUS
  62
7
  10
 355.849
  20
 1123.46
  30
0.0
  11
 352.756
  21
 1130.93
  31
0.0
   0
LINE
   8
LEVEL001
   6
CONTINUOUS
  62
7
  10
 350.928
  20
 1117.05
  30
0.0
  11
 355.849
  21
 1123.46
  31
0.0
   0
LINE
   8
LEVEL001
   6
CONTINUOUS
  62
7
  10
 331.900
  20
 1051.13
  30
0.0
  11
 333.000
  21
 1050.49
  31
0.0
   0
LINE
   8
LEVEL001
   6
CONTINUOUS
  62
7
  10
 331.900
  20
 1053.76
  30
0.0
  11
 331.900
  21
 1051.13
  31
0.0
   0
LINE
   8
LEVEL001
   6
CONTINUOUS
  62
7
  10
 333.000
  20
 1054.86
  30
0.0
  11
 331.900
  21
 1053.76
  31
0.0
   0
LINE
   8
LEVEL001
   6
CONTINUOUS
  62
7
  10
 338.051
  20
 1037.90
  30
0.0
  11
 338.342
  21
 1037.72
  31
0.0
   0
LINE
   8
LEVEL001
   6
CONTINUOUS
  62
7
  10
 337.734
  20
 1038.14
  30
0.0
  11
 338.051
  21
 1037.90
  31
0.0
   0
LINE
   8
LEVEL001
   6
CONTINUOUS
  62
7
  10
 337.453
  20
 1038.42
  30
0.0
  11
 337.734
  21
 1038.14
  31
0.0
   0
LINE
   8
LEVEL001
   6
CONTINUOUS
  62
7
  10
 337.211
  20
 1038.73
  30
0.0
  11
 337.453
  21
 1038.42
  31
0.0
   0
LINE
   8
LEVEL001
   6
CONTINUOUS
  62
7
  10
 337.013
  20
 1039.06
  30
0.0
  11
 337.211
  21
 1038.73
  31
0.0
   0
LINE
   8
LEVEL001
   6
CONTINUOUS
  62
7
  10
 336.861
  20
 1039.42
  30
0.0
  11
 337.013
  21
 1039.06
  31
0.0
   0
LINE
   8
LEVEL001
   6
CONTINUOUS
  62
7
  10
 336.759
  20
 1039.78
  30
0.0
  11
 336.861
  21
 1039.42
  31
0.0
   0
LINE
   8
LEVEL001
   6
CONTINUOUS
  62
7
  10
 336.707
  20
 1040.16
  30
0.0
  11
 336.759
  21
 1039.78
  31
0.0
   0
LINE
   8
LEVEL001
   6
CONTINUOUS
  62
7
  10
 336.706
  20
 1040.54
  30
0.0
  11
 336.707
  21
 1040.16
  31
0.0
   0
LINE
   8
LEVEL001
   6
CONTINUOUS
  62
7
  10
 336.757
  20
 1040.92
  30
0.0
  11
 336.706
  21
 1040.54
  31
0.0
   0
LINE
   8
LEVEL001
   6
CONTINUOUS
  62
7
  10
 336.858
  20
 1041.29
  30
0.0
  11
 336.757
  21
 1040.92
  31
0.0
   0
LINE
   8
LEVEL001
   6
CONTINUOUS
  62
7
  10
 337.009
  20
 1041.64
  30
0.0
  11
 336.858
  21
 1041.29
  31
0.0
   0
LINE
   8
LEVEL001
   6
CONTINUOUS
  62
7
  10
 337.206
  20
 1041.98
  30
0.0
  11
 337.009
  21
 1041.64
  31
0.0
   0
LINE
   8
LEVEL001
   6
CONTINUOUS
  62
7
  10
 337.447
  20
 1042.29
  30
0.0
  11
 337.206
  21
 1041.98
  31
0.0
   0
LINE
   8
LEVEL001
   6
CONTINUOUS
  62
7
  10
 337.727
  20
 1042.57
  30
0.0
  11
 337.447
  21
 1042.29
  31
0.0
   0
LINE
   8
LEVEL001
   6
CONTINUOUS
  62
7
  10
 338.043
  20
 1042.81
  30
0.0
  11
 337.727
  21
 1042.57
  31
0.0
   0
LINE
   8
LEVEL001
   6
CONTINUOUS
  62
7
  10
 338.390
  20
 1043.02
  30
0.0
  11
 338.043
  21
 1042.81
  31
0.0
   0
LINE
   8
LEVEL001
   6
CONTINUOUS
  62
7
  10
 338.761
  20
 1043.18
  30
0.0
  11
 338.390
  21
 1043.02
  31
0.0
   0
LINE
   8
LEVEL001
   6
CONTINUOUS
  62
7
  10
 339.153
  20
 1043.30
  30
0.0
  11
 338.761
  21
 1043.18
  31
0.0
   0
LINE
   8
LEVEL001
   6
CONTINUOUS
  62
7
  10
 339.557
  20
 1043.38
  30
0.0
  11
 339.153
  21
 1043.30
  31
0.0
   0
LINE
   8
LEVEL001
   6
CONTINUOUS
  62
7
  10
 339.968
  20
 1043.41
  30
0.0
  11
 339.557
  21
 1043.38
  31
0.0
   0
LINE
   8
LEVEL001
   6
CONTINUOUS
  62
7
  10
 340.380
  20
 1043.39
  30
0.0
  11
 339.968
  21
 1043.41
  31
0.0
   0
LINE
   8
LEVEL001
   6
CONTINUOUS
  62
7
  10
 340.785
  20
 1043.32
  30
0.0
  11
 340.380
  21
 1043.39
  31
0.0
   0
LINE
   8
LEVEL001
   6
CONTINUOUS
  62
7
  10
 341.179
  20
 1043.20
  30
0.0
  11
 340.785
  21
 1043.32
  31
0.0
   0
LINE
   8
LEVEL001
   6
CONTINUOUS
  62
7
  10
 341.554
  20
 1043.05
  30
0.0
  11
 341.179
  21
 1043.20
  31
0.0
   0
LINE
   8
LEVEL001
   6
CONTINUOUS
  62
7
  10
 341.905
  20
 1042.85
  30
0.0
  11
 341.554
  21
 1043.05
  31
0.0
   0
LINE
   8
LEVEL001
   6
CONTINUOUS
  62
7
  10
 342.226
  20
 1042.61
  30
0.0
  11
 341.905
  21
 1042.85
  31
0.0
   0
LINE
   8
LEVEL001
   6
CONTINUOUS
  62
7
  10
 342.512
  20
 1042.33
  30
0.0
  11
 342.226
  21
 1042.61
  31
0.0
   0
LINE
   8
LEVEL001
   6
CONTINUOUS
  62
7
  10
 342.759
  20
 1042.03
  30
0.0
  11
 342.512
  21
 1042.33
  31
0.0
   0
LINE
   8
LEVEL001
   6
CONTINUOUS
  62
7
  10
 342.963
  20
 1041.70
  30
0.0
  11
 342.759
  21
 1042.03
  31
0.0
   0
LINE
   8
LEVEL001
   6
CONTINUOUS
  62
7
  10
 343.121
  20
 1041.35
  30
0.0
  11
 342.963
  21
 1041.70
  31
0.0
   0
LINE
   8
LEVEL001
   6
CONTINUOUS
  62
7
  10
 343.231
  20
 1040.98
  30
0.0
  11
 343.121
  21
 1041.35
  31
0.0
   0
LINE
   8
LEVEL001
   6
CONTINUOUS
  62
7
  10
 343.289
  20
 1040.60
  30
0.0
  11
 343.231
  21
 1040.98
  31
0.0
   0
LINE
   8
LEVEL001
   6
CONTINUOUS
  62
7
  10
 343.297
  20
 1040.22
  30
0.0
  11
 343.289
  21
 1040.60
  31
0.0
   0
LINE
   8
LEVEL001
   6
CONTINUOUS
  62
7
  10
 343.253
  20
 1039.84
  30
0.0
  11
 343.297
  21
 1040.22
  31
0.0
   0
LINE
   8
LEVEL001
   6
CONTINUOUS
  62
7
  10
 343.158
  20
 1039.47
  30
0.0
  11
 343.253
  21
 1039.84
  31
0.0
   0
LINE
   8
LEVEL001
   6
CONTINUOUS
  62
7
  10
 343.014
  20
 1039.11
  30
0.0
  11
 343.158
  21
 1039.47
  31
0.0
   0
LINE
   8
LEVEL001
   6
CONTINUOUS
  62
7
  10
 342.823
  20
 1038.78
  30
0.0
  11
 343.014
  21
 1039.11
  31
0.0
   0
LINE
   8
LEVEL001
   6
CONTINUOUS
  62
7
  10
 342.588
  20
 1038.46
  30
0.0
  11
 342.823
  21
 1038.78
  31
0.0
   0
LINE
   8
LEVEL001
   6
CONTINUOUS
  62
7
  10
 342.312
  20
 1038.18
  30
0.0
  11
 342.588
  21
 1038.46
  31
0.0
   0
LINE
   8
LEVEL001
   6
CONTINUOUS
  62
7
  10
 342.001
  20
 1037.93
  30
0.0
  11
 342.312
  21
 1038.18
  31
0.0
   0
LINE
   8
LEVEL001
   6
CONTINUOUS
  62
7
  10
 341.658
  20
 1037.72
  30
0.0
  11
 342.001
  21
 1037.93
  31
0.0
   0
LINE
   8
LEVEL001
   6
CONTINUOUS
  62
7
  10
 336.500
  20
 1039.64
  30
0.0
  11
 336.849
  21
 1039.45
  31
0.0
   0
LINE
   8
LEVEL001
   6
CONTINUOUS
  62
7
  10
 336.500
  20
 1043.37
  30
0.0
  11
 336.500
  21
 1039.64
  31
0.0
   0
LINE
   8
LEVEL001
   6
CONTINUOUS
  62
7
  10
 340.000
  20
 1045.24
  30
0.0
  11
 336.500
  21
 1043.37
  31
0.0
   0
LINE
   8
LEVEL001
   6
CONTINUOUS
  62
7
  10
 343.500
  20
 1043.37
  30
0.0
  11
 340.000
  21
 1045.24
  31
0.0
   0
LINE
   8
LEVEL001
   6
CONTINUOUS
  62
7
  10
 343.500
  20
 1039.64
  30
0.0
  11
 343.500
  21
 1043.37
  31
0.0
   0
LINE
   8
LEVEL001
   6
CONTINUOUS
  62
7
  10
 343.151
  20
 1039.45
  30
0.0
  11
 343.500
  21
 1039.64
  31
0.0
   0
LINE
   8
LEVEL001
   6
CONTINUOUS
  62
7
  10
 337.601
  20
 1039.40
  30
0.0
  11
 337.600
  21
 1039.32
  31
0.0
   0
LINE
   8
LEVEL001
   6
CONTINUOUS
  62
7
  10
 337.630
  20
 1039.67
  30
0.0
  11
 337.601
  21
 1039.40
  31
0.0
   0
LINE
   8
LEVEL001
   6
CONTINUOUS
  62
7
  10
 337.696
  20
 1039.94
  30
0.0
  11
 337.630
  21
 1039.67
  31
0.0
   0
LINE
   8
LEVEL001
   6
CONTINUOUS
  62
7
  10
 337.797
  20
 1040.20
  30
0.0
  11
 337.696
  21
 1039.94
  31
0.0
   0
LINE
   8
LEVEL001
   6
CONTINUOUS
  62
7
  10
 337.933
  20
 1040.45
  30
0.0
  11
 337.797
  21
 1040.20
  31
0.0
   0
LINE
   8
LEVEL001
   6
CONTINUOUS
  62
7
  10
 338.101
  20
 1040.68
  30
0.0
  11
 337.933
  21
 1040.45
  31
0.0
   0
LINE
   8
LEVEL001
   6
CONTINUOUS
  62
7
  10
 338.299
  20
 1040.89
  30
0.0
  11
 338.101
  21
 1040.68
  31
0.0
   0
LINE
   8
LEVEL001
   6
CONTINUOUS
  62
7
  10
 338.524
  20
 1041.07
  30
0.0
  11
 338.299
  21
 1040.89
  31
0.0
   0
LINE
   8
LEVEL001
   6
CONTINUOUS
  62
7
  10
 338.771
  20
 1041.23
  30
0.0
  11
 338.524
  21
 1041.07
  31
0.0
   0
LINE
   8
LEVEL001
   6
CONTINUOUS
  62
7
  10
 339.038
  20
 1041.35
  30
0.0
  11
 338.771
  21
 1041.23
  31
0.0
   0
LINE
   8
LEVEL001
   6
CONTINUOUS
  62
7
  10
 339.319
  20
 1041.45
  30
0.0
  11
 339.038
  21
 1041.35
  31
0.0
   0
LINE
   8
LEVEL001
   6
CONTINUOUS
  62
7
  10
 339.611
  20
 1041.51
  30
0.0
  11
 339.319
  21
 1041.45
  31
0.0
   0
LINE
   8
LEVEL001
   6
CONTINUOUS
  62
7
  10
 339.910
  20
 1041.54
  30
0.0
  11
 339.611
  21
 1041.51
  31
0.0
   0
LINE
   8
LEVEL001
   6
CONTINUOUS
  62
7
  10
 340.209
  20
 1041.53
  30
0.0
  11
 339.910
  21
 1041.54
  31
0.0
   0
LINE
   8
LEVEL001
   6
CONTINUOUS
  62
7
  10
 340.506
  20
 1041.49
  30
0.0
  11
 340.209
  21
 1041.53
  31
0.0
   0
LINE
   8
LEVEL001
   6
CONTINUOUS
  62
7
  10
 340.794
  20
 1041.42
  30
0.0
  11
 340.506
  21
 1041.49
  31
0.0
   0
LINE
   8
LEVEL001
   6
CONTINUOUS
  62
7
  10
 341.071
  20
 1041.31
  30
0.0
  11
 340.794
  21
 1041.42
  31
0.0
   0
LINE
   8
LEVEL001
   6
CONTINUOUS
  62
7
  10
 341.330
  20
 1041.17
  30
0.0
  11
 341.071
  21
 1041.31
  31
0.0
   0
LINE
   8
LEVEL001
   6
CONTINUOUS
  62
7
  10
 341.569
  20
 1041.00
  30
0.0
  11
 341.330
  21
 1041.17
  31
0.0
   0
LINE
   8
LEVEL001
   6
CONTINUOUS
  62
7
  10
 341.783
  20
 1040.81
  30
0.0
  11
 341.569
  21
 1041.00
  31
0.0
   0
LINE
   8
LEVEL001
   6
CONTINUOUS
  62
7
  10
 341.969
  20
 1040.59
  30
0.0
  11
 341.783
  21
 1040.81
  31
0.0
   0
LINE
   8
LEVEL001
   6
CONTINUOUS
  62
7
  10
 342.125
  20
 1040.35
  30
0.0
  11
 341.969
  21
 1040.59
  31
0.0
   0
LINE
   8
LEVEL001
   6
CONTINUOUS
  62
7
  10
 342.247
  20
 1040.10
  30
0.0
  11
 342.125
  21
 1040.35
  31
0.0
   0
LINE
   8
LEVEL001
   6
CONTINUOUS
  62
7
  10
 342.335
  20
 1039.84
  30
0.0
  11
 342.247
  21
 1040.10
  31
0.0
   0
LINE
   8
LEVEL001
   6
CONTINUOUS
  62
7
  10
 342.386
  20
 1039.56
  30
0.0
  11
 342.335
  21
 1039.84
  31
0.0
   0
LINE
   8
LEVEL001
   6
CONTINUOUS
  62
7
  10
 342.400
  20
 1039.29
  30
0.0
  11
 342.386
  21
 1039.56
  31
0.0
   0
LINE
   8
LEVEL001
   6
CONTINUOUS
  62
7
  10
 342.376
  20
 1039.01
  30
0.0
  11
 342.400
  21
 1039.29
  31
0.0
   0
LINE
   8
LEVEL001
   6
CONTINUOUS
  62
7
  10
 342.315
  20
 1038.74
  30
0.0
  11
 342.376
  21
 1039.01
  31
0.0
   0
LINE
   8
LEVEL001
   6
CONTINUOUS
  62
7
  10
 342.218
  20
 1038.48
  30
0.0
  11
 342.315
  21
 1038.74
  31
0.0
   0
LINE
   8
LEVEL001
   6
CONTINUOUS
  62
7
  10
 342.087
  20
 1038.23
  30
0.0
  11
 342.218
  21
 1038.48
  31
0.0
   0
LINE
   8
LEVEL001
   6
CONTINUOUS
  62
7
  10
 341.923
  20
 1038.00
  30
0.0
  11
 342.087
  21
 1038.23
  31
0.0
   0
LINE
   8
LEVEL001
   6
CONTINUOUS
  62
7
  10
 341.729
  20
 1037.78
  30
0.0
  11
 341.923
  21
 1038.00
  31
0.0
   0
LINE
   8
LEVEL001
   6
CONTINUOUS
  62
7
  10
 341.508
  20
 1037.60
  30
0.0
  11
 341.729
  21
 1037.78
  31
0.0
   0
LINE
   8
LEVEL001
   6
CONTINUOUS
  62
7
  10
 341.263
  20
 1037.44
  30
0.0
  11
 341.508
  21
 1037.60
  31
0.0
   0
LINE
   8
LEVEL001
   6
CONTINUOUS
  62
7
  10
 340.999
  20
 1037.31
  30
0.0
  11
 341.263
  21
 1037.44
  31
0.0
   0
LINE
   8
LEVEL001
   6
CONTINUOUS
  62
7
  10
 340.719
  20
 1037.21
  30
0.0
  11
 340.999
  21
 1037.31
  31
0.0
   0
LINE
   8
LEVEL001
   6
CONTINUOUS
  62
7
  10
 340.428
  20
 1037.14
  30
0.0
  11
 340.719
  21
 1037.21
  31
0.0
   0
LINE
   8
LEVEL001
   6
CONTINUOUS
  62
7
  10
 340.130
  20
 1037.11
  30
0.0
  11
 340.428
  21
 1037.14
  31
0.0
   0
LINE
   8
LEVEL001
   6
CONTINUOUS
  62
7
  10
 339.830
  20
 1037.11
  30
0.0
  11
 340.130
  21
 1037.11
  31
0.0
   0
LINE
   8
LEVEL001
   6
CONTINUOUS
  62
7
  10
 339.533
  20
 1037.15
  30
0.0
  11
 339.830
  21
 1037.11
  31
0.0
   0
LINE
   8
LEVEL001
   6
CONTINUOUS
  62
7
  10
 339.243
  20
 1037.22
  30
0.0
  11
 339.533
  21
 1037.15
  31
0.0
   0
LINE
   8
LEVEL001
   6
CONTINUOUS
  62
7
  10
 338.965
  20
 1037.32
  30
0.0
  11
 339.243
  21
 1037.22
  31
0.0
   0
LINE
   8
LEVEL001
   6
CONTINUOUS
  62
7
  10
 338.703
  20
 1037.46
  30
0.0
  11
 338.965
  21
 1037.32
  31
0.0
   0
LINE
   8
LEVEL001
   6
CONTINUOUS
  62
7
  10
 338.462
  20
 1037.62
  30
0.0
  11
 338.703
  21
 1037.46
  31
0.0
   0
LINE
   8
LEVEL001
   6
CONTINUOUS
  62
7
  10
 338.244
  20
 1037.81
  30
0.0
  11
 338.462
  21
 1037.62
  31
0.0
   0
LINE
   8
LEVEL001
   6
CONTINUOUS
  62
7
  10
 338.054
  20
 1038.03
  30
0.0
  11
 338.244
  21
 1037.81
  31
0.0
   0
LINE
   8
LEVEL001
   6
CONTINUOUS
  62
7
  10
 337.894
  20
 1038.26
  30
0.0
  11
 338.054
  21
 1038.03
  31
0.0
   0
LINE
   8
LEVEL001
   6
CONTINUOUS
  62
7
  10
 337.767
  20
 1038.51
  30
0.0
  11
 337.894
  21
 1038.26
  31
0.0
   0
LINE
   8
LEVEL001
   6
CONTINUOUS
  62
7
  10
 337.675
  20
 1038.77
  30
0.0
  11
 337.767
  21
 1038.51
  31
0.0
   0
LINE
   8
LEVEL001
   6
CONTINUOUS
  62
7
  10
 337.619
  20
 1039.05
  30
0.0
  11
 337.675
  21
 1038.77
  31
0.0
   0
LINE
   8
LEVEL001
   6
CONTINUOUS
  62
7
  10
 337.600
  20
 1039.32
  30
0.0
  11
 337.619
  21
 1039.05
  31
0.0
   0
LINE
   8
LEVEL001
   6
CONTINUOUS
  62
7
  10
 336.500
  20
 1044.29
  30
0.0
  11
 336.500
  21
 1043.37
  31
0.0
   0
LINE
   8
LEVEL001
   6
CONTINUOUS
  62
7
  10
 340.000
  20
 1046.16
  30
0.0
  11
 336.500
  21
 1044.29
  31
0.0
   0
LINE
   8
LEVEL001
   6
CONTINUOUS
  62
7
  10
 343.500
  20
 1044.29
  30
0.0
  11
 340.000
  21
 1046.16
  31
0.0
   0
LINE
   8
LEVEL001
   6
CONTINUOUS
  62
7
  10
 343.500
  20
 1043.37
  30
0.0
  11
 343.500
  21
 1044.29
  31
0.0
   0
LINE
   8
LEVEL001
   6
CONTINUOUS
  62
7
  10
 348.100
  20
 1053.76
  30
0.0
  11
 347.000
  21
 1054.86
  31
0.0
   0
LINE
   8
LEVEL001
   6
CONTINUOUS
  62
7
  10
 348.100
  20
 1051.13
  30
0.0
  11
 348.100
  21
 1053.76
  31
0.0
   0
LINE
   8
LEVEL001
   6
CONTINUOUS
  62
7
  10
 347.000
  20
 1050.49
  30
0.0
  11
 348.100
  21
 1051.13
  31
0.0
   0
LINE
   8
LEVEL001
   6
CONTINUOUS
  62
7
  10
 355.850
  20
 1356.54
  30
0.0
  11
 350.929
  21
 1362.95
  31
0.0
   0
LINE
   8
LEVEL001
   6
CONTINUOUS
  62
7
  10
 352.757
  20
 1349.07
  30
0.0
  11
 355.850
  21
 1356.54
  31
0.0
   0
LINE
   8
LEVEL001
   6
CONTINUOUS
  62
7
  10
 344.743
  20
 1348.02
  30
0.0
  11
 352.757
  21
 1349.07
  31
0.0
   0
LINE
   8
LEVEL001
   6
CONTINUOUS
  62
7
  10
 339.822
  20
 1354.43
  30
0.0
  11
 344.743
  21
 1348.02
  31
0.0
   0
LINE
   8
LEVEL001
   6
CONTINUOUS
  62
7
  10
 342.916
  20
 1361.90
  30
0.0
  11
 339.822
  21
 1354.43
  31
0.0
   0
LINE
   8
LEVEL001
   6
CONTINUOUS
  62
7
  10
 350.929
  20
 1362.95
  30
0.0
  11
 342.916
  21
 1361.90
  31
0.0
   0
LINE
   8
LEVEL001
   6
CONTINUOUS
  62
7
  10
 421.898
  20
 1282.91
  30
0.0
  11
 422.953
  21
 1290.93
  31
0.0
   0
LINE
   8
LEVEL001
   6
CONTINUOUS
  62
7
  10
 414.430
  20
 1279.82
  30
0.0
  11
 421.898
  21
 1282.91
  31
0.0
   0
LINE
   8
LEVEL001
   6
CONTINUOUS
  62
7
  10
 408.018
  20
 1284.74
  30
0.0
  11
 414.430
  21
 1279.82
  31
0.0
   0
LINE
   8
LEVEL001
   6
CONTINUOUS
  62
7
  10
 409.073
  20
 1292.76
  30
0.0
  11
 408.018
  21
 1284.74
  31
0.0
   0
LINE
   8
LEVEL001
   6
CONTINUOUS
  62
7
  10
 416.540
  20
 1295.85
  30
0.0
  11
 409.073
  21
 1292.76
  31
0.0
   0
LINE
   8
LEVEL001
   6
CONTINUOUS
  62
7
  10
 422.953
  20
 1290.93
  30
0.0
  11
 416.540
  21
 1295.85
  31
0.0
   0
LINE
   8
LEVEL001
   6
CONTINUOUS
  62
7
  10
 244.150
  20
 1123.46
  30
0.0
  11
 249.071
  21
 1117.05
  31
0.0
   0
LINE
   8
LEVEL001
   6
CONTINUOUS
  62
7
  10
 247.244
  20
 1130.93
  30
0.0
  11
 244.150
  21
 1123.46
  31
0.0
   0
LINE
   8
LEVEL001
   6
CONTINUOUS
  62
7
  10
 255.257
  20
 1131.98
  30
0.0
  11
 247.244
  21
 1130.93
  31
0.0
   0
LINE
   8
LEVEL001
   6
CONTINUOUS
  62
7
  10
 260.178
  20
 1125.57
  30
0.0
  11
 255.257
  21
 1131.98
  31
0.0
   0
LINE
   8
LEVEL001
   6
CONTINUOUS
  62
7
  10
 257.085
  20
 1118.10
  30
0.0
  11
 260.178
  21
 1125.57
  31
0.0
   0
LINE
   8
LEVEL001
   6
CONTINUOUS
  62
7
  10
 249.071
  20
 1117.05
  30
0.0
  11
 257.085
  21
 1118.10
  31
0.0
   0
LINE
   8
LEVEL001
   6
CONTINUOUS
  62
7
  10
 178.102
  20
 1197.09
  30
0.0
  11
 177.047
  21
 1189.07
  31
0.0
   0
LINE
   8
LEVEL001
   6
CONTINUOUS
  62
7
  10
 185.570
  20
 1200.18
  30
0.0
  11
 178.102
  21
 1197.09
  31
0.0
   0
LINE
   8
LEVEL001
   6
CONTINUOUS
  62
7
  10
 191.983
  20
 1195.26
  30
0.0
  11
 185.570
  21
 1200.18
  31
0.0
   0
LINE
   8
LEVEL001
   6
CONTINUOUS
  62
7
  10
 190.927
  20
 1187.24
  30
0.0
  11
 191.983
  21
 1195.26
  31
0.0
   0
LINE
   8
LEVEL001
   6
CONTINUOUS
  62
7
  10
 183.460
  20
 1184.15
  30
0.0
  11
 190.927
  21
 1187.24
  31
0.0
   0
LINE
   8
LEVEL001
   6
CONTINUOUS
  62
7
  10
 177.047
  20
 1189.07
  30
0.0
  11
 183.460
  21
 1184.15
  31
0.0
   0
LINE
   8
LEVEL001
   6
CONTINUOUS
  62
7
  10
 183.460
  20
 1295.85
  30
0.0
  11
 177.048
  21
 1290.93
  31
0.0
   0
LINE
   8
LEVEL001
   6
CONTINUOUS
  62
7
  10
 190.928
  20
 1292.76
  30
0.0
  11
 183.460
  21
 1295.85
  31
0.0
   0
LINE
   8
LEVEL001
   6
CONTINUOUS
  62
7
  10
 191.983
  20
 1284.74
  30
0.0
  11
 190.928
  21
 1292.76
  31
0.0
   0
LINE
   8
LEVEL001
   6
CONTINUOUS
  62
7
  10
 185.570
  20
 1279.82
  30
0.0
  11
 191.983
  21
 1284.74
  31
0.0
   0
LINE
   8
LEVEL001
   6
CONTINUOUS
  62
7
  10
 178.103
  20
 1282.92
  30
0.0
  11
 185.570
  21
 1279.82
  31
0.0
   0
LINE
   8
LEVEL001
   6
CONTINUOUS
  62
7
  10
 177.048
  20
 1290.93
  30
0.0
  11
 178.103
  21
 1282.92
  31
0.0
   0
LINE
   8
LEVEL001
   6
CONTINUOUS
  62
7
  10
 257.085
  20
 1361.90
  30
0.0
  11
 249.072
  21
 1362.95
  31
0.0
   0
LINE
   8
LEVEL001
   6
CONTINUOUS
  62
7
  10
 260.178
  20
 1354.43
  30
0.0
  11
 257.085
  21
 1361.90
  31
0.0
   0
LINE
   8
LEVEL001
   6
CONTINUOUS
  62
7
  10
 255.258
  20
 1348.02
  30
0.0
  11
 260.178
  21
 1354.43
  31
0.0
   0
LINE
   8
LEVEL001
   6
CONTINUOUS
  62
7
  10
 247.244
  20
 1349.07
  30
0.0
  11
 255.258
  21
 1348.02
  31
0.0
   0
LINE
   8
LEVEL001
   6
CONTINUOUS
  62
7
  10
 244.151
  20
 1356.54
  30
0.0
  11
 247.244
  21
 1349.07
  31
0.0
   0
LINE
   8
LEVEL001
   6
CONTINUOUS
  62
7
  10
 249.072
  20
 1362.95
  30
0.0
  11
 244.151
  21
 1356.54
  31
0.0
   0
LINE
   8
LEVEL001
   6
CONTINUOUS
  62
7
  10
 372.552
  20
 1248.22
  30
0.0
  11
 372.542
  21
 1248.24
  31
0.0
   0
LINE
   8
LEVEL001
   6
CONTINUOUS
  62
7
  10
 372.542
  20
 1248.24
  30
0.0
  11
 372.532
  21
 1248.25
  31
0.0
   0
LINE
   8
LEVEL001
   6
CONTINUOUS
  62
7
  10
 372.532
  20
 1248.25
  30
0.0
  11
 372.522
  21
 1248.26
  31
0.0
   0
LINE
   8
LEVEL001
   6
CONTINUOUS
  62
7
  10
 372.522
  20
 1248.26
  30
0.0
  11
 372.513
  21
 1248.28
  31
0.0
   0
LINE
   8
LEVEL001
   6
CONTINUOUS
  62
7
  10
 372.513
  20
 1248.28
  30
0.0
  11
 372.503
  21
 1248.29
  31
0.0
   0
LINE
   8
LEVEL001
   6
CONTINUOUS
  62
7
  10
 372.503
  20
 1248.29
  30
0.0
  11
 372.493
  21
 1248.31
  31
0.0
   0
LINE
   8
LEVEL001
   6
CONTINUOUS
  62
7
  10
 372.493
  20
 1248.31
  30
0.0
  11
 372.483
  21
 1248.32
  31
0.0
   0
LINE
   8
LEVEL001
   6
CONTINUOUS
  62
7
  10
 372.483
  20
 1248.32
  30
0.0
  11
 372.473
  21
 1248.33
  31
0.0
   0
LINE
   8
LEVEL001
   6
CONTINUOUS
  62
7
  10
 372.473
  20
 1248.33
  30
0.0
  11
 372.463
  21
 1248.35
  31
0.0
   0
LINE
   8
LEVEL001
   6
CONTINUOUS
  62
7
  10
 372.463
  20
 1248.35
  30
0.0
  11
 372.454
  21
 1248.36
  31
0.0
   0
LINE
   8
LEVEL001
   6
CONTINUOUS
  62
7
  10
 372.454
  20
 1248.36
  30
0.0
  11
 372.444
  21
 1248.37
  31
0.0
   0
LINE
   8
LEVEL001
   6
CONTINUOUS
  62
7
  10
 372.444
  20
 1248.37
  30
0.0
  11
 372.434
  21
 1248.38
  31
0.0
   0
LINE
   8
LEVEL001
   6
CONTINUOUS
  62
7
  10
 372.434
  20
 1248.38
  30
0.0
  11
 372.424
  21
 1248.39
  31
0.0
   0
LINE
   8
LEVEL001
   6
CONTINUOUS
  62
7
  10
 372.424
  20
 1248.39
  30
0.0
  11
 372.414
  21
 1248.41
  31
0.0
   0
LINE
   8
LEVEL001
   6
CONTINUOUS
  62
7
  10
 372.414
  20
 1248.41
  30
0.0
  11
 372.404
  21
 1248.42
  31
0.0
   0
LINE
   8
LEVEL001
   6
CONTINUOUS
  62
7
  10
 372.404
  20
 1248.42
  30
0.0
  11
 372.394
  21
 1248.43
  31
0.0
   0
LINE
   8
LEVEL001
   6
CONTINUOUS
  62
7
  10
 372.394
  20
 1248.43
  30
0.0
  11
 372.384
  21
 1248.44
  31
0.0
   0
LINE
   8
LEVEL001
   6
CONTINUOUS
  62
7
  10
 372.384
  20
 1248.44
  30
0.0
  11
 372.374
  21
 1248.45
  31
0.0
   0
LINE
   8
LEVEL001
   6
CONTINUOUS
  62
7
  10
 372.374
  20
 1248.45
  30
0.0
  11
 372.364
  21
 1248.46
  31
0.0
   0
LINE
   8
LEVEL001
   6
CONTINUOUS
  62
7
  10
 372.364
  20
 1248.46
  30
0.0
  11
 372.354
  21
 1248.47
  31
0.0
   0
LINE
   8
LEVEL001
   6
CONTINUOUS
  62
7
  10
 372.354
  20
 1248.47
  30
0.0
  11
 372.344
  21
 1248.48
  31
0.0
   0
LINE
   8
LEVEL001
   6
CONTINUOUS
  62
7
  10
 372.344
  20
 1248.48
  30
0.0
  11
 372.334
  21
 1248.49
  31
0.0
   0
LINE
   8
LEVEL001
   6
CONTINUOUS
  62
7
  10
 372.334
  20
 1248.49
  30
0.0
  11
 372.324
  21
 1248.50
  31
0.0
   0
LINE
   8
LEVEL001
   6
CONTINUOUS
  62
7
  10
 372.324
  20
 1248.50
  30
0.0
  11
 372.314
  21
 1248.51
  31
0.0
   0
LINE
   8
LEVEL001
   6
CONTINUOUS
  62
7
  10
 372.314
  20
 1248.51
  30
0.0
  11
 372.304
  21
 1248.52
  31
0.0
   0
LINE
   8
LEVEL001
   6
CONTINUOUS
  62
7
  10
 372.304
  20
 1248.52
  30
0.0
  11
 372.294
  21
 1248.53
  31
0.0
   0
LINE
   8
LEVEL001
   6
CONTINUOUS
  62
7
  10
 372.294
  20
 1248.53
  30
0.0
  11
 372.284
  21
 1248.54
  31
0.0
   0
LINE
   8
LEVEL001
   6
CONTINUOUS
  62
7
  10
 372.284
  20
 1248.54
  30
0.0
  11
 372.274
  21
 1248.55
  31
0.0
   0
LINE
   8
LEVEL001
   6
CONTINUOUS
  62
7
  10
 372.274
  20
 1248.55
  30
0.0
  11
 372.264
  21
 1248.56
  31
0.0
   0
LINE
   8
LEVEL001
   6
CONTINUOUS
  62
7
  10
 372.264
  20
 1248.56
  30
0.0
  11
 372.253
  21
 1248.57
  31
0.0
   0
LINE
   8
LEVEL001
   6
CONTINUOUS
  62
7
  10
 372.253
  20
 1248.57
  30
0.0
  11
 372.243
  21
 1248.58
  31
0.0
   0
LINE
   8
LEVEL001
   6
CONTINUOUS
  62
7
  10
 372.243
  20
 1248.58
  30
0.0
  11
 372.233
  21
 1248.59
  31
0.0
   0
LINE
   8
LEVEL001
   6
CONTINUOUS
  62
7
  10
 372.233
  20
 1248.59
  30
0.0
  11
 372.223
  21
 1248.59
  31
0.0
   0
LINE
   8
LEVEL001
   6
CONTINUOUS
  62
7
  10
 372.223
  20
 1248.59
  30
0.0
  11
 372.213
  21
 1248.60
  31
0.0
   0
LINE
   8
LEVEL001
   6
CONTINUOUS
  62
7
  10
 372.213
  20
 1248.60
  30
0.0
  11
 372.203
  21
 1248.61
  31
0.0
   0
LINE
   8
LEVEL001
   6
CONTINUOUS
  62
7
  10
 372.203
  20
 1248.61
  30
0.0
  11
 372.193
  21
 1248.62
  31
0.0
   0
LINE
   8
LEVEL001
   6
CONTINUOUS
  62
7
  10
 372.193
  20
 1248.62
  30
0.0
  11
 372.182
  21
 1248.62
  31
0.0
   0
LINE
   8
LEVEL001
   6
CONTINUOUS
  62
7
  10
 372.182
  20
 1248.62
  30
0.0
  11
 372.172
  21
 1248.63
  31
0.0
   0
LINE
   8
LEVEL001
   6
CONTINUOUS
  62
7
  10
 372.172
  20
 1248.63
  30
0.0
  11
 372.162
  21
 1248.64
  31
0.0
   0
LINE
   8
LEVEL001
   6
CONTINUOUS
  62
7
  10
 372.162
  20
 1248.64
  30
0.0
  11
 372.152
  21
 1248.64
  31
0.0
   0
LINE
   8
LEVEL001
   6
CONTINUOUS
  62
7
  10
 372.152
  20
 1248.64
  30
0.0
  11
 372.141
  21
 1248.65
  31
0.0
   0
LINE
   8
LEVEL001
   6
CONTINUOUS
  62
7
  10
 372.141
  20
 1248.65
  30
0.0
  11
 372.131
  21
 1248.66
  31
0.0
   0
LINE
   8
LEVEL001
   6
CONTINUOUS
  62
7
  10
 372.131
  20
 1248.66
  30
0.0
  11
 372.121
  21
 1248.66
  31
0.0
   0
LINE
   8
LEVEL001
   6
CONTINUOUS
  62
7
  10
 372.121
  20
 1248.66
  30
0.0
  11
 372.111
  21
 1248.67
  31
0.0
   0
LINE
   8
LEVEL001
   6
CONTINUOUS
  62
7
  10
 372.111
  20
 1248.67
  30
0.0
  11
 372.101
  21
 1248.68
  31
0.0
   0
LINE
   8
LEVEL001
   6
CONTINUOUS
  62
7
  10
 372.101
  20
 1248.68
  30
0.0
  11
 372.090
  21
 1248.68
  31
0.0
   0
LINE
   8
LEVEL001
   6
CONTINUOUS
  62
7
  10
 372.090
  20
 1248.68
  30
0.0
  11
 372.080
  21
 1248.69
  31
0.0
   0
LINE
   8
LEVEL001
   6
CONTINUOUS
  62
7
  10
 372.080
  20
 1248.69
  30
0.0
  11
 372.070
  21
 1248.69
  31
0.0
   0
LINE
   8
LEVEL001
   6
CONTINUOUS
  62
7
  10
 372.070
  20
 1248.69
  30
0.0
  11
 372.059
  21
 1248.70
  31
0.0
   0
LINE
   8
LEVEL001
   6
CONTINUOUS
  62
7
  10
 372.059
  20
 1248.70
  30
0.0
  11
 372.049
  21
 1248.70
  31
0.0
   0
LINE
   8
LEVEL001
   6
CONTINUOUS
  62
7
  10
 372.049
  20
 1248.70
  30
0.0
  11
 372.039
  21
 1248.70
  31
0.0
   0
LINE
   8
LEVEL001
   6
CONTINUOUS
  62
7
  10
 372.039
  20
 1248.70
  30
0.0
  11
 372.029
  21
 1248.71
  31
0.0
   0
LINE
   8
LEVEL001
   6
CONTINUOUS
  62
7
  10
 372.029
  20
 1248.71
  30
0.0
  11
 372.018
  21
 1248.71
  31
0.0
   0
LINE
   8
LEVEL001
   6
CONTINUOUS
  62
7
  10
 372.018
  20
 1248.71
  30
0.0
  11
 372.008
  21
 1248.72
  31
0.0
   0
LINE
   8
LEVEL001
   6
CONTINUOUS
  62
7
  10
 372.008
  20
 1248.72
  30
0.0
  11
 371.998
  21
 1248.72
  31
0.0
   0
LINE
   8
LEVEL001
   6
CONTINUOUS
  62
7
  10
 371.998
  20
 1248.72
  30
0.0
  11
 371.987
  21
 1248.72
  31
0.0
   0
LINE
   8
LEVEL001
   6
CONTINUOUS
  62
7
  10
 371.987
  20
 1248.72
  30
0.0
  11
 371.977
  21
 1248.73
  31
0.0
   0
LINE
   8
LEVEL001
   6
CONTINUOUS
  62
7
  10
 371.977
  20
 1248.73
  30
0.0
  11
 371.967
  21
 1248.73
  31
0.0
   0
LINE
   8
LEVEL001
   6
CONTINUOUS
  62
7
  10
 371.967
  20
 1248.73
  30
0.0
  11
 371.957
  21
 1248.73
  31
0.0
   0
LINE
   8
LEVEL001
   6
CONTINUOUS
  62
7
  10
 371.957
  20
 1248.73
  30
0.0
  11
 371.946
  21
 1248.74
  31
0.0
   0
LINE
   8
LEVEL001
   6
CONTINUOUS
  62
7
  10
 371.946
  20
 1248.74
  30
0.0
  11
 371.936
  21
 1248.74
  31
0.0
   0
LINE
   8
LEVEL001
   6
CONTINUOUS
  62
7
  10
 371.936
  20
 1248.74
  30
0.0
  11
 371.926
  21
 1248.74
  31
0.0
   0
LINE
   8
LEVEL001
   6
CONTINUOUS
  62
7
  10
 371.926
  20
 1248.74
  30
0.0
  11
 371.915
  21
 1248.74
  31
0.0
   0
LINE
   8
LEVEL001
   6
CONTINUOUS
  62
7
  10
 371.915
  20
 1248.74
  30
0.0
  11
 371.905
  21
 1248.74
  31
0.0
   0
LINE
   8
LEVEL001
   6
CONTINUOUS
  62
7
  10
 371.905
  20
 1248.74
  30
0.0
  11
 371.895
  21
 1248.74
  31
0.0
   0
LINE
   8
LEVEL001
   6
CONTINUOUS
  62
7
  10
 371.895
  20
 1248.74
  30
0.0
  11
 371.884
  21
 1248.75
  31
0.0
   0
LINE
   8
LEVEL001
   6
CONTINUOUS
  62
7
  10
 371.884
  20
 1248.75
  30
0.0
  11
 371.874
  21
 1248.75
  31
0.0
   0
LINE
   8
LEVEL001
   6
CONTINUOUS
  62
7
  10
 371.874
  20
 1248.75
  30
0.0
  11
 371.864
  21
 1248.75
  31
0.0
   0
LINE
   8
LEVEL001
   6
CONTINUOUS
  62
7
  10
 371.864
  20
 1248.75
  30
0.0
  11
 371.853
  21
 1248.75
  31
0.0
   0
LINE
   8
LEVEL001
   6
CONTINUOUS
  62
7
  10
 371.853
  20
 1248.75
  30
0.0
  11
 371.843
  21
 1248.75
  31
0.0
   0
LINE
   8
LEVEL001
   6
CONTINUOUS
  62
7
  10
 371.843
  20
 1248.75
  30
0.0
  11
 371.833
  21
 1248.75
  31
0.0
   0
LINE
   8
LEVEL001
   6
CONTINUOUS
  62
7
  10
 371.833
  20
 1248.75
  30
0.0
  11
 371.822
  21
 1248.75
  31
0.0
   0
LINE
   8
LEVEL001
   6
CONTINUOUS
  62
7
  10
 371.822
  20
 1231.25
  30
0.0
  11
 371.831
  21
 1231.25
  31
0.0
   0
LINE
   8
LEVEL001
   6
CONTINUOUS
  62
7
  10
 371.831
  20
 1231.25
  30
0.0
  11
 371.840
  21
 1231.25
  31
0.0
   0
LINE
   8
LEVEL001
   6
CONTINUOUS
  62
7
  10
 371.840
  20
 1231.25
  30
0.0
  11
 371.849
  21
 1231.25
  31
0.0
   0
LINE
   8
LEVEL001
   6
CONTINUOUS
  62
7
  10
 371.849
  20
 1231.25
  30
0.0
  11
 371.858
  21
 1231.25
  31
0.0
   0
LINE
   8
LEVEL001
   6
CONTINUOUS
  62
7
  10
 371.858
  20
 1231.25
  30
0.0
  11
 371.867
  21
 1231.25
  31
0.0
   0
LINE
   8
LEVEL001
   6
CONTINUOUS
  62
7
  10
 371.867
  20
 1231.25
  30
0.0
  11
 371.876
  21
 1231.25
  31
0.0
   0
LINE
   8
LEVEL001
   6
CONTINUOUS
  62
7
  10
 371.876
  20
 1231.25
  30
0.0
  11
 371.886
  21
 1231.25
  31
0.0
   0
LINE
   8
LEVEL001
   6
CONTINUOUS
  62
7
  10
 371.886
  20
 1231.25
  30
0.0
  11
 371.895
  21
 1231.26
  31
0.0
   0
LINE
   8
LEVEL001
   6
CONTINUOUS
  62
7
  10
 371.895
  20
 1231.26
  30
0.0
  11
 371.904
  21
 1231.26
  31
0.0
   0
LINE
   8
LEVEL001
   6
CONTINUOUS
  62
7
  10
 371.904
  20
 1231.26
  30
0.0
  11
 371.913
  21
 1231.26
  31
0.0
   0
LINE
   8
LEVEL001
   6
CONTINUOUS
  62
7
  10
 371.913
  20
 1231.26
  30
0.0
  11
 371.922
  21
 1231.26
  31
0.0
   0
LINE
   8
LEVEL001
   6
CONTINUOUS
  62
7
  10
 371.922
  20
 1231.26
  30
0.0
  11
 371.931
  21
 1231.26
  31
0.0
   0
LINE
   8
LEVEL001
   6
CONTINUOUS
  62
7
  10
 371.931
  20
 1231.26
  30
0.0
  11
 371.940
  21
 1231.26
  31
0.0
   0
LINE
   8
LEVEL001
   6
CONTINUOUS
  62
7
  10
 371.940
  20
 1231.26
  30
0.0
  11
 371.949
  21
 1231.27
  31
0.0
   0
LINE
   8
LEVEL001
   6
CONTINUOUS
  62
7
  10
 371.949
  20
 1231.27
  30
0.0
  11
 371.958
  21
 1231.27
  31
0.0
   0
LINE
   8
LEVEL001
   6
CONTINUOUS
  62
7
  10
 371.958
  20
 1231.27
  30
0.0
  11
 371.967
  21
 1231.27
  31
0.0
   0
LINE
   8
LEVEL001
   6
CONTINUOUS
  62
7
  10
 371.967
  20
 1231.27
  30
0.0
  11
 371.976
  21
 1231.27
  31
0.0
   0
LINE
   8
LEVEL001
   6
CONTINUOUS
  62
7
  10
 371.976
  20
 1231.27
  30
0.0
  11
 371.985
  21
 1231.28
  31
0.0
   0
LINE
   8
LEVEL001
   6
CONTINUOUS
  62
7
  10
 371.985
  20
 1231.28
  30
0.0
  11
 371.994
  21
 1231.28
  31
0.0
   0
LINE
   8
LEVEL001
   6
CONTINUOUS
  62
7
  10
 371.994
  20
 1231.28
  30
0.0
  11
 372.003
  21
 1231.28
  31
0.0
   0
LINE
   8
LEVEL001
   6
CONTINUOUS
  62
7
  10
 372.003
  20
 1231.28
  30
0.0
  11
 372.012
  21
 1231.28
  31
0.0
   0
LINE
   8
LEVEL001
   6
CONTINUOUS
  62
7
  10
 372.012
  20
 1231.28
  30
0.0
  11
 372.021
  21
 1231.29
  31
0.0
   0
LINE
   8
LEVEL001
   6
CONTINUOUS
  62
7
  10
 372.021
  20
 1231.29
  30
0.0
  11
 372.030
  21
 1231.29
  31
0.0
   0
LINE
   8
LEVEL001
   6
CONTINUOUS
  62
7
  10
 372.030
  20
 1231.29
  30
0.0
  11
 372.039
  21
 1231.30
  31
0.0
   0
LINE
   8
LEVEL001
   6
CONTINUOUS
  62
7
  10
 372.039
  20
 1231.30
  30
0.0
  11
 372.048
  21
 1231.30
  31
0.0
   0
LINE
   8
LEVEL001
   6
CONTINUOUS
  62
7
  10
 372.048
  20
 1231.30
  30
0.0
  11
 372.057
  21
 1231.30
  31
0.0
   0
LINE
   8
LEVEL001
   6
CONTINUOUS
  62
7
  10
 372.057
  20
 1231.30
  30
0.0
  11
 372.066
  21
 1231.31
  31
0.0
   0
LINE
   8
LEVEL001
   6
CONTINUOUS
  62
7
  10
 372.066
  20
 1231.31
  30
0.0
  11
 372.075
  21
 1231.31
  31
0.0
   0
LINE
   8
LEVEL001
   6
CONTINUOUS
  62
7
  10
 372.075
  20
 1231.31
  30
0.0
  11
 372.084
  21
 1231.32
  31
0.0
   0
LINE
   8
LEVEL001
   6
CONTINUOUS
  62
7
  10
 372.084
  20
 1231.32
  30
0.0
  11
 372.093
  21
 1231.32
  31
0.0
   0
LINE
   8
LEVEL001
   6
CONTINUOUS
  62
7
  10
 372.093
  20
 1231.32
  30
0.0
  11
 372.102
  21
 1231.33
  31
0.0
   0
LINE
   8
LEVEL001
   6
CONTINUOUS
  62
7
  10
 372.102
  20
 1231.33
  30
0.0
  11
 372.111
  21
 1231.33
  31
0.0
   0
LINE
   8
LEVEL001
   6
CONTINUOUS
  62
7
  10
 372.111
  20
 1231.33
  30
0.0
  11
 372.120
  21
 1231.34
  31
0.0
   0
LINE
   8
LEVEL001
   6
CONTINUOUS
  62
7
  10
 372.120
  20
 1231.34
  30
0.0
  11
 372.129
  21
 1231.34
  31
0.0
   0
LINE
   8
LEVEL001
   6
CONTINUOUS
  62
7
  10
 372.129
  20
 1231.34
  30
0.0
  11
 372.138
  21
 1231.35
  31
0.0
   0
LINE
   8
LEVEL001
   6
CONTINUOUS
  62
7
  10
 372.138
  20
 1231.35
  30
0.0
  11
 372.147
  21
 1231.35
  31
0.0
   0
LINE
   8
LEVEL001
   6
CONTINUOUS
  62
7
  10
 372.147
  20
 1231.35
  30
0.0
  11
 372.156
  21
 1231.36
  31
0.0
   0
LINE
   8
LEVEL001
   6
CONTINUOUS
  62
7
  10
 372.156
  20
 1231.36
  30
0.0
  11
 372.164
  21
 1231.36
  31
0.0
   0
LINE
   8
LEVEL001
   6
CONTINUOUS
  62
7
  10
 372.164
  20
 1231.36
  30
0.0
  11
 372.173
  21
 1231.37
  31
0.0
   0
LINE
   8
LEVEL001
   6
CONTINUOUS
  62
7
  10
 372.173
  20
 1231.37
  30
0.0
  11
 372.182
  21
 1231.38
  31
0.0
   0
LINE
   8
LEVEL001
   6
CONTINUOUS
  62
7
  10
 372.182
  20
 1231.38
  30
0.0
  11
 372.191
  21
 1231.38
  31
0.0
   0
LINE
   8
LEVEL001
   6
CONTINUOUS
  62
7
  10
 372.191
  20
 1231.38
  30
0.0
  11
 372.200
  21
 1231.39
  31
0.0
   0
LINE
   8
LEVEL001
   6
CONTINUOUS
  62
7
  10
 372.200
  20
 1231.39
  30
0.0
  11
 372.209
  21
 1231.40
  31
0.0
   0
LINE
   8
LEVEL001
   6
CONTINUOUS
  62
7
  10
 372.209
  20
 1231.40
  30
0.0
  11
 372.218
  21
 1231.40
  31
0.0
   0
LINE
   8
LEVEL001
   6
CONTINUOUS
  62
7
  10
 372.218
  20
 1231.40
  30
0.0
  11
 372.227
  21
 1231.41
  31
0.0
   0
LINE
   8
LEVEL001
   6
CONTINUOUS
  62
7
  10
 372.227
  20
 1231.41
  30
0.0
  11
 372.236
  21
 1231.42
  31
0.0
   0
LINE
   8
LEVEL001
   6
CONTINUOUS
  62
7
  10
 372.236
  20
 1231.42
  30
0.0
  11
 372.245
  21
 1231.42
  31
0.0
   0
LINE
   8
LEVEL001
   6
CONTINUOUS
  62
7
  10
 372.245
  20
 1231.42
  30
0.0
  11
 372.253
  21
 1231.43
  31
0.0
   0
LINE
   8
LEVEL001
   6
CONTINUOUS
  62
7
  10
 372.253
  20
 1231.43
  30
0.0
  11
 372.262
  21
 1231.44
  31
0.0
   0
LINE
   8
LEVEL001
   6
CONTINUOUS
  62
7
  10
 372.262
  20
 1231.44
  30
0.0
  11
 372.271
  21
 1231.45
  31
0.0
   0
LINE
   8
LEVEL001
   6
CONTINUOUS
  62
7
  10
 372.271
  20
 1231.45
  30
0.0
  11
 372.280
  21
 1231.45
  31
0.0
   0
LINE
   8
LEVEL001
   6
CONTINUOUS
  62
7
  10
 372.280
  20
 1231.45
  30
0.0
  11
 372.289
  21
 1231.46
  31
0.0
   0
LINE
   8
LEVEL001
   6
CONTINUOUS
  62
7
  10
 372.289
  20
 1231.46
  30
0.0
  11
 372.298
  21
 1231.47
  31
0.0
   0
LINE
   8
LEVEL001
   6
CONTINUOUS
  62
7
  10
 372.298
  20
 1231.47
  30
0.0
  11
 372.306
  21
 1231.48
  31
0.0
   0
LINE
   8
LEVEL001
   6
CONTINUOUS
  62
7
  10
 372.306
  20
 1231.48
  30
0.0
  11
 372.315
  21
 1231.49
  31
0.0
   0
LINE
   8
LEVEL001
   6
CONTINUOUS
  62
7
  10
 372.315
  20
 1231.49
  30
0.0
  11
 372.324
  21
 1231.50
  31
0.0
   0
LINE
   8
LEVEL001
   6
CONTINUOUS
  62
7
  10
 372.324
  20
 1231.50
  30
0.0
  11
 372.333
  21
 1231.50
  31
0.0
   0
LINE
   8
LEVEL001
   6
CONTINUOUS
  62
7
  10
 372.333
  20
 1231.50
  30
0.0
  11
 372.342
  21
 1231.51
  31
0.0
   0
LINE
   8
LEVEL001
   6
CONTINUOUS
  62
7
  10
 372.342
  20
 1231.51
  30
0.0
  11
 372.350
  21
 1231.52
  31
0.0
   0
LINE
   8
LEVEL001
   6
CONTINUOUS
  62
7
  10
 372.350
  20
 1231.52
  30
0.0
  11
 372.359
  21
 1231.53
  31
0.0
   0
LINE
   8
LEVEL001
   6
CONTINUOUS
  62
7
  10
 372.359
  20
 1231.53
  30
0.0
  11
 372.368
  21
 1231.54
  31
0.0
   0
LINE
   8
LEVEL001
   6
CONTINUOUS
  62
7
  10
 372.368
  20
 1231.54
  30
0.0
  11
 372.377
  21
 1231.55
  31
0.0
   0
LINE
   8
LEVEL001
   6
CONTINUOUS
  62
7
  10
 372.377
  20
 1231.55
  30
0.0
  11
 372.385
  21
 1231.56
  31
0.0
   0
LINE
   8
LEVEL001
   6
CONTINUOUS
  62
7
  10
 372.385
  20
 1231.56
  30
0.0
  11
 372.394
  21
 1231.57
  31
0.0
   0
LINE
   8
LEVEL001
   6
CONTINUOUS
  62
7
  10
 372.394
  20
 1231.57
  30
0.0
  11
 372.403
  21
 1231.58
  31
0.0
   0
LINE
   8
LEVEL001
   6
CONTINUOUS
  62
7
  10
 372.403
  20
 1231.58
  30
0.0
  11
 372.412
  21
 1231.59
  31
0.0
   0
LINE
   8
LEVEL001
   6
CONTINUOUS
  62
7
  10
 372.412
  20
 1231.59
  30
0.0
  11
 372.420
  21
 1231.60
  31
0.0
   0
LINE
   8
LEVEL001
   6
CONTINUOUS
  62
7
  10
 372.420
  20
 1231.60
  30
0.0
  11
 372.429
  21
 1231.61
  31
0.0
   0
LINE
   8
LEVEL001
   6
CONTINUOUS
  62
7
  10
 372.429
  20
 1231.61
  30
0.0
  11
 372.438
  21
 1231.62
  31
0.0
   0
LINE
   8
LEVEL001
   6
CONTINUOUS
  62
7
  10
 372.438
  20
 1231.62
  30
0.0
  11
 372.446
  21
 1231.63
  31
0.0
   0
LINE
   8
LEVEL001
   6
CONTINUOUS
  62
7
  10
 372.446
  20
 1231.63
  30
0.0
  11
 372.455
  21
 1231.64
  31
0.0
   0
LINE
   8
LEVEL001
   6
CONTINUOUS
  62
7
  10
 372.455
  20
 1231.64
  30
0.0
  11
 372.463
  21
 1231.65
  31
0.0
   0
ARC
   8
LEVEL001
   6
CONTINUOUS
  62
7
  10
 352.983
  20
 1233.90
  30
0.0
  40
 24.2492
  50
 24.6034
  51
 36.5478
   0
ARC
   8
LEVEL001
   6
CONTINUOUS
  62
7
  10
 364.955
  20
 1240.00
  30
0.0
  40
 10.8401
  50
 338.238
  51
 21.6499
   0
ARC
   8
LEVEL001
   6
CONTINUOUS
  62
7
  10
 352.983
  20
 1246.10
  30
0.0
  40
 24.2492
  50
 323.452
  51
 335.352
   0
LINE
   8
LEVEL001
   6
CONTINUOUS
  62
7
  10
 371.822
  20
 1248.75
  30
0.0
  11
 371.802
  21
 1248.74
  31
0.0
   0
LINE
   8
LEVEL001
   6
CONTINUOUS
  62
7
  10
 371.802
  20
 1248.74
  30
0.0
  11
 371.781
  21
 1248.72
  31
0.0
   0
LINE
   8
LEVEL001
   6
CONTINUOUS
  62
7
  10
 371.781
  20
 1248.72
  30
0.0
  11
 371.761
  21
 1248.68
  31
0.0
   0
LINE
   8
LEVEL001
   6
CONTINUOUS
  62
7
  10
 371.761
  20
 1248.68
  30
0.0
  11
 371.741
  21
 1248.62
  31
0.0
   0
LINE
   8
LEVEL001
   6
CONTINUOUS
  62
7
  10
 371.741
  20
 1248.62
  30
0.0
  11
 371.721
  21
 1248.54
  31
0.0
   0
LINE
   8
LEVEL001
   6
CONTINUOUS
  62
7
  10
 371.721
  20
 1248.54
  30
0.0
  11
 371.701
  21
 1248.45
  31
0.0
   0
LINE
   8
LEVEL001
   6
CONTINUOUS
  62
7
  10
 371.701
  20
 1248.45
  30
0.0
  11
 371.681
  21
 1248.35
  31
0.0
   0
LINE
   8
LEVEL001
   6
CONTINUOUS
  62
7
  10
 371.681
  20
 1248.35
  30
0.0
  11
 371.662
  21
 1248.22
  31
0.0
   0
LINE
   8
LEVEL001
   6
CONTINUOUS
  62
7
  10
 371.662
  20
 1248.22
  30
0.0
  11
 371.643
  21
 1248.08
  31
0.0
   0
LINE
   8
LEVEL001
   6
CONTINUOUS
  62
7
  10
 371.643
  20
 1248.08
  30
0.0
  11
 371.624
  21
 1247.93
  31
0.0
   0
LINE
   8
LEVEL001
   6
CONTINUOUS
  62
7
  10
 371.624
  20
 1247.93
  30
0.0
  11
 371.606
  21
 1247.76
  31
0.0
   0
LINE
   8
LEVEL001
   6
CONTINUOUS
  62
7
  10
 371.606
  20
 1247.76
  30
0.0
  11
 371.588
  21
 1247.58
  31
0.0
   0
LINE
   8
LEVEL001
   6
CONTINUOUS
  62
7
  10
 371.588
  20
 1247.58
  30
0.0
  11
 371.570
  21
 1247.38
  31
0.0
   0
LINE
   8
LEVEL001
   6
CONTINUOUS
  62
7
  10
 371.570
  20
 1247.38
  30
0.0
  11
 371.553
  21
 1247.17
  31
0.0
   0
LINE
   8
LEVEL001
   6
CONTINUOUS
  62
7
  10
 371.553
  20
 1247.17
  30
0.0
  11
 371.537
  21
 1246.94
  31
0.0
   0
LINE
   8
LEVEL001
   6
CONTINUOUS
  62
7
  10
 371.537
  20
 1246.94
  30
0.0
  11
 371.521
  21
 1246.70
  31
0.0
   0
LINE
   8
LEVEL001
   6
CONTINUOUS
  62
7
  10
 371.521
  20
 1246.70
  30
0.0
  11
 371.505
  21
 1246.45
  31
0.0
   0
LINE
   8
LEVEL001
   6
CONTINUOUS
  62
7
  10
 371.505
  20
 1246.45
  30
0.0
  11
 371.490
  21
 1246.19
  31
0.0
   0
LINE
   8
LEVEL001
   6
CONTINUOUS
  62
7
  10
 371.490
  20
 1246.19
  30
0.0
  11
 371.476
  21
 1245.91
  31
0.0
   0
LINE
   8
LEVEL001
   6
CONTINUOUS
  62
7
  10
 371.476
  20
 1245.91
  30
0.0
  11
 371.463
  21
 1245.62
  31
0.0
   0
LINE
   8
LEVEL001
   6
CONTINUOUS
  62
7
  10
 371.463
  20
 1245.62
  30
0.0
  11
 371.450
  21
 1245.33
  31
0.0
   0
LINE
   8
LEVEL001
   6
CONTINUOUS
  62
7
  10
 371.450
  20
 1245.33
  30
0.0
  11
 371.438
  21
 1245.02
  31
0.0
   0
LINE
   8
LEVEL001
   6
CONTINUOUS
  62
7
  10
 371.438
  20
 1245.02
  30
0.0
  11
 371.426
  21
 1244.70
  31
0.0
   0
LINE
   8
LEVEL001
   6
CONTINUOUS
  62
7
  10
 371.426
  20
 1244.70
  30
0.0
  11
 371.416
  21
 1244.38
  31
0.0
   0
LINE
   8
LEVEL001
   6
CONTINUOUS
  62
7
  10
 371.416
  20
 1244.38
  30
0.0
  11
 371.406
  21
 1244.04
  31
0.0
   0
LINE
   8
LEVEL001
   6
CONTINUOUS
  62
7
  10
 371.406
  20
 1244.04
  30
0.0
  11
 371.397
  21
 1243.70
  31
0.0
   0
LINE
   8
LEVEL001
   6
CONTINUOUS
  62
7
  10
 371.397
  20
 1243.70
  30
0.0
  11
 371.389
  21
 1243.35
  31
0.0
   0
LINE
   8
LEVEL001
   6
CONTINUOUS
  62
7
  10
 371.389
  20
 1243.35
  30
0.0
  11
 371.381
  21
 1242.99
  31
0.0
   0
LINE
   8
LEVEL001
   6
CONTINUOUS
  62
7
  10
 371.381
  20
 1242.99
  30
0.0
  11
 371.375
  21
 1242.63
  31
0.0
   0
LINE
   8
LEVEL001
   6
CONTINUOUS
  62
7
  10
 371.375
  20
 1242.63
  30
0.0
  11
 371.369
  21
 1242.26
  31
0.0
   0
LINE
   8
LEVEL001
   6
CONTINUOUS
  62
7
  10
 371.369
  20
 1242.26
  30
0.0
  11
 371.364
  21
 1241.89
  31
0.0
   0
LINE
   8
LEVEL001
   6
CONTINUOUS
  62
7
  10
 371.364
  20
 1241.89
  30
0.0
  11
 371.360
  21
 1241.52
  31
0.0
   0
LINE
   8
LEVEL001
   6
CONTINUOUS
  62
7
  10
 371.360
  20
 1241.52
  30
0.0
  11
 371.357
  21
 1241.14
  31
0.0
   0
LINE
   8
LEVEL001
   6
CONTINUOUS
  62
7
  10
 371.357
  20
 1241.14
  30
0.0
  11
 371.355
  21
 1240.76
  31
0.0
   0
LINE
   8
LEVEL001
   6
CONTINUOUS
  62
7
  10
 371.355
  20
 1240.76
  30
0.0
  11
 371.353
  21
 1240.38
  31
0.0
   0
LINE
   8
LEVEL001
   6
CONTINUOUS
  62
7
  10
 371.353
  20
 1240.38
  30
0.0
  11
 371.353
  21
 1240.00
  31
0.0
   0
LINE
   8
LEVEL001
   6
CONTINUOUS
  62
7
  10
 371.353
  20
 1240.00
  30
0.0
  11
 371.353
  21
 1239.62
  31
0.0
   0
LINE
   8
LEVEL001
   6
CONTINUOUS
  62
7
  10
 371.353
  20
 1239.62
  30
0.0
  11
 371.355
  21
 1239.24
  31
0.0
   0
LINE
   8
LEVEL001
   6
CONTINUOUS
  62
7
  10
 371.355
  20
 1239.24
  30
0.0
  11
 371.357
  21
 1238.86
  31
0.0
   0
LINE
   8
LEVEL001
   6
CONTINUOUS
  62
7
  10
 371.357
  20
 1238.86
  30
0.0
  11
 371.360
  21
 1238.48
  31
0.0
   0
LINE
   8
LEVEL001
   6
CONTINUOUS
  62
7
  10
 371.360
  20
 1238.48
  30
0.0
  11
 371.364
  21
 1238.11
  31
0.0
   0
LINE
   8
LEVEL001
   6
CONTINUOUS
  62
7
  10
 371.364
  20
 1238.11
  30
0.0
  11
 371.369
  21
 1237.74
  31
0.0
   0
LINE
   8
LEVEL001
   6
CONTINUOUS
  62
7
  10
 371.369
  20
 1237.74
  30
0.0
  11
 371.375
  21
 1237.37
  31
0.0
   0
LINE
   8
LEVEL001
   6
CONTINUOUS
  62
7
  10
 371.375
  20
 1237.37
  30
0.0
  11
 371.381
  21
 1237.01
  31
0.0
   0
LINE
   8
LEVEL001
   6
CONTINUOUS
  62
7
  10
 371.381
  20
 1237.01
  30
0.0
  11
 371.389
  21
 1236.65
  31
0.0
   0
LINE
   8
LEVEL001
   6
CONTINUOUS
  62
7
  10
 371.389
  20
 1236.65
  30
0.0
  11
 371.397
  21
 1236.30
  31
0.0
   0
LINE
   8
LEVEL001
   6
CONTINUOUS
  62
7
  10
 371.397
  20
 1236.30
  30
0.0
  11
 371.406
  21
 1235.96
  31
0.0
   0
LINE
   8
LEVEL001
   6
CONTINUOUS
  62
7
  10
 371.406
  20
 1235.96
  30
0.0
  11
 371.416
  21
 1235.63
  31
0.0
   0
LINE
   8
LEVEL001
   6
CONTINUOUS
  62
7
  10
 371.416
  20
 1235.63
  30
0.0
  11
 371.426
  21
 1235.30
  31
0.0
   0
LINE
   8
LEVEL001
   6
CONTINUOUS
  62
7
  10
 371.426
  20
 1235.30
  30
0.0
  11
 371.438
  21
 1234.98
  31
0.0
   0
LINE
   8
LEVEL001
   6
CONTINUOUS
  62
7
  10
 371.438
  20
 1234.98
  30
0.0
  11
 371.450
  21
 1234.67
  31
0.0
   0
LINE
   8
LEVEL001
   6
CONTINUOUS
  62
7
  10
 371.450
  20
 1234.67
  30
0.0
  11
 371.463
  21
 1234.38
  31
0.0
   0
LINE
   8
LEVEL001
   6
CONTINUOUS
  62
7
  10
 371.463
  20
 1234.38
  30
0.0
  11
 371.476
  21
 1234.09
  31
0.0
   0
LINE
   8
LEVEL001
   6
CONTINUOUS
  62
7
  10
 371.476
  20
 1234.09
  30
0.0
  11
 371.490
  21
 1233.81
  31
0.0
   0
LINE
   8
LEVEL001
   6
CONTINUOUS
  62
7
  10
 371.490
  20
 1233.81
  30
0.0
  11
 371.505
  21
 1233.55
  31
0.0
   0
LINE
   8
LEVEL001
   6
CONTINUOUS
  62
7
  10
 371.505
  20
 1233.55
  30
0.0
  11
 371.521
  21
 1233.30
  31
0.0
   0
LINE
   8
LEVEL001
   6
CONTINUOUS
  62
7
  10
 371.521
  20
 1233.30
  30
0.0
  11
 371.537
  21
 1233.06
  31
0.0
   0
LINE
   8
LEVEL001
   6
CONTINUOUS
  62
7
  10
 371.537
  20
 1233.06
  30
0.0
  11
 371.553
  21
 1232.83
  31
0.0
   0
LINE
   8
LEVEL001
   6
CONTINUOUS
  62
7
  10
 371.553
  20
 1232.83
  30
0.0
  11
 371.570
  21
 1232.62
  31
0.0
   0
LINE
   8
LEVEL001
   6
CONTINUOUS
  62
7
  10
 371.570
  20
 1232.62
  30
0.0
  11
 371.588
  21
 1232.42
  31
0.0
   0
LINE
   8
LEVEL001
   6
CONTINUOUS
  62
7
  10
 371.588
  20
 1232.42
  30
0.0
  11
 371.606
  21
 1232.24
  31
0.0
   0
LINE
   8
LEVEL001
   6
CONTINUOUS
  62
7
  10
 371.606
  20
 1232.24
  30
0.0
  11
 371.624
  21
 1232.07
  31
0.0
   0
LINE
   8
LEVEL001
   6
CONTINUOUS
  62
7
  10
 371.624
  20
 1232.07
  30
0.0
  11
 371.643
  21
 1231.92
  31
0.0
   0
LINE
   8
LEVEL001
   6
CONTINUOUS
  62
7
  10
 371.643
  20
 1231.92
  30
0.0
  11
 371.662
  21
 1231.78
  31
0.0
   0
LINE
   8
LEVEL001
   6
CONTINUOUS
  62
7
  10
 371.662
  20
 1231.78
  30
0.0
  11
 371.681
  21
 1231.65
  31
0.0
   0
LINE
   8
LEVEL001
   6
CONTINUOUS
  62
7
  10
 371.681
  20
 1231.65
  30
0.0
  11
 371.701
  21
 1231.55
  31
0.0
   0
LINE
   8
LEVEL001
   6
CONTINUOUS
  62
7
  10
 371.701
  20
 1231.55
  30
0.0
  11
 371.721
  21
 1231.46
  31
0.0
   0
LINE
   8
LEVEL001
   6
CONTINUOUS
  62
7
  10
 371.721
  20
 1231.46
  30
0.0
  11
 371.741
  21
 1231.38
  31
0.0
   0
LINE
   8
LEVEL001
   6
CONTINUOUS
  62
7
  10
 371.741
  20
 1231.38
  30
0.0
  11
 371.761
  21
 1231.32
  31
0.0
   0
LINE
   8
LEVEL001
   6
CONTINUOUS
  62
7
  10
 371.761
  20
 1231.32
  30
0.0
  11
 371.781
  21
 1231.28
  31
0.0
   0
LINE
   8
LEVEL001
   6
CONTINUOUS
  62
7
  10
 371.781
  20
 1231.28
  30
0.0
  11
 371.802
  21
 1231.26
  31
0.0
   0
LINE
   8
LEVEL001
   6
CONTINUOUS
  62
7
  10
 371.802
  20
 1231.26
  30
0.0
  11
 371.822
  21
 1231.25
  31
0.0
   0
LINE
   8
LEVEL001
   6
CONTINUOUS
  62
7
  10
 370.773
  20
 1248.75
  30
0.0
  11
 370.734
  21
 1248.72
  31
0.0
   0
LINE
   8
LEVEL001
   6
CONTINUOUS
  62
7
  10
 370.734
  20
 1248.72
  30
0.0
  11
 370.695
  21
 1248.62
  31
0.0
   0
LINE
   8
LEVEL001
   6
CONTINUOUS
  62
7
  10
 370.695
  20
 1248.62
  30
0.0
  11
 370.657
  21
 1248.45
  31
0.0
   0
LINE
   8
LEVEL001
   6
CONTINUOUS
  62
7
  10
 370.657
  20
 1248.45
  30
0.0
  11
 370.619
  21
 1248.22
  31
0.0
   0
LINE
   8
LEVEL001
   6
CONTINUOUS
  62
7
  10
 370.619
  20
 1248.22
  30
0.0
  11
 370.583
  21
 1247.93
  31
0.0
   0
LINE
   8
LEVEL001
   6
CONTINUOUS
  62
7
  10
 370.583
  20
 1247.93
  30
0.0
  11
 370.548
  21
 1247.58
  31
0.0
   0
LINE
   8
LEVEL001
   6
CONTINUOUS
  62
7
  10
 370.548
  20
 1247.58
  30
0.0
  11
 370.515
  21
 1247.17
  31
0.0
   0
LINE
   8
LEVEL001
   6
CONTINUOUS
  62
7
  10
 370.515
  20
 1247.17
  30
0.0
  11
 370.484
  21
 1246.70
  31
0.0
   0
LINE
   8
LEVEL001
   6
CONTINUOUS
  62
7
  10
 370.484
  20
 1246.70
  30
0.0
  11
 370.455
  21
 1246.19
  31
0.0
   0
LINE
   8
LEVEL001
   6
CONTINUOUS
  62
7
  10
 370.455
  20
 1246.19
  30
0.0
  11
 370.428
  21
 1245.62
  31
0.0
   0
LINE
   8
LEVEL001
   6
CONTINUOUS
  62
7
  10
 370.428
  20
 1245.62
  30
0.0
  11
 370.404
  21
 1245.02
  31
0.0
   0
LINE
   8
LEVEL001
   6
CONTINUOUS
  62
7
  10
 370.404
  20
 1245.02
  30
0.0
  11
 370.383
  21
 1244.38
  31
0.0
   0
LINE
   8
LEVEL001
   6
CONTINUOUS
  62
7
  10
 370.383
  20
 1244.38
  30
0.0
  11
 370.365
  21
 1243.70
  31
0.0
   0
LINE
   8
LEVEL001
   6
CONTINUOUS
  62
7
  10
 370.365
  20
 1243.70
  30
0.0
  11
 370.350
  21
 1242.99
  31
0.0
   0
LINE
   8
LEVEL001
   6
CONTINUOUS
  62
7
  10
 370.350
  20
 1242.99
  30
0.0
  11
 370.338
  21
 1242.26
  31
0.0
   0
LINE
   8
LEVEL001
   6
CONTINUOUS
  62
7
  10
 370.338
  20
 1242.26
  30
0.0
  11
 370.330
  21
 1241.52
  31
0.0
   0
LINE
   8
LEVEL001
   6
CONTINUOUS
  62
7
  10
 370.330
  20
 1241.52
  30
0.0
  11
 370.325
  21
 1240.76
  31
0.0
   0
LINE
   8
LEVEL001
   6
CONTINUOUS
  62
7
  10
 370.325
  20
 1240.76
  30
0.0
  11
 370.323
  21
 1240.00
  31
0.0
   0
LINE
   8
LEVEL001
   6
CONTINUOUS
  62
7
  10
 370.323
  20
 1240.00
  30
0.0
  11
 370.325
  21
 1239.24
  31
0.0
   0
LINE
   8
LEVEL001
   6
CONTINUOUS
  62
7
  10
 370.325
  20
 1239.24
  30
0.0
  11
 370.330
  21
 1238.48
  31
0.0
   0
LINE
   8
LEVEL001
   6
CONTINUOUS
  62
7
  10
 370.330
  20
 1238.48
  30
0.0
  11
 370.338
  21
 1237.74
  31
0.0
   0
LINE
   8
LEVEL001
   6
CONTINUOUS
  62
7
  10
 370.338
  20
 1237.74
  30
0.0
  11
 370.350
  21
 1237.01
  31
0.0
   0
LINE
   8
LEVEL001
   6
CONTINUOUS
  62
7
  10
 370.350
  20
 1237.01
  30
0.0
  11
 370.365
  21
 1236.30
  31
0.0
   0
LINE
   8
LEVEL001
   6
CONTINUOUS
  62
7
  10
 370.365
  20
 1236.30
  30
0.0
  11
 370.383
  21
 1235.63
  31
0.0
   0
LINE
   8
LEVEL001
   6
CONTINUOUS
  62
7
  10
 370.383
  20
 1235.63
  30
0.0
  11
 370.404
  21
 1234.98
  31
0.0
   0
LINE
   8
LEVEL001
   6
CONTINUOUS
  62
7
  10
 370.404
  20
 1234.98
  30
0.0
  11
 370.428
  21
 1234.38
  31
0.0
   0
LINE
   8
LEVEL001
   6
CONTINUOUS
  62
7
  10
 370.428
  20
 1234.38
  30
0.0
  11
 370.455
  21
 1233.81
  31
0.0
   0
LINE
   8
LEVEL001
   6
CONTINUOUS
  62
7
  10
 370.455
  20
 1233.81
  30
0.0
  11
 370.484
  21
 1233.30
  31
0.0
   0
LINE
   8
LEVEL001
   6
CONTINUOUS
  62
7
  10
 370.484
  20
 1233.30
  30
0.0
  11
 370.515
  21
 1232.83
  31
0.0
   0
LINE
   8
LEVEL001
   6
CONTINUOUS
  62
7
  10
 370.515
  20
 1232.83
  30
0.0
  11
 370.548
  21
 1232.42
  31
0.0
   0
LINE
   8
LEVEL001
   6
CONTINUOUS
  62
7
  10
 370.548
  20
 1232.42
  30
0.0
  11
 370.583
  21
 1232.07
  31
0.0
   0
LINE
   8
LEVEL001
   6
CONTINUOUS
  62
7
  10
 370.583
  20
 1232.07
  30
0.0
  11
 370.619
  21
 1231.78
  31
0.0
   0
LINE
   8
LEVEL001
   6
CONTINUOUS
  62
7
  10
 370.619
  20
 1231.78
  30
0.0
  11
 370.657
  21
 1231.55
  31
0.0
   0
LINE
   8
LEVEL001
   6
CONTINUOUS
  62
7
  10
 370.657
  20
 1231.55
  30
0.0
  11
 370.695
  21
 1231.38
  31
0.0
   0
LINE
   8
LEVEL001
   6
CONTINUOUS
  62
7
  10
 370.695
  20
 1231.38
  30
0.0
  11
 370.734
  21
 1231.28
  31
0.0
   0
LINE
   8
LEVEL001
   6
CONTINUOUS
  62
7
  10
 370.734
  20
 1231.28
  30
0.0
  11
 370.773
  21
 1231.25
  31
0.0
   0
LINE
   8
LEVEL001
   6
CONTINUOUS
  62
7
  10
 370.773
  20
 1231.25
  30
0.0
  11
 370.813
  21
 1231.28
  31
0.0
   0
LINE
   8
LEVEL001
   6
CONTINUOUS
  62
7
  10
 370.813
  20
 1231.28
  30
0.0
  11
 370.852
  21
 1231.38
  31
0.0
   0
LINE
   8
LEVEL001
   6
CONTINUOUS
  62
7
  10
 370.852
  20
 1231.38
  30
0.0
  11
 370.890
  21
 1231.55
  31
0.0
   0
LINE
   8
LEVEL001
   6
CONTINUOUS
  62
7
  10
 370.890
  20
 1231.55
  30
0.0
  11
 370.928
  21
 1231.78
  31
0.0
   0
LINE
   8
LEVEL001
   6
CONTINUOUS
  62
7
  10
 370.928
  20
 1231.78
  30
0.0
  11
 370.964
  21
 1232.07
  31
0.0
   0
LINE
   8
LEVEL001
   6
CONTINUOUS
  62
7
  10
 370.964
  20
 1232.07
  30
0.0
  11
 370.999
  21
 1232.42
  31
0.0
   0
LINE
   8
LEVEL001
   6
CONTINUOUS
  62
7
  10
 370.999
  20
 1232.42
  30
0.0
  11
 371.032
  21
 1232.83
  31
0.0
   0
LINE
   8
LEVEL001
   6
CONTINUOUS
  62
7
  10
 371.032
  20
 1232.83
  30
0.0
  11
 371.063
  21
 1233.30
  31
0.0
   0
LINE
   8
LEVEL001
   6
CONTINUOUS
  62
7
  10
 371.063
  20
 1233.30
  30
0.0
  11
 371.092
  21
 1233.81
  31
0.0
   0
LINE
   8
LEVEL001
   6
CONTINUOUS
  62
7
  10
 371.092
  20
 1233.81
  30
0.0
  11
 371.119
  21
 1234.38
  31
0.0
   0
LINE
   8
LEVEL001
   6
CONTINUOUS
  62
7
  10
 371.119
  20
 1234.38
  30
0.0
  11
 371.143
  21
 1234.98
  31
0.0
   0
LINE
   8
LEVEL001
   6
CONTINUOUS
  62
7
  10
 371.143
  20
 1234.98
  30
0.0
  11
 371.164
  21
 1235.63
  31
0.0
   0
LINE
   8
LEVEL001
   6
CONTINUOUS
  62
7
  10
 371.164
  20
 1235.63
  30
0.0
  11
 371.182
  21
 1236.30
  31
0.0
   0
LINE
   8
LEVEL001
   6
CONTINUOUS
  62
7
  10
 371.182
  20
 1236.30
  30
0.0
  11
 371.197
  21
 1237.01
  31
0.0
   0
LINE
   8
LEVEL001
   6
CONTINUOUS
  62
7
  10
 371.197
  20
 1237.01
  30
0.0
  11
 371.209
  21
 1237.74
  31
0.0
   0
LINE
   8
LEVEL001
   6
CONTINUOUS
  62
7
  10
 371.209
  20
 1237.74
  30
0.0
  11
 371.217
  21
 1238.48
  31
0.0
   0
LINE
   8
LEVEL001
   6
CONTINUOUS
  62
7
  10
 371.217
  20
 1238.48
  30
0.0
  11
 371.222
  21
 1239.24
  31
0.0
   0
LINE
   8
LEVEL001
   6
CONTINUOUS
  62
7
  10
 371.222
  20
 1239.24
  30
0.0
  11
 371.224
  21
 1240.00
  31
0.0
   0
LINE
   8
LEVEL001
   6
CONTINUOUS
  62
7
  10
 371.224
  20
 1240.00
  30
0.0
  11
 371.222
  21
 1240.76
  31
0.0
   0
LINE
   8
LEVEL001
   6
CONTINUOUS
  62
7
  10
 371.222
  20
 1240.76
  30
0.0
  11
 371.217
  21
 1241.52
  31
0.0
   0
LINE
   8
LEVEL001
   6
CONTINUOUS
  62
7
  10
 371.217
  20
 1241.52
  30
0.0
  11
 371.209
  21
 1242.26
  31
0.0
   0
LINE
   8
LEVEL001
   6
CONTINUOUS
  62
7
  10
 371.209
  20
 1242.26
  30
0.0
  11
 371.197
  21
 1242.99
  31
0.0
   0
LINE
   8
LEVEL001
   6
CONTINUOUS
  62
7
  10
 371.197
  20
 1242.99
  30
0.0
  11
 371.182
  21
 1243.70
  31
0.0
   0
LINE
   8
LEVEL001
   6
CONTINUOUS
  62
7
  10
 371.182
  20
 1243.70
  30
0.0
  11
 371.164
  21
 1244.38
  31
0.0
   0
LINE
   8
LEVEL001
   6
CONTINUOUS
  62
7
  10
 371.164
  20
 1244.38
  30
0.0
  11
 371.143
  21
 1245.02
  31
0.0
   0
LINE
   8
LEVEL001
   6
CONTINUOUS
  62
7
  10
 371.143
  20
 1245.02
  30
0.0
  11
 371.119
  21
 1245.62
  31
0.0
   0
LINE
   8
LEVEL001
   6
CONTINUOUS
  62
7
  10
 371.119
  20
 1245.62
  30
0.0
  11
 371.092
  21
 1246.19
  31
0.0
   0
LINE
   8
LEVEL001
   6
CONTINUOUS
  62
7
  10
 371.092
  20
 1246.19
  30
0.0
  11
 371.063
  21
 1246.70
  31
0.0
   0
LINE
   8
LEVEL001
   6
CONTINUOUS
  62
7
  10
 371.063
  20
 1246.70
  30
0.0
  11
 371.032
  21
 1247.17
  31
0.0
   0
LINE
   8
LEVEL001
   6
CONTINUOUS
  62
7
  10
 371.032
  20
 1247.17
  30
0.0
  11
 370.999
  21
 1247.58
  31
0.0
   0
LINE
   8
LEVEL001
   6
CONTINUOUS
  62
7
  10
 370.999
  20
 1247.58
  30
0.0
  11
 370.964
  21
 1247.93
  31
0.0
   0
LINE
   8
LEVEL001
   6
CONTINUOUS
  62
7
  10
 370.964
  20
 1247.93
  30
0.0
  11
 370.928
  21
 1248.22
  31
0.0
   0
LINE
   8
LEVEL001
   6
CONTINUOUS
  62
7
  10
 370.928
  20
 1248.22
  30
0.0
  11
 370.890
  21
 1248.45
  31
0.0
   0
LINE
   8
LEVEL001
   6
CONTINUOUS
  62
7
  10
 370.890
  20
 1248.45
  30
0.0
  11
 370.852
  21
 1248.62
  31
0.0
   0
LINE
   8
LEVEL001
   6
CONTINUOUS
  62
7
  10
 370.852
  20
 1248.62
  30
0.0
  11
 370.813
  21
 1248.72
  31
0.0
   0
LINE
   8
LEVEL001
   6
CONTINUOUS
  62
7
  10
 370.813
  20
 1248.72
  30
0.0
  11
 370.773
  21
 1248.75
  31
0.0
   0
ARC
   8
LEVEL001
   6
CONTINUOUS
  62
7
  10
 300.000
  20
 1240.00
  30
0.0
  40
 45.0000
  50
 14.1490
  51
 345.851
   0
LINE
   8
LEVEL001
   6
CONTINUOUS
  62
7
  10
 352.000
  20
 1229.00
  30
0.0
  11
 338.458
  21
 1229.00
  31
0.0
   0
LINE
   8
LEVEL001
   6
CONTINUOUS
  62
7
  10
 352.000
  20
 1251.00
  30
0.0
  11
 352.000
  21
 1229.00
  31
0.0
   0
LINE
   8
LEVEL001
   6
CONTINUOUS
  62
7
  10
 338.458
  20
 1251.00
  30
0.0
  11
 352.000
  21
 1251.00
  31
0.0
   0
ARC
   8
LEVEL001
   6
CONTINUOUS
  62
7
  10
 300.000
  20
 1240.00
  30
0.0
  40
 143.500
  50
 271.997
  51
 88.0032
   0
ARC
   8
LEVEL001
   6
CONTINUOUS
  62
7
  10
 300.000
  20
 1240.00
  30
0.0
  40
 143.500
  50
 91.9968
  51
 268.003
   0
LINE
   8
LEVEL001
   6
CONTINUOUS
  62
7
  10
 460.827
  20
 1097.50
  30
0.0
  11
 452.750
  21
 1097.50
  31
0.0
   0
LINE
   8
LEVEL001
   6
CONTINUOUS
  62
7
  10
 452.750
  20
 1057.50
  30
0.0
  11
 452.750
  21
 1182.60
  31
0.0
   0
CIRCLE
   8
LEVEL001
   6
CONTINUOUS
  62
7
  10
 388.388
  20
 1151.61
  30
0.0
  40
 9.00000
   0
CIRCLE
   8
LEVEL001
   6
CONTINUOUS
  62
7
  10
 388.388
  20
 1151.61
  30
0.0
  40
 7.75000
   0
CIRCLE
   8
LEVEL001
   6
CONTINUOUS
  62
7
  10
 415.485
  20
 1192.16
  30
0.0
  40
 11.9412
   0
CIRCLE
   8
LEVEL001
   6
CONTINUOUS
  62
7
  10
 415.485
  20
 1192.16
  30
0.0
  40
 13.5000
   0
CIRCLE
   8
LEVEL001
   6
CONTINUOUS
  62
7
  10
 347.835
  20
 1124.51
  30
0.0
  40
 11.9412
   0
CIRCLE
   8
LEVEL001
   6
CONTINUOUS
  62
7
  10
 347.835
  20
 1124.51
  30
0.0
  40
 13.5000
   0
ARC
   8
LEVEL001
   6
CONTINUOUS
  62
7
  10
 433.393
  20
 1197.50
  30
0.0
  40
 15.0000
  50
 262.854
  51
 270.000
   0
CIRCLE
   8
LEVEL001
   6
CONTINUOUS
  62
7
  10
 300.000
  20
 1240.00
  30
0.0
  40
 70.0000
   0
CIRCLE
   8
LEVEL001
   6
CONTINUOUS
  62
7
  10
 300.000
  20
 1240.00
  30
0.0
  40
 40.0000
   0
CIRCLE
   8
LEVEL001
   6
CONTINUOUS
  62
7
  10
 300.000
  20
 1240.00
  30
0.0
  40
 38.5000
   0
CIRCLE
   8
LEVEL001
   6
CONTINUOUS
  62
7
  10
 300.000
  20
 1240.00
  30
0.0
  40
 10.0000
   0
CIRCLE
   8
LEVEL001
   6
CONTINUOUS
  62
7
  10
 300.000
  20
 1240.00
  30
0.0
  40
 8.75000
   0
ARC
   8
LEVEL001
   6
CONTINUOUS
  62
7
  10
 451.750
  20
 1057.50
  30
0.0
  40
 1.00000
  50
 270.000
  51
0.0
   0
LINE
   8
LEVEL001
   6
CONTINUOUS
  62
7
  10
 434.750
  20
 1056.50
  30
0.0
  11
 451.750
  21
 1056.50
  31
0.0
   0
LINE
   8
LEVEL001
   6
CONTINUOUS
  62
7
  10
 549.000
  20
 1114.00
  30
0.0
  11
 549.000
  21
 1100.00
  31
0.0
   0
LINE
   8
LEVEL001
   6
CONTINUOUS
  62
7
  10
 549.000
  20
 1140.00
  30
0.0
  11
 549.000
  21
 1126.00
  31
0.0
   0
LINE
   8
LEVEL001
   6
CONTINUOUS
  62
7
  10
 433.393
  20
 1182.50
  30
0.0
  11
 434.500
  21
 1182.50
  31
0.0
   0
LINE
   8
LEVEL001
   6
CONTINUOUS
  62
7
  10
 434.500
  20
 1057.50
  30
0.0
  11
 434.500
  21
 1182.50
  31
0.0
   0
LINE
   8
LEVEL001
   6
CONTINUOUS
  62
7
  10
 434.750
  20
 1183.50
  30
0.0
  11
 451.750
  21
 1183.50
  31
0.0
   0
LINE
   8
LEVEL001
   6
CONTINUOUS
  62
7
  10
 434.750
  20
 1056.50
  30
0.0
  11
 434.750
  21
 1183.50
  31
0.0
   0
LINE
   8
LEVEL001
   6
CONTINUOUS
  62
7
  10
 460.827
  20
 1142.50
  30
0.0
  11
 452.750
  21
 1142.50
  31
0.0
   0
LINE
   8
LEVEL001
   6
CONTINUOUS
  62
7
  10
 549.000
  20
 1100.00
  30
0.0
  11
 550.000
  21
 1101.00
  31
0.0
   0
LINE
   8
LEVEL001
   6
CONTINUOUS
  62
7
  10
 550.000
  20
 1101.00
  30
0.0
  11
 549.000
  21
 1100.00
  31
0.0
   0
LINE
   8
LEVEL001
   6
CONTINUOUS
  62
7
  10
 550.000
  20
 1139.00
  30
0.0
  11
 550.000
  21
 1101.00
  31
0.0
   0
LINE
   8
LEVEL001
   6
CONTINUOUS
  62
7
  10
 549.000
  20
 1140.00
  30
0.0
  11
 550.000
  21
 1139.00
  31
0.0
   0
LINE
   8
LEVEL001
   6
CONTINUOUS
  62
7
  10
 120.000
  20
 1126.00
  30
0.0
  11
 120.000
  21
 1114.00
  31
0.0
   0
LINE
   8
LEVEL001
   6
CONTINUOUS
  62
7
  10
 480.000
  20
 1126.00
  30
0.0
  11
 480.000
  21
 1114.00
  31
0.0
   0
ARC
   8
LEVEL001
   6
CONTINUOUS
  62
7
  10
 166.607
  20
 1197.50
  30
0.0
  40
 15.0000
  50
 270.000
  51
 277.149
   0
LINE
   8
LEVEL001
   6
CONTINUOUS
  62
7
  10
 165.500
  20
 1182.50
  30
0.0
  11
 165.500
  21
 1057.50
  31
0.0
   0
LINE
   8
LEVEL001
   6
CONTINUOUS
  62
7
  10
 165.250
  20
 1183.50
  30
0.0
  11
 165.250
  21
 1056.50
  31
0.0
   0
LINE
   8
LEVEL001
   6
CONTINUOUS
  62
7
  10
 139.173
  20
 1097.50
  30
0.0
  11
 147.250
  21
 1097.50
  31
0.0
   0
LINE
   8
LEVEL001
   6
CONTINUOUS
  62
7
  10
 139.173
  20
 1142.50
  30
0.0
  11
 147.250
  21
 1142.50
  31
0.0
   0
LINE
   8
LEVEL001
   6
CONTINUOUS
  62
7
  10
 147.250
  20
 1057.50
  30
0.0
  11
 147.250
  21
 1182.50
  31
0.0
   0
ARC
   8
LEVEL001
   6
CONTINUOUS
  62
7
  10
 148.250
  20
 1182.50
  30
0.0
  40
 1.00000
  50
 90.0000
  51
 180.000
   0
LINE
   8
LEVEL001
   6
CONTINUOUS
  62
7
  10
 165.250
  20
 1183.50
  30
0.0
  11
 148.250
  21
 1183.50
  31
0.0
   0
ARC
   8
LEVEL001
   6
CONTINUOUS
  62
7
  10
 148.250
  20
 1057.50
  30
0.0
  40
 1.00000
  50
 180.000
  51
 270.000
   0
LINE
   8
LEVEL001
   6
CONTINUOUS
  62
7
  10
 165.250
  20
 1056.50
  30
0.0
  11
 148.250
  21
 1056.50
  31
0.0
   0
ARC
   8
LEVEL001
   6
CONTINUOUS
  62
7
  10
 451.750
  20
 1182.50
  30
0.0
  40
 1.00000
  50
0.0
  51
 90.0000
   0
LINE
   8
LEVEL001
   6
CONTINUOUS
  62
7
  10
 282.686
  20
 1055.32
  30
0.0
  11
 165.500
  21
 1057.50
  31
0.0
   0
LINE
   8
LEVEL001
   6
CONTINUOUS
  62
7
  10
 132.000
  20
 1114.00
  30
0.0
  11
 132.000
  21
 1100.00
  31
0.0
   0
ARC
   8
LEVEL001
   6
CONTINUOUS
  62
7
  10
 139.173
  20
 1098.50
  30
0.0
  40
 1.00000
  50
 250.346
  51
 270.000
   0
LINE
   8
LEVEL001
   6
CONTINUOUS
  62
7
  10
 132.163
  20
 1099.94
  30
0.0
  11
 138.837
  21
 1097.56
  31
0.0
   0
ARC
   8
LEVEL001
   6
CONTINUOUS
  62
7
  10
 131.827
  20
 1099.00
  30
0.0
  40
 1.00000
  50
 70.3462
  51
 90.0000
   0
LINE
   8
LEVEL001
   6
CONTINUOUS
  62
7
  10
 50.0000
  20
 1114.00
  30
0.0
  11
 137.200
  21
 1114.00
  31
0.0
   0
LINE
   8
LEVEL001
   6
CONTINUOUS
  62
7
  10
 131.827
  20
 1100.00
  30
0.0
  11
 51.0000
  21
 1100.00
  31
0.0
   0
LINE
   8
LEVEL001
   6
CONTINUOUS
  62
7
  10
 132.000
  20
 1140.00
  30
0.0
  11
 132.000
  21
 1126.00
  31
0.0
   0
LINE
   8
LEVEL001
   6
CONTINUOUS
  62
7
  10
 50.0000
  20
 1126.00
  30
0.0
  11
 137.200
  21
 1126.00
  31
0.0
   0
LINE
   8
LEVEL001
   6
CONTINUOUS
  62
7
  10
 137.200
  20
 1126.00
  30
0.0
  11
 137.200
  21
 1114.00
  31
0.0
   0
LINE
   8
LEVEL001
   6
CONTINUOUS
  62
7
  10
 139.000
  20
 1142.44
  30
0.0
  11
 139.000
  21
 1097.56
  31
0.0
   0
LINE
   8
LEVEL001
   6
CONTINUOUS
  62
7
  10
 131.827
  20
 1140.00
  30
0.0
  11
 51.0000
  21
 1140.00
  31
0.0
   0
ARC
   8
LEVEL001
   6
CONTINUOUS
  62
7
  10
 131.827
  20
 1141.00
  30
0.0
  40
 1.00000
  50
 270.000
  51
 289.654
   0
LINE
   8
LEVEL001
   6
CONTINUOUS
  62
7
  10
 138.837
  20
 1142.44
  30
0.0
  11
 132.163
  21
 1140.06
  31
0.0
   0
ARC
   8
LEVEL001
   6
CONTINUOUS
  62
7
  10
 139.173
  20
 1141.50
  30
0.0
  40
 1.00000
  50
 90.0000
  51
 109.654
   0
LINE
   8
LEVEL001
   6
CONTINUOUS
  62
7
  10
 166.607
  20
 1182.50
  30
0.0
  11
 165.500
  21
 1182.50
  31
0.0
   0
LINE
   8
LEVEL001
   6
CONTINUOUS
  62
7
  10
 468.000
  20
 1114.00
  30
0.0
  11
 468.000
  21
 1100.00
  31
0.0
   0
LINE
   8
LEVEL001
   6
CONTINUOUS
  62
7
  10
 468.000
  20
 1140.00
  30
0.0
  11
 468.000
  21
 1126.00
  31
0.0
   0
LINE
   8
LEVEL001
   6
CONTINUOUS
  62
7
  10
 550.000
  20
 1114.00
  30
0.0
  11
 462.800
  21
 1114.00
  31
0.0
   0
LINE
   8
LEVEL001
   6
CONTINUOUS
  62
7
  10
 550.000
  20
 1126.00
  30
0.0
  11
 462.800
  21
 1126.00
  31
0.0
   0
LINE
   8
LEVEL001
   6
CONTINUOUS
  62
7
  10
 462.800
  20
 1126.00
  30
0.0
  11
 462.800
  21
 1114.00
  31
0.0
   0
LINE
   8
LEVEL001
   6
CONTINUOUS
  62
7
  10
 461.000
  20
 1142.44
  30
0.0
  11
 461.000
  21
 1097.56
  31
0.0
   0
ARC
   8
LEVEL001
   6
CONTINUOUS
  62
7
  10
 460.827
  20
 1098.50
  30
0.0
  40
 1.00000
  50
 270.000
  51
 289.654
   0
LINE
   8
LEVEL001
   6
CONTINUOUS
  62
7
  10
 467.837
  20
 1099.94
  30
0.0
  11
 461.163
  21
 1097.56
  31
0.0
   0
ARC
   8
LEVEL001
   6
CONTINUOUS
  62
7
  10
 468.173
  20
 1099.00
  30
0.0
  40
 1.00000
  50
 90.0000
  51
 109.654
   0
LINE
   8
LEVEL001
   6
CONTINUOUS
  62
7
  10
 468.173
  20
 1100.00
  30
0.0
  11
 549.000
  21
 1100.00
  31
0.0
   0
LINE
   8
LEVEL001
   6
CONTINUOUS
  62
7
  10
 468.173
  20
 1140.00
  30
0.0
  11
 549.000
  21
 1140.00
  31
0.0
   0
ARC
   8
LEVEL001
   6
CONTINUOUS
  62
7
  10
 468.173
  20
 1141.00
  30
0.0
  40
 1.00000
  50
 250.346
  51
 270.000
   0
LINE
   8
LEVEL001
   6
CONTINUOUS
  62
7
  10
 461.163
  20
 1142.44
  30
0.0
  11
 467.837
  21
 1140.06
  31
0.0
   0
ARC
   8
LEVEL001
   6
CONTINUOUS
  62
7
  10
 460.827
  20
 1141.50
  30
0.0
  40
 1.00000
  50
 70.3462
  51
 90.0000
   0
LINE
   8
LEVEL001
   6
CONTINUOUS
  62
7
  10
 317.314
  20
 1055.32
  30
0.0
  11
 434.500
  21
 1057.50
  31
0.0
   0
LINE
   8
LEVEL001
   6
CONTINUOUS
  62
7
  10
 307.500
  20
 1055.14
  30
0.0
  11
 307.500
  21
 995.206
  31
0.0
   0
ARC
   8
LEVEL001
   6
CONTINUOUS
  62
7
  10
 317.500
  20
 1045.32
  30
0.0
  40
 10.0000
  50
 91.0649
  51
 180.000
   0
LINE
   8
LEVEL001
   6
CONTINUOUS
  62
7
  10
 421.656
  20
 1057.26
  30
0.0
  11
 420.994
  21
 1021.34
  31
0.0
   0
LINE
   8
LEVEL001
   6
CONTINUOUS
  62
7
  10
 380.388
  20
 1328.39
  30
0.0
  11
 396.388
  21
 1328.39
  31
0.0
   0
LINE
   8
LEVEL001
   6
CONTINUOUS
  62
7
  10
 388.388
  20
 1336.39
  30
0.0
  11
 388.388
  21
 1320.39
  31
0.0
   0
LINE
   8
LEVEL001
   6
CONTINUOUS
  62
7
  10
 203.612
  20
 1151.61
  30
0.0
  11
 219.612
  21
 1151.61
  31
0.0
   0
LINE
   8
LEVEL001
   6
CONTINUOUS
  62
7
  10
 211.612
  20
 1159.61
  30
0.0
  11
 211.612
  21
 1143.61
  31
0.0
   0
ARC
   8
LEVEL001
   6
CONTINUOUS
  62
7
  10
 215.000
  20
 1022.00
  30
0.0
  40
 36.0000
  50
 181.055
  51
 269.328
   0
ARC
   8
LEVEL001
   6
CONTINUOUS
  62
7
  10
 336.665
  20
 1042.35
  30
0.0
  40
 3.00000
  50
 180.000
  51
 241.269
   0
ARC
   8
LEVEL001
   6
CONTINUOUS
  62
7
  10
 340.000
  20
 1048.43
  30
0.0
  40
 9.93811
  50
 241.269
  51
 252.935
   0
ARC
   8
LEVEL001
   6
CONTINUOUS
  62
7
  10
 340.000
  20
 1046.13
  30
0.0
  40
 8.73264
  50
 62.3689
  51
 117.631
   0
LINE
   8
LEVEL001
   6
CONTINUOUS
  62
7
  10
 333.665
  20
 1050.11
  30
0.0
  11
 346.335
  21
 1050.11
  31
0.0
   0
LINE
   8
LEVEL001
   6
CONTINUOUS
  62
7
  10
 347.000
  20
 1050.49
  30
0.0
  11
 333.000
  21
 1050.49
  31
0.0
   0
ARC
   8
LEVEL001
   6
CONTINUOUS
  62
7
  10
 340.000
  20
 1059.22
  30
0.0
  40
 8.73264
  50
 242.369
  51
 297.631
   0
LINE
   8
LEVEL001
   6
CONTINUOUS
  62
7
  10
 333.000
  20
 1054.86
  30
0.0
  11
 347.000
  21
 1054.86
  31
0.0
   0
LINE
   8
LEVEL001
   6
CONTINUOUS
  62
7
  10
 333.394
  20
 1054.86
  30
0.0
  11
 334.277
  21
 1055.74
  31
0.0
   0
LINE
   8
LEVEL001
   6
CONTINUOUS
  62
7
  10
 333.394
  20
 1054.86
  30
0.0
  11
 333.418
  21
 1055.62
  31
0.0
   0
ARC
   8
LEVEL001
   6
CONTINUOUS
  62
7
  10
 331.726
  20
 1046.22
  30
0.0
  40
 8.73264
  50
 61.0763
  51
 81.6143
   0
LINE
   8
LEVEL001
   6
CONTINUOUS
  62
7
  10
 333.665
  20
 1042.35
  30
0.0
  11
 333.665
  21
 1050.11
  31
0.0
   0
LINE
   8
LEVEL001
   6
CONTINUOUS
  62
7
  10
 333.000
  20
 1050.49
  30
0.0
  11
 333.665
  21
 1050.11
  31
0.0
   0
ARC
   8
LEVEL001
   6
CONTINUOUS
  62
7
  10
 331.726
  20
 1059.13
  30
0.0
  40
 8.73264
  50
 278.386
  51
 298.925
   0
LINE
   8
LEVEL001
   6
CONTINUOUS
  62
7
  10
 335.950
  20
 1051.49
  30
0.0
  11
 335.950
  21
 1053.86
  31
0.0
   0
LINE
   8
LEVEL001
   6
CONTINUOUS
  62
7
  10
 346.606
  20
 1054.86
  30
0.0
  11
 345.723
  21
 1055.74
  31
0.0
   0
LINE
   8
LEVEL001
   6
CONTINUOUS
  62
7
  10
 346.575
  20
 1055.86
  30
0.0
  11
 346.606
  21
 1054.86
  31
0.0
   0
ARC
   8
LEVEL001
   6
CONTINUOUS
  62
7
  10
 348.273
  20
 1046.22
  30
0.0
  40
 8.73264
  50
 98.3853
  51
 118.924
   0
ARC
   8
LEVEL001
   6
CONTINUOUS
  62
7
  10
 340.000
  20
 1048.43
  30
0.0
  40
 9.93811
  50
 287.065
  51
 298.731
   0
ARC
   8
LEVEL001
   6
CONTINUOUS
  62
7
  10
 343.335
  20
 1042.35
  30
0.0
  40
 3.00000
  50
 298.731
  51
 0.325000E-3
   0
LINE
   8
LEVEL001
   6
CONTINUOUS
  62
7
  10
 346.335
  20
 1042.35
  30
0.0
  11
 346.335
  21
 1050.11
  31
0.0
   0
LINE
   8
LEVEL001
   6
CONTINUOUS
  62
7
  10
 347.000
  20
 1050.49
  30
0.0
  11
 346.335
  21
 1050.11
  31
0.0
   0
ARC
   8
LEVEL001
   6
CONTINUOUS
  62
7
  10
 348.274
  20
 1059.13
  30
0.0
  40
 8.73264
  50
 241.076
  51
 261.614
   0
LINE
   8
LEVEL001
   6
CONTINUOUS
  62
7
  10
 344.050
  20
 1051.49
  30
0.0
  11
 344.050
  21
 1053.86
  31
0.0
   0
LINE
   8
LEVEL001
   6
CONTINUOUS
  62
7
  10
 340.000
  20
 1045.24
  30
0.0
  11
 340.000
  21
 1046.16
  31
0.0
   0
CIRCLE
   8
LEVEL001
   6
CONTINUOUS
  62
7
  10
 388.388
  20
 1328.39
  30
0.0
  40
 8.00000
   0
CIRCLE
   8
LEVEL001
   6
CONTINUOUS
  62
7
  10
 211.612
  20
 1151.61
  30
0.0
  40
 8.00000
   0
CIRCLE
   8
LEVEL001
   6
CONTINUOUS
  62
7
  10
 211.612
  20
 1328.39
  30
0.0
  40
 9.00000
   0
CIRCLE
   8
LEVEL001
   6
CONTINUOUS
  62
7
  10
 211.612
  20
 1328.39
  30
0.0
  40
 7.75000
   0
LINE
   8
LEVEL001
   6
CONTINUOUS
  62
7
  10
 423.163
  20
 1313.64
  30
0.0
  11
 420.988
  21
 1398.92
  31
0.0
   0
LINE
   8
LEVEL001
   6
CONTINUOUS
  62
7
  10
 176.837
  20
 1313.64
  30
0.0
  11
 179.012
  21
 1398.92
  31
0.0
   0
ARC
   8
LEVEL001
   6
CONTINUOUS
  62
7
  10
 300.000
  20
 1365.00
  30
0.0
  40
 12.5000
  50
 113.578
  51
 246.422
   0
ARC
   8
LEVEL001
   6
CONTINUOUS
  62
7
  10
 300.000
  20
 1365.00
  30
0.0
  40
 12.5000
  50
 293.578
  51
 66.4220
   0
LINE
   8
LEVEL001
   6
CONTINUOUS
  62
7
  10
 305.000
  20
 1385.00
  30
0.0
  11
 305.000
  21
 1345.00
  31
0.0
   0
LINE
   8
LEVEL001
   6
CONTINUOUS
  62
7
  10
 295.000
  20
 1345.00
  30
0.0
  11
 295.000
  21
 1385.00
  31
0.0
   0
ARC
   8
LEVEL001
   6
CONTINUOUS
  62
7
  10
 300.000
  20
 1345.00
  30
0.0
  40
 5.00002
  50
 180.000
  51
0.0
   0
ARC
   8
LEVEL001
   6
CONTINUOUS
  62
7
  10
 300.000
  20
 1385.00
  30
0.0
  40
 5.00002
  50
0.0
  51
 180.000
   0
ARC
   8
LEVEL001
   6
CONTINUOUS
  62
7
  10
 300.000
  20
 1115.00
  30
0.0
  40
 12.5000
  50
 293.578
  51
 66.4217
   0
ARC
   8
LEVEL001
   6
CONTINUOUS
  62
7
  10
 300.000
  20
 1115.00
  30
0.0
  40
 12.5000
  50
 113.579
  51
 246.421
   0
LINE
   8
LEVEL001
   6
CONTINUOUS
  62
7
  10
 295.000
  20
 1095.00
  30
0.0
  11
 295.000
  21
 1135.00
  31
0.0
   0
LINE
   8
LEVEL001
   6
CONTINUOUS
  62
7
  10
 305.000
  20
 1135.00
  30
0.0
  11
 305.000
  21
 1095.00
  31
0.0
   0
ARC
   8
LEVEL001
   6
CONTINUOUS
  62
7
  10
 300.000
  20
 1135.00
  30
0.0
  40
 5.00002
  50
0.0
  51
 180.000
   0
ARC
   8
LEVEL001
   6
CONTINUOUS
  62
7
  10
 300.000
  20
 1095.00
  30
0.0
  40
 5.00002
  50
 180.000
  51
0.0
   0
LINE
   8
LEVEL001
   6
CONTINUOUS
  62
7
  10
 307.500
  20
 1424.79
  30
0.0
  11
 307.500
  21
 1392.50
  31
0.0
   0
LINE
   8
LEVEL001
   6
CONTINUOUS
  62
7
  10
 292.500
  20
 1424.79
  30
0.0
  11
 292.500
  21
 1392.50
  31
0.0
   0
ARC
   8
LEVEL001
   6
CONTINUOUS
  62
7
  10
 282.500
  20
 1424.79
  30
0.0
  40
 10.0000
  50
 0.130276E-11
  51
 90.6721
   0
ARC
   8
LEVEL001
   6
CONTINUOUS
  62
7
  10
 282.500
  20
 1392.50
  30
0.0
  40
 10.0000
  50
 276.546
  51
 0.390827E-11
   0
ARC
   8
LEVEL001
   6
CONTINUOUS
  62
7
  10
 317.500
  20
 1392.50
  30
0.0
  40
 10.0000
  50
 180.000
  51
 263.454
   0
ARC
   8
LEVEL001
   6
CONTINUOUS
  62
7
  10
 317.500
  20
 1424.79
  30
0.0
  40
 10.0000
  50
 89.3279
  51
 180.000
   0
LINE
   8
LEVEL001
   6
CONTINUOUS
  62
7
  10
 292.500
  20
 1055.14
  30
0.0
  11
 292.500
  21
 995.206
  31
0.0
   0
ARC
   8
LEVEL001
   6
CONTINUOUS
  62
7
  10
 317.500
  20
 1055.14
  30
0.0
  40
 10.0000
  50
 91.0629
  51
 180.000
   0
ARC
   8
LEVEL001
   6
CONTINUOUS
  62
7
  10
 282.500
  20
 1055.14
  30
0.0
  40
 10.0000
  50
0.0
  51
 88.9371
   0
ARC
   8
LEVEL001
   6
CONTINUOUS
  62
7
  10
 282.500
  20
 1045.32
  30
0.0
  40
 10.0000
  50
0.0
  51
 88.9371
   0
ARC
   8
LEVEL001
   6
CONTINUOUS
  62
7
  10
 282.500
  20
 995.206
  30
0.0
  40
 10.0000
  50
 269.328
  51
 0.325689E-11
   0
ARC
   8
LEVEL001
   6
CONTINUOUS
  62
7
  10
 317.500
  20
 995.206
  30
0.0
  40
 10.0000
  50
 180.000
  51
 270.672
   0
LINE
   8
LEVEL001
   6
CONTINUOUS
  62
7
  10
 179.006
  20
 1021.34
  30
0.0
  11
 178.345
  21
 1057.26
  31
0.0
   0
ARC
   8
LEVEL001
   6
CONTINUOUS
  62
7
  10
 385.000
  20
 1022.00
  30
0.0
  40
 36.0000
  50
 270.672
  51
 358.945
   0
LINE
   8
LEVEL001
   6
CONTINUOUS
  62
7
  10
 300.000
  20
 985.000
  30
0.0
  11
 214.578
  21
 986.002
  31
0.0
   0
CIRCLE
   8
LEVEL001
   6
CONTINUOUS
  62
7
  10
 215.000
  20
 1022.00
  30
0.0
  40
 18.0000
   0
CIRCLE
   8
LEVEL001
   6
CONTINUOUS
  62
7
  10
 215.000
  20
 1022.00
  30
0.0
  40
 32.0000
   0
ARC
   8
LEVEL001
   6
CONTINUOUS
  62
7
  10
 215.000
  20
 1398.00
  30
0.0
  40
 36.0000
  50
 90.6729
  51
 178.538
   0
ARC
   8
LEVEL001
   6
CONTINUOUS
  62
7
  10
 385.000
  20
 1398.00
  30
0.0
  40
 36.0000
  50
 1.46177
  51
 89.3271
   0
LINE
   8
LEVEL001
   6
CONTINUOUS
  62
7
  10
 300.000
  20
 1435.00
  30
0.0
  11
 214.577
  21
 1434.00
  31
0.0
   0
CIRCLE
   8
LEVEL001
   6
CONTINUOUS
  62
7
  10
 215.000
  20
 1398.00
  30
0.0
  40
 32.0000
   0
CIRCLE
   8
LEVEL001
   6
CONTINUOUS
  62
7
  10
 215.000
  20
 1398.00
  30
0.0
  40
 18.0000
   0
LINE
   8
LEVEL001
   6
CONTINUOUS
  62
7
  10
 300.000
  20
 1435.00
  30
0.0
  11
 385.423
  21
 1434.00
  31
0.0
   0
CIRCLE
   8
LEVEL001
   6
CONTINUOUS
  62
7
  10
 385.000
  20
 1398.00
  30
0.0
  40
 32.0000
   0
CIRCLE
   8
LEVEL001
   6
CONTINUOUS
  62
7
  10
 385.000
  20
 1398.00
  30
0.0
  40
 18.0000
   0
LINE
   8
LEVEL001
   6
CONTINUOUS
  62
7
  10
 300.000
  20
 985.000
  30
0.0
  11
 385.422
  21
 986.002
  31
0.0
   0
CIRCLE
   8
LEVEL001
   6
CONTINUOUS
  62
7
  10
 385.000
  20
 1022.00
  30
0.0
  40
 18.0000
   0
CIRCLE
   8
LEVEL001
   6
CONTINUOUS
  62
7
  10
 385.000
  20
 1022.00
  30
0.0
  40
 32.0000
   0
ARC
   8
LEVEL001
   6
CONTINUOUS
  62
7
  10
 300.000
  20
 1365.00
  30
0.0
  40
 15.0000
  50
 289.471
  51
 70.5290
   0
ARC
   8
LEVEL001
   6
CONTINUOUS
  62
7
  10
 300.000
  20
 1365.00
  30
0.0
  40
 15.0000
  50
 109.471
  51
 250.529
   0
ARC
   8
LEVEL001
   6
CONTINUOUS
  62
7
  10
 300.000
  20
 1115.00
  30
0.0
  40
 15.0000
  50
 289.471
  51
 70.5290
   0
ARC
   8
LEVEL001
   6
CONTINUOUS
  62
7
  10
 300.000
  20
 1115.00
  30
0.0
  40
 15.0000
  50
 109.471
  51
 250.529
   0
LINE
   8
LEVEL001
   6
CONTINUOUS
  62
7
  10
 307.500
  20
 1152.50
  30
0.0
  11
 300.279
  21
 1139.99
  31
0.0
   0
LINE
   8
LEVEL001
   6
CONTINUOUS
  62
7
  10
 305.000
  20
 1134.00
  30
0.0
  11
 310.819
  21
 1134.00
  31
0.0
   0
LINE
   8
LEVEL001
   6
CONTINUOUS
  62
7
  10
 278.819
  20
 1134.00
  30
0.0
  11
 295.000
  21
 1134.00
  31
0.0
   0
LINE
   8
LEVEL001
   6
CONTINUOUS
  62
7
  10
 280.840
  20
 1137.50
  30
0.0
  11
 295.670
  21
 1137.50
  31
0.0
   0
LINE
   8
LEVEL001
   6
CONTINUOUS
  62
7
  10
 321.500
  20
 1152.50
  30
0.0
  11
 310.819
  21
 1134.00
  31
0.0
   0
LINE
   8
LEVEL001
   6
CONTINUOUS
  62
7
  10
 280.840
  20
 1137.50
  30
0.0
  11
 278.819
  21
 1134.00
  31
0.0
   0
LINE
   8
LEVEL001
   6
CONTINUOUS
  62
7
  10
 307.500
  20
 1152.50
  30
0.0
  11
 321.500
  21
 1152.50
  31
0.0
   0
CIRCLE
   8
LEVEL001
   6
CONTINUOUS
  62
7
  10
 293.000
  20
 1146.50
  30
0.0
  40
 6.00000
   0
TEXT
   8
LEVEL001
  62
7
  10
 334.862
  20
 1319.43
  30
0.0
  40
 21.0000
   1
５
  50
 333.000
  41
 0.595238
   7
STANDARD
   0
TEXT
   8
LEVEL001
  62
7
  10
 313.115
  20
 1325.75
  30
0.0
  40
 21.0000
   1
３
  50
 348.000
  41
 0.595238
   7
STANDARD
   0
TEXT
   8
LEVEL001
  62
7
  10
 272.756
  20
 1322.36
  30
0.0
  40
 21.0000
   1
Ｊ
  50
 15.0000
  41
 0.595238
   7
STANDARD
   0
TEXT
   8
LEVEL001
  62
7
  10
 252.369
  20
 1312.50
  30
0.0
  40
 21.0000
   1
Ｗ
  50
 30.0000
  41
 0.595238
   7
STANDARD
   0
CIRCLE
   8
LEVEL001
   6
CONTINUOUS
  62
7
  10
 347.836
  20
 1355.49
  30
0.0
  40
 11.9412
   0
CIRCLE
   8
LEVEL001
   6
CONTINUOUS
  62
7
  10
 347.836
  20
 1355.49
  30
0.0
  40
 13.5000
   0
CIRCLE
   8
LEVEL001
   6
CONTINUOUS
  62
7
  10
 415.485
  20
 1287.84
  30
0.0
  40
 11.9412
   0
CIRCLE
   8
LEVEL001
   6
CONTINUOUS
  62
7
  10
 415.485
  20
 1287.84
  30
0.0
  40
 13.5000
   0
CIRCLE
   8
LEVEL001
   6
CONTINUOUS
  62
7
  10
 252.164
  20
 1124.51
  30
0.0
  40
 11.9412
   0
CIRCLE
   8
LEVEL001
   6
CONTINUOUS
  62
7
  10
 252.164
  20
 1124.51
  30
0.0
  40
 13.5000
   0
CIRCLE
   8
LEVEL001
   6
CONTINUOUS
  62
7
  10
 184.515
  20
 1192.17
  30
0.0
  40
 11.9412
   0
CIRCLE
   8
LEVEL001
   6
CONTINUOUS
  62
7
  10
 184.515
  20
 1192.17
  30
0.0
  40
 13.5000
   0
CIRCLE
   8
LEVEL001
   6
CONTINUOUS
  62
7
  10
 184.515
  20
 1287.84
  30
0.0
  40
 11.9412
   0
CIRCLE
   8
LEVEL001
   6
CONTINUOUS
  62
7
  10
 184.515
  20
 1287.84
  30
0.0
  40
 13.5000
   0
CIRCLE
   8
LEVEL001
   6
CONTINUOUS
  62
7
  10
 252.165
  20
 1355.49
  30
0.0
  40
 11.9412
   0
CIRCLE
   8
LEVEL001
   6
CONTINUOUS
  62
7
  10
 252.165
  20
 1355.49
  30
0.0
  40
 13.5000
   0
ARC
   8
LEVEL001
   6
CONTINUOUS
  62
7
  10
 340.001
  20
 1039.32
  30
0.0
  40
 1.00000
  50
 180.000
  51
0.0
   0
LINE
   8
LEVEL001
   6
CONTINUOUS
  62
7
  10
 341.001
  20
 1039.32
  30
0.0
  11
 341.000
  21
 1039.36
  31
0.0
   0
LINE
   8
LEVEL001
   6
CONTINUOUS
  62
7
  10
 341.000
  20
 1039.36
  30
0.0
  11
 340.997
  21
 1039.40
  31
0.0
   0
LINE
   8
LEVEL001
   6
CONTINUOUS
  62
7
  10
 340.997
  20
 1039.40
  30
0.0
  11
 340.992
  21
 1039.44
  31
0.0
   0
LINE
   8
LEVEL001
   6
CONTINUOUS
  62
7
  10
 340.992
  20
 1039.44
  30
0.0
  11
 340.986
  21
 1039.48
  31
0.0
   0
LINE
   8
LEVEL001
   6
CONTINUOUS
  62
7
  10
 340.986
  20
 1039.48
  30
0.0
  11
 340.977
  21
 1039.52
  31
0.0
   0
LINE
   8
LEVEL001
   6
CONTINUOUS
  62
7
  10
 340.977
  20
 1039.52
  30
0.0
  11
 340.967
  21
 1039.56
  31
0.0
   0
LINE
   8
LEVEL001
   6
CONTINUOUS
  62
7
  10
 340.967
  20
 1039.56
  30
0.0
  11
 340.955
  21
 1039.60
  31
0.0
   0
LINE
   8
LEVEL001
   6
CONTINUOUS
  62
7
  10
 340.955
  20
 1039.60
  30
0.0
  11
 340.940
  21
 1039.64
  31
0.0
   0
LINE
   8
LEVEL001
   6
CONTINUOUS
  62
7
  10
 340.940
  20
 1039.64
  30
0.0
  11
 340.925
  21
 1039.68
  31
0.0
   0
LINE
   8
LEVEL001
   6
CONTINUOUS
  62
7
  10
 340.925
  20
 1039.68
  30
0.0
  11
 340.907
  21
 1039.71
  31
0.0
   0
LINE
   8
LEVEL001
   6
CONTINUOUS
  62
7
  10
 340.907
  20
 1039.71
  30
0.0
  11
 340.888
  21
 1039.75
  31
0.0
   0
LINE
   8
LEVEL001
   6
CONTINUOUS
  62
7
  10
 340.888
  20
 1039.75
  30
0.0
  11
 340.867
  21
 1039.78
  31
0.0
   0
LINE
   8
LEVEL001
   6
CONTINUOUS
  62
7
  10
 340.867
  20
 1039.78
  30
0.0
  11
 340.844
  21
 1039.82
  31
0.0
   0
LINE
   8
LEVEL001
   6
CONTINUOUS
  62
7
  10
 340.844
  20
 1039.82
  30
0.0
  11
 340.820
  21
 1039.85
  31
0.0
   0
LINE
   8
LEVEL001
   6
CONTINUOUS
  62
7
  10
 340.820
  20
 1039.85
  30
0.0
  11
 340.794
  21
 1039.88
  31
0.0
   0
LINE
   8
LEVEL001
   6
CONTINUOUS
  62
7
  10
 340.794
  20
 1039.88
  30
0.0
  11
 340.767
  21
 1039.92
  31
0.0
   0
LINE
   8
LEVEL001
   6
CONTINUOUS
  62
7
  10
 340.767
  20
 1039.92
  30
0.0
  11
 340.738
  21
 1039.95
  31
0.0
   0
LINE
   8
LEVEL001
   6
CONTINUOUS
  62
7
  10
 340.738
  20
 1039.95
  30
0.0
  11
 340.708
  21
 1039.97
  31
0.0
   0
LINE
   8
LEVEL001
   6
CONTINUOUS
  62
7
  10
 340.708
  20
 1039.97
  30
0.0
  11
 340.676
  21
 1040.00
  31
0.0
   0
LINE
   8
LEVEL001
   6
CONTINUOUS
  62
7
  10
 340.676
  20
 1040.00
  30
0.0
  11
 340.644
  21
 1040.03
  31
0.0
   0
LINE
   8
LEVEL001
   6
CONTINUOUS
  62
7
  10
 340.644
  20
 1040.03
  30
0.0
  11
 340.610
  21
 1040.05
  31
0.0
   0
LINE
   8
LEVEL001
   6
CONTINUOUS
  62
7
  10
 340.610
  20
 1040.05
  30
0.0
  11
 340.574
  21
 1040.08
  31
0.0
   0
LINE
   8
LEVEL001
   6
CONTINUOUS
  62
7
  10
 340.574
  20
 1040.08
  30
0.0
  11
 340.538
  21
 1040.10
  31
0.0
   0
LINE
   8
LEVEL001
   6
CONTINUOUS
  62
7
  10
 340.538
  20
 1040.10
  30
0.0
  11
 340.501
  21
 1040.12
  31
0.0
   0
LINE
   8
LEVEL001
   6
CONTINUOUS
  62
7
  10
 340.501
  20
 1040.12
  30
0.0
  11
 340.463
  21
 1040.14
  31
0.0
   0
LINE
   8
LEVEL001
   6
CONTINUOUS
  62
7
  10
 340.463
  20
 1040.14
  30
0.0
  11
 340.423
  21
 1040.16
  31
0.0
   0
LINE
   8
LEVEL001
   6
CONTINUOUS
  62
7
  10
 340.423
  20
 1040.16
  30
0.0
  11
 340.383
  21
 1040.17
  31
0.0
   0
LINE
   8
LEVEL001
   6
CONTINUOUS
  62
7
  10
 340.383
  20
 1040.17
  30
0.0
  11
 340.343
  21
 1040.19
  31
0.0
   0
LINE
   8
LEVEL001
   6
CONTINUOUS
  62
7
  10
 340.343
  20
 1040.19
  30
0.0
  11
 340.301
  21
 1040.20
  31
0.0
   0
LINE
   8
LEVEL001
   6
CONTINUOUS
  62
7
  10
 340.301
  20
 1040.20
  30
0.0
  11
 340.260
  21
 1040.21
  31
0.0
   0
LINE
   8
LEVEL001
   6
CONTINUOUS
  62
7
  10
 340.260
  20
 1040.21
  30
0.0
  11
 340.217
  21
 1040.22
  31
0.0
   0
LINE
   8
LEVEL001
   6
CONTINUOUS
  62
7
  10
 340.217
  20
 1040.22
  30
0.0
  11
 340.174
  21
 1040.23
  31
0.0
   0
LINE
   8
LEVEL001
   6
CONTINUOUS
  62
7
  10
 340.174
  20
 1040.23
  30
0.0
  11
 340.131
  21
 1040.24
  31
0.0
   0
LINE
   8
LEVEL001
   6
CONTINUOUS
  62
7
  10
 340.131
  20
 1040.24
  30
0.0
  11
 340.088
  21
 1040.24
  31
0.0
   0
LINE
   8
LEVEL001
   6
CONTINUOUS
  62
7
  10
 340.088
  20
 1040.24
  30
0.0
  11
 340.044
  21
 1040.24
  31
0.0
   0
LINE
   8
LEVEL001
   6
CONTINUOUS
  62
7
  10
 340.044
  20
 1040.24
  30
0.0
  11
 340.001
  21
 1040.24
  31
0.0
   0
LINE
   8
LEVEL001
   6
CONTINUOUS
  62
7
  10
 340.001
  20
 1040.24
  30
0.0
  11
 339.957
  21
 1040.24
  31
0.0
   0
LINE
   8
LEVEL001
   6
CONTINUOUS
  62
7
  10
 339.957
  20
 1040.24
  30
0.0
  11
 339.914
  21
 1040.24
  31
0.0
   0
LINE
   8
LEVEL001
   6
CONTINUOUS
  62
7
  10
 339.914
  20
 1040.24
  30
0.0
  11
 339.870
  21
 1040.24
  31
0.0
   0
LINE
   8
LEVEL001
   6
CONTINUOUS
  62
7
  10
 339.870
  20
 1040.24
  30
0.0
  11
 339.827
  21
 1040.23
  31
0.0
   0
LINE
   8
LEVEL001
   6
CONTINUOUS
  62
7
  10
 339.827
  20
 1040.23
  30
0.0
  11
 339.784
  21
 1040.22
  31
0.0
   0
LINE
   8
LEVEL001
   6
CONTINUOUS
  62
7
  10
 339.784
  20
 1040.22
  30
0.0
  11
 339.742
  21
 1040.21
  31
0.0
   0
LINE
   8
LEVEL001
   6
CONTINUOUS
  62
7
  10
 339.742
  20
 1040.21
  30
0.0
  11
 339.700
  21
 1040.20
  31
0.0
   0
LINE
   8
LEVEL001
   6
CONTINUOUS
  62
7
  10
 339.700
  20
 1040.20
  30
0.0
  11
 339.659
  21
 1040.19
  31
0.0
   0
LINE
   8
LEVEL001
   6
CONTINUOUS
  62
7
  10
 339.659
  20
 1040.19
  30
0.0
  11
 339.618
  21
 1040.17
  31
0.0
   0
LINE
   8
LEVEL001
   6
CONTINUOUS
  62
7
  10
 339.618
  20
 1040.17
  30
0.0
  11
 339.578
  21
 1040.16
  31
0.0
   0
LINE
   8
LEVEL001
   6
CONTINUOUS
  62
7
  10
 339.578
  20
 1040.16
  30
0.0
  11
 339.539
  21
 1040.14
  31
0.0
   0
LINE
   8
LEVEL001
   6
CONTINUOUS
  62
7
  10
 339.539
  20
 1040.14
  30
0.0
  11
 339.501
  21
 1040.12
  31
0.0
   0
LINE
   8
LEVEL001
   6
CONTINUOUS
  62
7
  10
 339.501
  20
 1040.12
  30
0.0
  11
 339.463
  21
 1040.10
  31
0.0
   0
LINE
   8
LEVEL001
   6
CONTINUOUS
  62
7
  10
 339.463
  20
 1040.10
  30
0.0
  11
 339.427
  21
 1040.08
  31
0.0
   0
LINE
   8
LEVEL001
   6
CONTINUOUS
  62
7
  10
 339.427
  20
 1040.08
  30
0.0
  11
 339.392
  21
 1040.05
  31
0.0
   0
LINE
   8
LEVEL001
   6
CONTINUOUS
  62
7
  10
 339.392
  20
 1040.05
  30
0.0
  11
 339.358
  21
 1040.03
  31
0.0
   0
LINE
   8
LEVEL001
   6
CONTINUOUS
  62
7
  10
 339.358
  20
 1040.03
  30
0.0
  11
 339.325
  21
 1040.00
  31
0.0
   0
LINE
   8
LEVEL001
   6
CONTINUOUS
  62
7
  10
 339.325
  20
 1040.00
  30
0.0
  11
 339.294
  21
 1039.97
  31
0.0
   0
LINE
   8
LEVEL001
   6
CONTINUOUS
  62
7
  10
 339.294
  20
 1039.97
  30
0.0
  11
 339.264
  21
 1039.95
  31
0.0
   0
LINE
   8
LEVEL001
   6
CONTINUOUS
  62
7
  10
 339.264
  20
 1039.95
  30
0.0
  11
 339.235
  21
 1039.92
  31
0.0
   0
LINE
   8
LEVEL001
   6
CONTINUOUS
  62
7
  10
 339.235
  20
 1039.92
  30
0.0
  11
 339.207
  21
 1039.88
  31
0.0
   0
LINE
   8
LEVEL001
   6
CONTINUOUS
  62
7
  10
 339.207
  20
 1039.88
  30
0.0
  11
 339.182
  21
 1039.85
  31
0.0
   0
LINE
   8
LEVEL001
   6
CONTINUOUS
  62
7
  10
 339.182
  20
 1039.85
  30
0.0
  11
 339.157
  21
 1039.82
  31
0.0
   0
LINE
   8
LEVEL001
   6
CONTINUOUS
  62
7
  10
 339.157
  20
 1039.82
  30
0.0
  11
 339.135
  21
 1039.78
  31
0.0
   0
LINE
   8
LEVEL001
   6
CONTINUOUS
  62
7
  10
 339.135
  20
 1039.78
  30
0.0
  11
 339.114
  21
 1039.75
  31
0.0
   0
LINE
   8
LEVEL001
   6
CONTINUOUS
  62
7
  10
 339.114
  20
 1039.75
  30
0.0
  11
 339.094
  21
 1039.71
  31
0.0
   0
LINE
   8
LEVEL001
   6
CONTINUOUS
  62
7
  10
 339.094
  20
 1039.71
  30
0.0
  11
 339.077
  21
 1039.68
  31
0.0
   0
LINE
   8
LEVEL001
   6
CONTINUOUS
  62
7
  10
 339.077
  20
 1039.68
  30
0.0
  11
 339.061
  21
 1039.64
  31
0.0
   0
LINE
   8
LEVEL001
   6
CONTINUOUS
  62
7
  10
 339.061
  20
 1039.64
  30
0.0
  11
 339.047
  21
 1039.60
  31
0.0
   0
LINE
   8
LEVEL001
   6
CONTINUOUS
  62
7
  10
 339.047
  20
 1039.60
  30
0.0
  11
 339.035
  21
 1039.56
  31
0.0
   0
LINE
   8
LEVEL001
   6
CONTINUOUS
  62
7
  10
 339.035
  20
 1039.56
  30
0.0
  11
 339.024
  21
 1039.52
  31
0.0
   0
LINE
   8
LEVEL001
   6
CONTINUOUS
  62
7
  10
 339.024
  20
 1039.52
  30
0.0
  11
 339.016
  21
 1039.48
  31
0.0
   0
LINE
   8
LEVEL001
   6
CONTINUOUS
  62
7
  10
 339.016
  20
 1039.48
  30
0.0
  11
 339.009
  21
 1039.44
  31
0.0
   0
LINE
   8
LEVEL001
   6
CONTINUOUS
  62
7
  10
 339.009
  20
 1039.44
  30
0.0
  11
 339.005
  21
 1039.40
  31
0.0
   0
LINE
   8
LEVEL001
   6
CONTINUOUS
  62
7
  10
 339.005
  20
 1039.40
  30
0.0
  11
 339.002
  21
 1039.36
  31
0.0
   0
LINE
   8
LEVEL001
   6
CONTINUOUS
  62
7
  10
 339.002
  20
 1039.36
  30
0.0
  11
 339.001
  21
 1039.32
  31
0.0
   0
LINE
   8
LEVEL001
   6
DASHDOT
  62
1
  10
 150.000
  20
 1240.00
  30
0.0
  11
 450.000
  21
 1240.00
  31
0.0
   0
LINE
   8
LEVEL001
   6
DASHDOT
  62
1
  10
 300.000
  20
 1450.00
  30
0.0
  11
 300.000
  21
 970.000
  31
0.0
   0
LINE
   8
LEVEL001
   6
DASHDOT
  62
1
  10
 385.000
  20
 1443.00
  30
0.0
  11
 385.000
  21
 1353.00
  31
0.0
   0
LINE
   8
LEVEL001
   6
DASHDOT
  62
1
  10
 340.000
  20
 1398.00
  30
0.0
  11
 430.000
  21
 1398.00
  31
0.0
   0
LINE
   8
LEVEL001
   6
DASHDOT
  62
1
  10
 215.000
  20
 1443.00
  30
0.0
  11
 215.000
  21
 1353.00
  31
0.0
   0
LINE
   8
LEVEL001
   6
DASHDOT
  62
1
  10
 170.000
  20
 1398.00
  30
0.0
  11
 260.000
  21
 1398.00
  31
0.0
   0
LINE
   8
LEVEL001
   6
DASHDOT
  62
1
  10
 385.000
  20
 1067.00
  30
0.0
  11
 385.000
  21
 977.000
  31
0.0
   0
LINE
   8
LEVEL001
   6
DASHDOT
  62
1
  10
 340.000
  20
 1022.00
  30
0.0
  11
 430.000
  21
 1022.00
  31
0.0
   0
LINE
   8
LEVEL001
   6
DASHDOT
  62
1
  10
 215.000
  20
 1067.00
  30
0.0
  11
 215.000
  21
 977.000
  31
0.0
   0
LINE
   8
LEVEL001
   6
DASHDOT
  62
1
  10
 260.000
  20
 1022.00
  30
0.0
  11
 170.000
  21
 1022.00
  31
0.0
   0
LINE
   8
LEVEL001
   6
DASHDOT
  62
1
  10
 45.0000
  20
 1120.00
  30
0.0
  11
 555.000
  21
 1120.00
  31
0.0
   0
LINE
   8
LEVEL001
   6
CONTINUOUS
  62
7
  10
 51.0000
  20
 1114.00
  30
0.0
  11
 51.0000
  21
 1100.00
  31
0.0
   0
LINE
   8
LEVEL001
   6
CONTINUOUS
  62
7
  10
 51.0000
  20
 1140.00
  30
0.0
  11
 51.0000
  21
 1126.00
  31
0.0
   0
LINE
   8
LEVEL001
   6
CONTINUOUS
  62
7
  10
 51.0000
  20
 1100.00
  30
0.0
  11
 50.0000
  21
 1101.00
  31
0.0
   0
LINE
   8
LEVEL001
   6
CONTINUOUS
  62
7
  10
 50.0000
  20
 1101.00
  30
0.0
  11
 51.0000
  21
 1100.00
  31
0.0
   0
LINE
   8
LEVEL001
   6
CONTINUOUS
  62
7
  10
 50.0000
  20
 1139.00
  30
0.0
  11
 50.0000
  21
 1101.00
  31
0.0
   0
LINE
   8
LEVEL001
   6
CONTINUOUS
  62
7
  10
 51.0000
  20
 1140.00
  30
0.0
  11
 50.0000
  21
 1139.00
  31
0.0
   0
LINE
   8
LEVEL001
   6
DASHDOT
  62
1
  10
 850.000
  20
 920.000
  30
0.0
  11
 850.000
  21
 50.0000
  31
0.0
   0
LINE
   8
LEVEL001
   6
DASHDOT
  62
1
  10
 300.000
  20
 920.000
  30
0.0
  11
 300.000
  21
 50.0000
  31
0.0
   0
LINE
   8
LEVEL001
   6
CONTINUOUS
  62
7
  10
 289.759
  20
 75.0000
  30
0.0
  11
 290.656
  21
 74.1000
  31
0.0
   0
LINE
   8
LEVEL001
   6
CONTINUOUS
  62
7
  10
 309.344
  20
 74.1000
  30
0.0
  11
 310.241
  21
 75.0000
  31
0.0
   0
LINE
   8
LEVEL001
   6
CONTINUOUS
  62
7
  10
 290.684
  20
 75.0000
  30
0.0
  11
 290.656
  21
 74.1000
  31
0.0
   0
LINE
   8
LEVEL001
   6
CONTINUOUS
  62
7
  10
 309.316
  20
 75.0000
  30
0.0
  11
 309.344
  21
 74.1000
  31
0.0
   0
LINE
   8
LEVEL001
   6
CONTINUOUS
  62
7
  10
 357.500
  20
 75.0000
  30
0.0
  11
 242.500
  21
 75.0000
  31
0.0
   0
LINE
   8
LEVEL001
   6
CONTINUOUS
  62
7
  10
 360.000
  20
 79.5000
  30
0.0
  11
 240.000
  21
 79.5000
  31
0.0
   0
LINE
   8
LEVEL001
   6
CONTINUOUS
  62
7
  10
 290.656
  20
 74.1000
  30
0.0
  11
 309.344
  21
 74.1000
  31
0.0
   0
LINE
   8
LEVEL001
   6
CONTINUOUS
  62
7
  10
 240.000
  20
 79.5000
  30
0.0
  11
 242.500
  21
 75.0000
  31
0.0
   0
LINE
   8
LEVEL001
   6
CONTINUOUS
  62
7
  10
 360.000
  20
 79.5000
  30
0.0
  11
 357.500
  21
 75.0000
  31
0.0
   0
LINE
   8
LEVEL001
   6
CONTINUOUS
  62
7
  10
 839.759
  20
 75.0000
  30
0.0
  11
 840.656
  21
 74.1000
  31
0.0
   0
LINE
   8
LEVEL001
   6
CONTINUOUS
  62
7
  10
 859.344
  20
 74.1000
  30
0.0
  11
 860.241
  21
 75.0000
  31
0.0
   0
LINE
   8
LEVEL001
   6
CONTINUOUS
  62
7
  10
 840.684
  20
 75.0000
  30
0.0
  11
 840.656
  21
 74.1000
  31
0.0
   0
LINE
   8
LEVEL001
   6
CONTINUOUS
  62
7
  10
 859.316
  20
 75.0000
  30
0.0
  11
 859.344
  21
 74.1000
  31
0.0
   0
LINE
   8
LEVEL001
   6
CONTINUOUS
  62
7
  10
 907.500
  20
 75.0000
  30
0.0
  11
 792.500
  21
 75.0000
  31
0.0
   0
LINE
   8
LEVEL001
   6
CONTINUOUS
  62
7
  10
 910.000
  20
 79.5000
  30
0.0
  11
 790.000
  21
 79.5000
  31
0.0
   0
LINE
   8
LEVEL001
   6
CONTINUOUS
  62
7
  10
 840.656
  20
 74.1000
  30
0.0
  11
 859.344
  21
 74.1000
  31
0.0
   0
LINE
   8
LEVEL001
   6
CONTINUOUS
  62
7
  10
 790.000
  20
 79.5000
  30
0.0
  11
 792.500
  21
 75.0000
  31
0.0
   0
LINE
   8
LEVEL001
   6
CONTINUOUS
  62
7
  10
 910.000
  20
 79.5000
  30
0.0
  11
 907.500
  21
 75.0000
  31
0.0
   0
TEXT
   8
LEVEL003
  62
7
  10
 1178.44
  20
 69.7531
  30
0.0
  40
 20.0000
   1
ＯＳＡＫＡ ＪＡＣＫ
   7
STANDARD
   0
CIRCLE
   8
LEVEL003
   6
CONTINUOUS
  62
7
  10
 1154.50
  20
 83.8545
  30
0.0
  40
 6.00000
   0
LINE
   8
LEVEL003
   6
CONTINUOUS
  62
7
  10
 1166.27
  20
 89.8545
  30
0.0
  11
 1158.65
  21
 76.6545
  31
0.0
   0
LINE
   8
LEVEL003
   6
CONTINUOUS
  62
7
  10
 1158.65
  20
 76.6545
  30
0.0
  11
 1143.41
  21
 76.6545
  31
0.0
   0
LINE
   8
LEVEL003
   6
CONTINUOUS
  62
7
  10
 1141.68
  20
 73.6545
  30
0.0
  11
 1168.92
  21
 73.6545
  31
0.0
   0
LINE
   8
LEVEL003
   6
CONTINUOUS
  62
7
  10
 1168.92
  20
 73.6545
  30
0.0
  11
 1178.27
  21
 89.8545
  31
0.0
   0
LINE
   8
LEVEL003
   6
CONTINUOUS
  62
7
  10
 1178.27
  20
 89.8545
  30
0.0
  11
 1166.27
  21
 89.8545
  31
0.0
   0
LINE
   8
LEVEL003
   6
CONTINUOUS
  62
7
  10
 1143.41
  20
 76.6545
  30
0.0
  11
 1141.68
  21
 73.6545
  31
0.0
   0
TEXT
   8
LEVEL003
  62
7
  10
 1184.26
  20
 103.540
  30
0.0
  40
 12.0000
   1
Model : ＷＪ３５Ｕ
   7
STANDARD
   0
LINE
   8
LEVEL003
   6
CONTINUOUS
  62
3
  10
 480.000
  20
 644.000
  30
0.0
  11
 480.000
  21
 672.000
  31
0.0
   0
LINE
   8
LEVEL003
   6
CONTINUOUS
  62
3
  10
 550.000
  20
 644.000
  30
0.0
  11
 550.000
  21
 672.000
  31
0.0
   0
LINE
   8
LEVEL003
   6
CONTINUOUS
  62
3
  10
 480.000
  20
 670.000
  30
0.0
  11
 550.000
  21
 670.000
  31
0.0
   0
LINE
   8
LEVEL003
   6
CONTINUOUS
  62
3
  10
 480.000
  20
 670.000
  30
0.0
  11
 483.000
  21
 669.196
  31
0.0
   0
LINE
   8
LEVEL003
   6
CONTINUOUS
  62
3
  10
 480.000
  20
 670.000
  30
0.0
  11
 483.000
  21
 670.804
  31
0.0
   0
LINE
   8
LEVEL003
   6
CONTINUOUS
  62
3
  10
 550.000
  20
 670.000
  30
0.0
  11
 547.000
  21
 670.804
  31
0.0
   0
LINE
   8
LEVEL003
   6
CONTINUOUS
  62
3
  10
 550.000
  20
 670.000
  30
0.0
  11
 547.000
  21
 669.196
  31
0.0
   0
TEXT
   8
LEVEL003
  62
3
  10
 513.000
  20
 671.714
  30
0.0
  40
 4.00000
   1
70
  41
 0.500000
   7
STANDARD
  72
1
  11
 515.000
  21
 671.714
  31
0.0
   0
LINE
   8
LEVEL003
   6
CONTINUOUS
  62
3
  10
 468.000
  20
 640.079
  30
0.0
  11
 468.000
  21
 702.000
  31
0.0
   0
LINE
   8
LEVEL003
   6
CONTINUOUS
  62
3
  10
 550.000
  20
 644.000
  30
0.0
  11
 550.000
  21
 702.000
  31
0.0
   0
LINE
   8
LEVEL003
   6
CONTINUOUS
  62
3
  10
 468.000
  20
 700.000
  30
0.0
  11
 550.000
  21
 700.000
  31
0.0
   0
LINE
   8
LEVEL003
   6
CONTINUOUS
  62
3
  10
 468.000
  20
 700.000
  30
0.0
  11
 471.000
  21
 699.196
  31
0.0
   0
LINE
   8
LEVEL003
   6
CONTINUOUS
  62
3
  10
 468.000
  20
 700.000
  30
0.0
  11
 471.000
  21
 700.804
  31
0.0
   0
LINE
   8
LEVEL003
   6
CONTINUOUS
  62
3
  10
 550.000
  20
 700.000
  30
0.0
  11
 547.000
  21
 700.804
  31
0.0
   0
LINE
   8
LEVEL003
   6
CONTINUOUS
  62
3
  10
 550.000
  20
 700.000
  30
0.0
  11
 547.000
  21
 699.196
  31
0.0
   0
TEXT
   8
LEVEL003
  62
3
  10
 507.000
  20
 701.714
  30
0.0
  40
 4.00000
   1
82
  41
 0.500000
   7
STANDARD
  72
1
  11
 509.000
  21
 701.714
  31
0.0
   0
LINE
   8
LEVEL003
   6
CONTINUOUS
  62
3
  10
 889.500
  20
 905.000
  30
0.0
  11
 1142.00
  21
 905.000
  31
0.0
   0
LINE
   8
LEVEL003
   6
CONTINUOUS
  62
3
  10
 1046.00
  20
 505.000
  30
0.0
  11
 1142.00
  21
 505.000
  31
0.0
   0
LINE
   8
LEVEL003
   6
CONTINUOUS
  62
3
  10
 1140.00
  20
 905.000
  30
0.0
  11
 1140.00
  21
 505.000
  31
0.0
   0
LINE
   8
LEVEL003
   6
CONTINUOUS
  62
3
  10
 1140.00
  20
 905.000
  30
0.0
  11
 1139.20
  21
 902.000
  31
0.0
   0
LINE
   8
LEVEL003
   6
CONTINUOUS
  62
3
  10
 1140.00
  20
 905.000
  30
0.0
  11
 1140.80
  21
 902.000
  31
0.0
   0
LINE
   8
LEVEL003
   6
CONTINUOUS
  62
3
  10
 1140.00
  20
 505.000
  30
0.0
  11
 1140.80
  21
 508.000
  31
0.0
   0
LINE
   8
LEVEL003
   6
CONTINUOUS
  62
3
  10
 1140.00
  20
 505.000
  30
0.0
  11
 1139.20
  21
 508.000
  31
0.0
   0
TEXT
   8
LEVEL003
  62
3
  10
 1138.29
  20
 702.000
  30
0.0
  40
 4.00000
   1
400
  50
 90.0000
  41
 0.500000
   7
STANDARD
  72
1
  11
 1138.29
  21
 705.000
  31
0.0
   0
LINE
   8
LEVEL003
   6
CONTINUOUS
  62
3
  10
 1021.00
  20
 620.000
  30
0.0
  11
 1112.00
  21
 620.000
  31
0.0
   0
LINE
   8
LEVEL003
   6
CONTINUOUS
  62
3
  10
 1046.00
  20
 505.000
  30
0.0
  11
 1112.00
  21
 505.000
  31
0.0
   0
LINE
   8
LEVEL003
   6
CONTINUOUS
  62
3
  10
 1110.00
  20
 620.000
  30
0.0
  11
 1110.00
  21
 505.000
  31
0.0
   0
LINE
   8
LEVEL003
   6
CONTINUOUS
  62
3
  10
 1110.00
  20
 620.000
  30
0.0
  11
 1109.20
  21
 617.000
  31
0.0
   0
LINE
   8
LEVEL003
   6
CONTINUOUS
  62
3
  10
 1110.00
  20
 620.000
  30
0.0
  11
 1110.80
  21
 617.000
  31
0.0
   0
LINE
   8
LEVEL003
   6
CONTINUOUS
  62
3
  10
 1110.00
  20
 505.000
  30
0.0
  11
 1110.80
  21
 508.000
  31
0.0
   0
LINE
   8
LEVEL003
   6
CONTINUOUS
  62
3
  10
 1110.00
  20
 505.000
  30
0.0
  11
 1109.20
  21
 508.000
  31
0.0
   0
TEXT
   8
LEVEL003
  62
3
  10
 1108.29
  20
 559.500
  30
0.0
  40
 4.00000
   1
115
  50
 90.0000
  41
 0.500000
   7
STANDARD
  72
1
  11
 1108.29
  21
 562.500
  31
0.0
   0
LINE
   8
LEVEL003
   6
CONTINUOUS
  62
3
  10
 1041.00
  20
 534.000
  30
0.0
  11
 1082.00
  21
 534.000
  31
0.0
   0
LINE
   8
LEVEL003
   6
CONTINUOUS
  62
3
  10
 1046.00
  20
 505.000
  30
0.0
  11
 1082.00
  21
 505.000
  31
0.0
   0
LINE
   8
LEVEL003
   6
CONTINUOUS
  62
3
  10
 1080.00
  20
 534.000
  30
0.0
  11
 1080.00
  21
 505.000
  31
0.0
   0
LINE
   8
LEVEL003
   6
CONTINUOUS
  62
3
  10
 1080.00
  20
 534.000
  30
0.0
  11
 1079.20
  21
 531.000
  31
0.0
   0
LINE
   8
LEVEL003
   6
CONTINUOUS
  62
3
  10
 1080.00
  20
 534.000
  30
0.0
  11
 1080.80
  21
 531.000
  31
0.0
   0
LINE
   8
LEVEL003
   6
CONTINUOUS
  62
3
  10
 1080.00
  20
 505.000
  30
0.0
  11
 1080.80
  21
 508.000
  31
0.0
   0
LINE
   8
LEVEL003
   6
CONTINUOUS
  62
3
  10
 1080.00
  20
 505.000
  30
0.0
  11
 1079.20
  21
 508.000
  31
0.0
   0
TEXT
   8
LEVEL003
  62
3
  10
 1078.29
  20
 517.500
  30
0.0
  40
 4.00000
   1
29
  50
 90.0000
  41
 0.500000
   7
STANDARD
  72
1
  11
 1078.29
  21
 519.500
  31
0.0
   0
LINE
   8
LEVEL003
   6
CONTINUOUS
  62
3
  10
 215.000
  20
 1444.00
  30
0.0
  11
 215.000
  21
 1492.00
  31
0.0
   0
LINE
   8
LEVEL003
   6
CONTINUOUS
  62
3
  10
 385.000
  20
 1444.00
  30
0.0
  11
 385.000
  21
 1492.00
  31
0.0
   0
LINE
   8
LEVEL003
   6
CONTINUOUS
  62
3
  10
 215.000
  20
 1490.00
  30
0.0
  11
 385.000
  21
 1490.00
  31
0.0
   0
LINE
   8
LEVEL003
   6
CONTINUOUS
  62
3
  10
 215.000
  20
 1490.00
  30
0.0
  11
 218.000
  21
 1489.20
  31
0.0
   0
LINE
   8
LEVEL003
   6
CONTINUOUS
  62
3
  10
 215.000
  20
 1490.00
  30
0.0
  11
 218.000
  21
 1490.80
  31
0.0
   0
LINE
   8
LEVEL003
   6
CONTINUOUS
  62
3
  10
 385.000
  20
 1490.00
  30
0.0
  11
 382.000
  21
 1490.80
  31
0.0
   0
LINE
   8
LEVEL003
   6
CONTINUOUS
  62
3
  10
 385.000
  20
 1490.00
  30
0.0
  11
 382.000
  21
 1489.20
  31
0.0
   0
TEXT
   8
LEVEL003
  62
3
  10
 297.000
  20
 1491.71
  30
0.0
  40
 4.00000
   1
170
  41
 0.500000
   7
STANDARD
  72
1
  11
 300.000
  21
 1491.71
  31
0.0
   0
LINE
   8
LEVEL003
   6
CONTINUOUS
  62
3
  10
 431.000
  20
 1022.00
  30
0.0
  11
 602.000
  21
 1022.00
  31
0.0
   0
LINE
   8
LEVEL003
   6
CONTINUOUS
  62
3
  10
 451.000
  20
 1240.00
  30
0.0
  11
 602.000
  21
 1240.00
  31
0.0
   0
LINE
   8
LEVEL003
   6
CONTINUOUS
  62
3
  10
 600.000
  20
 1022.00
  30
0.0
  11
 600.000
  21
 1240.00
  31
0.0
   0
LINE
   8
LEVEL003
   6
CONTINUOUS
  62
3
  10
 600.000
  20
 1022.00
  30
0.0
  11
 600.804
  21
 1025.00
  31
0.0
   0
LINE
   8
LEVEL003
   6
CONTINUOUS
  62
3
  10
 600.000
  20
 1022.00
  30
0.0
  11
 599.196
  21
 1025.00
  31
0.0
   0
LINE
   8
LEVEL003
   6
CONTINUOUS
  62
3
  10
 600.000
  20
 1240.00
  30
0.0
  11
 599.196
  21
 1237.00
  31
0.0
   0
LINE
   8
LEVEL003
   6
CONTINUOUS
  62
3
  10
 600.000
  20
 1240.00
  30
0.0
  11
 600.804
  21
 1237.00
  31
0.0
   0
TEXT
   8
LEVEL003
  62
3
  10
 598.286
  20
 1128.00
  30
0.0
  40
 4.00000
   1
218
  50
 90.0000
  41
 0.500000
   7
STANDARD
  72
1
  11
 598.286
  21
 1131.00
  31
0.0
   0
LINE
   8
LEVEL003
   6
CONTINUOUS
  62
3
  10
 451.000
  20
 1240.00
  30
0.0
  11
 602.000
  21
 1240.00
  31
0.0
   0
LINE
   8
LEVEL003
   6
CONTINUOUS
  62
3
  10
 431.000
  20
 1398.00
  30
0.0
  11
 602.000
  21
 1398.00
  31
0.0
   0
LINE
   8
LEVEL003
   6
CONTINUOUS
  62
3
  10
 600.000
  20
 1240.00
  30
0.0
  11
 600.000
  21
 1398.00
  31
0.0
   0
LINE
   8
LEVEL003
   6
CONTINUOUS
  62
3
  10
 600.000
  20
 1240.00
  30
0.0
  11
 600.804
  21
 1243.00
  31
0.0
   0
LINE
   8
LEVEL003
   6
CONTINUOUS
  62
3
  10
 600.000
  20
 1240.00
  30
0.0
  11
 599.196
  21
 1243.00
  31
0.0
   0
LINE
   8
LEVEL003
   6
CONTINUOUS
  62
3
  10
 600.000
  20
 1398.00
  30
0.0
  11
 599.196
  21
 1395.00
  31
0.0
   0
LINE
   8
LEVEL003
   6
CONTINUOUS
  62
3
  10
 600.000
  20
 1398.00
  30
0.0
  11
 600.804
  21
 1395.00
  31
0.0
   0
TEXT
   8
LEVEL003
  62
3
  10
 598.286
  20
 1316.00
  30
0.0
  40
 4.00000
   1
158
  50
 90.0000
  41
 0.500000
   7
STANDARD
  72
1
  11
 598.286
  21
 1319.00
  31
0.0
   0
LINE
   8
LEVEL003
   6
CONTINUOUS
  62
3
  10
 50.0000
  20
 1100.00
  30
0.0
  11
 50.0000
  21
 948.000
  31
0.0
   0
LINE
   8
LEVEL003
   6
CONTINUOUS
  62
3
  10
 550.000
  20
 1100.00
  30
0.0
  11
 550.000
  21
 948.000
  31
0.0
   0
LINE
   8
LEVEL003
   6
CONTINUOUS
  62
3
  10
 50.0000
  20
 950.000
  30
0.0
  11
 550.000
  21
 950.000
  31
0.0
   0
LINE
   8
LEVEL003
   6
CONTINUOUS
  62
3
  10
 50.0000
  20
 950.000
  30
0.0
  11
 53.0000
  21
 949.196
  31
0.0
   0
LINE
   8
LEVEL003
   6
CONTINUOUS
  62
3
  10
 50.0000
  20
 950.000
  30
0.0
  11
 53.0000
  21
 950.804
  31
0.0
   0
LINE
   8
LEVEL003
   6
CONTINUOUS
  62
3
  10
 550.000
  20
 950.000
  30
0.0
  11
 547.000
  21
 950.804
  31
0.0
   0
LINE
   8
LEVEL003
   6
CONTINUOUS
  62
3
  10
 550.000
  20
 950.000
  30
0.0
  11
 547.000
  21
 949.196
  31
0.0
   0
TEXT
   8
LEVEL003
  62
3
  10
 297.000
  20
 951.714
  30
0.0
  40
 4.00000
   1
500
  41
 0.500000
   7
STANDARD
  72
1
  11
 300.000
  21
 951.714
  31
0.0
   0
LINE
   8
LEVEL003
   6
CONTINUOUS
  62
3
  10
 889.500
  20
 905.000
  30
0.0
  11
 942.000
  21
 905.000
  31
0.0
   0
LINE
   8
LEVEL003
   6
CONTINUOUS
  62
3
  10
 895.000
  20
 825.000
  30
0.0
  11
 942.000
  21
 825.000
  31
0.0
   0
LINE
   8
LEVEL003
   6
CONTINUOUS
  62
3
  10
 940.000
  20
 905.000
  30
0.0
  11
 940.000
  21
 825.000
  31
0.0
   0
LINE
   8
LEVEL003
   6
CONTINUOUS
  62
3
  10
 940.000
  20
 905.000
  30
0.0
  11
 939.196
  21
 902.000
  31
0.0
   0
LINE
   8
LEVEL003
   6
CONTINUOUS
  62
3
  10
 940.000
  20
 905.000
  30
0.0
  11
 940.804
  21
 902.000
  31
0.0
   0
LINE
   8
LEVEL003
   6
CONTINUOUS
  62
3
  10
 940.000
  20
 825.000
  30
0.0
  11
 940.804
  21
 828.000
  31
0.0
   0
LINE
   8
LEVEL003
   6
CONTINUOUS
  62
3
  10
 940.000
  20
 825.000
  30
0.0
  11
 939.196
  21
 828.000
  31
0.0
   0
TEXT
   8
LEVEL003
  62
3
  10
 938.286
  20
 863.000
  30
0.0
  40
 4.00000
   1
80
  50
 90.0000
  41
 0.500000
   7
STANDARD
  72
1
  11
 938.286
  21
 865.000
  31
0.0
   0
LINE
   8
LEVEL003
   6
CONTINUOUS
  62
3
  10
 810.000
  20
 904.500
  30
0.0
  11
 810.000
  21
 952.000
  31
0.0
   0
LINE
   8
LEVEL003
   6
CONTINUOUS
  62
3
  10
 890.000
  20
 904.500
  30
0.0
  11
 890.000
  21
 952.000
  31
0.0
   0
LINE
   8
LEVEL003
   6
CONTINUOUS
  62
3
  10
 810.000
  20
 950.000
  30
0.0
  11
 890.000
  21
 950.000
  31
0.0
   0
LINE
   8
LEVEL003
   6
CONTINUOUS
  62
3
  10
 810.000
  20
 950.000
  30
0.0
  11
 813.000
  21
 949.196
  31
0.0
   0
LINE
   8
LEVEL003
   6
CONTINUOUS
  62
3
  10
 810.000
  20
 950.000
  30
0.0
  11
 813.000
  21
 950.804
  31
0.0
   0
LINE
   8
LEVEL003
   6
CONTINUOUS
  62
3
  10
 890.000
  20
 950.000
  30
0.0
  11
 887.000
  21
 950.804
  31
0.0
   0
LINE
   8
LEVEL003
   6
CONTINUOUS
  62
3
  10
 890.000
  20
 950.000
  30
0.0
  11
 887.000
  21
 949.196
  31
0.0
   0
TEXT
   8
LEVEL003
  62
3
  10
 844.000
  20
 951.714
  30
0.0
  40
 4.00000
   1
M80×3
   7
STANDARD
  72
1
  11
 850.000
  21
 951.714
  31
0.0
   0
LINE
   8
LEVEL003
   6
CONTINUOUS
  62
3
  10
 426.000
  20
 505.000
  30
0.0
  11
 572.000
  21
 505.000
  31
0.0
   0
LINE
   8
LEVEL003
   6
CONTINUOUS
  62
3
  10
 358.500
  20
 75.0000
  30
0.0
  11
 572.000
  21
 75.0000
  31
0.0
   0
LINE
   8
LEVEL003
   6
CONTINUOUS
  62
3
  10
 570.000
  20
 505.000
  30
0.0
  11
 570.000
  21
 75.0000
  31
0.0
   0
LINE
   8
LEVEL003
   6
CONTINUOUS
  62
3
  10
 570.000
  20
 505.000
  30
0.0
  11
 569.196
  21
 502.000
  31
0.0
   0
LINE
   8
LEVEL003
   6
CONTINUOUS
  62
3
  10
 570.000
  20
 505.000
  30
0.0
  11
 570.804
  21
 502.000
  31
0.0
   0
LINE
   8
LEVEL003
   6
CONTINUOUS
  62
3
  10
 570.000
  20
 75.0000
  30
0.0
  11
 570.804
  21
 78.0000
  31
0.0
   0
LINE
   8
LEVEL003
   6
CONTINUOUS
  62
3
  10
 570.000
  20
 75.0000
  30
0.0
  11
 569.196
  21
 78.0000
  31
0.0
   0
TEXT
   8
LEVEL003
  62
3
  10
 568.286
  20
 277.000
  30
0.0
  40
 4.00000
   1
80+ストローク
  50
 90.0000
   7
STANDARD
  72
1
  11
 568.286
  21
 290.000
  31
0.0
   0
LINE
   8
LEVEL004
   6
DOT
  62
3
  10
 976.000
  20
 535.000
  30
0.0
  11
 976.000
  21
 534.000
  31
0.0
   0
LINE
   8
LEVEL004
   6
DOT
  62
3
  10
 1040.00
  20
 534.000
  30
0.0
  11
 976.000
  21
 534.000
  31
0.0
   0
LINE
   8
LEVEL004
   6
DOT
  62
3
  10
 1040.00
  20
 535.000
  30
0.0
  11
 1040.00
  21
 534.000
  31
0.0
   0
ENDSEC
   0
EOF
